999
DXF file: 3-2924ts_FRONT.dxf
999
Pro/ENGINEER 2018400 by Parametric Technology Corporation
  0
SECTION
  2
HEADER
  9
$ACADVER
  1
AC1027
  9
$DWGCODEPAGE
  3
ANSI_1252
  9
$EXTMAX
 10
11.0
 20
8.5
 30
0.0
  9
$EXTMIN
 10
0.0
 20
0.0
 30
0.0
  9
$LIMMIN
 10
0.0
 20
0.0
  9
$LIMMAX
 10
11.0
 20
8.5
  9
$VIEWCTR
 10
5.5
 20
4.25
  9
$VIEWSIZE
 40
8.5
  9
$CLAYER
  8
0
  9
$LTSCALE
 40
0.605
  9
$CELTYPE
  6
BYLAYER
  9
$DIMSCALE
 40
1.0
  9
$DIMASZ
 40
0.1
  9
$DIMEXO
 40
0.0625
  9
$DIMDLI
 40
0.418
  9
$DIMEXE
 40
0.125
  9
$DIMCEN
 40
0.099
  9
$DIMLFAC
 40
1.0
  9
$DIMBLK
  1
_FILLED
  9
$DIMALT
 70
1
  9
$DIMALTD
 70
2
  9
$DIMALTTD
 70
2
  9
$DIMALTF
 40
25.4
  9
$DIMTXT
 40
0.08
  9
$DIMTOL
 70
1
  9
$DIMLIM
 70
0
  9
$DIMTFAC
 40
1.0
  9
$DIMTP
 40
0.001
  9
$DIMTM
 40
0.001
  9
$DIMGAP
 40
0.09
  9
$DIMDSEP
 70
46
  9
$AUNITS
 70
0
  9
$PDMODE
 70
3
  9
$PDSIZE
 40
0.3125
  9
$HANDSEED
  5
298
  9
$TILEMODE
 70
1
  9
$MEASUREMENT
 70
0
  9
$INSUNITS
 70
1
  0
ENDSEC
  0
SECTION
  2
CLASSES
  0
CLASS
  1
ACDBDICTIONARYWDFLT
  2
AcDbDictionaryWithDefault
  3
AutoCAD 2000
 90
0
 91
1
280
0
281
0
  0
CLASS
  1
ACDBPLACEHOLDER
  2
AcDbPlaceHolder
  3
AutoCAD 2000
 90
0
 91
1
280
0
281
0
  0
CLASS
  1
LAYOUT
  2
AcDbLayout
  3
AutoCAD 2000
 90
0
 91
0
280
0
281
0
  0
ENDSEC
  0
SECTION
  2
TABLES
  0
TABLE
  2
VPORT
  5
8
100
AcDbSymbolTable
 70
2
  0
VPORT
  5
1F4
100
AcDbSymbolTableRecord
100
AcDbViewportTableRecord
  2
*ACTIVE
 70
0
 10
0.0
 20
0.0
 11
1.0
 21
1.0
 12
5.5
 22
4.25
 13
0.0
 23
0.0
 14
1.0
 24
1.0
 15
0.0
 25
0.0
 16
0.0
 26
0.0
 36
1.0
 17
0.0
 27
0.0
 37
0.0
 40
8.5
 41
1.2941176471
 42
50.0
 43
0.0
 44
0.0
 50
0.0
 51
0.0
 71
0
 72
100
 73
1
 74
1
 75
0
 76
0
 77
0
 78
0
  0
ENDTAB
  0
TABLE
  2
LTYPE
  5
5
100
AcDbSymbolTable
 70
6
  0
LTYPE
  5
14
100
AcDbSymbolTableRecord
100
AcDbLinetypeTableRecord
  2
BYBLOCK
 70
0
  3

 72
65
 73
0
 40
0.0
  0
LTYPE
  5
15
100
AcDbSymbolTableRecord
100
AcDbLinetypeTableRecord
  2
BYLAYER
 70
0
  3

 72
65
 73
0
 40
0.0
  0
LTYPE
  5
16
100
AcDbSymbolTableRecord
100
AcDbLinetypeTableRecord
  2
CONTINUOUS
 70
64
  3
Solid line
 72
65
 73
0
 40
0.0
  0
LTYPE
  5
1F5
100
AcDbSymbolTableRecord
100
AcDbLinetypeTableRecord
  2
CENTER
 70
64
  3
____ _ ____ _ ____ _ ____ _ ____ _ ____ _ ____
 72
65
 73
4
 40
0.6
 49
0.375
 74
0
 49
-0.075
 74
0
 49
0.075
 74
0
 49
-0.075
 74
0
  0
LTYPE
  5
1F6
100
AcDbSymbolTableRecord
100
AcDbLinetypeTableRecord
  2
HIDDEN
 70
64
  3
- - - - - - - - - - - - - - - - - - - -
 72
65
 73
2
 40
0.2
 49
0.1
 74
0
 49
-0.1
 74
0
  0
LTYPE
  5
1F7
100
AcDbSymbolTableRecord
100
AcDbLinetypeTableRecord
  2
PHANTOM
 70
64
  3
_____ _ _ _____ _ _ _____ _ _ _____
 72
65
 73
6
 40
0.8
 49
0.45
 74
0
 49
-0.05
 74
0
 49
0.1
 74
0
 49
-0.05
 74
0
 49
0.1
 74
0
 49
-0.05
 74
0
  0
LTYPE
  5
1F8
100
AcDbSymbolTableRecord
100
AcDbLinetypeTableRecord
  2
DOT
 70
64
  3
. . . . . . . . . . . . . . . . . . . .
 72
65
 73
2
 40
0.2
 49
0.1
 74
0
 49
-0.1
 74
0
  0
LTYPE
  5
1F9
100
AcDbSymbolTableRecord
100
AcDbLinetypeTableRecord
  2
DASHED
 70
64
  3
- - - - - - - - - - - - - - - - - - - -
 72
65
 73
2
 40
0.2
 49
0.1
 74
0
 49
-0.1
 74
0
  0
ENDTAB
  0
TABLE
  2
LAYER
  5
2
100
AcDbSymbolTable
 70
36
  0
LAYER
  5
10
100
AcDbSymbolTableRecord
100
AcDbLayerTableRecord
  2
0
 70
0
 62
7
  6
CONTINUOUS
370
-3
390
F
  0
LAYER
  5
1FA
100
AcDbSymbolTableRecord
100
AcDbLayerTableRecord
  2
DEFAULT_1
 70
0
 62
7
  6
CENTER
370
-3
390
F
  0
LAYER
  5
1FB
100
AcDbSymbolTableRecord
100
AcDbLayerTableRecord
  2
DEFAULT_2
 70
0
 62
8
  6
HIDDEN
370
-3
390
F
  0
LAYER
  5
1FC
100
AcDbSymbolTableRecord
100
AcDbLayerTableRecord
  2
DEFAULT_3
 70
0
 62
7
  6
PHANTOM
370
-3
390
F
  0
LAYER
  5
1FD
100
AcDbSymbolTableRecord
100
AcDbLayerTableRecord
  2
2-110_ASSY_DATUMS
 70
0
 62
7
  6
CONTINUOUS
370
-3
390
F
  0
LAYER
  5
1FE
100
AcDbSymbolTableRecord
100
AcDbLayerTableRecord
  2
2-266_ASSY_PLANES
 70
0
 62
7
  6
CONTINUOUS
370
-3
390
F
  0
LAYER
  5
1FF
100
AcDbSymbolTableRecord
100
AcDbLayerTableRecord
  2
AA
 70
0
 62
7
  6
CONTINUOUS
370
-3
390
F
  0
LAYER
  5
200
100
AcDbSymbolTableRecord
100
AcDbLayerTableRecord
  2
ALL_ASSEMBLY_MEMBERS
 70
0
 62
7
  6
CONTINUOUS
370
-3
390
F
  0
LAYER
  5
201
100
AcDbSymbolTableRecord
100
AcDbLayerTableRecord
  2
ALL_FEATURES
 70
0
 62
7
  6
CONTINUOUS
370
-3
390
F
  0
LAYER
  5
202
100
AcDbSymbolTableRecord
100
AcDbLayerTableRecord
  2
AXES_FEATURES
 70
0
 62
7
  6
CONTINUOUS
370
-3
390
F
  0
LAYER
  5
203
100
AcDbSymbolTableRecord
100
AcDbLayerTableRecord
  2
CHAMFER_FEATURES
 70
0
 62
7
  6
CONTINUOUS
370
-3
390
F
  0
LAYER
  5
204
100
AcDbSymbolTableRecord
100
AcDbLayerTableRecord
  2
CURVE
 70
0
 62
7
  6
CONTINUOUS
370
-3
390
F
  0
LAYER
  5
205
100
AcDbSymbolTableRecord
100
AcDbLayerTableRecord
  2
CUT_FEATURES
 70
0
 62
7
  6
CONTINUOUS
370
-3
390
F
  0
LAYER
  5
206
100
AcDbSymbolTableRecord
100
AcDbLayerTableRecord
  2
DATUM_CURVES
 70
0
 62
7
  6
CONTINUOUS
370
-3
390
F
  0
LAYER
  5
207
100
AcDbSymbolTableRecord
100
AcDbLayerTableRecord
  2
DATUM_PLANES
 70
0
 62
7
  6
CONTINUOUS
370
-3
390
F
  0
LAYER
  5
208
100
AcDbSymbolTableRecord
100
AcDbLayerTableRecord
  2
DEFAULT_COORDINATE_SYSTEM
 70
0
 62
7
  6
CONTINUOUS
370
-3
390
F
  0
LAYER
  5
209
100
AcDbSymbolTableRecord
100
AcDbLayerTableRecord
  2
DEFAULT_DATUM_AXES
 70
0
 62
7
  6
CONTINUOUS
370
-3
390
F
  0
LAYER
  5
20A
100
AcDbSymbolTableRecord
100
AcDbLayerTableRecord
  2
DEFAULT_DATUM_CURVES
 70
0
 62
7
  6
CONTINUOUS
370
-3
390
F
  0
LAYER
  5
20B
100
AcDbSymbolTableRecord
100
AcDbLayerTableRecord
  2
DEFAULT_DATUM_PLANES
 70
0
 62
7
  6
CONTINUOUS
370
-3
390
F
  0
LAYER
  5
20C
100
AcDbSymbolTableRecord
100
AcDbLayerTableRecord
  2
DEFAULT_SURFACES
 70
0
 62
7
  6
CONTINUOUS
370
-3
390
F
  0
LAYER
  5
20D
100
AcDbSymbolTableRecord
100
AcDbLayerTableRecord
  2
DIMENSIONS
 70
0
 62
7
  6
CONTINUOUS
370
-3
390
F
  0
LAYER
  5
20E
100
AcDbSymbolTableRecord
100
AcDbLayerTableRecord
  2
HOLE_FEATURES
 70
0
 62
7
  6
CONTINUOUS
370
-3
390
F
  0
LAYER
  5
20F
100
AcDbSymbolTableRecord
100
AcDbLayerTableRecord
  2
LAY0001
 70
0
 62
7
  6
CONTINUOUS
370
-3
390
F
  0
LAYER
  5
210
100
AcDbSymbolTableRecord
100
AcDbLayerTableRecord
  2
NOTES
 70
0
 62
7
  6
CONTINUOUS
370
-3
390
F
  0
LAYER
  5
211
100
AcDbSymbolTableRecord
100
AcDbLayerTableRecord
  2
PART_REFERENCE_DIMENSIONS
 70
0
 62
7
  6
CONTINUOUS
370
-3
390
F
  0
LAYER
  5
212
100
AcDbSymbolTableRecord
100
AcDbLayerTableRecord
  2
PLATED_SURFACE_AREA
 70
0
 62
7
  6
CONTINUOUS
370
-3
390
F
  0
LAYER
  5
213
100
AcDbSymbolTableRecord
100
AcDbLayerTableRecord
  2
PROTRUSION
 70
0
 62
7
  6
CONTINUOUS
370
-3
390
F
  0
LAYER
  5
214
100
AcDbSymbolTableRecord
100
AcDbLayerTableRecord
  2
PROTRUSION_FEATURES
 70
0
 62
7
  6
CONTINUOUS
370
-3
390
F
  0
LAYER
  5
215
100
AcDbSymbolTableRecord
100
AcDbLayerTableRecord
  2
QUILT
 70
0
 62
7
  6
CONTINUOUS
370
-3
390
F
  0
LAYER
  5
216
100
AcDbSymbolTableRecord
100
AcDbLayerTableRecord
  2
QUILTS
 70
0
 62
7
  6
CONTINUOUS
370
-3
390
F
  0
LAYER
  5
217
100
AcDbSymbolTableRecord
100
AcDbLayerTableRecord
  2
REFERENCE_DIMENSIONS
 70
0
 62
7
  6
CONTINUOUS
370
-3
390
F
  0
LAYER
  5
218
100
AcDbSymbolTableRecord
100
AcDbLayerTableRecord
  2
ROUND_FEATURES
 70
0
 62
7
  6
CONTINUOUS
370
-3
390
F
  0
LAYER
  5
219
100
AcDbSymbolTableRecord
100
AcDbLayerTableRecord
  2
SHELL_FEATURES
 70
0
 62
7
  6
CONTINUOUS
370
-3
390
F
  0
LAYER
  5
21A
100
AcDbSymbolTableRecord
100
AcDbLayerTableRecord
  2
WETTED_SURFACES
 70
0
 62
7
  6
CONTINUOUS
370
-3
390
F
  0
LAYER
  5
21B
100
AcDbSymbolTableRecord
100
AcDbLayerTableRecord
  2
XSEC_DATUMS
 70
0
 62
7
  6
CONTINUOUS
370
-3
390
F
  0
ENDTAB
  0
TABLE
  2
STYLE
  5
3
100
AcDbSymbolTable
 70
1
  0
STYLE
  5
11
100
AcDbSymbolTableRecord
100
AcDbTextStyleTableRecord
  2
STANDARD
 70
0
 40
0.0
 41
0.8
 50
0.0
 71
0
 42
0.2
  3
txt
  4

  0
STYLE
  5
21C
100
AcDbSymbolTableRecord
100
AcDbTextStyleTableRecord
  2
TEXTSTYLE_1
 70
0
 40
0.0
 41
0.8
 50
0.0
 71
0
 42
0.2
  3
gdt
  4

  0
ENDTAB
  0
TABLE
  2
VIEW
  5
6
100
AcDbSymbolTable
 70
0
  0
ENDTAB
  0
TABLE
  2
UCS
  5
7
100
AcDbSymbolTable
 70
0
  0
ENDTAB
  0
TABLE
  2
APPID
  5
9
100
AcDbSymbolTable
 70
1
  0
APPID
  5
21D
100
AcDbSymbolTableRecord
100
AcDbRegAppTableRecord
  2
ACAD
 70
0
  0
ENDTAB
  0
TABLE
  2
BLOCK_RECORD
  5
1
100
AcDbSymbolTable
 70
0
  0
BLOCK_RECORD
  5
21E
100
AcDbSymbolTableRecord
100
AcDbBlockTableRecord
  2
*Model_Space
  0
BLOCK_RECORD
  5
21F
100
AcDbSymbolTableRecord
100
AcDbBlockTableRecord
  2
*Paper_Space
  0
BLOCK_RECORD
  5
220
100
AcDbSymbolTableRecord
100
AcDbBlockTableRecord
  2
_FILLED
  0
ENDTAB
  0
TABLE
  2
DIMSTYLE
  5
A
100
AcDbSymbolTable
 70
1
100
AcDbDimStyleTable
 71
0
  0
DIMSTYLE
105
221
100
AcDbSymbolTableRecord
100
AcDbDimStyleTableRecord
  2
STANDARD
 70
0
  3

  4

 40
1.0
 41
0.1
 42
0.0625
 43
0.38
 44
0.125
 45
0.0
 46
0.0
 47
0.001
 48
0.001
140
0.08
141
0.09
142
0.0
143
25.4
144
1.0
145
0.0
146
1.0
147
0.09
 71
1.0
 72
0.0
 73
1
 74
1
 75
0
 76
0
 77
0
 78
4
 79
1
170
1
171
2
172
0
173
0
174
0
175
0
176
0
177
0
178
0
270
2
179
3
271
3
272
3
273
2
274
2
275
0
280
0
281
0
282
0
283
1
284
4
285
0
286
0
287
3
288
0
340
11
278
46
341
220
342
220
343
220
344
220
  0
ENDTAB
  0
ENDSEC
  0
SECTION
  2
BLOCKS
  0
BLOCK
  5
20
100
AcDbEntity
  8
0
100
AcDbBlockBegin
  2
*Model_Space
 70
0
 10
0.0
 20
0.0
 30
0.0
  3
*Model_Space
  1

  0
ENDBLK
  5
21
100
AcDbEntity
  8
0
100
AcDbBlockEnd
  0
BLOCK
  5
1C
100
AcDbEntity
  8
0
100
AcDbBlockBegin
  2
*Paper_Space
 70
0
 10
0.0
 20
0.0
 30
0.0
  3
*Paper_Space
  1

  0
ENDBLK
  5
1D
100
AcDbEntity
  8
0
100
AcDbBlockEnd
  0
BLOCK
  5
222
100
AcDbEntity
  8
0
100
AcDbBlockBegin
  2
_FILLED
 70
64
 10
0.0
 20
0.0
  3
_FILLED
  1

  0
SOLID
  5
223
100
AcDbEntity
  8
0
  6
BYBLOCK
 62
0
100
AcDbTrace
 10
0.0
 20
0.0
 11
-1.0
 21
0.2
 12
-1.0
 22
-0.2
 13
-1.0
 23
-0.2
  0
ENDBLK
  5
224
100
AcDbEntity
  8
0
  6
BYBLOCK
 62
0
100
AcDbBlockEnd
  0
ENDSEC
  0
SECTION
  2
ENTITIES
  0
MTEXT
  5
225
100
AcDbEntity
  8
0
100
AcDbMText
 62
2
  6
CONTINUOUS
  7
STANDARD
 71
3
 72
1
 10
4.8658773292
 20
2.1668206522
 30
0.0
 11
1.0
 21
0.0
 31
0.0
 73
2
 44
0.9
  1
SCALE  .500
 40
0.08
 41
0.704
  0
LINE
  5
226
100
AcDbEntity
  8
0
100
AcDbLine
 62
7
  6
CONTINUOUS
 10
0.0
 20
0.0
 11
0.0
 21
8.5
  0
LINE
  5
227
100
AcDbEntity
  8
0
100
AcDbLine
 62
7
  6
CONTINUOUS
 10
0.0
 20
0.0
 11
11.0
 21
0.0
  0
LINE
  5
228
100
AcDbEntity
  8
0
100
AcDbLine
 62
7
  6
CONTINUOUS
 10
0.0
 20
8.5
 11
11.0
 21
8.5
  0
LINE
  5
229
100
AcDbEntity
  8
0
100
AcDbLine
 62
7
  6
CONTINUOUS
 10
11.0
 20
0.0
 11
11.0
 21
8.5
  0
LINE
  5
22A
100
AcDbEntity
  8
ALL_ASSEMBLY_MEMBERS
100
AcDbLine
 62
7
  6
CONTINUOUS
 10
3.2408773292
 20
5.5118206522
 11
3.2408773292
 21
2.2618206522
  0
LINE
  5
22B
100
AcDbEntity
  8
ALL_ASSEMBLY_MEMBERS
100
AcDbLine
 62
7
  6
CONTINUOUS
 10
3.2983773292
 20
5.4543206522
 11
3.2983773292
 21
2.3193206522
  0
LINE
  5
22C
100
AcDbEntity
  8
ALL_ASSEMBLY_MEMBERS
100
AcDbLine
 62
7
  6
CONTINUOUS
 10
3.2408773292
 20
2.2618206522
 11
6.4908773292
 21
2.2618206522
  0
LINE
  5
22D
100
AcDbEntity
  8
ALL_ASSEMBLY_MEMBERS
100
AcDbLine
 62
7
  6
CONTINUOUS
 10
3.2983773292
 20
2.3193206522
 11
6.4333773292
 21
2.3193206522
  0
LINE
  5
22E
100
AcDbEntity
  8
ALL_ASSEMBLY_MEMBERS
100
AcDbLine
 62
7
  6
CONTINUOUS
 10
4.4865722299
 20
3.5329432665
 11
4.4866776041
 21
3.5328301623
  0
LWPOLYLINE
  5
22F
100
AcDbEntity
  8
ALL_ASSEMBLY_MEMBERS
100
AcDbPolyline
 62
7
  6
CONTINUOUS
 90
4
 70
0
 10
4.4867826395
 20
3.5327277939
 10
4.4867060426
 20
3.5328308995
 10
4.4863351921
 20
3.5333908215
 10
4.4857587108
 20
3.53438986
  0
LWPOLYLINE
  5
230
100
AcDbEntity
  8
ALL_ASSEMBLY_MEMBERS
100
AcDbPolyline
 62
7
  6
CONTINUOUS
 90
4
 70
0
 10
4.3702181796
 20
3.734493855
 10
4.3700290046
 20
3.734838742
 10
4.369731592
 20
3.7354348689
 10
4.3696764247
 20
3.7355619805
  0
LWPOLYLINE
  5
231
100
AcDbEntity
  8
ALL_ASSEMBLY_MEMBERS
100
AcDbPolyline
 62
7
  6
CONTINUOUS
 90
21
 70
0
 10
4.4857587108
 20
3.53438986
 10
4.4850175434
 20
3.5359235817
 10
4.4842426896
 20
3.5379385084
 10
4.4835714957
 20
3.5402749735
 10
4.4830635451
 20
3.5429153976
 10
4.4827807354
 20
3.5458149003
 10
4.4827694453
 20
3.5487341019
 10
4.4830170053
 20
3.5515788726
 10
4.4835112383
 20
3.5543683224
 10
4.4842270251
 20
3.5570330681
 10
4.4851382822
 20
3.5595474491
 10
4.4862157961
 20
3.5618872441
 10
4.4874029273
 20
3.5639907819
 10
4.4886586294
 20
3.5658499744
 10
4.4899323909
 20
3.5674496285
 10
4.4911257609
 20
3.5687363276
 10
4.4921657443
 20
3.569710435
 10
4.4930138861
 20
3.5704057068
 10
4.4936209049
 20
3.5708430196
 10
4.4939526769
 20
3.5710537929
 10
4.7441745472
 20
3.7155192211
  0
LINE
  5
232
100
AcDbEntity
  8
ALL_ASSEMBLY_MEMBERS
100
AcDbLine
 62
7
  6
CONTINUOUS
 10
4.3697165557
 20
3.7354067802
 11
4.3697579737
 21
3.7352714932
  0
LWPOLYLINE
  5
233
100
AcDbEntity
  8
ALL_ASSEMBLY_MEMBERS
100
AcDbPolyline
 62
7
  6
CONTINUOUS
 90
7
 70
0
 10
3.2983773292
 20
2.3193206522
 10
3.2982531541
 20
2.3191586785
 10
3.297741794
 20
2.3186555631
 10
3.296843249
 20
2.317786572
 10
3.2955509352
 20
2.3165181699
 10
3.2938714365
 20
2.3148350311
 10
3.2918245043
 20
2.3127678272
  0
LWPOLYLINE
  5
234
100
AcDbEntity
  8
ALL_ASSEMBLY_MEMBERS
100
AcDbPolyline
 62
7
  6
CONTINUOUS
 90
7
 70
0
 10
6.4333773292
 20
2.3193206522
 10
6.4335393028
 20
2.319196477
 10
6.4340424182
 20
2.318685117
 10
6.4349114094
 20
2.317786572
 10
6.4361798115
 20
2.3164942582
 10
6.4378629503
 20
2.3148147595
 10
6.4399301541
 20
2.3127678272
  0
LWPOLYLINE
  5
235
100
AcDbEntity
  8
ALL_ASSEMBLY_MEMBERS
100
AcDbPolyline
 62
7
  6
CONTINUOUS
 90
7
 70
0
 10
3.2983773292
 20
5.4543206522
 10
3.2982531541
 20
5.4544826258
 10
3.297741794
 20
5.4549857412
 10
3.296843249
 20
5.4558547324
 10
3.2955509352
 20
5.4571231345
 10
3.2938714365
 20
5.4588062733
 10
3.2918245043
 20
5.4608734771
  0
LWPOLYLINE
  5
236
100
AcDbEntity
  8
ALL_ASSEMBLY_MEMBERS
100
AcDbPolyline
 62
7
  6
CONTINUOUS
 90
13
 70
0
 10
4.6790194775
 20
3.9023244332
 10
4.6785334436
 20
3.8984821206
 10
4.6777178531
 20
3.8946920773
 10
4.6765784739
 20
3.8909845859
 10
4.6751233241
 20
3.8873873258
 10
4.6733627909
 20
3.8839272198
 10
4.6713095627
 20
3.8806302329
 10
4.6689785401
 20
3.8775211735
 10
4.6663867306
 20
3.8746235031
 10
4.6635531294
 20
3.8719591585
 10
4.6604985844
 20
3.8695483831
 10
4.6572456456
 20
3.8674095695
 10
4.6566733218
 20
3.8670734747
  0
LINE
  5
237
100
AcDbEntity
  8
ALL_ASSEMBLY_MEMBERS
100
AcDbLine
 62
7
  6
CONTINUOUS
 10
4.7783773296
 20
4.0778781679
 11
4.7783773298
 21
4.0778831112
  0
LINE
  5
238
100
AcDbEntity
  8
ALL_ASSEMBLY_MEMBERS
100
AcDbLine
 62
7
  6
CONTINUOUS
 10
4.7783776658
 20
4.3668117443
 11
4.7783773292
 21
4.0778653711
  0
LWPOLYLINE
  5
239
100
AcDbEntity
  8
ALL_ASSEMBLY_MEMBERS
100
AcDbPolyline
 62
7
  6
CONTINUOUS
 90
13
 70
0
 10
4.7783767509
 20
4.0778742231
 10
4.7783714642
 20
4.0771802382
 10
4.7781411957
 20
4.0732715477
 10
4.7775739347
 20
4.069407502
 10
4.776676525
 20
4.0656168226
 10
4.7754582152
 20
4.0619273195
 10
4.7739305486
 20
4.0583656957
 10
4.7721072332
 20
4.0549573544
 10
4.7700039923
 20
4.0517262219
 10
4.7676384065
 20
4.0486945999
 10
4.7650297623
 20
4.0458830421
 10
4.7621988886
 20
4.0433102399
 10
4.759167964
 20
4.0409929044
  0
LWPOLYLINE
  5
23A
100
AcDbEntity
  8
ALL_ASSEMBLY_MEMBERS
100
AcDbPolyline
 62
7
  6
CONTINUOUS
 90
7
 70
0
 10
3.2761295378
 20
2.2970848948
 10
3.267500829
 20
2.2884380594
 10
3.2627351656
 20
2.2836902392
 10
3.2576877385
 20
2.2786310615
 10
3.2523660324
 20
2.2732668167
 10
3.2467625626
 20
2.2676499726
 10
3.2408773292
 20
2.2618206522
  0
LWPOLYLINE
  5
23B
100
AcDbEntity
  8
ALL_ASSEMBLY_MEMBERS
100
AcDbPolyline
 62
7
  6
CONTINUOUS
 90
7
 70
0
 10
6.4556251206
 20
5.4765564096
 10
6.4642538294
 20
5.485203245
 10
6.4690194928
 20
5.4899510651
 10
6.4740669198
 20
5.4950102428
 10
6.479388626
 20
5.5003744877
 10
6.4849920958
 20
5.5059913318
 10
6.4908773292
 20
5.5118206522
  0
LINE
  5
23C
100
AcDbEntity
  8
ALL_ASSEMBLY_MEMBERS
100
AcDbLine
 62
7
  6
CONTINUOUS
 10
3.2983773292
 20
2.3193206522
 11
3.2408773292
 21
2.2618206522
  0
LINE
  5
23D
100
AcDbEntity
  8
ALL_ASSEMBLY_MEMBERS
100
AcDbLine
 62
7
  6
CONTINUOUS
 10
6.4333773292
 20
5.4543206522
 11
6.4908773292
 21
5.5118206522
  0
LINE
  5
23E
100
AcDbEntity
  8
ALL_ASSEMBLY_MEMBERS
100
AcDbLine
 62
7
  6
CONTINUOUS
 10
6.4517620753
 20
5.4727048585
 11
6.4556251206
 21
5.4765564096
  0
LINE
  5
23F
100
AcDbEntity
  8
ALL_ASSEMBLY_MEMBERS
100
AcDbLine
 62
7
  6
CONTINUOUS
 10
3.2799925831
 20
2.3009364459
 11
3.2761295378
 21
2.2970848948
  0
LWPOLYLINE
  5
240
100
AcDbEntity
  8
ALL_ASSEMBLY_MEMBERS
100
AcDbPolyline
 62
7
  6
CONTINUOUS
 90
22
 70
0
 10
4.4064870993
 20
3.7226274088
 10
4.4064572321
 20
3.7226101602
 10
4.4061414724
 20
3.7224444066
 10
4.4055229498
 20
3.7221619177
 10
4.4045989613
 20
3.7218033225
 10
4.4033715905
 20
3.7214118729
 10
4.4018457946
 20
3.7210334363
 10
4.4000322073
 20
3.7207161386
 10
4.3979430785
 20
3.7205081593
 10
4.3955755943
 20
3.7204588633
 10
4.3929780006
 20
3.7206203455
 10
4.3902408425
 20
3.7210301315
 10
4.3873719968
 20
3.7217287551
 10
4.3844478663
 20
3.722740812
 10
4.381652939
 20
3.7240199112
 10
4.3790128959
 20
3.7255499379
 10
4.3765781048
 20
3.7272953777
 10
4.3745207301
 20
3.7290888307
 10
4.3728487483
 20
3.7308362882
 10
4.3715284026
 20
3.7324799654
 10
4.3705966348
 20
3.7338555436
 10
4.3702181796
 20
3.734493855
  0
LINE
  5
241
100
AcDbEntity
  8
ALL_ASSEMBLY_MEMBERS
100
AcDbLine
 62
7
  6
CONTINUOUS
 10
4.4064767189
 20
3.7226218833
 11
4.6566722619
 21
3.8670723473
  0
LWPOLYLINE
  5
242
100
AcDbEntity
  8
ALL_ASSEMBLY_MEMBERS
100
AcDbPolyline
 62
7
  6
CONTINUOUS
 90
22
 70
0
 10
4.9875817241
 20
3.7155182899
 10
5.237799044
 20
3.5710556443
 10
5.2380998826
 20
3.5708654462
 10
5.2386518757
 20
3.5704724972
 10
5.2394217674
 20
3.5698539554
 10
5.2403723821
 20
3.5689890499
 10
5.2414623879
 20
3.5678584135
 10
5.2426439013
 20
3.5664477951
 10
5.2438681602
 20
3.5647448103
 10
5.245093517
 20
3.5627233059
 10
5.2462516891
 20
3.5603980998
 10
5.2472658889
 20
3.5578271037
 10
5.2480970461
 20
3.5549962599
 10
5.2486851736
 20
3.5519596667
 10
5.2489777632
 20
3.5488996411
 10
5.24897541
 20
3.5458457154
 10
5.2486831117
 20
3.54285992
 10
5.2481596112
 20
3.5401767512
 10
5.2474825092
 20
3.5378507267
 10
5.246718772
 20
3.5358813642
 10
5.2459924329
 20
3.5343832773
 10
5.2456281268
 20
3.5337346635
  0
LWPOLYLINE
  5
243
100
AcDbEntity
  8
ALL_ASSEMBLY_MEMBERS
100
AcDbPolyline
 62
7
  6
CONTINUOUS
 90
6
 70
0
 10
3.267500829
 20
5.485203245
 10
3.2627351656
 20
5.4899510651
 10
3.2576877385
 20
5.4950102428
 10
3.2523660324
 20
5.5003744877
 10
3.2467625626
 20
5.5059913318
 10
3.2408773292
 20
5.5118206522
  0
LWPOLYLINE
  5
244
100
AcDbEntity
  8
ALL_ASSEMBLY_MEMBERS
100
AcDbPolyline
 62
7
  6
CONTINUOUS
 90
7
 70
0
 10
6.4556130866
 20
2.2970728607
 10
6.464259922
 20
2.288444152
 10
6.4690077421
 20
2.2836784886
 10
6.4740669198
 20
2.2786310615
 10
6.4794311647
 20
2.2733093554
 10
6.4850480088
 20
2.2677058856
 10
6.4908773292
 20
2.2618206522
  0
LINE
  5
245
100
AcDbEntity
  8
ALL_ASSEMBLY_MEMBERS
100
AcDbLine
 62
7
  6
CONTINUOUS
 10
3.2983773292
 20
5.4543206522
 11
3.2408773292
 21
5.5118206522
  0
LINE
  5
246
100
AcDbEntity
  8
ALL_ASSEMBLY_MEMBERS
100
AcDbLine
 62
7
  6
CONTINUOUS
 10
6.4333773292
 20
2.3193206522
 11
6.4908773292
 21
2.2618206522
  0
LWPOLYLINE
  5
247
100
AcDbEntity
  8
ALL_ASSEMBLY_MEMBERS
100
AcDbPolyline
 62
7
  6
CONTINUOUS
 90
4
 70
0
 10
3.2834988578
 20
5.4691991236
 10
3.2799925831
 20
5.4727048585
 10
3.2761295378
 20
5.4765564096
 10
3.2719622753
 20
5.4807357061
  0
LINE
  5
248
100
AcDbEntity
  8
ALL_ASSEMBLY_MEMBERS
100
AcDbLine
 62
7
  6
CONTINUOUS
 10
6.4517615355
 20
2.3009359061
 11
6.4556130866
 21
2.2970728607
  0
LINE
  5
249
100
AcDbEntity
  8
ALL_ASSEMBLY_MEMBERS
100
AcDbLine
 62
7
  6
CONTINUOUS
 10
4.9533768634
 20
4.3667960778
 11
4.9533773292
 21
4.0778694701
  0
LWPOLYLINE
  5
24A
100
AcDbEntity
  8
ALL_ASSEMBLY_MEMBERS
100
AcDbPolyline
 62
7
  6
CONTINUOUS
 90
21
 70
0
 10
4.9533768634
 20
4.3667960778
 10
4.9533912032
 20
4.3671524779
 10
4.9534558651
 20
4.3678293319
 10
4.9536074021
 20
4.3688087772
 10
4.9538823084
 20
4.3700678337
 10
4.9543179354
 20
4.3715797096
 10
4.9549507076
 20
4.3733106023
 10
4.9558160555
 20
4.3752250487
 10
4.9569580123
 20
4.3773005634
 10
4.9583976775
 20
4.3794696273
 10
4.9601221195
 20
4.381635225
 10
4.9621624004
 20
4.3837702412
 10
4.9645015134
 20
4.3857961062
 10
4.9670068992
 20
4.3875762168
 10
4.9696519184
 20
4.3890965406
 10
4.9723806145
 20
4.3903313426
 10
4.9749613244
 20
4.3912153433
 10
4.9773075816
 20
4.3917885956
 10
4.9793871271
 20
4.392109661
 10
4.9810417637
 20
4.3922287938
 10
4.9817840382
 20
4.3922374292
  0
LINE
  5
24B
100
AcDbEntity
  8
ALL_ASSEMBLY_MEMBERS
100
AcDbLine
 62
7
  6
CONTINUOUS
 10
4.7441811686
 20
3.7155230442
 11
4.7441800921
 21
3.7155224232
  0
LWPOLYLINE
  5
24C
100
AcDbEntity
  8
ALL_ASSEMBLY_MEMBERS
100
AcDbPolyline
 62
7
  6
CONTINUOUS
 90
13
 70
0
 10
4.7441725266
 20
3.7155180207
 10
4.7447540161
 20
3.7158480276
 10
4.7482357993
 20
3.7175968155
 10
4.7518521112
 20
3.7190365762
 10
4.7555755237
 20
3.7201574794
 10
4.7593779406
 20
3.7209521233
 10
4.7632308118
 20
3.7214155754
 10
4.767105357
 20
3.7215453938
 10
4.7709727919
 20
3.7213416268
 10
4.7748045373
 20
3.7208067899
 10
4.7785724144
 20
3.7199458322
 10
4.7822488461
 20
3.7187660868
 10
4.78580707
 20
3.7172771973
  0
LINE
  5
24D
100
AcDbEntity
  8
ALL_ASSEMBLY_MEMBERS
100
AcDbLine
 62
7
  6
CONTINUOUS
 10
5.3253114251
 20
3.7226024214
 11
5.0750805859
 21
3.8670733927
  0
LWPOLYLINE
  5
24E
100
AcDbEntity
  8
ALL_ASSEMBLY_MEMBERS
100
AcDbPolyline
 62
7
  6
CONTINUOUS
 90
7
 70
0
 10
6.4333773292
 20
5.4543206522
 10
6.4335015043
 20
5.4544826258
 10
6.4340128644
 20
5.4549857412
 10
6.4349114094
 20
5.4558547324
 10
6.4362037232
 20
5.4571231345
 10
6.4378832219
 20
5.4588062733
 10
6.4399301541
 20
5.4608734771
  0
LWPOLYLINE
  5
24F
100
AcDbEntity
  8
ALL_ASSEMBLY_MEMBERS
100
AcDbPolyline
 62
7
  6
CONTINUOUS
 90
13
 70
0
 10
4.9459105649
 20
3.7172599579
 10
4.949483223
 20
3.7187577959
 10
4.9531728794
 20
3.7199431994
 10
4.9569522833
 20
3.7208070192
 10
4.9607934691
 20
3.721342478
 10
4.9646679565
 20
3.7215452267
 10
4.9685469595
 20
3.7214133841
 10
4.9724016071
 20
3.720947558
 10
4.9762031632
 20
3.7201508452
 10
4.9799232338
 20
3.7190288139
 10
4.9835339774
 20
3.7175894696
 10
4.9870083148
 20
3.7158432031
 10
4.9875812277
 20
3.7155180019
  0
LINE
  5
250
100
AcDbEntity
  8
ALL_ASSEMBLY_MEMBERS
100
AcDbLine
 62
7
  6
CONTINUOUS
 10
5.3619966847
 20
3.7352714932
 11
5.3620365266
 21
3.7354016356
  0
LWPOLYLINE
  5
251
100
AcDbEntity
  8
ALL_ASSEMBLY_MEMBERS
100
AcDbPolyline
 62
7
  6
CONTINUOUS
 90
4
 70
0
 10
5.3620804702
 20
3.7355662577
 10
5.3620347652
 20
3.735460263
 10
5.3617534919
 20
3.7348912619
 10
5.3612077443
 20
3.73393614
  0
LWPOLYLINE
  5
252
100
AcDbEntity
  8
ALL_ASSEMBLY_MEMBERS
100
AcDbPolyline
 62
7
  6
CONTINUOUS
 90
4
 70
0
 10
5.2456281268
 20
3.5337346635
 10
5.2454234869
 20
3.5333973228
 10
5.2450546135
 20
3.5328395084
 10
5.2449712841
 20
3.5327270414
  0
LWPOLYLINE
  5
253
100
AcDbEntity
  8
ALL_ASSEMBLY_MEMBERS
100
AcDbPolyline
 62
7
  6
CONTINUOUS
 90
20
 70
0
 10
5.3612077443
 20
3.73393614
 10
5.3603060919
 20
3.7325895873
 10
5.3590237652
 20
3.7309722968
 10
5.3573916815
 20
3.7292413955
 10
5.3553751947
 20
3.7274545862
 10
5.3529794537
 20
3.7257050289
 10
5.3503636569
 20
3.7241568482
 10
5.3475669575
 20
3.7228465188
 10
5.3446211758
 20
3.7217998477
 10
5.3417253553
 20
3.7210723232
 10
5.3389603407
 20
3.7206401618
 10
5.3363327771
 20
3.7204619957
 10
5.3339401222
 20
3.7205003271
 10
5.3318340892
 20
3.7207009159
 10
5.330006913
 20
3.7210129687
 10
5.3284655532
 20
3.7213887057
 10
5.3272212007
 20
3.7217800466
 10
5.3262798707
 20
3.7221413537
 10
5.3256432765
 20
3.7224295436
 10
5.3253114251
 20
3.7226024214
  0
LINE
  5
254
100
AcDbEntity
  8
ALL_ASSEMBLY_MEMBERS
100
AcDbLine
 62
7
  6
CONTINUOUS
 10
5.2450854653
 20
3.532839206
 11
5.2451824285
 21
3.5329432665
  0
LINE
  5
255
100
AcDbEntity
  8
ALL_ASSEMBLY_MEMBERS
100
AcDbLine
 62
7
  6
CONTINUOUS
 10
4.749063073
 20
4.3922471968
 11
4.748930753
 21
4.3922167005
  0
LWPOLYLINE
  5
256
100
AcDbEntity
  8
ALL_ASSEMBLY_MEMBERS
100
AcDbPolyline
 62
7
  6
CONTINUOUS
 90
4
 70
0
 10
4.7487733897
 20
4.3921732558
 10
4.7488802344
 20
4.3921857609
 10
4.7495129761
 20
4.3922266638
 10
4.7506118553
 20
4.3922316881
  0
LWPOLYLINE
  5
257
100
AcDbEntity
  8
ALL_ASSEMBLY_MEMBERS
100
AcDbPolyline
 62
7
  6
CONTINUOUS
 90
4
 70
0
 10
4.9817840382
 20
4.3922374292
 10
4.9821781574
 20
4.3922288277
 10
4.9828462261
 20
4.392188174
 10
4.9829926862
 20
4.3921713843
  0
LWPOLYLINE
  5
258
100
AcDbEntity
  8
ALL_ASSEMBLY_MEMBERS
100
AcDbPolyline
 62
7
  6
CONTINUOUS
 90
20
 70
0
 10
4.7506118553
 20
4.3922316881
 10
4.7522270394
 20
4.3921244616
 10
4.7542666454
 20
4.3918233309
 10
4.7565796867
 20
4.3912764861
 10
4.7591335999
 20
4.3904250676
 10
4.7618452532
 20
4.3892269061
 10
4.7644934154
 20
4.3877373972
 10
4.7670270607
 20
4.3859718469
 10
4.7694075722
 20
4.3839448529
 10
4.7714870077
 20
4.3818010366
 10
4.7732453668
 20
4.3796222985
 10
4.7747150629
 20
4.3774350552
 10
4.7758797155
 20
4.3753424978
 10
4.7767605495
 20
4.3734161779
 10
4.7774052303
 20
4.3716750655
 10
4.7778513201
 20
4.3701502543
 10
4.7781348584
 20
4.3688764314
 10
4.7782926878
 20
4.3678809867
 10
4.7783614628
 20
4.3671858645
 10
4.7783776658
 20
4.3668117443
  0
LINE
  5
259
100
AcDbEntity
  8
ALL_ASSEMBLY_MEMBERS
100
AcDbLine
 62
7
  6
CONTINUOUS
 10
4.9828298417
 20
4.3922153322
 11
4.9826915854
 21
4.3922471968
  0
LINE
  5
25A
100
AcDbEntity
  8
ALL_ASSEMBLY_MEMBERS
100
AcDbLine
 62
7
  6
CONTINUOUS
 10
4.2971420365
 20
4.5618206522
 11
4.4501126219
 21
4.5618206522
  0
LINE
  5
25B
100
AcDbEntity
  8
ALL_ASSEMBLY_MEMBERS
100
AcDbLine
 62
7
  6
CONTINUOUS
 10
5.2816420365
 20
4.5618206522
 11
5.4346126219
 21
4.5618206522
  0
LINE
  5
25C
100
AcDbEntity
  8
ALL_ASSEMBLY_MEMBERS
100
AcDbLine
 62
7
  6
CONTINUOUS
 10
5.4346126219
 20
4.5868206522
 11
5.2816420365
 21
4.5868206522
  0
LINE
  5
25D
100
AcDbEntity
  8
ALL_ASSEMBLY_MEMBERS
100
AcDbLine
 62
7
  6
CONTINUOUS
 10
4.4501126219
 20
4.5868206522
 11
4.2971420365
 21
4.5868206522
  0
LINE
  5
25E
100
AcDbEntity
  8
ALL_ASSEMBLY_MEMBERS
100
AcDbLine
 62
7
  6
CONTINUOUS
 10
6.4333773292
 20
2.3193206522
 11
6.4333773292
 21
5.4543206522
  0
LINE
  5
25F
100
AcDbEntity
  8
ALL_ASSEMBLY_MEMBERS
100
AcDbLine
 62
7
  6
CONTINUOUS
 10
6.4908773292
 20
2.2618206522
 11
6.4908773292
 21
5.5118206522
  0
LINE
  5
260
100
AcDbEntity
  8
ALL_ASSEMBLY_MEMBERS
100
AcDbLine
 62
7
  6
CONTINUOUS
 10
6.4333773292
 20
5.4543206522
 11
3.2983773292
 21
5.4543206522
  0
LINE
  5
261
100
AcDbEntity
  8
ALL_ASSEMBLY_MEMBERS
100
AcDbLine
 62
7
  6
CONTINUOUS
 10
6.4908773292
 20
5.5118206522
 11
3.2408773292
 21
5.5118206522
  0
ARC
  5
262
100
AcDbEntity
  8
ALL_ASSEMBLY_MEMBERS
100
AcDbCircle
 62
7
  6
CONTINUOUS
 10
4.259309355
 20
3.701534779
 40
0.1154862037
100
AcDbArc
 50
16.5594232788
 51
16.9853788179
  0
CIRCLE
  5
263
100
AcDbEntity
  8
ALL_ASSEMBLY_MEMBERS
100
AcDbCircle
 62
7
  6
CONTINUOUS
 10
4.3736273292
 20
4.5743206522
 40
0.07825
  0
ARC
  5
264
100
AcDbEntity
  8
ALL_ASSEMBLY_MEMBERS
100
AcDbCircle
 62
7
  6
CONTINUOUS
 10
4.3736273292
 20
4.5743206522
 40
0.0775
100
AcDbArc
 50
189.2817990867
 51
350.7182009133
  0
ARC
  5
265
100
AcDbEntity
  8
ALL_ASSEMBLY_MEMBERS
100
AcDbCircle
 62
7
  6
CONTINUOUS
 10
4.3736273292
 20
4.5743206522
 40
0.0775
100
AcDbArc
 50
9.2817990867
 51
170.7182009133
  0
CIRCLE
  5
266
100
AcDbEntity
  8
ALL_ASSEMBLY_MEMBERS
100
AcDbCircle
 62
7
  6
CONTINUOUS
 10
4.8658773292
 20
3.8868206522
 40
0.71875
  0
ARC
  5
267
100
AcDbEntity
  8
ALL_ASSEMBLY_MEMBERS
100
AcDbCircle
 62
7
  6
CONTINUOUS
 10
4.8658773292
 20
3.8868206522
 40
0.51875
100
AcDbArc
 50
103.013704627
 51
196.986295373
  0
ARC
  5
268
100
AcDbEntity
  8
ALL_ASSEMBLY_MEMBERS
100
AcDbCircle
 62
7
  6
CONTINUOUS
 10
4.8658773292
 20
3.8868206522
 40
0.51875
100
AcDbArc
 50
223.013704627
 51
316.986295373
  0
ARC
  5
269
100
AcDbEntity
  8
ALL_ASSEMBLY_MEMBERS
100
AcDbCircle
 62
7
  6
CONTINUOUS
 10
4.8658773292
 20
3.8868206522
 40
0.51875
100
AcDbArc
 50
343.013704627
 51
76.986295373
  0
ARC
  5
26A
100
AcDbEntity
  8
ALL_ASSEMBLY_MEMBERS
100
AcDbCircle
 62
7
  6
CONTINUOUS
 10
4.8658773292
 20
3.8868206522
 40
0.5
100
AcDbArc
 50
220.5701996913
 51
319.4275083531
  0
ARC
  5
26B
100
AcDbEntity
  8
ALL_ASSEMBLY_MEMBERS
100
AcDbCircle
 62
7
  6
CONTINUOUS
 10
4.8658773292
 20
3.8868206522
 40
0.5
100
AcDbArc
 50
100.572412158
 51
199.4275012085
  0
ARC
  5
26C
100
AcDbEntity
  8
ALL_ASSEMBLY_MEMBERS
100
AcDbCircle
 62
7
  6
CONTINUOUS
 10
4.8658773292
 20
3.8868206522
 40
0.5
100
AcDbArc
 50
340.5724184514
 51
79.4275095779
  0
ARC
  5
26D
100
AcDbEntity
  8
ALL_ASSEMBLY_MEMBERS
100
AcDbCircle
 62
7
  6
CONTINUOUS
 10
4.8658773292
 20
3.8868206522
 40
0.4925
100
AcDbArc
 50
340.3249195962
 51
79.6759362811
  0
ARC
  5
26E
100
AcDbEntity
  8
ALL_ASSEMBLY_MEMBERS
100
AcDbCircle
 62
7
  6
CONTINUOUS
 10
4.8658773292
 20
3.8868206522
 40
0.4925
100
AcDbArc
 50
220.326061193
 51
319.6740232899
  0
ARC
  5
26F
100
AcDbEntity
  8
ALL_ASSEMBLY_MEMBERS
100
AcDbCircle
 62
7
  6
CONTINUOUS
 10
4.8658773292
 20
3.8868206522
 40
0.4925
100
AcDbArc
 50
100.3239296392
 51
199.6749555653
  0
ARC
  5
270
100
AcDbEntity
  8
ALL_ASSEMBLY_MEMBERS
100
AcDbCircle
 62
7
  6
CONTINUOUS
 10
4.8658773292
 20
3.8868206522
 40
0.485
100
AcDbArc
 50
340.3940303308
 51
79.5672788745
  0
ARC
  5
271
100
AcDbEntity
  8
ALL_ASSEMBLY_MEMBERS
100
AcDbCircle
 62
7
  6
CONTINUOUS
 10
4.8658773292
 20
3.8868206522
 40
0.485
100
AcDbArc
 50
100.393927038
 51
199.56549364
  0
ARC
  5
272
100
AcDbEntity
  8
ALL_ASSEMBLY_MEMBERS
100
AcDbCircle
 62
7
  6
CONTINUOUS
 10
4.8658773292
 20
3.8868206522
 40
0.485
100
AcDbArc
 50
220.3940248997
 51
319.5629341078
  0
ARC
  5
273
100
AcDbEntity
  8
ALL_ASSEMBLY_MEMBERS
100
AcDbCircle
 62
7
  6
CONTINUOUS
 10
4.8658773292
 20
3.8868206522
 40
0.40375
100
AcDbArc
 50
102.5199472498
 51
197.4786367361
  0
ARC
  5
274
100
AcDbEntity
  8
ALL_ASSEMBLY_MEMBERS
100
AcDbCircle
 62
7
  6
CONTINUOUS
 10
4.8658773292
 20
3.8868206522
 40
0.40375
100
AcDbArc
 50
222.5184011528
 51
317.4815988472
  0
ARC
  5
275
100
AcDbEntity
  8
ALL_ASSEMBLY_MEMBERS
100
AcDbCircle
 62
7
  6
CONTINUOUS
 10
4.8658773292
 20
3.8868206522
 40
0.40375
100
AcDbArc
 50
342.5213632639
 51
77.4800527502
  0
CIRCLE
  5
276
100
AcDbEntity
  8
ALL_ASSEMBLY_MEMBERS
100
AcDbCircle
 62
7
  6
CONTINUOUS
 10
4.8658773292
 20
3.8868206522
 40
0.1875
  0
ARC
  5
277
100
AcDbEntity
  8
ALL_ASSEMBLY_MEMBERS
100
AcDbCircle
 62
7
  6
CONTINUOUS
 10
5.3361644327
 20
3.4480103072
 40
0.1244641822
100
AcDbArc
 50
135.2829879429
 51
136.969407469
  0
ARC
  5
278
100
AcDbEntity
  8
ALL_ASSEMBLY_MEMBERS
100
AcDbCircle
 62
7
  6
CONTINUOUS
 10
5.0975814625
 20
3.9060443849
 40
0.0450001045
100
AcDbArc
 50
184.801342646
 51
240.0009353754
  0
ARC
  5
279
100
AcDbEntity
  8
ALL_ASSEMBLY_MEMBERS
100
AcDbCircle
 62
7
  6
CONTINUOUS
 10
5.0098909758
 20
4.5098454453
 40
0.1207027543
100
AcDbArc
 50
255.7265316183
 51
256.9770148794
  0
CIRCLE
  5
27A
100
AcDbEntity
  8
ALL_ASSEMBLY_MEMBERS
100
AcDbCircle
 62
7
  6
CONTINUOUS
 10
5.3581273292
 20
4.5743206522
 40
0.07825
  0
ARC
  5
27B
100
AcDbEntity
  8
ALL_ASSEMBLY_MEMBERS
100
AcDbCircle
 62
7
  6
CONTINUOUS
 10
5.3581273292
 20
4.5743206522
 40
0.0775
100
AcDbArc
 50
189.2817990867
 51
350.7182009133
  0
ARC
  5
27C
100
AcDbEntity
  8
ALL_ASSEMBLY_MEMBERS
100
AcDbCircle
 62
7
  6
CONTINUOUS
 10
5.3581273292
 20
4.5743206522
 40
0.0775
100
AcDbArc
 50
9.2817990867
 51
170.7182009133
  0
ARC
  5
27D
100
AcDbEntity
  8
ALL_ASSEMBLY_MEMBERS
100
AcDbCircle
 62
7
  6
CONTINUOUS
 10
4.998378025
 20
4.077870419
 40
0.0450002365
100
AcDbArc
 50
179.9989425667
 51
235.1594883624
  0
SPLINE
  5
27E
100
AcDbEntity
  8
ALL_ASSEMBLY_MEMBERS
100
AcDbSpline
 62
7
  6
CONTINUOUS
 70
0
 71
3
 72
24
 73
20
 74
0
 42
0.0000001
 43
0.0000001
 44
0.0000000001
 40
0.0
 40
0.0
 40
0.0
 40
0.0
 40
0.0448611743
 40
0.0928676309
 40
0.1436468672
 40
0.1969066064
 40
0.3099786259
 40
0.4308044369
 40
0.4939320074
 40
0.5588687293
 40
0.6257003261
 40
0.6598847197
 40
0.6946269942
 40
0.7659923985
 40
0.8027789884
 40
0.8404113644
 40
0.9185022834
 40
0.9590265178
 40
1.0
 40
1.0
 40
1.0
 40
1.0
 10
4.9363270272
 20
4.3617473926
 30
0.0
 10
4.9352569433
 20
4.3624958841
 30
0.0
 10
4.9330863784
 20
4.3641093739
 30
0.0
 10
4.9298311853
 20
4.3667349463
 30
0.0
 10
4.9264654334
 20
4.3696097477
 30
0.0
 10
4.9217407063
 20
4.3738076228
 30
0.0
 10
4.9155991364
 20
4.3794785098
 30
0.0
 10
4.9092630111
 20
4.3853616337
 30
0.0
 10
4.9038815838
 20
4.3902128616
 30
0.0
 10
4.8996013347
 20
4.3939370754
 30
0.0
 10
4.8958727867
 20
4.3970102321
 30
0.0
 10
4.8927467356
 20
4.3994284603
 30
0.0
 10
4.8894568159
 20
4.4018482732
 30
0.0
 10
4.885989056
 20
4.4041537018
 30
0.0
 10
4.882301672
 20
4.4062589817
 30
0.0
 10
4.8783202628
 20
4.4082246758
 30
0.0
 10
4.8740189401
 20
4.4097945506
 30
0.0
 10
4.8694446754
 20
4.4106557753
 30
0.0
 10
4.8670700398
 20
4.4108151497
 30
0.0
 10
4.8658773292
 20
4.4108151378
 30
0.0
  0
SPLINE
  5
27F
100
AcDbEntity
  8
ALL_ASSEMBLY_MEMBERS
100
AcDbSpline
 62
7
  6
CONTINUOUS
 70
0
 71
3
 72
22
 73
18
 74
0
 42
0.0000001
 43
0.0000001
 44
0.0000000001
 40
0.0
 40
0.0
 40
0.0
 40
0.0
 40
0.0708792893
 40
0.1061716729
 40
0.141273378
 40
0.2107741594
 40
0.2792006989
 40
0.3464805437
 40
0.4126050109
 40
0.5413939465
 40
0.665430179
 40
0.7255127208
 40
0.7841459945
 40
0.8411706788
 40
0.8963980614
 40
0.9495101087
 40
1.0
 40
1.0
 40
1.0
 40
1.0
 10
4.4000560101
 20
3.6178785882
 30
0.0
 10
4.4014939119
 20
3.6153868083
 30
0.0
 10
4.4038021265
 20
3.6117407384
 30
0.0
 10
4.4071410277
 20
3.6070780087
 30
0.0
 10
4.4106118531
 20
3.6025827207
 30
0.0
 10
4.4151736033
 20
3.5972368703
 30
0.0
 10
4.420913219
 20
3.5911971473
 30
0.0
 10
4.4267937657
 20
3.5854913254
 30
0.0
 10
4.4346538545
 20
3.5783151828
 30
0.0
 10
4.4444838921
 20
3.569887936
 30
0.0
 10
4.4542617936
 20
3.5617829986
 30
0.0
 10
4.4618323659
 20
3.5554767696
 30
0.0
 10
4.4672842452
 20
3.5508768821
 30
0.0
 10
4.4725328332
 20
3.5463421571
 30
0.0
 10
4.4775327712
 20
3.5418635898
 30
0.0
 10
4.4822234368
 20
3.5374400064
 30
0.0
 10
4.4851742498
 20
3.5344417166
 30
0.0
 10
4.4865722299
 20
3.5329432665
 30
0.0
  0
SPLINE
  5
280
100
AcDbEntity
  8
ALL_ASSEMBLY_MEMBERS
100
AcDbSpline
 62
7
  6
CONTINUOUS
 70
0
 71
3
 72
31
 73
27
 74
0
 42
0.0000001
 43
0.0000001
 44
0.0000000001
 40
0.0
 40
0.0
 40
0.0
 40
0.0
 40
0.0514515821
 40
0.102276883
 40
0.1994673639
 40
0.2454154522
 40
0.2895408506
 40
0.3319285875
 40
0.3726613216
 40
0.4496899876
 40
0.521550109
 40
0.5557614017
 40
0.5889105961
 40
0.621039929
 40
0.6521793757
 40
0.711569667
 40
0.7671256733
 40
0.818706218
 40
0.8660244853
 40
0.908550143
 40
0.9278351923
 40
0.9456498648
 40
0.9618694514
 40
0.9763879993
 40
0.9891193021
 40
1.0
 40
1.0
 40
1.0
 40
1.0
 10
5.0867138072
 20
3.7593206522
 30
0.0
 10
5.085727326
 20
3.7576122151
 30
0.0
 10
5.0836336356
 20
3.7542908612
 30
0.0
 10
5.079089254
 20
3.7481328141
 30
0.0
 10
5.0740334556
 20
3.742640098
 30
0.0
 10
5.0686788412
 20
3.7378519357
 30
0.0
 10
5.0646946318
 20
3.7346971388
 30
0.0
 10
5.0607073206
 20
3.7318816606
 30
0.0
 10
5.0555182604
 20
3.7285943076
 30
0.0
 10
5.0491100456
 20
3.7251384997
 30
0.0
 10
5.0426777292
 20
3.7223084017
 30
0.0
 10
5.0376800676
 20
3.7204300988
 30
0.0
 10
5.0340662812
 20
3.7192063077
 30
0.0
 10
5.0305285381
 20
3.7181310826
 30
0.0
 10
5.025988528
 20
3.7169011526
 30
0.0
 10
5.0205213902
 20
3.7156681361
 30
0.0
 10
5.0142236652
 20
3.7145981761
 30
0.0
 10
5.0083380968
 20
3.7139158881
 30
0.0
 10
5.0029236555
 20
3.7135757564
 30
0.0
 10
4.9987361098
 20
3.7135588303
 30
0.0
 10
4.9956862476
 20
3.7137124117
 30
0.0
 10
4.9936498094
 20
3.7139009999
 30
0.0
 10
4.9918063928
 20
3.71416764
 30
0.0
 10
4.9901742331
 20
3.7145135774
 30
0.0
 10
4.9887733912
 20
3.7149384113
 30
0.0
 10
4.9879420386
 20
3.7153087689
 30
0.0
 10
4.9875807711
 20
3.7155174251
 30
0.0
  0
SPLINE
  5
281
100
AcDbEntity
  8
ALL_ASSEMBLY_MEMBERS
100
AcDbSpline
 62
7
  6
CONTINUOUS
 70
0
 71
3
 72
26
 73
22
 74
0
 42
0.0000001
 43
0.0000001
 44
0.0000000001
 40
0.0
 40
0.0
 40
0.0
 40
0.0
 40
0.0448575302
 40
0.0928788216
 40
0.1436608342
 40
0.1969232393
 40
0.3099949428
 40
0.4308185345
 40
0.4939431534
 40
0.5588792107
 40
0.5920484258
 40
0.6257103793
 40
0.6598933079
 40
0.6946330473
 40
0.7299798907
 40
0.7660074179
 40
0.8027905294
 40
0.8404212563
 40
0.9185079936
 40
0.9590306149
 40
1.0
 40
1.0
 40
1.0
 40
1.0
 10
5.2419511023
 20
3.5883460538
 30
0.0
 10
5.2431344194
 20
3.5888981909
 30
0.0
 10
5.2456173427
 20
3.58997137
 30
0.0
 10
5.2495191658
 20
3.5914779016
 30
0.0
 10
5.2536921076
 20
3.5929561299
 30
0.0
 10
5.2596903631
 20
3.594948446
 30
0.0
 10
5.2676723747
 20
3.5974318583
 30
0.0
 10
5.2759352428
 20
3.5999779323
 30
0.0
 10
5.2828273861
 20
3.6022119952
 30
0.0
 10
5.2872660089
 20
3.6037385372
 30
0.0
 10
5.2908680641
 20
3.6050572366
 30
0.0
 10
5.2936116152
 20
3.6061157766
 30
0.0
 10
5.2963752778
 20
3.6072476165
 30
0.0
 10
5.2991557452
 20
3.608465867
 30
0.0
 10
5.3019448368
 20
3.6097950301
 30
0.0
 10
5.3047347183
 20
3.6112558231
 30
0.0
 10
5.3075126661
 20
3.6128779949
 30
0.0
 10
5.3112053578
 20
3.6153431858
 30
0.0
 10
5.3147155604
 20
3.6182831397
 30
0.0
 10
5.3177482207
 20
3.621813933
 30
0.0
 10
5.3190735709
 20
3.6237905729
 30
0.0
 10
5.3196698652
 20
3.6248234094
 30
0.0
  0
SPLINE
  5
282
100
AcDbEntity
  8
ALL_ASSEMBLY_MEMBERS
100
AcDbSpline
 62
7
  6
CONTINUOUS
 70
0
 71
3
 72
22
 73
18
 74
0
 42
0.0000001
 43
0.0000001
 44
0.0000000001
 40
0.0
 40
0.0
 40
0.0
 40
0.0
 40
0.0878682204
 40
0.1659782374
 40
0.2343093822
 40
0.2937985439
 40
0.3461065813
 40
0.39352364
 40
0.4389890842
 40
0.4852217659
 40
0.5341837983
 40
0.587115143
 40
0.6446461393
 40
0.7069167068
 40
0.7737852301
 40
0.8450930818
 40
1.0
 40
1.0
 40
1.0
 40
1.0
 10
5.2377625255
 20
3.571076918
 30
0.0
 10
5.2371207923
 20
3.5714482977
 30
0.0
 10
5.2359319992
 20
3.572192056
 30
0.0
 10
5.2343549601
 20
3.5733902473
 30
0.0
 10
5.2331035956
 20
3.5746037277
 30
0.0
 10
5.2321844401
 20
3.5758236695
 30
0.0
 10
5.2315951147
 20
3.5770431145
 30
0.0
 10
5.2313421402
 20
3.5782559592
 30
0.0
 10
5.231413659
 20
3.5794410015
 30
0.0
 10
5.2317769894
 20
3.580581799
 30
0.0
 10
5.232396972
 20
3.5816752315
 30
0.0
 10
5.2332449992
 20
3.582725367
 30
0.0
 10
5.2342973327
 20
3.5837379901
 30
0.0
 10
5.2355329516
 20
3.5847178083
 30
0.0
 10
5.2369329639
 20
3.5856690987
 30
0.0
 10
5.2390580834
 20
3.5869360431
 30
0.0
 10
5.2407664931
 20
3.5877935194
 30
0.0
 10
5.2419511023
 20
3.5883460538
 30
0.0
  0
SPLINE
  5
283
100
AcDbEntity
  8
ALL_ASSEMBLY_MEMBERS
100
AcDbSpline
 62
7
  6
CONTINUOUS
 70
0
 71
3
 72
27
 73
23
 74
0
 42
0.0000001
 43
0.0000001
 44
0.0000000001
 40
0.0
 40
0.0
 40
0.0
 40
0.0
 40
0.01087919
 40
0.0236221811
 40
0.0381760556
 40
0.0544144225
 40
0.0722212929
 40
0.0915038243
 40
0.1340809438
 40
0.1813959215
 40
0.233000592
 40
0.2885622344
 40
0.3479648789
 40
0.4785256316
 40
0.6272966728
 40
0.6680271494
 40
0.7104091686
 40
0.7545339251
 40
0.8004887536
 40
0.8976962147
 40
0.9485380854
 40
1.0
 40
1.0
 40
1.0
 40
1.0
 10
4.7783763058
 20
4.0778744738
 30
0.0
 10
4.7783759134
 20
4.0782915115
 30
0.0
 10
4.7784697821
 20
4.0791969535
 30
0.0
 10
4.7788027397
 20
4.0806239881
 30
0.0
 10
4.7793231328
 20
4.0822114213
 30
0.0
 10
4.7800152049
 20
4.0839420311
 30
0.0
 10
4.7808689845
 20
4.0858002631
 30
0.0
 10
4.7822608949
 20
4.0885193237
 30
0.0
 10
4.784372975
 20
4.0921360976
 30
0.0
 10
4.7873730824
 20
4.0966579452
 30
0.0
 10
4.790909732
 20
4.1014111196
 30
0.0
 10
4.7949833083
 20
4.1063320578
 30
0.0
 10
4.8013735651
 20
4.1132476167
 30
0.0
 10
4.8110202261
 20
4.1219890768
 30
0.0
 10
4.8212388579
 20
4.1288929446
 30
0.0
 10
4.8291143855
 20
4.1330199211
 30
0.0
 10
4.833545293
 20
4.1350642571
 30
0.0
 10
4.838268476
 20
4.1369365921
 30
0.0
 10
4.8450916738
 20
4.1391795047
 30
0.0
 10
4.8523762038
 20
4.1408115123
 30
0.0
 10
4.8599813041
 20
4.1416677533
 30
0.0
 10
4.8639046118
 20
4.141820545
 30
0.0
 10
4.8658773292
 20
4.1418206522
 30
0.0
  0
SPLINE
  5
284
100
AcDbEntity
  8
ALL_ASSEMBLY_MEMBERS
100
AcDbSpline
 62
7
  6
CONTINUOUS
 70
0
 71
3
 72
25
 73
21
 74
0
 42
0.0000001
 43
0.0000001
 44
0.0000000001
 40
0.0
 40
0.0
 40
0.0
 40
0.0
 40
0.0409708777
 40
0.0815319735
 40
0.1211048729
 40
0.1597199168
 40
0.2341247392
 40
0.2701516664
 40
0.3054998433
 40
0.3402340403
 40
0.3744096865
 40
0.4412272942
 40
0.5061503116
 40
0.5692647111
 40
0.6900673531
 40
0.8031171
 40
0.8563667285
 40
0.9071376531
 40
0.9551464251
 40
1.0
 40
1.0
 40
1.0
 40
1.0
 10
5.3196698652
 20
3.6248234094
 30
0.0
 10
5.3202662526
 20
3.6258563042
 30
0.0
 10
5.3213146121
 20
3.6279941685
 30
0.0
 10
5.3224844291
 20
3.6313274803
 30
0.0
 10
5.323266197
 20
3.6347012751
 30
0.0
 10
5.3238671503
 20
3.6391069429
 30
0.0
 10
5.3240015248
 20
3.6434559143
 30
0.0
 10
5.3238209449
 20
3.6476962397
 30
0.0
 10
5.3235771339
 20
3.6507762812
 30
0.0
 10
5.3232441127
 20
3.6537933949
 30
0.0
 10
5.3227098626
 20
3.6577086133
 30
0.0
 10
5.3219149408
 20
3.6624737871
 30
0.0
 10
5.320828774
 20
3.6680416602
 30
0.0
 10
5.3193185128
 20
3.6751267371
 30
0.0
 10
5.3173918972
 20
3.6835543973
 30
0.0
 10
5.3155519591
 20
3.6917075423
 30
0.0
 10
5.3142787089
 20
3.6978973659
 30
0.0
 10
5.3134722218
 20
3.7022494422
 30
0.0
 10
5.3128261396
 20
3.7063811867
 30
0.0
 10
5.312514157
 20
3.7090677035
 30
0.0
 10
5.3124008004
 20
3.7103685102
 30
0.0
  0
SPLINE
  5
285
100
AcDbEntity
  8
ALL_ASSEMBLY_MEMBERS
100
AcDbSpline
 62
7
  6
CONTINUOUS
 70
0
 71
3
 72
20
 73
16
 74
0
 42
0.0000001
 43
0.0000001
 44
0.0000000001
 40
0.0
 40
0.0
 40
0.0
 40
0.0
 40
0.0516756531
 40
0.1055346153
 40
0.1612576203
 40
0.218619541
 40
0.3375917225
 40
0.461493481
 40
0.5898917539
 40
0.655742238
 40
0.7226930746
 40
0.7907353847
 40
0.8597870762
 40
0.9296633624
 40
1.0
 40
1.0
 40
1.0
 40
1.0
 10
5.2477213557
 20
3.5355840177
 30
0.0
 10
5.249151497
 20
3.5370308085
 30
0.0
 10
5.2521346842
 20
3.5399239181
 30
0.0
 10
5.256817708
 20
3.5442106917
 30
0.0
 10
5.2617566851
 20
3.5485470503
 30
0.0
 10
5.268706114
 20
3.5544771097
 30
0.0
 10
5.2777984518
 20
3.5620292976
 30
0.0
 10
5.289036281
 20
3.5713744478
 30
0.0
 10
5.2985138847
 20
3.5795662201
 30
0.0
 10
5.3060695892
 20
3.5865426067
 30
0.0
 10
5.3117114233
 20
3.5920843805
 30
0.0
 10
5.3172095751
 20
3.5979444553
 30
0.0
 10
5.322466442
 20
3.6041758796
 30
0.0
 10
5.3273666962
 20
3.6108059904
 30
0.0
 10
5.3303145969
 20
3.615480345
 30
0.0
 10
5.3316986483
 20
3.6178785882
 30
0.0
  0
SPLINE
  5
286
100
AcDbEntity
  8
ALL_ASSEMBLY_MEMBERS
100
AcDbSpline
 62
7
  6
CONTINUOUS
 70
0
 71
3
 72
22
 73
18
 74
0
 42
0.0000001
 43
0.0000001
 44
0.0000000001
 40
0.0
 40
0.0
 40
0.0
 40
0.0
 40
0.1549109404
 40
0.2262181371
 40
0.2930767516
 40
0.3553316987
 40
0.4128491838
 40
0.4657700695
 40
0.5147242341
 40
0.5609444969
 40
0.6064018107
 40
0.6538333362
 40
0.7061481182
 40
0.7656344959
 40
0.8339967479
 40
0.912128884
 40
1.0
 40
1.0
 40
1.0
 40
1.0
 10
5.3124008004
 20
3.7103685102
 30
0.0
 10
5.3122869545
 20
3.7116709898
 30
0.0
 10
5.312175303
 20
3.7135796922
 30
0.0
 10
5.3122100127
 20
3.7160540478
 30
0.0
 10
5.3123340236
 20
3.7177422716
 30
0.0
 10
5.312565
 20
3.7193022302
 30
0.0
 10
5.312915933
 20
3.7207198303
 30
0.0
 10
5.3134014757
 20
3.7219792841
 30
0.0
 10
5.3140384186
 20
3.7230629294
 30
0.0
 10
5.3148447408
 20
3.7239479867
 30
0.0
 10
5.315835754
 20
3.7246022138
 30
0.0
 10
5.3170133748
 20
3.7249883259
 30
0.0
 10
5.3183644474
 20
3.7250877314
 30
0.0
 10
5.3198812229
 20
3.7249016746
 30
0.0
 10
5.3215582532
 20
3.7244233043
 30
0.0
 10
5.3233851557
 20
3.7236561516
 30
0.0
 10
5.3246240998
 20
3.7229982032
 30
0.0
 10
5.3252666948
 20
3.7226279495
 30
0.0
  0
SPLINE
  5
287
100
AcDbEntity
  8
ALL_ASSEMBLY_MEMBERS
100
AcDbSpline
 62
7
  6
CONTINUOUS
 70
0
 71
3
 72
27
 73
23
 74
0
 42
0.0000001
 43
0.0000001
 44
0.0000000001
 40
0.0
 40
0.0
 40
0.0
 40
0.0
 40
0.0409635212
 40
0.0815013877
 40
0.1210616008
 40
0.1596704692
 40
0.1973110669
 40
0.2340857924
 40
0.27011246
 40
0.3054578573
 40
0.3401910591
 40
0.3743672679
 40
0.4411865487
 40
0.506107728
 40
0.5692230408
 40
0.6305406046
 40
0.6900260474
 40
0.8030749124
 40
0.8563271857
 40
0.9071298429
 40
0.9551536699
 40
1.0
 40
1.0
 40
1.0
 40
1.0
 10
4.8658773292
 20
4.4108151378
 30
0.0
 10
4.8646847973
 20
4.4108151613
 30
0.0
 10
4.8623099682
 20
4.4106548667
 30
0.0
 10
4.8588393299
 20
4.410001622
 30
0.0
 10
4.8555281871
 20
4.4089909161
 30
0.0
 10
4.8524037059
 20
4.4077149242
 30
0.0
 10
4.8494510969
 20
4.4062577372
 30
0.0
 10
4.8466563325
 20
4.4046650006
 30
0.0
 10
4.8439980836
 20
4.4029763479
 30
0.0
 10
4.8414519414
 20
4.4012264371
 30
0.0
 10
4.8390057037
 20
4.3994291658
 30
0.0
 10
4.8358823756
 20
4.3970083652
 30
0.0
 10
4.8321518165
 20
4.3939385969
 30
0.0
 10
4.8278740472
 20
4.3902124506
 30
0.0
 10
4.8237782622
 20
4.3865227713
 30
0.0
 10
4.8198382707
 20
4.382897182
 30
0.0
 10
4.8148451456
 20
4.3782694958
 30
0.0
 10
4.8100165432
 20
4.3738091597
 30
0.0
 10
4.8052913919
 20
4.3696111913
 30
0.0
 10
4.801924169
 20
4.3667359822
 30
0.0
 10
4.7986677668
 20
4.3641100725
 30
0.0
 10
4.7964970011
 20
4.3624963632
 30
0.0
 10
4.7954276312
 20
4.3617473926
 30
0.0
  0
SPLINE
  5
288
100
AcDbEntity
  8
ALL_ASSEMBLY_MEMBERS
100
AcDbSpline
 62
7
  6
CONTINUOUS
 70
0
 71
3
 72
21
 73
17
 74
0
 42
0.0000001
 43
0.0000001
 44
0.0000000001
 40
0.0
 40
0.0
 40
0.0
 40
0.0
 40
0.0708903132
 40
0.1061896893
 40
0.141296894
 40
0.2108101409
 40
0.2792455547
 40
0.4126445034
 40
0.5414364021
 40
0.6654740176
 40
0.7255551214
 40
0.7841952335
 40
0.841223295
 40
0.8964135471
 40
0.9494888517
 40
1.0
 40
1.0
 40
1.0
 40
1.0
 10
5.3316986483
 20
3.6178785882
 30
0.0
 10
5.3331379126
 20
3.6203700454
 30
0.0
 10
5.3351414664
 20
3.6241927684
 30
0.0
 10
5.337510471
 20
3.6294164647
 30
0.0
 10
5.3396682418
 20
3.6346708711
 30
0.0
 10
5.3420172482
 20
3.6412953316
 30
0.0
 10
5.3451390031
 20
3.6518610682
 30
0.0
 10
5.3481609964
 20
3.6649458754
 30
0.0
 10
5.3510466457
 20
3.6803551254
 30
0.0
 10
5.3531770414
 20
3.6928757833
 30
0.0
 10
5.3548528452
 20
3.7025853217
 30
0.0
 10
5.3561109723
 20
3.7096069093
 30
0.0
 10
5.3574137121
 20
3.7164184803
 30
0.0
 10
5.3587918354
 20
3.7229849161
 30
0.0
 10
5.360277969
 20
3.7292564921
 30
0.0
 10
5.3613977453
 20
3.7333107851
 30
0.0
 10
5.3619966847
 20
3.7352714932
 30
0.0
  0
SPLINE
  5
289
100
AcDbEntity
  8
ALL_ASSEMBLY_MEMBERS
100
AcDbSpline
 62
7
  6
CONTINUOUS
 70
0
 71
3
 72
22
 73
18
 74
0
 42
0.0000001
 43
0.0000001
 44
0.0000000001
 40
0.0
 40
0.0
 40
0.0
 40
0.0
 40
0.1549071269
 40
0.2262133003
 40
0.2930716051
 40
0.3553271329
 40
0.4128458334
 40
0.4657678291
 40
0.514722115
 40
0.5609412732
 40
0.6063952842
 40
0.6538185127
 40
0.706117651
 40
0.7655910412
 40
0.8339585325
 40
0.9121088359
 40
1.0
 40
1.0
 40
1.0
 40
1.0
 10
4.7954276312
 20
4.3617473926
 30
0.0
 10
4.7943566721
 20
4.3609976319
 30
0.0
 10
4.7927596628
 20
4.359946676
 30
0.0
 10
4.7905996585
 20
4.3587396297
 30
0.0
 10
4.7890757354
 20
4.3580029346
 30
0.0
 10
4.787609392
 20
4.3574229755
 30
0.0
 10
4.7862063437
 20
4.3570180395
 30
0.0
 10
4.7848729445
 20
4.3568087044
 30
0.0
 10
4.7836160956
 20
4.3568183428
 30
0.0
 10
4.7824465328
 20
4.3570738893
 30
0.0
 10
4.7813844888
 20
4.3576046451
 30
0.0
 10
4.7804612146
 20
4.358430852
 30
0.0
 10
4.7796993056
 20
4.3595505343
 30
0.0
 10
4.7791018423
 20
4.3609567436
 30
0.0
 10
4.7786777199
 20
4.3626482847
 30
0.0
 10
4.778428619
 20
4.3646142245
 30
0.0
 10
4.778378773
 20
4.3660163708
 30
0.0
 10
4.7783779878
 20
4.3667581191
 30
0.0
  0
SPLINE
  5
28A
100
AcDbEntity
  8
ALL_ASSEMBLY_MEMBERS
100
AcDbSpline
 62
7
  6
CONTINUOUS
 70
0
 71
3
 72
26
 73
22
 74
0
 42
0.0000001
 43
0.0000001
 44
0.0000000001
 40
0.0
 40
0.0
 40
0.0
 40
0.0
 40
0.040965115
 40
0.0815090044
 40
0.1210722163
 40
0.1596826631
 40
0.2340693554
 40
0.2700952079
 40
0.3054407822
 40
0.3401743357
 40
0.3743509294
 40
0.4411711465
 40
0.5060938473
 40
0.5692106422
 40
0.6305299116
 40
0.6900169025
 40
0.8030687721
 40
0.8563226104
 40
0.907127352
 40
0.9551525522
 40
1.0
 40
1.0
 40
1.0
 40
1.0
 10
4.4120847932
 20
3.6248234094
 30
0.0
 10
4.4126810379
 20
3.6237906258
 30
0.0
 10
4.4140075137
 20
3.6218140886
 30
0.0
 10
4.4163086423
 20
3.61913492
 30
0.0
 10
4.4188394943
 20
3.6167723177
 30
0.0
 10
4.4223529002
 20
3.6140486337
 30
0.0
 10
4.4260517358
 20
3.611758513
 30
0.0
 10
4.429813441
 20
3.6097946168
 30
0.0
 10
4.4326020984
 20
3.6084646711
 30
0.0
 10
4.4353815721
 20
3.6072448052
 30
0.0
 10
4.439039606
 20
3.6057502426
 30
0.0
 10
4.4435633474
 20
3.6040545057
 30
0.0
 10
4.4489290772
 20
3.6022128727
 30
0.0
 10
4.4541722836
 20
3.6005106707
 30
0.0
 10
4.4592821015
 20
3.5989113641
 30
0.0
 10
4.4657863119
 20
3.5969010261
 30
0.0
 10
4.4720633492
 20
3.5949495381
 30
0.0
 10
4.4780614528
 20
3.5929564075
 30
0.0
 10
4.4822350691
 20
3.5914779117
 30
0.0
 10
4.486137367
 20
3.589970731
 30
0.0
 10
4.488620249
 20
3.5888976571
 30
0.0
 10
4.4898035561
 20
3.5883460538
 30
0.0
  0
SPLINE
  5
28B
100
AcDbEntity
  8
ALL_ASSEMBLY_MEMBERS
100
AcDbSpline
 62
7
  6
CONTINUOUS
 70
0
 71
3
 72
21
 73
17
 74
0
 42
0.0000001
 43
0.0000001
 44
0.0000000001
 40
0.0
 40
0.0
 40
0.0
 40
0.0
 40
0.0513612679
 40
0.1049950651
 40
0.1605759768
 40
0.2178510379
 40
0.3367512422
 40
0.460688306
 40
0.5243833333
 40
0.5891960242
 40
0.6551233048
 40
0.7221660669
 40
0.7903167158
 40
0.8594929756
 40
0.9295104628
 40
1.0
 40
1.0
 40
1.0
 40
1.0
 10
4.9801316792
 20
4.3928687846
 30
0.0
 10
4.9781548273
 20
4.3933707142
 30
0.0
 10
4.97413664
 20
4.3944878645
 30
0.0
 10
4.9680482591
 20
4.39638505
 30
0.0
 10
4.9617806072
 20
4.3984902925
 30
0.0
 10
4.9531017114
 20
4.4015527663
 30
0.0
 10
4.9419211767
 20
4.4056794376
 30
0.0
 10
4.930503279
 20
4.4098991054
 30
0.0
 10
4.9210530239
 20
4.4132445933
 30
0.0
 10
4.9137361614
 20
4.4157114218
 30
0.0
 10
4.90623943
 20
4.4180563354
 30
0.0
 10
4.8985460482
 20
4.4202066275
 30
0.0
 10
4.890644568
 20
4.4220712049
 30
0.0
 10
4.8825373272
 20
4.4235364749
 30
0.0
 10
4.8742584143
 20
4.4244847848
 30
0.0
 10
4.8686764983
 20
4.4247052658
 30
0.0
 10
4.8658773292
 20
4.4247047802
 30
0.0
  0
SPLINE
  5
28C
100
AcDbEntity
  8
ALL_ASSEMBLY_MEMBERS
100
AcDbSpline
 62
7
  6
CONTINUOUS
 70
0
 71
3
 72
25
 73
21
 74
0
 42
0.0000001
 43
0.0000001
 44
0.0000000001
 40
0.0
 40
0.0
 40
0.0
 40
0.0
 40
0.0108836741
 40
0.0236242565
 40
0.0381693928
 40
0.0544082273
 40
0.0722337902
 40
0.0915276325
 40
0.134104686
 40
0.1814549837
 40
0.2330859827
 40
0.2886905359
 40
0.3481338262
 40
0.411450463
 40
0.4788554832
 40
0.627712803
 40
0.7108037008
 40
0.800810412
 40
0.8979021759
 40
1.0
 40
1.0
 40
1.0
 40
1.0
 10
4.7441724122
 20
3.7155179748
 30
0.0
 10
4.7438111177
 20
3.7153093778
 30
0.0
 10
4.7429800133
 20
3.7149380881
 30
0.0
 10
4.7415782086
 20
3.7145123911
 30
0.0
 10
4.7399440595
 20
3.7141679471
 30
0.0
 10
4.7380990274
 20
3.7139012794
 30
0.0
 10
4.736061699
 20
3.7137124971
 30
0.0
 10
4.7330100106
 20
3.7135582452
 30
0.0
 10
4.7288201382
 20
3.7135773934
 30
0.0
 10
4.7234020716
 20
3.713916531
 30
0.0
 10
4.7175135211
 20
3.7146018681
 30
0.0
 10
4.7112116777
 20
3.7156719751
 30
0.0
 10
4.7045395021
 20
3.7171795702
 30
0.0
 10
4.6975291739
 20
3.7191951047
 30
0.0
 10
4.6874333594
 20
3.7228034724
 30
0.0
 10
4.677063504
 20
3.7278568084
 30
0.0
 10
4.6667904083
 20
3.7347277076
 30
0.0
 10
4.6588460503
 20
3.7414118978
 30
0.0
 10
4.6513221371
 20
3.7495973518
 30
0.0
 10
4.6469976613
 20
3.7559314111
 30
0.0
 10
4.6450408512
 20
3.7593206522
 30
0.0
  0
SPLINE
  5
28D
100
AcDbEntity
  8
ALL_ASSEMBLY_MEMBERS
100
AcDbSpline
 62
7
  6
CONTINUOUS
 70
0
 71
3
 72
22
 73
18
 74
0
 42
0.0000001
 43
0.0000001
 44
0.0000000001
 40
0.0
 40
0.0
 40
0.0
 40
0.0
 40
0.1549301196
 40
0.2262475487
 40
0.293120921
 40
0.3553870842
 40
0.4129108336
 40
0.4658431967
 40
0.5148159895
 40
0.561039846
 40
0.6064937358
 40
0.6539290354
 40
0.7062053523
 40
0.7656504944
 40
0.8340379565
 40
0.9121572139
 40
1.0
 40
1.0
 40
1.0
 40
1.0
 10
4.4898035561
 20
3.5883460538
 30
0.0
 10
4.4909880977
 20
3.5877935283
 30
0.0
 10
4.492696393
 20
3.5869360578
 30
0.0
 10
4.4948213621
 20
3.5856692086
 30
0.0
 10
4.49622121
 20
3.5847181274
 30
0.0
 10
4.4974565701
 20
3.5837385809
 30
0.0
 10
4.4985086513
 20
3.5827262422
 30
0.0
 10
4.4993566271
 20
3.581676388
 30
0.0
 10
4.4999771253
 20
3.5805835509
 30
0.0
 10
4.5003413964
 20
3.5794433981
 30
0.0
 10
4.5004132891
 20
3.5782584823
 30
0.0
 10
4.5001593807
 20
3.5770464002
 30
0.0
 10
4.4995727728
 20
3.5758266946
 30
0.0
 10
4.4986548458
 20
3.5746061057
 30
0.0
 10
4.4974021765
 20
3.5733942173
 30
0.0
 10
4.4958261873
 20
3.5721949381
 30
0.0
 10
4.4946381157
 20
3.5714507166
 30
0.0
 10
4.4939967887
 20
3.5710793589
 30
0.0
  0
SPLINE
  5
28E
100
AcDbEntity
  8
ALL_ASSEMBLY_MEMBERS
100
AcDbSpline
 62
7
  6
CONTINUOUS
 70
0
 71
3
 72
27
 73
23
 74
0
 42
0.0000001
 43
0.0000001
 44
0.0000000001
 40
0.0
 40
0.0
 40
0.0
 40
0.0
 40
0.0108796351
 40
0.0236119288
 40
0.038138614
 40
0.0543676451
 40
0.0721824353
 40
0.0914587156
 40
0.1340054482
 40
0.1813192913
 40
0.2329097949
 40
0.2884708265
 40
0.3478683536
 40
0.411137666
 40
0.4784936742
 40
0.6272529402
 40
0.7103250311
 40
0.7544518052
 40
0.8004188042
 40
0.8976640502
 40
0.9485196917
 40
1.0
 40
1.0
 40
1.0
 40
1.0
 10
5.0750821289
 20
3.8670730097
 30
0.0
 10
5.0754433879
 20
3.8668645664
 30
0.0
 10
5.0761798832
 20
3.8663301828
 30
0.0
 10
5.0772484834
 20
3.8653295921
 30
0.0
 10
5.0783640184
 20
3.8640883662
 30
0.0
 10
5.079516407
 20
3.8626246178
 30
0.0
 10
5.0806978903
 20
3.860955687
 30
0.0
 10
5.0823569122
 20
3.8583919708
 30
0.0
 10
5.0844340132
 20
3.8547563141
 30
0.0
 10
5.086848469
 20
3.8498980495
 30
0.0
 10
5.0891984069
 20
3.8444596929
 30
0.0
 10
5.0914221205
 20
3.838471454
 30
0.0
 10
5.0934525866
 20
3.8319440585
 30
0.0
 10
5.0952128631
 20
3.8248701112
 30
0.0
 10
5.0971377169
 20
3.8143293081
 30
0.0
 10
5.0979509098
 20
3.8028282565
 30
0.0
 10
5.0972572793
 20
3.7922548663
 30
0.0
 10
5.0962904576
 20
3.7856833315
 30
0.0
 10
5.0948214676
 20
3.7786502302
 30
0.0
 10
5.0925925
 20
3.7715226116
 30
0.0
 10
5.0895306354
 20
3.7645051735
 30
0.0
 10
5.0877004716
 20
3.7610298561
 30
0.0
 10
5.0867138072
 20
3.7593206522
 30
0.0
  0
SPLINE
  5
28F
100
AcDbEntity
  8
ALL_ASSEMBLY_MEMBERS
100
AcDbSpline
 62
7
  6
CONTINUOUS
 70
0
 71
3
 72
22
 73
18
 74
0
 42
0.0000001
 43
0.0000001
 44
0.0000000001
 40
0.0
 40
0.0
 40
0.0
 40
0.0
 40
0.0708787383
 40
0.1061702423
 40
0.1412715837
 40
0.2107712978
 40
0.2791986777
 40
0.346479226
 40
0.4126048853
 40
0.5413943855
 40
0.6654306315
 40
0.7255133996
 40
0.7841468137
 40
0.8411714747
 40
0.8963979116
 40
0.9495097216
 40
1.0
 40
1.0
 40
1.0
 40
1.0
 10
4.8658773292
 20
4.4247047802
 30
0.0
 10
4.8630004559
 20
4.4247053765
 30
0.0
 10
4.8586888141
 20
4.4245295433
 30
0.0
 10
4.8529813976
 20
4.4239692864
 30
0.0
 10
4.8473530408
 20
4.4232111523
 30
0.0
 10
4.8404425466
 20
4.4219334769
 30
0.0
 10
4.8323421867
 20
4.4199826069
 30
0.0
 10
4.8244603698
 20
4.4177429621
 30
0.0
 10
4.8143155186
 20
4.4145239254
 30
0.0
 10
4.8021022479
 20
4.4102243931
 30
0.0
 10
4.7901941726
 20
4.4058089716
 30
0.0
 10
4.7809475208
 20
4.4024057628
 30
0.0
 10
4.7742379416
 20
4.3999842552
 30
0.0
 10
4.7676865006
 20
4.3977061932
 30
0.0
 10
4.7613080127
 20
4.3956154555
 30
0.0
 10
4.7551317779
 20
4.3937650136
 30
0.0
 10
4.7510597743
 20
4.3927086618
 30
0.0
 10
4.749063073
 20
4.3922471968
 30
0.0
  0
SPLINE
  5
290
100
AcDbEntity
  8
ALL_ASSEMBLY_MEMBERS
100
AcDbSpline
 62
7
  6
CONTINUOUS
 70
0
 71
3
 72
30
 73
26
 74
0
 42
0.0000001
 43
0.0000001
 44
0.0000000001
 40
0.0
 40
0.0
 40
0.0
 40
0.0
 40
0.0514514754
 40
0.1022776145
 40
0.1994712086
 40
0.2454217849
 40
0.2895472412
 40
0.3319368236
 40
0.3726710554
 40
0.4496994559
 40
0.5215601515
 40
0.5889104608
 40
0.6210400905
 40
0.652179843
 40
0.711568791
 40
0.7671264535
 40
0.8187048748
 40
0.8660258572
 40
0.9085505374
 40
0.9278330266
 40
0.9456501349
 40
0.9618724946
 40
0.9763897819
 40
0.9891184565
 40
1.0
 40
1.0
 40
1.0
 40
1.0
 10
4.6450408512
 20
3.7593206522
 30
0.0
 10
4.6440545577
 20
3.7610291662
 30
0.0
 10
4.6422250525
 20
3.7645030245
 30
0.0
 10
4.6391641474
 20
3.7715176329
 30
0.0
 10
4.6369353019
 20
3.7786426361
 30
0.0
 10
4.6354658253
 20
3.7856740556
 30
0.0
 10
4.6347256677
 20
3.7907019768
 30
0.0
 10
4.634281343
 20
3.7955629344
 30
0.0
 10
4.6340287645
 20
3.8017004762
 30
0.0
 10
4.6342401423
 20
3.8089782354
 30
0.0
 10
4.6351441413
 20
3.8172273348
 30
0.0
 10
4.636327876
 20
3.8236948221
 30
0.0
 10
4.6374623802
 20
3.8285735171
 30
0.0
 10
4.638667022
 20
3.8331202687
 30
0.0
 10
4.6403331022
 20
3.8384712853
 30
0.0
 10
4.6425550052
 20
3.8444602326
 30
0.0
 10
4.6449070967
 20
3.8498983717
 30
0.0
 10
4.6473196473
 20
3.8547574349
 30
0.0
 10
4.6493985899
 20
3.8583924402
 30
0.0
 10
4.651056777
 20
3.8609566505
 30
0.0
 10
4.6522381996
 20
3.8626261353
 30
0.0
 10
4.6533906998
 20
3.8640895273
 30
0.0
 10
4.6545064389
 20
3.8653299271
 30
0.0
 10
4.6555749527
 20
3.8663302725
 30
0.0
 10
4.6563111602
 20
3.8668651849
 30
0.0
 10
4.6566724607
 20
3.8670738388
 30
0.0
  0
SPLINE
  5
291
100
AcDbEntity
  8
ALL_ASSEMBLY_MEMBERS
100
AcDbSpline
 62
7
  6
CONTINUOUS
 70
0
 71
3
 72
27
 73
23
 74
0
 42
0.0000001
 43
0.0000001
 44
0.0000000001
 40
0.0
 40
0.0
 40
0.0
 40
0.0
 40
0.0448525867
 40
0.0928682228
 40
0.1436442567
 40
0.1969005805
 40
0.3099592699
 40
0.4307687259
 40
0.4938857777
 40
0.5588135779
 40
0.5919785752
 40
0.625636174
 40
0.6598141314
 40
0.6945482243
 40
0.7298899519
 40
0.7659117644
 40
0.8026856052
 40
0.8403186589
 40
0.8789201663
 40
0.9184839267
 40
0.9590312491
 40
1.0
 40
1.0
 40
1.0
 40
1.0
 10
4.419353858
 20
3.7103685102
 30
0.0
 10
4.4192403742
 20
3.7090676987
 30
0.0
 10
4.4189283256
 20
3.7063809279
 30
0.0
 10
4.418282136
 20
3.7022487331
 30
0.0
 10
4.4174758823
 20
3.6978959069
 30
0.0
 10
4.4162022044
 20
3.6917053302
 30
0.0
 10
4.4143619937
 20
3.6835512906
 30
0.0
 10
4.4124355306
 20
3.6751227309
 30
0.0
 10
4.410924396
 20
3.6680371961
 30
0.0
 10
4.4100269275
 20
3.6634302156
 30
0.0
 10
4.4093680761
 20
3.6596515556
 30
0.0
 10
4.4089131715
 20
3.6567464433
 30
0.0
 10
4.4085110779
 20
3.6537873883
 30
0.0
 10
4.4081761808
 20
3.6507704742
 30
0.0
 10
4.4079330744
 20
3.6476907289
 30
0.0
 10
4.4078017702
 20
3.6445444888
 30
0.0
 10
4.4078187082
 20
3.6413281934
 30
0.0
 10
4.408032536
 20
3.6380429625
 30
0.0
 10
4.4084897142
 20
3.634699409
 30
0.0
 10
4.4092701051
 20
3.6313263764
 30
0.0
 10
4.4104397967
 20
3.6279935719
 30
0.0
 10
4.4114884147
 20
3.6258562849
 30
0.0
 10
4.4120847932
 20
3.6248234094
 30
0.0
  0
SPLINE
  5
292
100
AcDbEntity
  8
ALL_ASSEMBLY_MEMBERS
100
AcDbSpline
 62
7
  6
CONTINUOUS
 70
0
 71
3
 72
22
 73
18
 74
0
 42
0.0000001
 43
0.0000001
 44
0.0000000001
 40
0.0
 40
0.0
 40
0.0
 40
0.0
 40
0.0878756865
 40
0.1659901563
 40
0.2343148491
 40
0.2938018615
 40
0.3461128063
 40
0.3935315565
 40
0.4389962598
 40
0.4852333866
 40
0.5342037404
 40
0.5871346407
 40
0.6446614429
 40
0.7069326751
 40
0.7738038911
 40
0.8451067148
 40
1.0
 40
1.0
 40
1.0
 40
1.0
 10
4.9533766651
 20
4.3667534154
 30
0.0
 10
4.9533758604
 20
4.3660119415
 30
0.0
 10
4.9533261497
 20
4.3646105115
 30
0.0
 10
4.9530770815
 20
4.3626456885
 30
0.0
 10
4.9526515501
 20
4.3609554264
 30
0.0
 10
4.9520544266
 20
4.3595496672
 30
0.0
 10
4.9512929515
 20
4.3584296936
 30
0.0
 10
4.9503690988
 20
4.3576041928
 30
0.0
 10
4.9493068979
 20
4.3570739105
 30
0.0
 10
4.9481371589
 20
4.3568185452
 30
0.0
 10
4.9468802
 20
4.3568088655
 30
0.0
 10
4.945546771
 20
4.3570181616
 30
0.0
 10
4.9441437484
 20
4.3574231934
 30
0.0
 10
4.9426775445
 20
4.3580035298
 30
0.0
 10
4.9411538819
 20
4.3587404842
 30
0.0
 10
4.9389943507
 20
4.3599473085
 30
0.0
 10
4.9373977223
 20
4.3609979005
 30
0.0
 10
4.9363270272
 20
4.3617473926
 30
0.0
  0
SPLINE
  5
293
100
AcDbEntity
  8
ALL_ASSEMBLY_MEMBERS
100
AcDbSpline
 62
7
  6
CONTINUOUS
 70
0
 71
3
 72
22
 73
18
 74
0
 42
0.0000001
 43
0.0000001
 44
0.0000000001
 40
0.0
 40
0.0
 40
0.0
 40
0.0
 40
0.0507996592
 40
0.1040799613
 40
0.1594047568
 40
0.2165147713
 40
0.3352993635
 40
0.4593014385
 40
0.5230787907
 40
0.5879987195
 40
0.6540555385
 40
0.7212521109
 40
0.7895832518
 40
0.8589736774
 40
0.8940164074
 40
0.9292480116
 40
1.0
 40
1.0
 40
1.0
 40
1.0
 10
4.3700057289
 20
3.7344494574
 30
0.0
 10
4.3705893484
 20
3.7324870421
 30
0.0
 10
4.3716828088
 20
3.7284357838
 30
0.0
 10
4.3731399793
 20
3.7221780355
 30
0.0
 10
4.3744957232
 20
3.7156378283
 30
0.0
 10
4.3762310445
 20
3.7064817705
 30
0.0
 10
4.3782875133
 20
3.6945710397
 30
0.0
 10
4.3803637914
 20
3.6823913299
 30
0.0
 10
4.3822044783
 20
3.6723743483
 30
0.0
 10
4.3837349743
 20
3.6646754999
 30
0.0
 10
4.3854607835
 20
3.6568764018
 30
0.0
 10
4.3874559484
 20
3.6489990751
 30
0.0
 10
4.389808421
 20
3.6410794933
 30
0.0
 10
4.3921457233
 20
3.6345158264
 30
0.0
 10
4.394290437
 20
3.6293103686
 30
0.0
 10
4.3966426331
 20
3.6241353222
 30
0.0
 10
4.3986297031
 20
3.620347729
 30
0.0
 10
4.4000560101
 20
3.6178785882
 30
0.0
  0
SPLINE
  5
294
100
AcDbEntity
  8
ALL_ASSEMBLY_MEMBERS
100
AcDbSpline
 62
7
  6
CONTINUOUS
 70
0
 71
3
 72
27
 73
23
 74
0
 42
0.0000001
 43
0.0000001
 44
0.0000000001
 40
0.0
 40
0.0
 40
0.0
 40
0.0
 40
0.0514819193
 40
0.1023378082
 40
0.1995545182
 40
0.2455030706
 40
0.2896251256
 40
0.3726891128
 40
0.5214558884
 40
0.5888143006
 40
0.6520861815
 40
0.7114870565
 40
0.7670524117
 40
0.8186481668
 40
0.8659665354
 40
0.9085169497
 40
0.9277986106
 40
0.9456174627
 40
0.961847316
 40
0.9763779115
 40
0.9891164183
 40
1.0
 40
1.0
 40
1.0
 40
1.0
 10
4.8658773292
 20
4.1418206522
 30
0.0
 10
4.8678509405
 20
4.141820567
 30
0.0
 10
4.8717758184
 20
4.1416677577
 30
0.0
 10
4.8793829781
 20
4.1408106784
 30
0.0
 10
4.8866687078
 20
4.1391787584
 30
0.0
 10
4.8934919555
 20
4.1369343081
 30
0.0
 10
4.8996655137
 20
4.1344866571
 30
0.0
 10
4.9091692516
 20
4.1298012787
 30
0.0
 10
4.9187234362
 20
4.1233471975
 30
0.0
 10
4.9268903259
 20
4.1164098902
 30
0.0
 10
4.9321368988
 20
4.1113485069
 30
0.0
 10
4.936775043
 20
4.1063262723
 30
0.0
 10
4.940849672
 20
4.1014061321
 30
0.0
 10
4.9443849703
 20
4.0966515443
 30
0.0
 10
4.9473855676
 20
4.0921310889
 30
0.0
 10
4.9494957993
 20
4.0885139569
 30
0.0
 10
4.9508870558
 20
4.0857950458
 30
0.0
 10
4.9517420096
 20
4.0839371073
 30
0.0
 10
4.9524333906
 20
4.0822068399
 30
0.0
 10
4.9529508278
 20
4.0806198032
 30
0.0
 10
4.9532836837
 20
4.0791936667
 30
0.0
 10
4.9533784239
 20
4.0782882558
 30
0.0
 10
4.9533782782
 20
4.0778710228
 30
0.0
  0
SPLINE
  5
295
100
AcDbEntity
  8
ALL_ASSEMBLY_MEMBERS
100
AcDbSpline
 62
7
  6
CONTINUOUS
 70
0
 71
3
 72
22
 73
18
 74
0
 42
0.0000001
 43
0.0000001
 44
0.0000000001
 40
0.0
 40
0.0
 40
0.0
 40
0.0
 40
0.0878711234
 40
0.1659734758
 40
0.234293805
 40
0.2937894395
 40
0.3460956071
 40
0.39350758
 40
0.438976169
 40
0.4852097144
 40
0.5341691726
 40
0.5871037648
 40
0.644640151
 40
0.706912563
 40
0.773780692
 40
0.8450902625
 40
1.0
 40
1.0
 40
1.0
 40
1.0
 10
4.4064935689
 20
3.722630931
 30
0.0
 10
4.4071360585
 20
3.7230009879
 30
0.0
 10
4.408374433
 20
3.7236586648
 30
0.0
 10
4.4102004414
 20
3.7244252606
 30
0.0
 10
4.4118769956
 20
3.7249016701
 30
0.0
 10
4.4133928973
 20
3.7250879372
 30
0.0
 10
4.4147436287
 20
3.724988673
 30
0.0
 10
4.4159202274
 20
3.7246008661
 30
0.0
 10
4.4169106656
 20
3.7239464686
 30
0.0
 10
4.41771705
 20
3.7230615374
 30
0.0
 10
4.4183539601
 20
3.7219779115
 30
0.0
 10
4.4188392801
 20
3.720718393
 30
0.0
 10
4.4191900134
 20
3.7193006951
 30
0.0
 10
4.4194208074
 20
3.7177407267
 30
0.0
 10
4.4195447023
 20
3.7160526816
 30
0.0
 10
4.4195793253
 20
3.7135788678
 30
0.0
 10
4.4194676764
 20
3.7116706466
 30
0.0
 10
4.419353858
 20
3.7103685102
 30
0.0
  0
ENDSEC
  0
SECTION
  2
OBJECTS
  0
DICTIONARY
  5
C
100
AcDbDictionary
280
0
281
1
  3
ACAD_GROUP
350
D
  3
ACAD_MLINESTYLE
350
17
  3
ACAD_LAYOUT
350
1A
  3
ACAD_PLOTSETTINGS
350
19
  3
ACAD_PLOTSTYLENAME
350
E
  0
DICTIONARY
  5
D
102
{ACAD_REACTORS
330
C
102
}
100
AcDbDictionary
280
0
281
1
  0
ACDBDICTIONARYWDFLT
  5
E
102
{ACAD_REACTORS
330
C
102
}
100
AcDbDictionary
281
1
  3
Normal
350
F
100
AcDbDictionaryWithDefault
340
F
  0
DICTIONARY
  5
17
102
{ACAD_REACTORS
330
C
102
}
100
AcDbDictionary
280
0
281
1
  3
Standard
350
18
  0
DICTIONARY
  5
19
102
{ACAD_REACTORS
330
C
102
}
100
AcDbDictionary
281
1
  0
DICTIONARY
  5
1A
102
{ACAD_REACTORS
330
C
102
}
100
AcDbDictionary
281
1
  3
Model
350
296
  3
Layout1
350
297
  0
ACDBPLACEHOLDER
  5
F
102
{ACAD_REACTORS
330
E
102
}
  0
MLINESTYLE
  5
18
102
{ACAD_REACTORS
330
17
102
}
100
AcDbMlineStyle
  2
STANDARD
 70
0
  3

 62
256
 51
90.0
 52
90.0
 71
2
 49
0.5
 62
256
  6
BYLAYER
 49
-0.5
 62
256
  6
BYLAYER
  0
LAYOUT
  5
296
102
{ACAD_REACTORS
330
1A
102
}
100
AcDbPlotSettings
  1

  2
none_device
  4
ANSI_A_(11.00_x_8.50_Inches)
  6

 40
0.0
 41
0.0
 42
0.0
 43
0.0
 44
279.4
 45
215.9
 46
0.0
 47
0.0
 48
0.0
 49
0.0
140
0.0
141
0.0
142
1.0
143
1.0
 70
1024
 72
0
 73
0
 74
0
  7

 75
0
147
1.0
148
0.0
149
0.0
100
AcDbLayout
  1
Model
 70
0
 71
0
 10
0.0
 20
0.0
 11
11.0
 21
8.5
 12
0.0
 22
0.0
 32
0.0
 14
0.0
 24
0.0
 34
0.0
 15
0.0
 25
0.0
 35
0.0
146
0.0
 13
0.0
 23
0.0
 33
0.0
 16
1.0
 26
0.0
 36
0.0
 17
0.0
 27
1.0
 37
0.0
 76
0
330
21E
345
0
346
0
  0
LAYOUT
  5
297
102
{ACAD_REACTORS
330
1A
102
}
100
AcDbPlotSettings
  1

  2
none_device
  4
ANSI_A_(11.00_x_8.50_Inches)
  6

 40
0.0
 41
0.0
 42
0.0
 43
0.0
 44
279.4
 45
215.9
 46
0.0
 47
0.0
 48
0.0
 49
0.0
140
0.0
141
0.0
142
1.0
143
1.0
 70
0
 72
0
 73
0
 74
0
  7

 75
0
147
1.0
148
0.0
149
0.0
100
AcDbLayout
  1
Layout1
 70
0
 71
1
 10
0.0
 20
0.0
 11
11.0
 21
8.5
 12
0.0
 22
0.0
 32
0.0
 14
0.0
 24
0.0
 34
0.0
 15
0.0
 25
0.0
 35
0.0
146
0.0
 13
0.0
 23
0.0
 33
0.0
 16
1.0
 26
0.0
 36
0.0
 17
0.0
 27
1.0
 37
0.0
 76
0
330
21F
345
0
346
0
  0
ENDSEC
  0
EOF
