999
DXF file: E:\BT Custom\CADOUTPUT\_FRONT.dxf
999
Pro/ENGINEER 2018400 by Parametric Technology Corporation
  0
SECTION
  2
HEADER
  9
$ACADVER
  1
AC1018
  9
$DWGCODEPAGE
  3
ANSI_1252
  9
$EXTMAX
 10
22.0
 20
17.0
 30
0.0
  9
$EXTMIN
 10
0.0
 20
0.0
 30
0.0
  9
$LIMMIN
 10
0.0
 20
0.0
  9
$LIMMAX
 10
22.0
 20
17.0
  9
$VIEWCTR
 10
11.0
 20
8.5
  9
$VIEWSIZE
 40
17.0
  9
$CLAYER
  8
0
  9
$LTSCALE
 40
1.21
  9
$CELTYPE
  6
BYLAYER
  9
$DIMSCALE
 40
1.0
  9
$DIMASZ
 40
0.1
  9
$DIMEXO
 40
0.0625
  9
$DIMDLI
 40
0.836
  9
$DIMEXE
 40
0.125
  9
$DIMCEN
 40
0.198
  9
$DIMLFAC
 40
1.0
  9
$DIMBLK
  1
_FILLED
  9
$DIMALT
 70
1
  9
$DIMALTD
 70
2
  9
$DIMALTTD
 70
2
  9
$DIMALTF
 40
25.4
  9
$DIMTXT
 40
0.08
  9
$DIMTOL
 70
1
  9
$DIMLIM
 70
0
  9
$DIMTFAC
 40
1.0
  9
$DIMTP
 40
0.001
  9
$DIMTM
 40
0.001
  9
$DIMGAP
 40
0.09
  9
$DIMDSEP
 70
46
  9
$AUNITS
 70
0
  9
$PDMODE
 70
3
  9
$PDSIZE
 40
0.06
  9
$HANDSEED
  5
293
  9
$TILEMODE
 70
1
  9
$MEASUREMENT
 70
0
  9
$INSUNITS
 70
1
  0
ENDSEC
  0
SECTION
  2
CLASSES
  0
CLASS
  1
ACDBDICTIONARYWDFLT
  2
AcDbDictionaryWithDefault
  3
AutoCAD 2000
 90
0
 91
1
280
0
281
0
  0
CLASS
  1
ACDBPLACEHOLDER
  2
AcDbPlaceHolder
  3
AutoCAD 2000
 90
0
 91
1
280
0
281
0
  0
CLASS
  1
LAYOUT
  2
AcDbLayout
  3
AutoCAD 2000
 90
0
 91
0
280
0
281
0
  0
ENDSEC
  0
SECTION
  2
TABLES
  0
TABLE
  2
VPORT
  5
8
100
AcDbSymbolTable
 70
2
  0
VPORT
  5
1F4
100
AcDbSymbolTableRecord
100
AcDbViewportTableRecord
  2
*ACTIVE
 70
0
 10
0.0
 20
0.0
 11
1.0
 21
1.0
 12
11.0
 22
8.5
 13
0.0
 23
0.0
 14
1.0
 24
1.0
 15
0.0
 25
0.0
 16
0.0
 26
0.0
 36
1.0
 17
0.0
 27
0.0
 37
0.0
 40
17.0
 41
1.2941176471
 42
50.0
 43
0.0
 44
0.0
 50
0.0
 51
0.0
 71
0
 72
100
 73
1
 74
1
 75
0
 76
0
 77
0
 78
0
  0
ENDTAB
  0
TABLE
  2
LTYPE
  5
5
100
AcDbSymbolTable
 70
6
  0
LTYPE
  5
14
100
AcDbSymbolTableRecord
100
AcDbLinetypeTableRecord
  2
BYBLOCK
 70
0
  3

 72
65
 73
0
 40
0.0
  0
LTYPE
  5
15
100
AcDbSymbolTableRecord
100
AcDbLinetypeTableRecord
  2
BYLAYER
 70
0
  3

 72
65
 73
0
 40
0.0
  0
LTYPE
  5
16
100
AcDbSymbolTableRecord
100
AcDbLinetypeTableRecord
  2
CONTINUOUS
 70
64
  3
Solid line
 72
65
 73
0
 40
0.0
  0
LTYPE
  5
1F5
100
AcDbSymbolTableRecord
100
AcDbLinetypeTableRecord
  2
CENTER
 70
64
  3
____ _ ____ _ ____ _ ____ _ ____ _ ____ _ ____
 72
65
 73
4
 40
0.6
 49
0.375
 74
0
 49
-0.075
 74
0
 49
0.075
 74
0
 49
-0.075
 74
0
  0
LTYPE
  5
1F6
100
AcDbSymbolTableRecord
100
AcDbLinetypeTableRecord
  2
HIDDEN
 70
64
  3
- - - - - - - - - - - - - - - - - - - -
 72
65
 73
2
 40
0.2
 49
0.1
 74
0
 49
-0.1
 74
0
  0
LTYPE
  5
1F7
100
AcDbSymbolTableRecord
100
AcDbLinetypeTableRecord
  2
PHANTOM
 70
64
  3
_____ _ _ _____ _ _ _____ _ _ _____
 72
65
 73
6
 40
0.8
 49
0.45
 74
0
 49
-0.05
 74
0
 49
0.1
 74
0
 49
-0.05
 74
0
 49
0.1
 74
0
 49
-0.05
 74
0
  0
LTYPE
  5
1F8
100
AcDbSymbolTableRecord
100
AcDbLinetypeTableRecord
  2
DOT
 70
64
  3
. . . . . . . . . . . . . . . . . . . .
 72
65
 73
2
 40
0.2
 49
0.1
 74
0
 49
-0.1
 74
0
  0
LTYPE
  5
1F9
100
AcDbSymbolTableRecord
100
AcDbLinetypeTableRecord
  2
DASHED
 70
64
  3
- - - - - - - - - - - - - - - - - - - -
 72
65
 73
2
 40
0.2
 49
0.1
 74
0
 49
-0.1
 74
0
  0
ENDTAB
  0
TABLE
  2
LAYER
  5
2
100
AcDbSymbolTable
 70
36
  0
LAYER
  5
10
100
AcDbSymbolTableRecord
100
AcDbLayerTableRecord
  2
0
 70
0
 62
7
  6
CONTINUOUS
370
-3
390
F
  0
LAYER
  5
1FA
100
AcDbSymbolTableRecord
100
AcDbLayerTableRecord
  2
DEFAULT_1
 70
0
 62
7
  6
CENTER
370
-3
390
F
  0
LAYER
  5
1FB
100
AcDbSymbolTableRecord
100
AcDbLayerTableRecord
  2
DEFAULT_2
 70
0
 62
8
  6
HIDDEN
370
-3
390
F
  0
LAYER
  5
1FC
100
AcDbSymbolTableRecord
100
AcDbLayerTableRecord
  2
DEFAULT_3
 70
0
 62
7
  6
PHANTOM
370
-3
390
F
  0
LAYER
  5
1FD
100
AcDbSymbolTableRecord
100
AcDbLayerTableRecord
  2
ALL_FEATURES
 70
0
 62
7
  6
CONTINUOUS
370
-3
390
F
  0
LAYER
  5
1FE
100
AcDbSymbolTableRecord
100
AcDbLayerTableRecord
  2
AXES_FEATURES
 70
0
 62
7
  6
CONTINUOUS
370
-3
390
F
  0
LAYER
  5
1FF
100
AcDbSymbolTableRecord
100
AcDbLayerTableRecord
  2
DIMENSIONS
 70
0
 62
7
  6
CONTINUOUS
370
-3
390
F
  0
ENDTAB
  0
TABLE
  2
STYLE
  5
3
100
AcDbSymbolTable
 70
1
  0
STYLE
  5
11
100
AcDbSymbolTableRecord
100
AcDbTextStyleTableRecord
  2
STANDARD
 70
0
 40
0.0
 41
0.8
 50
0.0
 71
0
 42
0.2
  3
txt
  4

  0
STYLE
  5
200
100
AcDbSymbolTableRecord
100
AcDbTextStyleTableRecord
  2
TEXTSTYLE_1
 70
0
 40
0.0
 41
0.8
 50
0.0
 71
0
 42
0.2
  3
gdt
  4

  0
ENDTAB
  0
TABLE
  2
VIEW
  5
6
100
AcDbSymbolTable
 70
0
  0
ENDTAB
  0
TABLE
  2
UCS
  5
7
100
AcDbSymbolTable
 70
0
  0
ENDTAB
  0
TABLE
  2
APPID
  5
9
100
AcDbSymbolTable
 70
1
  0
APPID
  5
201
100
AcDbSymbolTableRecord
100
AcDbRegAppTableRecord
  2
ACAD
 70
0
  0
ENDTAB
  0
TABLE
  2
BLOCK_RECORD
  5
1
100
AcDbSymbolTable
 70
0
  0
BLOCK_RECORD
  5
202
100
AcDbSymbolTableRecord
100
AcDbBlockTableRecord
  2
*Model_Space
  0
BLOCK_RECORD
  5
203
100
AcDbSymbolTableRecord
100
AcDbBlockTableRecord
  2
*Paper_Space
  0
BLOCK_RECORD
  5
204
100
AcDbSymbolTableRecord
100
AcDbBlockTableRecord
  2
_FILLED
  0
ENDTAB
  0
TABLE
  2
DIMSTYLE
  5
A
100
AcDbSymbolTable
 70
1
100
AcDbDimStyleTable
 71
0
  0
DIMSTYLE
105
205
100
AcDbSymbolTableRecord
100
AcDbDimStyleTableRecord
  2
STANDARD
 70
0
  3

  4

 40
1.0
 41
0.1
 42
0.0625
 43
0.38
 44
0.125
 45
0.0
 46
0.0
 47
0.001
 48
0.001
140
0.08
141
0.09
142
0.0
143
25.4
144
1.0
145
0.0
146
1.0
147
0.09
 71
1.0
 72
0.0
 73
1
 74
1
 75
0
 76
0
 77
0
 78
4
 79
1
170
1
171
2
172
0
173
0
174
0
175
0
176
0
177
0
178
0
270
2
179
3
271
3
272
3
273
2
274
2
275
0
280
0
281
0
282
0
283
1
284
4
285
0
286
0
287
3
288
0
340
11
278
46
341
204
342
204
343
204
344
204
  0
ENDTAB
  0
ENDSEC
  0
SECTION
  2
BLOCKS
  0
BLOCK
  5
20
100
AcDbEntity
  8
0
100
AcDbBlockBegin
  2
*Model_Space
 70
0
 10
0.0
 20
0.0
 30
0.0
  3
*Model_Space
  1

  0
ENDBLK
  5
21
100
AcDbEntity
  8
0
100
AcDbBlockEnd
  0
BLOCK
  5
1C
100
AcDbEntity
  8
0
100
AcDbBlockBegin
  2
*Paper_Space
 70
0
 10
0.0
 20
0.0
 30
0.0
  3
*Paper_Space
  1

  0
ENDBLK
  5
1D
100
AcDbEntity
  8
0
100
AcDbBlockEnd
  0
BLOCK
  5
206
100
AcDbEntity
  8
0
100
AcDbBlockBegin
  2
_FILLED
 70
64
 10
0.0
 20
0.0
  3
_FILLED
  1

  0
SOLID
  5
207
100
AcDbEntity
  8
0
  6
BYBLOCK
 62
0
100
AcDbTrace
 10
0.0
 20
0.0
 11
-1.0
 21
0.2
 12
-1.0
 22
-0.2
 13
-1.0
 23
-0.2
  0
ENDBLK
  5
208
100
AcDbEntity
  8
0
  6
BYBLOCK
 62
0
100
AcDbBlockEnd
  0
ENDSEC
  0
SECTION
  2
ENTITIES
  0
LINE
  5
209
100
AcDbEntity
  8
0
100
AcDbLine
 62
7
  6
CONTINUOUS
 10
5.7501926908
 20
3.2789195021
 11
8.1251919947
 21
3.2789195021
  0
LINE
  5
20A
100
AcDbEntity
  8
0
100
AcDbLine
 62
7
  6
CONTINUOUS
 10
9.7501946004
 20
3.2789195021
 11
12.1251900851
 21
3.2789195021
  0
LINE
  5
20B
100
AcDbEntity
  8
0
100
AcDbLine
 62
7
  6
CONTINUOUS
 10
13.7501926908
 20
3.2789195021
 11
16.1251919947
 21
3.2789195021
  0
LINE
  5
20C
100
AcDbEntity
  8
0
100
AcDbLine
 62
7
  6
CONTINUOUS
 10
16.125193396
 20
3.6539195021
 11
13.7501912894
 21
3.6539195021
  0
LINE
  5
20D
100
AcDbEntity
  8
0
100
AcDbLine
 62
7
  6
CONTINUOUS
 10
8.125193396
 20
3.6539195021
 11
5.7501912894
 21
3.6539195021
  0
LINE
  5
20E
100
AcDbEntity
  8
0
100
AcDbLine
 62
7
  6
CONTINUOUS
 10
5.8729500466
 20
5.9669529171
 11
6.553226796
 21
5.5134350841
  0
LWPOLYLINE
  5
20F
100
AcDbEntity
  8
0
100
AcDbPolyline
 62
7
  6
CONTINUOUS
 90
3
 70
0
 10
6.5532464898
 20
5.5134220751
 10
6.561972159
 20
5.5057128476
 10
6.5626923427
 20
5.5046469363
  0
LINE
  5
210
100
AcDbEntity
  8
0
100
AcDbLine
 62
7
  6
CONTINUOUS
 10
5.7501923427
 20
3.6539195021
 11
5.7501923427
 21
3.2789195021
  0
LINE
  5
211
100
AcDbEntity
  8
0
100
AcDbLine
 62
7
  6
CONTINUOUS
 10
12.1251900851
 20
4.3819195021
 11
9.7501946004
 21
4.3819195021
  0
LWPOLYLINE
  5
212
100
AcDbEntity
  8
0
100
AcDbPolyline
 62
7
  6
CONTINUOUS
 90
3
 70
0
 10
5.8497458634
 20
5.9779955665
 10
5.863139112
 20
5.9726330302
 10
5.8729450668
 20
5.9669561816
  0
LINE
  5
213
100
AcDbEntity
  8
0
100
AcDbLine
 62
7
  6
CONTINUOUS
 10
6.4814716422
 20
5.9819195021
 11
6.5247389553
 21
5.9530746267
  0
LINE
  5
214
100
AcDbEntity
  8
0
100
AcDbLine
 62
7
  6
CONTINUOUS
 10
6.2814423427
 20
4.7619195021
 11
6.2814423427
 21
3.6539195021
  0
LINE
  5
215
100
AcDbEntity
  8
0
100
AcDbLine
 62
7
  6
CONTINUOUS
 10
6.5626923427
 20
5.9819195021
 11
6.5626923427
 21
5.8467760877
  0
LINE
  5
216
100
AcDbEntity
  8
0
100
AcDbLine
 62
7
  6
CONTINUOUS
 10
6.5626923427
 20
5.5531244993
 11
6.5626923427
 21
5.3819195021
  0
LINE
  5
217
100
AcDbEntity
  8
0
100
AcDbLine
 62
7
  6
CONTINUOUS
 10
6.6226923427
 20
5.3819195021
 11
6.6226923427
 21
4.7819195021
  0
LINE
  5
218
100
AcDbEntity
  8
0
100
AcDbLine
 62
7
  6
CONTINUOUS
 10
15.3517377077
 20
5.9536157076
 11
15.3463491579
 21
5.9523271438
  0
LINE
  5
219
100
AcDbEntity
  8
0
100
AcDbLine
 62
7
  6
CONTINUOUS
 10
15.5939481593
 20
4.7619195021
 11
14.2814365262
 21
4.7619195021
  0
LINE
  5
21A
100
AcDbEntity
  8
0
100
AcDbLine
 62
7
  6
CONTINUOUS
 10
7.5939481593
 20
4.7619195021
 11
6.2814365262
 21
4.7619195021
  0
LINE
  5
21B
100
AcDbEntity
  8
0
100
AcDbLine
 62
7
  6
CONTINUOUS
 10
6.6227117267
 20
4.7819195021
 11
7.2526729588
 21
4.7819195021
  0
LINE
  5
21C
100
AcDbEntity
  8
0
100
AcDbLine
 62
7
  6
CONTINUOUS
 10
14.6227117267
 20
4.7819195021
 11
15.2526729588
 21
4.7819195021
  0
LINE
  5
21D
100
AcDbEntity
  8
0
100
AcDbLine
 62
7
  6
CONTINUOUS
 10
6.7376923427
 20
4.7819195021
 11
6.7376923427
 21
4.7619195021
  0
LINE
  5
21E
100
AcDbEntity
  8
0
100
AcDbLine
 62
7
  6
CONTINUOUS
 10
6.7626923427
 20
5.9819195021
 11
6.7626923427
 21
5.6880537946
  0
LINE
  5
21F
100
AcDbEntity
  8
0
100
AcDbLine
 62
9
  6
CONTINUOUS
 10
6.9376923182
 20
5.9714689615
 11
6.9376923058
 21
5.9830278972
  0
LINE
  5
220
100
AcDbEntity
  8
0
100
AcDbLine
 62
9
  6
CONTINUOUS
 10
6.9376923424
 20
5.5078630497
 11
6.9376923424
 21
5.4299207765
  0
LINE
  5
221
100
AcDbEntity
  8
0
100
AcDbLine
 62
7
  6
CONTINUOUS
 10
7.1376923427
 20
4.7819195021
 11
7.1376923427
 21
4.7619195021
  0
LINE
  5
222
100
AcDbEntity
  8
0
100
AcDbLine
 62
7
  6
CONTINUOUS
 10
7.1126923427
 20
5.9819195021
 11
7.112692267
 21
5.6878445067
  0
LINE
  5
223
100
AcDbEntity
  8
0
100
AcDbLine
 62
7
  6
CONTINUOUS
 10
6.562712436
 20
5.3819195021
 11
7.3126722495
 21
5.3819195021
  0
LINE
  5
224
100
AcDbEntity
  8
0
100
AcDbLine
 62
7
  6
CONTINUOUS
 10
14.562712436
 20
5.3819195021
 11
15.3126722495
 21
5.3819195021
  0
LWPOLYLINE
  5
225
100
AcDbEntity
  8
0
100
AcDbPolyline
 62
7
  6
CONTINUOUS
 90
4
 70
0
 10
7.340131371
 20
5.9519125736
 10
7.3289032276
 20
5.9533037207
 10
7.3136879024
 20
5.9596498393
 10
7.3126923427
 20
5.9604667998
  0
LINE
  5
226
100
AcDbEntity
  8
0
100
AcDbLine
 62
7
  6
CONTINUOUS
 10
6.5288931096
 20
5.9523472184
 11
6.5248364715
 21
5.9532209011
  0
LINE
  5
227
100
AcDbEntity
  8
0
100
AcDbLine
 62
7
  6
CONTINUOUS
 10
7.2526923427
 20
5.3819195021
 11
7.2526923427
 21
4.7819195021
  0
LINE
  5
228
100
AcDbEntity
  8
0
100
AcDbLine
 62
7
  6
CONTINUOUS
 10
7.3126923427
 20
5.9819195021
 11
7.3126923427
 21
5.8467714712
  0
LINE
  5
229
100
AcDbEntity
  8
0
100
AcDbLine
 62
7
  6
CONTINUOUS
 10
7.3126923427
 20
5.5531320268
 11
7.3126923427
 21
5.3819195021
  0
LINE
  5
22A
100
AcDbEntity
  8
0
100
AcDbLine
 62
7
  6
CONTINUOUS
 10
7.5939423427
 20
4.7619195021
 11
7.5939423427
 21
3.6539195021
  0
LINE
  5
22B
100
AcDbEntity
  8
0
100
AcDbLine
 62
7
  6
CONTINUOUS
 10
15.3463491579
 20
5.9523271438
 11
15.3405049059
 21
5.9519121526
  0
LINE
  5
22C
100
AcDbEntity
  8
0
100
AcDbLine
 62
7
  6
CONTINUOUS
 10
14.5348475798
 20
5.951912213
 11
14.5352320823
 21
5.9519124944
  0
LINE
  5
22D
100
AcDbEntity
  8
0
100
AcDbLine
 62
7
  6
CONTINUOUS
 10
6.5348475798
 20
5.951912213
 11
6.5352320823
 21
5.9519124944
  0
LINE
  5
22E
100
AcDbEntity
  8
0
100
AcDbLine
 62
7
  6
CONTINUOUS
 10
5.7036526437
 20
5.9819195021
 11
6.848483815
 21
5.9819195021
  0
LINE
  5
22F
100
AcDbEntity
  8
0
100
AcDbLine
 62
7
  6
CONTINUOUS
 10
7.0268984777
 20
5.9819195021
 11
8.1717320417
 21
5.9819195021
  0
LINE
  5
230
100
AcDbEntity
  8
0
100
AcDbLine
 62
7
  6
CONTINUOUS
 10
13.7036526437
 20
5.9819195021
 11
14.848483815
 21
5.9819195021
  0
LINE
  5
231
100
AcDbEntity
  8
0
100
AcDbLine
 62
7
  6
CONTINUOUS
 10
15.0268984777
 20
5.9819195021
 11
16.1717320417
 21
5.9819195021
  0
LINE
  5
232
100
AcDbEntity
  8
0
100
AcDbLine
 62
7
  6
CONTINUOUS
 10
7.3405049056
 20
5.9519121526
 11
7.340131371
 21
5.9519125736
  0
LINE
  5
233
100
AcDbEntity
  8
0
100
AcDbLine
 62
7
  6
CONTINUOUS
 10
15.3405049059
 20
5.9519121526
 11
15.3401313709
 21
5.9519125736
  0
LWPOLYLINE
  5
234
100
AcDbEntity
  8
0
100
AcDbPolyline
 62
7
  6
CONTINUOUS
 90
4
 70
0
 10
5.8241675365
 20
5.9819197124
 10
5.8281932352
 20
5.9818203575
 10
5.8381728854
 20
5.9807411847
 10
5.8497458634
 20
5.9779955665
  0
LWPOLYLINE
  5
235
100
AcDbEntity
  8
0
100
AcDbPolyline
 62
7
  6
CONTINUOUS
 90
4
 70
0
 10
13.8241675362
 20
5.9819197124
 10
13.8281936675
 20
5.9818203363
 10
13.8381735462
 20
5.9807410742
 10
13.84974662
 20
5.9779953325
  0
LINE
  5
236
100
AcDbEntity
  8
0
100
AcDbLine
 62
7
  6
CONTINUOUS
 10
6.5348475798
 20
5.9519122131
 11
6.5288931096
 21
5.9523472184
  0
LINE
  5
237
100
AcDbEntity
  8
0
100
AcDbLine
 62
7
  6
CONTINUOUS
 10
8.1251923427
 20
3.6539195021
 11
8.1251923427
 21
3.2789195021
  0
LINE
  5
238
100
AcDbEntity
  8
0
100
AcDbLine
 62
7
  6
CONTINUOUS
 10
7.3463491537
 20
5.9523271432
 11
7.3405049056
 21
5.9519121526
  0
LINE
  5
239
100
AcDbEntity
  8
0
100
AcDbLine
 62
7
  6
CONTINUOUS
 10
5.7036526437
 20
6.3819195021
 11
8.1717320417
 21
6.3819195021
  0
LINE
  5
23A
100
AcDbEntity
  8
0
100
AcDbLine
 62
7
  6
CONTINUOUS
 10
13.7036526437
 20
6.3819195021
 11
16.1717320417
 21
6.3819195021
  0
LINE
  5
23B
100
AcDbEntity
  8
0
100
AcDbLine
 62
7
  6
CONTINUOUS
 10
14.5348475798
 20
5.9519122131
 11
14.5288931077
 21
5.9523472187
  0
LWPOLYLINE
  5
23C
100
AcDbEntity
  8
0
100
AcDbPolyline
 62
7
  6
CONTINUOUS
 90
4
 70
0
 10
15.3401313709
 20
5.9519125736
 10
15.3289032294
 20
5.9533037203
 10
15.3136879137
 20
5.9596498323
 10
15.3126923427
 20
5.9604668013
  0
LINE
  5
23D
100
AcDbEntity
  8
0
100
AcDbLine
 62
7
  6
CONTINUOUS
 10
7.3517377051
 20
5.9536157066
 11
7.3463491537
 21
5.9523271432
  0
LINE
  5
23E
100
AcDbEntity
  8
0
100
AcDbLine
 62
7
  6
CONTINUOUS
 10
11.6251902575
 20
6.8189195021
 11
10.250194428
 21
6.8189195021
  0
LINE
  5
23F
100
AcDbEntity
  8
0
100
AcDbLine
 62
7
  6
CONTINUOUS
 10
14.5288931077
 20
5.9523472187
 11
14.52483647
 21
5.9532209015
  0
LWPOLYLINE
  5
240
100
AcDbEntity
  8
0
100
AcDbPolyline
 62
7
  6
CONTINUOUS
 90
3
 70
0
 10
13.84974662
 20
5.9779953325
 10
13.8631397749
 20
5.9726327005
 10
13.8729450668
 20
5.9669561816
  0
LINE
  5
241
100
AcDbEntity
  8
0
100
AcDbLine
 62
7
  6
CONTINUOUS
 10
9.7501923427
 20
4.3819195021
 11
9.7501923427
 21
3.2789195021
  0
LINE
  5
242
100
AcDbEntity
  8
0
100
AcDbLine
 62
7
  6
CONTINUOUS
 10
13.8729500466
 20
5.9669529171
 11
14.553226796
 21
5.5134350841
  0
LINE
  5
243
100
AcDbEntity
  8
0
100
AcDbLine
 62
7
  6
CONTINUOUS
 10
10.2501923427
 20
6.8189195021
 11
10.2501923427
 21
4.3819195021
  0
LINE
  5
244
100
AcDbEntity
  8
0
100
AcDbLine
 62
7
  6
CONTINUOUS
 10
10.4376923427
 20
6.8189195021
 11
10.4376923427
 21
14.7564195021
  0
LWPOLYLINE
  5
245
100
AcDbEntity
  8
0
100
AcDbPolyline
 62
7
  6
CONTINUOUS
 90
3
 70
0
 10
7.3126923427
 20
5.5045222421
 10
7.3141021473
 20
5.5064988862
 10
7.3221468058
 20
5.5134280353
  0
LINE
  5
246
100
AcDbEntity
  8
0
100
AcDbLine
 62
7
  6
CONTINUOUS
 10
14.4814716422
 20
5.9819195021
 11
14.5247389541
 21
5.9530746275
  0
LWPOLYLINE
  5
247
100
AcDbEntity
  8
0
100
AcDbPolyline
 62
7
  6
CONTINUOUS
 90
4
 70
0
 10
6.5626923427
 20
5.9605076941
 10
6.5614623944
 20
5.9595047279
 10
6.5461228788
 20
5.9532188185
 10
6.5352320823
 20
5.9519124944
  0
LWPOLYLINE
  5
248
100
AcDbEntity
  8
0
100
AcDbPolyline
 62
7
  6
CONTINUOUS
 90
3
 70
0
 10
14.5532464897
 20
5.5134220751
 10
14.5619721601
 20
5.5057128464
 10
14.5626923427
 20
5.5046469366
  0
LINE
  5
249
100
AcDbEntity
  8
0
100
AcDbLine
 62
7
  6
CONTINUOUS
 10
11.4376923427
 20
6.8189195021
 11
11.4376923427
 21
14.7564195021
  0
LINE
  5
24A
100
AcDbEntity
  8
0
100
AcDbLine
 62
7
  6
CONTINUOUS
 10
10.43772429
 20
9.7064195021
 11
11.4376603955
 21
9.7064195021
  0
LINE
  5
24B
100
AcDbEntity
  8
0
100
AcDbLine
 62
7
  6
CONTINUOUS
 10
11.6251923427
 20
6.8189195021
 11
11.6251923427
 21
4.3819195021
  0
LINE
  5
24C
100
AcDbEntity
  8
0
100
AcDbLine
 62
7
  6
CONTINUOUS
 10
7.3939130433
 20
5.9819195021
 11
7.3513005418
 21
5.9535111678
  0
LINE
  5
24D
100
AcDbEntity
  8
0
100
AcDbLine
 62
7
  6
CONTINUOUS
 10
8.0024429929
 20
5.9669584894
 11
7.3221583199
 21
5.513435371
  0
LINE
  5
24E
100
AcDbEntity
  8
0
100
AcDbLine
 62
7
  6
CONTINUOUS
 10
12.1251923427
 20
4.3819195021
 11
12.1251923427
 21
3.2789195021
  0
LWPOLYLINE
  5
24F
100
AcDbEntity
  8
0
100
AcDbPolyline
 62
7
  6
CONTINUOUS
 90
5
 70
0
 10
8.0024429636
 20
5.9669583352
 10
8.0121067979
 20
5.9725637637
 10
8.0265447036
 20
5.978270494
 10
8.0401178118
 20
5.9811767567
 10
8.0512120197
 20
5.9819196508
  0
LINE
  5
250
100
AcDbEntity
  8
0
100
AcDbLine
 62
9
  6
CONTINUOUS
 10
11.4376923427
 20
10.8189195021
 11
10.4376923427
 21
10.8189195021
  0
LINE
  5
251
100
AcDbEntity
  8
0
100
AcDbLine
 62
7
  6
CONTINUOUS
 10
7.3519674233
 20
5.9537041801
 11
7.3517377051
 21
5.9536157066
  0
LINE
  5
252
100
AcDbEntity
  8
0
100
AcDbLine
 62
7
  6
CONTINUOUS
 10
13.7501923427
 20
3.6539195021
 11
13.7501923427
 21
3.2789195021
  0
LINE
  5
253
100
AcDbEntity
  8
0
100
AcDbLine
 62
7
  6
CONTINUOUS
 10
14.2814423427
 20
4.7619195021
 11
14.2814423427
 21
3.6539195021
  0
LINE
  5
254
100
AcDbEntity
  8
0
100
AcDbLine
 62
7
  6
CONTINUOUS
 10
14.5626923427
 20
5.9819195021
 11
14.5626923427
 21
5.8467760877
  0
LINE
  5
255
100
AcDbEntity
  8
0
100
AcDbLine
 62
7
  6
CONTINUOUS
 10
14.5626923427
 20
5.5531244993
 11
14.5626923427
 21
5.3819195021
  0
LINE
  5
256
100
AcDbEntity
  8
0
100
AcDbLine
 62
7
  6
CONTINUOUS
 10
14.6226923427
 20
5.3819195021
 11
14.6226923427
 21
4.7819195021
  0
LINE
  5
257
100
AcDbEntity
  8
0
100
AcDbLine
 62
7
  6
CONTINUOUS
 10
14.7376923427
 20
4.7819195021
 11
14.7376923427
 21
4.7619195021
  0
LINE
  5
258
100
AcDbEntity
  8
0
100
AcDbLine
 62
7
  6
CONTINUOUS
 10
14.7626923427
 20
5.9819195021
 11
14.7626923427
 21
5.6880537946
  0
LINE
  5
259
100
AcDbEntity
  8
0
100
AcDbLine
 62
9
  6
CONTINUOUS
 10
14.9376923182
 20
5.9714689615
 11
14.9376923058
 21
5.9830278972
  0
LINE
  5
25A
100
AcDbEntity
  8
0
100
AcDbLine
 62
9
  6
CONTINUOUS
 10
14.9376923424
 20
5.5078630522
 11
14.9376923424
 21
5.4299207765
  0
LINE
  5
25B
100
AcDbEntity
  8
0
100
AcDbLine
 62
7
  6
CONTINUOUS
 10
15.1376923427
 20
4.7819195021
 11
15.1376923427
 21
4.7619195021
  0
LINE
  5
25C
100
AcDbEntity
  8
0
100
AcDbLine
 62
7
  6
CONTINUOUS
 10
15.2526923427
 20
5.3819195021
 11
15.2526923427
 21
4.7819195021
  0
LINE
  5
25D
100
AcDbEntity
  8
0
100
AcDbLine
 62
7
  6
CONTINUOUS
 10
15.3126923427
 20
5.9819195021
 11
15.3126923427
 21
5.8467714712
  0
LINE
  5
25E
100
AcDbEntity
  8
0
100
AcDbLine
 62
7
  6
CONTINUOUS
 10
15.3126923427
 20
5.5531320268
 11
15.3126923427
 21
5.3819195021
  0
LINE
  5
25F
100
AcDbEntity
  8
0
100
AcDbLine
 62
7
  6
CONTINUOUS
 10
15.1126923427
 20
5.9819195021
 11
15.112692267
 21
5.6878445034
  0
LINE
  5
260
100
AcDbEntity
  8
0
100
AcDbLine
 62
7
  6
CONTINUOUS
 10
15.5939423427
 20
4.7619195021
 11
15.5939423427
 21
3.6539195021
  0
LWPOLYLINE
  5
261
100
AcDbEntity
  8
0
100
AcDbPolyline
 62
7
  6
CONTINUOUS
 90
4
 70
0
 10
14.5626923427
 20
5.960507694
 10
14.5614623949
 20
5.9595047282
 10
14.5461228781
 20
5.9532188183
 10
14.5352320823
 20
5.9519124944
  0
LINE
  5
262
100
AcDbEntity
  8
0
100
AcDbLine
 62
7
  6
CONTINUOUS
 10
15.351967422
 20
5.9537041795
 11
15.3517377077
 21
5.9536157076
  0
LINE
  5
263
100
AcDbEntity
  8
0
100
AcDbLine
 62
7
  6
CONTINUOUS
 10
16.1251923427
 20
3.6539195021
 11
16.1251923427
 21
3.2789195021
  0
LINE
  5
264
100
AcDbEntity
  8
0
100
AcDbLine
 62
7
  6
CONTINUOUS
 10
15.3939130433
 20
5.9819195021
 11
15.3513005425
 21
5.9535111683
  0
LWPOLYLINE
  5
265
100
AcDbEntity
  8
0
100
AcDbPolyline
 62
7
  6
CONTINUOUS
 90
6
 70
0
 10
16.002439807
 20
5.9669562298
 10
16.0123867916
 20
5.9727030224
 10
16.0257130847
 20
5.9780184817
 10
16.0371285244
 20
5.9807272539
 10
16.047025328
 20
5.9818120094
 10
16.0512171384
 20
5.981919655
  0
LWPOLYLINE
  5
266
100
AcDbEntity
  8
0
100
AcDbPolyline
 62
7
  6
CONTINUOUS
 90
3
 70
0
 10
15.3126923427
 20
5.5045222404
 10
15.3141021594
 20
5.5064988996
 10
15.3221468054
 20
5.5134280351
  0
LINE
  5
267
100
AcDbEntity
  8
0
100
AcDbLine
 62
7
  6
CONTINUOUS
 10
16.002440006
 20
5.9669564959
 11
15.3221583199
 21
5.513435371
  0
ARC
  5
268
100
AcDbEntity
  8
0
100
AcDbCircle
 62
7
  6
CONTINUOUS
 10
10.9376923427
 20
14.7564195021
 40
0.5
100
AcDbArc
 50
0.0
 51
180.0
  0
ARC
  5
269
100
AcDbEntity
  8
0
100
AcDbCircle
 62
7
  6
CONTINUOUS
 10
5.7001923427
 20
6.1819195021
 40
0.2
100
AcDbArc
 50
90.0
 51
270.0
  0
ARC
  5
26A
100
AcDbEntity
  8
0
100
AcDbCircle
 62
7
  6
CONTINUOUS
 10
8.1751923427
 20
6.1819195021
 40
0.2
100
AcDbArc
 50
270.0
 51
90.0
  0
ARC
  5
26B
100
AcDbEntity
  8
0
100
AcDbCircle
 62
7
  6
CONTINUOUS
 10
13.7001923427
 20
6.1819195021
 40
0.2
100
AcDbArc
 50
90.0
 51
270.0
  0
ARC
  5
26C
100
AcDbEntity
  8
0
100
AcDbCircle
 62
7
  6
CONTINUOUS
 10
16.1751923427
 20
6.1819195021
 40
0.2
100
AcDbArc
 50
270.0
 51
90.0
  0
SPLINE
  5
26D
100
AcDbEntity
  8
0
100
AcDbSpline
 62
9
  6
CONTINUOUS
 70
0
 71
3
 72
49
 73
45
 74
0
 42
0.0000001
 43
0.0000001
 44
0.0000000001
 40
0.0
 40
0.0
 40
0.0
 40
0.0
 40
0.0080372996
 40
0.0161688587
 40
0.0245307267
 40
0.0332446671
 40
0.0424201113
 40
0.0521482823
 40
0.0735152455
 40
0.085250845
 40
0.0977159917
 40
0.1248624559
 40
0.1549243066
 40
0.1876721822
 40
0.222805376
 40
0.2599087077
 40
0.2985282618
 40
0.3382461157
 40
0.3786667993
 40
0.4194567007
 40
0.4603425702
 40
0.5011033237
 40
0.5816981082
 40
0.6212595665
 40
0.6601392168
 40
0.6981689408
 40
0.7351773191
 40
0.7709986795
 40
0.8054657922
 40
0.8382963664
 40
0.8539923772
 40
0.8691511908
 40
0.8837097703
 40
0.8976064981
 40
0.9107905391
 40
0.9232226301
 40
0.9348453277
 40
0.9456127655
 40
0.9555392278
 40
0.9647313991
 40
0.9734127973
 40
0.9819077637
 40
0.9906232655
 40
1.0
 40
1.0
 40
1.0
 40
1.0
 10
7.3221563996
 20
5.5134342246
 30
0.0
 10
7.3232095476
 20
5.5141367027
 30
0.0
 10
7.325238246
 20
5.5156902587
 30
0.0
 10
7.3279854567
 20
5.518420903
 30
0.0
 10
7.3304461713
 20
5.5215485287
 30
0.0
 10
7.3326276241
 20
5.5250699883
 30
0.0
 10
7.3345463075
 20
5.5289807098
 30
0.0
 10
7.3368547636
 20
5.5348950019
 30
0.0
 10
7.3386220425
 20
5.5414252364
 30
0.0
 10
7.3400207919
 20
5.5484650205
 30
0.0
 10
7.3413007238
 20
5.5564526819
 30
0.0
 10
7.3425693235
 20
5.5673568756
 30
0.0
 10
7.3438043331
 20
5.5814720467
 30
0.0
 10
7.3450030847
 20
5.5968522056
 30
0.0
 10
7.3463832893
 20
5.6133305537
 30
0.0
 10
7.3480650054
 20
5.6307108834
 30
0.0
 10
7.3501687803
 20
5.6487729055
 30
0.0
 10
7.3527205489
 20
5.6673047225
 30
0.0
 10
7.3557080965
 20
5.686117465
 30
0.0
 10
7.3590944184
 20
5.7050491789
 30
0.0
 10
7.3628019245
 20
5.7239748778
 30
0.0
 10
7.3680610968
 20
5.7489827781
 30
0.0
 10
7.3736563735
 20
5.7737041491
 30
0.0
 10
7.3793098786
 20
5.7981070928
 30
0.0
 10
7.3834459958
 20
5.8159798311
 30
0.0
 10
7.3874064359
 20
5.8334803633
 30
0.0
 10
7.3910924713
 20
5.8505485432
 30
0.0
 10
7.3944031827
 20
5.8671221756
 30
0.0
 10
7.3972405953
 20
5.8831159943
 30
0.0
 10
7.3991250175
 20
5.8960552384
 30
0.0
 10
7.4002329932
 20
5.9060257449
 30
0.0
 10
7.4008345752
 20
5.9131543854
 30
0.0
 10
7.4011902951
 20
5.9200161859
 30
0.0
 10
7.4012700434
 20
5.926576315
 30
0.0
 10
7.4010430627
 20
5.9327987115
 30
0.0
 10
7.4004812422
 20
5.9386414028
 30
0.0
 10
7.3995485503
 20
5.9440529002
 30
0.0
 10
7.3982005882
 20
5.9489717771
 30
0.0
 10
7.3963908481
 20
5.9533346356
 30
0.0
 10
7.3940598233
 20
5.957070957
 30
0.0
 10
7.3911649642
 20
5.9600960284
 30
0.0
 10
7.3877061115
 20
5.9623313538
 30
0.0
 10
7.3837047768
 20
5.9636945101
 30
0.0
 10
7.3808419981
 20
5.9639694661
 30
0.0
 10
7.3793650899
 20
5.9639696364
 30
0.0
  0
SPLINE
  5
26E
100
AcDbEntity
  8
0
100
AcDbSpline
 62
9
  6
CONTINUOUS
 70
0
 71
3
 72
49
 73
45
 74
0
 42
0.0000001
 43
0.0000001
 44
0.0000000001
 40
0.0
 40
0.0
 40
0.0
 40
0.0
 40
0.0093834733
 40
0.0181049244
 40
0.0266058575
 40
0.0352935653
 40
0.0444922607
 40
0.0544252915
 40
0.0651991541
 40
0.076827824
 40
0.0892650615
 40
0.1024532809
 40
0.1163535242
 40
0.1309153215
 40
0.1460774298
 40
0.1617770951
 40
0.1946157919
 40
0.2290913762
 40
0.2649210399
 40
0.3019375882
 40
0.339975443
 40
0.3788632839
 40
0.4184330967
 40
0.4990456515
 40
0.5398161414
 40
0.5807124437
 40
0.6215123936
 40
0.6619408849
 40
0.7016622104
 40
0.7402784027
 40
0.7773699855
 40
0.8124830172
 40
0.8452037438
 40
0.875236203
 40
0.9023555764
 40
0.9148086935
 40
0.9265334991
 40
0.9478828708
 40
0.9576039844
 40
0.9667733258
 40
0.9754819985
 40
0.9838393307
 40
0.9919668126
 40
1.0
 40
1.0
 40
1.0
 40
1.0
 10
6.4960193507
 20
5.9639697996
 30
0.0
 10
6.4945413816
 20
5.963969589
 30
0.0
 10
6.491676578
 20
5.9636940919
 30
0.0
 10
6.4876728264
 20
5.9623286543
 30
0.0
 10
6.4842125653
 20
5.9600901109
 30
0.0
 10
6.481317219
 20
5.9570613716
 30
0.0
 10
6.4789864763
 20
5.9533212622
 30
0.0
 10
6.4771776477
 20
5.9489546979
 30
0.0
 10
6.4758310277
 20
5.9440323618
 30
0.0
 10
6.4748999204
 20
5.9386177955
 30
0.0
 10
6.4743397218
 20
5.9327725366
 30
0.0
 10
6.4741142765
 20
5.926548067
 30
0.0
 10
6.4741954812
 20
5.919986242
 30
0.0
 10
6.4745525485
 20
5.9131229346
 30
0.0
 10
6.4751553475
 20
5.9059927944
 30
0.0
 10
6.4762647532
 20
5.8960200642
 30
0.0
 10
6.4781506039
 20
5.8830778168
 30
0.0
 10
6.4809894886
 20
5.867080283
 30
0.0
 10
6.4843016281
 20
5.8505029361
 30
0.0
 10
6.4879889581
 20
5.833431078
 30
0.0
 10
6.4919505396
 20
5.8159268558
 30
0.0
 10
6.4960876132
 20
5.7980503559
 30
0.0
 10
6.5017421285
 20
5.7736421071
 30
0.0
 10
6.5073379968
 20
5.7489150844
 30
0.0
 10
6.5125973807
 20
5.7239011302
 30
0.0
 10
6.5163048998
 20
5.7049705896
 30
0.0
 10
6.5196908116
 20
5.6860342791
 30
0.0
 10
6.5226769567
 20
5.6672179131
 30
0.0
 10
6.5252264413
 20
5.6486845289
 30
0.0
 10
6.5273280876
 20
5.6306241166
 30
0.0
 10
6.5290081944
 20
5.6132492229
 30
0.0
 10
6.5303871056
 20
5.5967801086
 30
0.0
 10
6.531584818
 20
5.5814119922
 30
0.0
 10
6.5328192419
 20
5.5673099922
 30
0.0
 10
6.5340879406
 20
5.5564166689
 30
0.0
 10
6.5353679559
 20
5.5484369859
 30
0.0
 10
6.5367667532
 20
5.5414037038
 30
0.0
 10
6.5385337355
 20
5.5348791904
 30
0.0
 10
6.5408415477
 20
5.5289698513
 30
0.0
 10
6.5427597715
 20
5.5250621394
 30
0.0
 10
6.5449407829
 20
5.5215433527
 30
0.0
 10
6.54740101
 20
5.5184181357
 30
0.0
 10
6.5501473837
 20
5.5156895222
 30
0.0
 10
6.5521751786
 20
5.5141369498
 30
0.0
 10
6.5532277912
 20
5.5134348371
 30
0.0
  0
SPLINE
  5
26F
100
AcDbEntity
  8
0
100
AcDbSpline
 62
9
  6
CONTINUOUS
 70
0
 71
3
 72
11
 73
7
 74
0
 42
0.0000001
 43
0.0000001
 44
0.0000000001
 40
0.0
 40
0.0
 40
0.0
 40
0.0
 40
0.2333631214
 40
0.4779542496
 40
0.7336771332
 40
1.0
 40
1.0
 40
1.0
 40
1.0
 10
6.496019302
 20
5.9639697537
 30
0.0
 10
6.4986866108
 20
5.9621915518
 30
0.0
 10
6.5043867513
 20
5.9588907687
 30
0.0
 10
6.5137422704
 20
5.9550540311
 30
0.0
 10
6.5240054031
 20
5.9525243534
 30
0.0
 10
6.5311891144
 20
5.9519191891
 30
0.0
 10
6.5348475814
 20
5.9519135627
 30
0.0
  0
SPLINE
  5
270
100
AcDbEntity
  8
0
100
AcDbSpline
 62
9
  6
CONTINUOUS
 70
0
 71
3
 72
23
 73
19
 74
0
 42
0.0000001
 43
0.0000001
 44
0.0000000001
 40
0.0
 40
0.0
 40
0.0
 40
0.0
 40
0.0654415544
 40
0.1303440476
 40
0.1944692722
 40
0.2576619064
 40
0.3198122788
 40
0.3809745678
 40
0.4413839854
 40
0.501370175
 40
0.5613521625
 40
0.6217223692
 40
0.6827768003
 40
0.7446902409
 40
0.8075100419
 40
0.8711600888
 40
0.9354446563
 40
1.0
 40
1.0
 40
1.0
 40
1.0
 10
7.1126912137
 20
5.6878450811
 30
0.0
 10
7.1126873783
 20
5.6816516761
 30
0.0
 10
7.1122936997
 20
5.6693116523
 30
0.0
 10
7.1104163131
 20
5.6509865143
 30
0.0
 10
7.1071257031
 20
5.6330724602
 30
0.0
 10
7.1023102878
 20
5.6157724163
 30
0.0
 10
7.0959047906
 20
5.5992896051
 30
0.0
 10
7.0878362594
 20
5.5838453731
 30
0.0
 10
7.0781568937
 20
5.5695997275
 30
0.0
 10
7.0669034424
 20
5.5567077672
 30
0.0
 10
7.0541983767
 20
5.5452523853
 30
0.0
 10
7.0401710936
 20
5.5352895311
 30
0.0
 10
7.0249753494
 20
5.526845613
 30
0.0
 10
7.0087789197
 20
5.5199265066
 30
0.0
 10
6.9917558666
 20
5.5145396512
 30
0.0
 10
6.9740933512
 20
5.5106886056
 30
0.0
 10
6.9560015507
 20
5.508378443
 30
0.0
 10
6.9438018777
 20
5.5078631866
 30
0.0
 10
6.9376923427
 20
5.5078629406
 30
0.0
  0
SPLINE
  5
271
100
AcDbEntity
  8
0
100
AcDbSpline
 62
9
  6
CONTINUOUS
 70
0
 71
3
 72
29
 73
25
 74
0
 42
0.0000001
 43
0.0000001
 44
0.0000000001
 40
0.0
 40
0.0
 40
0.0
 40
0.0
 40
0.0623768603
 40
0.1250155292
 40
0.1879427889
 40
0.2511494622
 40
0.3779675933
 40
0.4096907631
 40
0.4413488648
 40
0.5043091359
 40
0.5355786141
 40
0.5666689913
 40
0.5975780129
 40
0.6283187912
 40
0.6589195646
 40
0.6894266612
 40
0.7198983007
 40
0.7503991246
 40
0.7809926076
 40
0.8117349519
 40
0.8426677215
 40
0.8738120249
 40
0.9366414566
 40
1.0
 40
1.0
 40
1.0
 40
1.0
 10
7.1131319535
 20
5.8794619847
 30
0.0
 10
7.1176477718
 20
5.8684555822
 30
0.0
 10
7.1258688267
 20
5.8460475398
 30
0.0
 10
7.1358540219
 20
5.8115955752
 30
0.0
 10
7.143546749
 20
5.77639123
 30
0.0
 10
7.1506030166
 20
5.7286465719
 30
0.0
 10
7.1523273209
 20
5.6861654549
 30
0.0
 10
7.1498036267
 20
5.6499685616
 30
0.0
 10
7.1469919623
 20
5.6260297116
 30
0.0
 10
7.1423261178
 20
5.6024169848
 30
0.0
 10
7.1356215569
 20
5.5794616898
 30
0.0
 10
7.1295324876
 20
5.562732691
 30
0.0
 10
7.1223333906
 20
5.5465599099
 30
0.0
 10
7.1140142014
 20
5.5310375416
 30
0.0
 10
7.1045530889
 20
5.516272261
 30
0.0
 10
7.0939506803
 20
5.5023666242
 30
0.0
 10
7.0822277513
 20
5.4894157545
 30
0.0
 10
7.06941779
 20
5.4775133861
 30
0.0
 10
7.0555702722
 20
5.4667503907
 30
0.0
 10
7.0407538406
 20
5.4572127185
 30
0.0
 10
7.0250552354
 20
5.4489785144
 30
0.0
 10
7.0030364761
 20
5.4398146124
 30
0.0
 10
6.9738929942
 20
5.4320164613
 30
0.0
 10
6.9497763593
 20
5.4299213188
 30
0.0
 10
6.9376923427
 20
5.4299207765
 30
0.0
  0
SPLINE
  5
272
100
AcDbEntity
  8
0
100
AcDbSpline
 62
9
  6
CONTINUOUS
 70
0
 71
3
 72
22
 73
18
 74
0
 42
0.0000001
 43
0.0000001
 44
0.0000000001
 40
0.0
 40
0.0
 40
0.0
 40
0.0
 40
0.0881067901
 40
0.1733644462
 40
0.2540370445
 40
0.2926232687
 40
0.3300600678
 40
0.4693523833
 40
0.5940650394
 40
0.6515950095
 40
0.7062058994
 40
0.7582438281
 40
0.8080516332
 40
0.8561600574
 40
0.9033982369
 40
0.9508465825
 40
1.0
 40
1.0
 40
1.0
 40
1.0
 10
6.9376923427
 20
5.9714688182
 30
0.0
 10
6.9427220567
 20
5.9714689322
 30
0.0
 10
6.952620847
 20
5.97110409
 30
0.0
 10
6.9670639408
 20
5.9697366488
 30
0.0
 10
6.9786303058
 20
5.9681307894
 30
0.0
 10
6.9874705705
 20
5.9667651712
 30
0.0
 10
6.9996103629
 20
5.964838711
 30
0.0
 10
7.0165998912
 20
5.9621068481
 30
0.0
 10
7.034880021
 20
5.9601975002
 30
0.0
 10
7.0484056696
 20
5.9598864115
 30
0.0
 10
7.0577774855
 20
5.960299678
 30
0.0
 10
7.0666500725
 20
5.9614265588
 30
0.0
 10
7.0750061554
 20
5.9633677389
 30
0.0
 10
7.0828061259
 20
5.9662368023
 30
0.0
 10
7.0900028386
 20
5.9701344889
 30
0.0
 10
7.0965084146
 20
5.9752123867
 30
0.0
 10
7.1001697827
 20
5.9793892778
 30
0.0
 10
7.1018162879
 20
5.9816614255
 30
0.0
  0
SPLINE
  5
273
100
AcDbEntity
  8
0
100
AcDbSpline
 62
9
  6
CONTINUOUS
 70
0
 71
3
 72
12
 73
8
 74
0
 42
0.0000001
 43
0.0000001
 44
0.0000000001
 40
0.0
 40
0.0
 40
0.0
 40
0.0
 40
0.2945435354
 40
0.5603737887
 40
0.6818657655
 40
0.7955568018
 40
1.0
 40
1.0
 40
1.0
 40
1.0
 10
6.5246670643
 20
5.9530971811
 30
0.0
 10
6.5221013966
 20
5.9547332797
 30
0.0
 10
6.5171044073
 20
5.9576712388
 30
0.0
 10
6.5107009621
 20
5.9606449921
 30
0.0
 10
6.5058102105
 20
5.9623555981
 30
0.0
 10
6.5014217386
 20
5.9635274986
 30
0.0
 10
6.4981317159
 20
5.9639693901
 30
0.0
 10
6.4960196075
 20
5.9639696284
 30
0.0
  0
SPLINE
  5
274
100
AcDbEntity
  8
0
100
AcDbSpline
 62
9
  6
CONTINUOUS
 70
0
 71
3
 72
23
 73
19
 74
0
 42
0.0000001
 43
0.0000001
 44
0.0000000001
 40
0.0
 40
0.0
 40
0.0
 40
0.0
 40
0.0645588
 40
0.1288466108
 40
0.1924988388
 40
0.2553186943
 40
0.3172288836
 40
0.3782783718
 40
0.4386457492
 40
0.4986294051
 40
0.5586218725
 40
0.6190411683
 40
0.6802136623
 40
0.7423709915
 40
0.8055653188
 40
0.8696857248
 40
0.9345766796
 40
1.0
 40
1.0
 40
1.0
 40
1.0
 10
6.9376923427
 20
5.507863011
 30
0.0
 10
6.9315779946
 20
5.5078632652
 30
0.0
 10
6.9193687205
 20
5.5083793295
 30
0.0
 10
6.9012629951
 20
5.5106931102
 30
0.0
 10
6.8835876555
 20
5.5145502918
 30
0.0
 10
6.8665535516
 20
5.5199455027
 30
0.0
 10
6.8503482524
 20
5.5268749301
 30
0.0
 10
6.8351459623
 20
5.5353313426
 30
0.0
 10
6.8211144799
 20
5.5453092246
 30
0.0
 10
6.8084074393
 20
5.5567820081
 30
0.0
 10
6.797154852
 20
5.5696937379
 30
0.0
 10
6.7874794713
 20
5.5839604457
 30
0.0
 10
6.7794180236
 20
5.5994257206
 30
0.0
 10
6.7730224909
 20
5.6159282357
 30
0.0
 10
6.7682189007
 20
5.6332455996
 30
0.0
 10
6.7649412089
 20
5.6511741723
 30
0.0
 10
6.7630771003
 20
5.6695109427
 30
0.0
 10
6.7626924113
 20
5.6818574856
 30
0.0
 10
6.7626930803
 20
5.6880537122
 30
0.0
  0
SPLINE
  5
275
100
AcDbEntity
  8
0
100
AcDbSpline
 62
9
  6
CONTINUOUS
 70
0
 71
3
 72
22
 73
18
 74
0
 42
0.0000001
 43
0.0000001
 44
0.0000000001
 40
0.0
 40
0.0
 40
0.0
 40
0.0
 40
0.0138919268
 40
0.0298129018
 40
0.0670290416
 40
0.1101917546
 40
0.1582758349
 40
0.2104647316
 40
0.2663069405
 40
0.3879159079
 40
0.5215266656
 40
0.5927970869
 40
0.6671972626
 40
0.7449208733
 40
0.8261640336
 40
0.9110967027
 40
1.0
 40
1.0
 40
1.0
 40
1.0
 10
5.872948006
 20
5.966954237
 30
0.0
 10
5.8733773057
 20
5.9666682349
 30
0.0
 10
5.8743342957
 20
5.9661078346
 30
0.0
 10
5.8765747094
 20
5.9650201435
 30
0.0
 10
5.8799291732
 20
5.9637606784
 30
0.0
 10
5.8845229266
 20
5.9624613459
 30
0.0
 10
5.8897420341
 20
5.9613780388
 30
0.0
 10
5.8954854218
 20
5.9605645377
 30
0.0
 10
5.9039897696
 20
5.9598827568
 30
0.0
 10
5.9155669703
 20
5.9599927891
 30
0.0
 10
5.9276272337
 20
5.961485852
 30
0.0
 10
5.9377724029
 20
5.9636614948
 30
0.0
 10
5.9457664769
 20
5.9658969754
 30
0.0
 10
5.9539557813
 20
5.9687470011
 30
0.0
 10
5.9623090417
 20
5.9722636757
 30
0.0
 10
5.9707715688
 20
5.9765349363
 30
0.0
 10
5.9763127675
 20
5.9798597247
 30
0.0
 10
5.9790784335
 20
5.9816622575
 30
0.0
  0
SPLINE
  5
276
100
AcDbEntity
  8
0
100
AcDbSpline
 62
9
  6
CONTINUOUS
 70
0
 71
3
 72
10
 73
6
 74
0
 42
0.0000001
 43
0.0000001
 44
0.0000000001
 40
0.0
 40
0.0
 40
0.0
 40
0.0
 40
0.4842883021
 40
0.7394698647
 40
1.0
 40
1.0
 40
1.0
 40
1.0
 10
7.0267475859
 20
5.981919644
 30
0.0
 10
7.0123702402
 20
5.9819211049
 30
0.0
 10
6.9904195164
 20
5.9823716557
 30
0.0
 10
6.9607373041
 20
5.9829127522
 30
0.0
 10
6.9454268515
 20
5.9830285019
 30
0.0
 10
6.9376923433
 20
5.9830278973
 30
0.0
  0
SPLINE
  5
277
100
AcDbEntity
  8
0
100
AcDbSpline
 62
9
  6
CONTINUOUS
 70
0
 71
3
 72
30
 73
26
 74
0
 42
0.0000001
 43
0.0000001
 44
0.0000000001
 40
0.0
 40
0.0
 40
0.0
 40
0.0
 40
0.0633525812
 40
0.1261759615
 40
0.1573172528
 40
0.1882470048
 40
0.2189863902
 40
0.2495769525
 40
0.2800748885
 40
0.3105435551
 40
0.3410476882
 40
0.371645472
 40
0.402383246
 40
0.4332891588
 40
0.4643762374
 40
0.4956423311
 40
0.5585970407
 40
0.5902516679
 40
0.6219714396
 40
0.6854623479
 40
0.7488760716
 40
0.8120758578
 40
0.8749970134
 40
0.9376294606
 40
1.0
 40
1.0
 40
1.0
 40
1.0
 10
6.9376923427
 20
5.4299207765
 30
0.0
 10
6.9256081652
 20
5.4299213401
 30
0.0
 10
6.9014912403
 20
5.4320165236
 30
0.0
 10
6.8723474104
 20
5.4398147943
 30
0.0
 10
6.8503284796
 20
5.4489789681
 30
0.0
 10
6.8346298469
 20
5.4572135165
 30
0.0
 10
6.8198132448
 20
5.4667512678
 30
0.0
 10
6.8059655509
 20
5.4775143897
 30
0.0
 10
6.7931556295
 20
5.489417105
 30
0.0
 10
6.7814327763
 20
5.5023682943
 30
0.0
 10
6.7708302341
 20
5.516274033
 30
0.0
 10
6.7613689427
 20
5.5310394329
 30
0.0
 10
6.7530508086
 20
5.5465625667
 30
0.0
 10
6.7458521978
 20
5.5627356108
 30
0.0
 10
6.7397610301
 20
5.5794638698
 30
0.0
 10
6.7330559765
 20
5.6024193743
 30
0.0
 10
6.7283942831
 20
5.6260331475
 30
0.0
 10
6.7255768489
 20
5.6499709903
 30
0.0
 10
6.7238959401
 20
5.6741197899
 30
0.0
 10
6.7238046592
 20
5.7044150805
 30
0.0
 10
6.7265460809
 20
5.74060515
 30
0.0
 10
6.7318468401
 20
5.776396478
 30
0.0
 10
6.739530716
 20
5.8115987344
 30
0.0
 10
6.7495165679
 20
5.8460521756
 30
0.0
 10
6.757738933
 20
5.8684596103
 30
0.0
 10
6.7622548691
 20
5.8794660427
 30
0.0
  0
SPLINE
  5
278
100
AcDbEntity
  8
0
100
AcDbSpline
 62
9
  6
CONTINUOUS
 70
0
 71
3
 72
22
 73
18
 74
0
 42
0.0000001
 43
0.0000001
 44
0.0000000001
 40
0.0
 40
0.0
 40
0.0
 40
0.0
 40
0.049147008
 40
0.0965898998
 40
0.1438238907
 40
0.1919293515
 40
0.2417347742
 40
0.2937703084
 40
0.3483783741
 40
0.4059050458
 40
0.5306098878
 40
0.6699042556
 40
0.7073447417
 40
0.7459356447
 40
0.8266193459
 40
0.9118878286
 40
1.0
 40
1.0
 40
1.0
 40
1.0
 10
6.7735664738
 20
5.9816640081
 30
0.0
 10
6.775212629
 20
5.9793919932
 30
0.0
 10
6.7788732448
 20
5.9752152235
 30
0.0
 10
6.7853777097
 20
5.9701371451
 30
0.0
 10
6.7925735691
 20
5.9662390672
 30
0.0
 10
6.8003729311
 20
5.9633694721
 30
0.0
 10
6.8087285852
 20
5.9614276773
 30
0.0
 10
6.8176008326
 20
5.9603002021
 30
0.0
 10
6.8269723206
 20
5.9598864354
 30
0.0
 10
6.8404974425
 20
5.9601969557
 30
0.0
 10
6.8587774805
 20
5.9621056745
 30
0.0
 10
6.8757671867
 20
5.9648377757
 30
0.0
 10
6.8879077716
 20
5.9667645137
 30
0.0
 10
6.8967493046
 20
5.9681303108
 30
0.0
 10
6.9083174143
 20
5.9697362542
 30
0.0
 10
6.922762328
 20
5.9711038755
 30
0.0
 10
6.9326622266
 20
5.9714688797
 30
0.0
 10
6.9376923427
 20
5.9714687822
 30
0.0
  0
SPLINE
  5
279
100
AcDbEntity
  8
0
100
AcDbSpline
 62
9
  6
CONTINUOUS
 70
0
 71
3
 72
10
 73
6
 74
0
 42
0.0000001
 43
0.0000001
 44
0.0000000001
 40
0.0
 40
0.0
 40
0.0
 40
0.0
 40
0.4842769608
 40
0.7394646358
 40
1.0
 40
1.0
 40
1.0
 40
1.0
 10
6.8486210706
 20
5.9819196061
 30
0.0
 10
6.8630006672
 20
5.9819208436
 30
0.0
 10
6.8849551892
 20
5.9823715232
 30
0.0
 10
6.9146427434
 20
5.982912675
 30
0.0
 10
6.9299562878
 20
5.9830284687
 30
0.0
 10
6.9376923433
 20
5.9830278973
 30
0.0
  0
SPLINE
  5
27A
100
AcDbEntity
  8
0
100
AcDbSpline
 62
9
  6
CONTINUOUS
 70
0
 71
3
 72
11
 73
7
 74
0
 42
0.0000001
 43
0.0000001
 44
0.0000000001
 40
0.0
 40
0.0
 40
0.0
 40
0.0
 40
0.2333527521
 40
0.477940816
 40
0.7336669222
 40
1.0
 40
1.0
 40
1.0
 40
1.0
 10
7.3793653735
 20
5.9639697755
 30
0.0
 10
7.3766961066
 20
5.9621902655
 30
0.0
 10
7.3709915085
 20
5.9588872448
 30
0.0
 10
7.3616281919
 20
5.9550489931
 30
0.0
 10
7.3513561727
 20
5.9525200788
 30
0.0
 10
7.3441663643
 20
5.9519174047
 30
0.0
 10
7.3405049045
 20
5.9519135209
 30
0.0
  0
SPLINE
  5
27B
100
AcDbEntity
  8
0
100
AcDbSpline
 62
9
  6
CONTINUOUS
 70
0
 71
3
 72
22
 73
18
 74
0
 42
0.0000001
 43
0.0000001
 44
0.0000000001
 40
0.0
 40
0.0
 40
0.0
 40
0.0
 40
0.0889117326
 40
0.17384487
 40
0.255085859
 40
0.3328089076
 40
0.4072102823
 40
0.4784824456
 40
0.612094045
 40
0.7336984416
 40
0.789537378
 40
0.8417228974
 40
0.889804418
 40
0.9329668524
 40
0.9701854097
 40
0.9861075803
 40
1.0
 40
1.0
 40
1.0
 40
1.0
 10
7.8963030749
 20
5.9816638229
 30
0.0
 10
7.8990689961
 20
5.9798609063
 30
0.0
 10
7.9046105405
 20
5.9765356175
 30
0.0
 10
7.9130735851
 20
5.9722641074
 30
0.0
 10
7.9214271496
 20
5.9687475884
 30
0.0
 10
7.9296167269
 20
5.9658976519
 30
0.0
 10
7.9376111458
 20
5.9636620602
 30
0.0
 10
7.9477567517
 20
5.9614861495
 30
0.0
 10
7.9598173092
 20
5.959992726
 30
0.0
 10
7.971394645
 20
5.9598826802
 30
0.0
 10
7.9798988572
 20
5.9605644867
 30
0.0
 10
7.9856420968
 20
5.9613779648
 30
0.0
 10
7.9908611622
 20
5.9624612101
 30
0.0
 10
7.9954550655
 20
5.9637605405
 30
0.0
 10
7.9988097726
 20
5.9650200482
 30
0.0
 10
8.00105042
 20
5.9661077964
 30
0.0
 10
8.0020075064
 20
5.9666682312
 30
0.0
 10
8.0024368355
 20
5.9669542531
 30
0.0
  0
SPLINE
  5
27C
100
AcDbEntity
  8
0
100
AcDbSpline
 62
9
  6
CONTINUOUS
 70
0
 71
3
 72
17
 73
13
 74
0
 42
0.0000001
 43
0.0000001
 44
0.0000000001
 40
0.0
 40
0.0
 40
0.0
 40
0.0
 40
0.0580904908
 40
0.1180745753
 40
0.1795679039
 40
0.2422069313
 40
0.3696632326
 40
0.4982970552
 40
0.626569345
 40
0.7534214232
 40
0.8781062844
 40
1.0
 40
1.0
 40
1.0
 40
1.0
 10
7.3126923973
 20
5.55313149
 30
0.0
 10
7.3126924621
 20
5.5588154654
 30
0.0
 10
7.3126211812
 20
5.5703686889
 30
0.0
 10
7.3123989246
 20
5.5879374663
 30
0.0
 10
7.3121263279
 20
5.6059506386
 30
0.0
 10
7.3117654698
 20
5.6305651563
 30
0.0
 10
7.3114325818
 20
5.6617503527
 30
0.0
 10
7.3113702034
 20
5.6993595225
 30
0.0
 10
7.3116223868
 20
5.7369085367
 30
0.0
 10
7.3120699921
 20
5.7740690614
 30
0.0
 10
7.3125266134
 20
5.8106051703
 30
0.0
 10
7.312692071
 20
5.8347320284
 30
0.0
 10
7.3126924768
 20
5.8466589526
 30
0.0
  0
SPLINE
  5
27D
100
AcDbEntity
  8
0
100
AcDbSpline
 62
9
  6
CONTINUOUS
 70
0
 71
3
 72
11
 73
7
 74
0
 42
0.0000001
 43
0.0000001
 44
0.0000000001
 40
0.0
 40
0.0
 40
0.0
 40
0.0
 40
0.2059301651
 40
0.4412838094
 40
0.7065523873
 40
1.0
 40
1.0
 40
1.0
 40
1.0
 10
7.3793650788
 20
5.963969629
 30
0.0
 10
7.3773400875
 20
5.9639695976
 30
0.0
 10
7.3729990164
 20
5.9634103707
 30
0.0
 10
7.3663406494
 20
5.9613574938
 30
0.0
 10
7.3592067705
 20
5.9581438348
 30
0.0
 10
7.3544306997
 20
5.9554134422
 30
0.0
 10
7.3519790747
 20
5.953891558
 30
0.0
  0
SPLINE
  5
27E
100
AcDbEntity
  8
0
100
AcDbSpline
 62
9
  6
CONTINUOUS
 70
0
 71
3
 72
17
 73
13
 74
0
 42
0.0000001
 43
0.0000001
 44
0.0000000001
 40
0.0
 40
0.0
 40
0.0
 40
0.0
 40
0.1218815745
 40
0.2465542823
 40
0.3734002577
 40
0.5016671056
 40
0.6302994043
 40
0.7577612998
 40
0.8204071313
 40
0.8819042434
 40
0.9418946721
 40
1.0
 40
1.0
 40
1.0
 40
1.0
 10
6.5626922336
 20
5.8467762932
 30
0.0
 10
6.5626920411
 20
5.8348495306
 30
0.0
 10
6.5628566921
 20
5.8107229648
 30
0.0
 10
6.5633132967
 20
5.7741866849
 30
0.0
 10
6.5637607328
 20
5.7370252806
 30
0.0
 10
6.5640143729
 20
5.6994743234
 30
0.0
 10
6.5639525394
 20
5.6618620503
 30
0.0
 10
6.5636208654
 20
5.630673093
 30
0.0
 10
6.5632601708
 20
5.6060548698
 30
0.0
 10
6.5629874681
 20
5.5880384918
 30
0.0
 10
6.5627644634
 20
5.5704657688
 30
0.0
 10
6.5626925842
 20
5.5589094829
 30
0.0
 10
6.5626922458
 20
5.5532235664
 30
0.0
  0
SPLINE
  5
27F
100
AcDbEntity
  8
0
100
AcDbSpline
 62
9
  6
CONTINUOUS
 70
0
 71
3
 72
49
 73
45
 74
0
 42
0.0000001
 43
0.0000001
 44
0.0000000001
 40
0.0
 40
0.0
 40
0.0
 40
0.0
 40
0.0080372996
 40
0.0161688587
 40
0.0245307267
 40
0.0332446671
 40
0.0424201114
 40
0.0521482823
 40
0.0735152455
 40
0.0852508451
 40
0.0977159918
 40
0.1248624561
 40
0.1549243068
 40
0.1876721825
 40
0.2228053764
 40
0.2599087083
 40
0.2985282625
 40
0.3382461165
 40
0.3786668002
 40
0.4194567016
 40
0.4603425712
 40
0.5011033248
 40
0.5816981092
 40
0.6212595675
 40
0.6601392178
 40
0.6981689418
 40
0.7351773201
 40
0.7709986804
 40
0.805465793
 40
0.8382963672
 40
0.8539923779
 40
0.8691511915
 40
0.8837097709
 40
0.8976064987
 40
0.9107905396
 40
0.9232226306
 40
0.9348453281
 40
0.9456127659
 40
0.955539228
 40
0.9647313994
 40
0.9734127974
 40
0.9819077638
 40
0.9906232656
 40
1.0
 40
1.0
 40
1.0
 40
1.0
 10
15.322156399
 20
5.5134342242
 30
0.0
 10
15.323209547
 20
5.5141367023
 30
0.0
 10
15.3252382454
 20
5.5156902584
 30
0.0
 10
15.3279854561
 20
5.5184209026
 30
0.0
 10
15.3304461708
 20
5.5215485283
 30
0.0
 10
15.3326276235
 20
5.5250699879
 30
0.0
 10
15.3345463069
 20
5.5289807094
 30
0.0
 10
15.336854763
 20
5.5348950015
 30
0.0
 10
15.3386220419
 20
5.541425236
 30
0.0
 10
15.3400207913
 20
5.5484650202
 30
0.0
 10
15.3413007233
 20
5.5564526816
 30
0.0
 10
15.3425693229
 20
5.5673568753
 30
0.0
 10
15.3438043325
 20
5.5814720464
 30
0.0
 10
15.3450030841
 20
5.5968522054
 30
0.0
 10
15.3463832887
 20
5.6133305535
 30
0.0
 10
15.3480650048
 20
5.6307108833
 30
0.0
 10
15.3501687797
 20
5.6487729054
 30
0.0
 10
15.3527205482
 20
5.6673047224
 30
0.0
 10
15.3557080958
 20
5.686117465
 30
0.0
 10
15.3590944178
 20
5.7050491789
 30
0.0
 10
15.3628019238
 20
5.7239748779
 30
0.0
 10
15.3680610961
 20
5.7489827782
 30
0.0
 10
15.3736563728
 20
5.7737041492
 30
0.0
 10
15.3793098779
 20
5.7981070928
 30
0.0
 10
15.383445995
 20
5.8159798312
 30
0.0
 10
15.3874064352
 20
5.8334803633
 30
0.0
 10
15.3910924705
 20
5.8505485433
 30
0.0
 10
15.394403182
 20
5.8671221756
 30
0.0
 10
15.3972405945
 20
5.8831159943
 30
0.0
 10
15.3991250168
 20
5.8960552383
 30
0.0
 10
15.4002329925
 20
5.9060257448
 30
0.0
 10
15.4008345744
 20
5.9131543853
 30
0.0
 10
15.4011902944
 20
5.9200161858
 30
0.0
 10
15.4012700427
 20
5.9265763148
 30
0.0
 10
15.401043062
 20
5.9327987113
 30
0.0
 10
15.4004812415
 20
5.9386414026
 30
0.0
 10
15.3995485496
 20
5.9440529
 30
0.0
 10
15.3982005875
 20
5.9489717768
 30
0.0
 10
15.3963908474
 20
5.9533346353
 30
0.0
 10
15.3940598226
 20
5.9570709566
 30
0.0
 10
15.3911649636
 20
5.9600960281
 30
0.0
 10
15.3877061109
 20
5.9623313534
 30
0.0
 10
15.3837047762
 20
5.9636945097
 30
0.0
 10
15.3808419975
 20
5.9639694657
 30
0.0
 10
15.3793650894
 20
5.963969636
 30
0.0
  0
SPLINE
  5
280
100
AcDbEntity
  8
0
100
AcDbSpline
 62
9
  6
CONTINUOUS
 70
0
 71
3
 72
49
 73
45
 74
0
 42
0.0000001
 43
0.0000001
 44
0.0000000001
 40
0.0
 40
0.0
 40
0.0
 40
0.0
 40
0.0093834733
 40
0.0181049243
 40
0.0266058575
 40
0.0352935652
 40
0.0444922605
 40
0.0544252914
 40
0.0651991539
 40
0.0768278238
 40
0.0892650613
 40
0.1024532806
 40
0.1163535239
 40
0.1309153212
 40
0.1460774295
 40
0.1617770947
 40
0.1946157916
 40
0.2290913758
 40
0.2649210395
 40
0.3019375877
 40
0.3399754425
 40
0.3788632835
 40
0.4184330962
 40
0.4990456511
 40
0.539816141
 40
0.5807124433
 40
0.6215123932
 40
0.6619408846
 40
0.7016622101
 40
0.7402784025
 40
0.7773699853
 40
0.812483017
 40
0.8452037437
 40
0.8752362029
 40
0.9023555764
 40
0.9148086935
 40
0.9265334991
 40
0.9478828708
 40
0.9576039844
 40
0.9667733258
 40
0.9754819985
 40
0.9838393307
 40
0.9919668126
 40
1.0
 40
1.0
 40
1.0
 40
1.0
 10
14.4960193509
 20
5.9639697994
 30
0.0
 10
14.4945413818
 20
5.9639695888
 30
0.0
 10
14.4916765782
 20
5.9636940917
 30
0.0
 10
14.4876728267
 20
5.9623286541
 30
0.0
 10
14.4842125656
 20
5.9600901107
 30
0.0
 10
14.4813172193
 20
5.9570613714
 30
0.0
 10
14.4789864766
 20
5.953321262
 30
0.0
 10
14.477177648
 20
5.9489546978
 30
0.0
 10
14.4758310281
 20
5.9440323617
 30
0.0
 10
14.4748999208
 20
5.9386177954
 30
0.0
 10
14.4743397221
 20
5.9327725365
 30
0.0
 10
14.4741142768
 20
5.9265480669
 30
0.0
 10
14.4741954816
 20
5.9199862419
 30
0.0
 10
14.4745525488
 20
5.9131229345
 30
0.0
 10
14.4751553479
 20
5.9059927944
 30
0.0
 10
14.4762647535
 20
5.8960200642
 30
0.0
 10
14.4781506042
 20
5.8830778168
 30
0.0
 10
14.480989489
 20
5.867080283
 30
0.0
 10
14.4843016284
 20
5.8505029361
 30
0.0
 10
14.4879889585
 20
5.833431078
 30
0.0
 10
14.49195054
 20
5.8159268558
 30
0.0
 10
14.4960876135
 20
5.798050356
 30
0.0
 10
14.5017421288
 20
5.7736421071
 30
0.0
 10
14.5073379971
 20
5.7489150844
 30
0.0
 10
14.512597381
 20
5.7239011302
 30
0.0
 10
14.5163049001
 20
5.7049705896
 30
0.0
 10
14.5196908119
 20
5.6860342791
 30
0.0
 10
14.522676957
 20
5.667217913
 30
0.0
 10
14.5252264416
 20
5.6486845289
 30
0.0
 10
14.5273280879
 20
5.6306241166
 30
0.0
 10
14.5290081946
 20
5.6132492229
 30
0.0
 10
14.5303871058
 20
5.5967801084
 30
0.0
 10
14.5315848182
 20
5.5814119921
 30
0.0
 10
14.5328192421
 20
5.5673099921
 30
0.0
 10
14.5340879408
 20
5.5564166688
 30
0.0
 10
14.5353679562
 20
5.5484369857
 30
0.0
 10
14.5367667534
 20
5.5414037037
 30
0.0
 10
14.5385337358
 20
5.5348791902
 30
0.0
 10
14.5408415479
 20
5.5289698511
 30
0.0
 10
14.5427597717
 20
5.5250621392
 30
0.0
 10
14.5449407831
 20
5.5215433525
 30
0.0
 10
14.5474010102
 20
5.5184181356
 30
0.0
 10
14.5501473839
 20
5.515689522
 30
0.0
 10
14.5521751789
 20
5.5141369496
 30
0.0
 10
14.5532277915
 20
5.5134348369
 30
0.0
  0
SPLINE
  5
281
100
AcDbEntity
  8
0
100
AcDbSpline
 62
9
  6
CONTINUOUS
 70
0
 71
3
 72
11
 73
7
 74
0
 42
0.0000001
 43
0.0000001
 44
0.0000000001
 40
0.0
 40
0.0
 40
0.0
 40
0.0
 40
0.2333630673
 40
0.4779541767
 40
0.7336770772
 40
1.0
 40
1.0
 40
1.0
 40
1.0
 10
14.4960192569
 20
5.9639697837
 30
0.0
 10
14.4986865674
 20
5.962191578
 30
0.0
 10
14.5043867123
 20
5.9588907873
 30
0.0
 10
14.513742241
 20
5.95505404
 30
0.0
 10
14.524005387
 20
5.9525243551
 30
0.0
 10
14.5311891088
 20
5.9519191891
 30
0.0
 10
14.5348475814
 20
5.9519135627
 30
0.0
  0
SPLINE
  5
282
100
AcDbEntity
  8
0
100
AcDbSpline
 62
9
  6
CONTINUOUS
 70
0
 71
3
 72
23
 73
19
 74
0
 42
0.0000001
 43
0.0000001
 44
0.0000000001
 40
0.0
 40
0.0
 40
0.0
 40
0.0
 40
0.0654415544
 40
0.1303440476
 40
0.1944692722
 40
0.2576619063
 40
0.3198122787
 40
0.3809745677
 40
0.4413839852
 40
0.5013701749
 40
0.5613521624
 40
0.6217223691
 40
0.6827768002
 40
0.7446902408
 40
0.8075100418
 40
0.8711600887
 40
0.9354446563
 40
1.0
 40
1.0
 40
1.0
 40
1.0
 10
15.1126912137
 20
5.6878450803
 30
0.0
 10
15.1126873783
 20
5.6816516753
 30
0.0
 10
15.1122936997
 20
5.6693116515
 30
0.0
 10
15.110416313
 20
5.6509865136
 30
0.0
 10
15.1071257029
 20
5.6330724596
 30
0.0
 10
15.1023102876
 20
5.6157724157
 30
0.0
 10
15.0959047904
 20
5.5992896047
 30
0.0
 10
15.0878362591
 20
5.5838453727
 30
0.0
 10
15.0781568934
 20
5.5695997272
 30
0.0
 10
15.0669034421
 20
5.5567077669
 30
0.0
 10
15.0541983764
 20
5.5452523851
 30
0.0
 10
15.0401710933
 20
5.5352895309
 30
0.0
 10
15.0249753492
 20
5.5268456129
 30
0.0
 10
15.0087789195
 20
5.5199265066
 30
0.0
 10
14.9917558664
 20
5.5145396512
 30
0.0
 10
14.9740933511
 20
5.5106886056
 30
0.0
 10
14.9560015507
 20
5.5083784431
 30
0.0
 10
14.9438018777
 20
5.5078631866
 30
0.0
 10
14.9376923427
 20
5.5078629406
 30
0.0
  0
SPLINE
  5
283
100
AcDbEntity
  8
0
100
AcDbSpline
 62
9
  6
CONTINUOUS
 70
0
 71
3
 72
29
 73
25
 74
0
 42
0.0000001
 43
0.0000001
 44
0.0000000001
 40
0.0
 40
0.0
 40
0.0
 40
0.0
 40
0.0623768538
 40
0.125015492
 40
0.1879427295
 40
0.251149395
 40
0.377967544
 40
0.4096907114
 40
0.441348813
 40
0.5043090903
 40
0.535578571
 40
0.5666689507
 40
0.5975779744
 40
0.6283187535
 40
0.6589195264
 40
0.6894266228
 40
0.7198982632
 40
0.7503990894
 40
0.7809925751
 40
0.8117349223
 40
0.8426676942
 40
0.8738120001
 40
0.93664144
 40
1.0
 40
1.0
 40
1.0
 40
1.0
 10
15.1131318776
 20
5.8794621849
 30
0.0
 10
15.1176477098
 20
5.8684557847
 30
0.0
 10
15.1258687606
 20
5.8460477379
 30
0.0
 10
15.1358539528
 20
5.8115957714
 30
0.0
 10
15.1435467145
 20
5.7763914319
 30
0.0
 10
15.1506030055
 20
5.7286467611
 30
0.0
 10
15.1523273308
 20
5.6861656266
 30
0.0
 10
15.1498036366
 20
5.649968717
 30
0.0
 10
15.1469919871
 20
5.6260298556
 30
0.0
 10
15.1423261507
 20
5.6024171159
 30
0.0
 10
15.135621593
 20
5.5794618086
 30
0.0
 10
15.129532532
 20
5.5627327983
 30
0.0
 10
15.1223334384
 20
5.5465600072
 30
0.0
 10
15.1140142535
 20
5.5310376287
 30
0.0
 10
15.1045531434
 20
5.5162723387
 30
0.0
 10
15.0939507362
 20
5.5023666925
 30
0.0
 10
15.082227808
 20
5.4894158125
 30
0.0
 10
15.0694178468
 20
5.4775134328
 30
0.0
 10
15.0555703258
 20
5.4667504284
 30
0.0
 10
15.0407538895
 20
5.4572127485
 30
0.0
 10
15.0250552809
 20
5.4489785335
 30
0.0
 10
15.0030365119
 20
5.4398146247
 30
0.0
 10
14.9738930159
 20
5.4320164625
 30
0.0
 10
14.949776367
 20
5.4299213188
 30
0.0
 10
14.9376923427
 20
5.4299207765
 30
0.0
  0
SPLINE
  5
284
100
AcDbEntity
  8
0
100
AcDbSpline
 62
9
  6
CONTINUOUS
 70
0
 71
3
 72
22
 73
18
 74
0
 42
0.0000001
 43
0.0000001
 44
0.0000000001
 40
0.0
 40
0.0
 40
0.0
 40
0.0
 40
0.0881069784
 40
0.1733647523
 40
0.2540373943
 40
0.2926236159
 40
0.3300603995
 40
0.4693525594
 40
0.5940649381
 40
0.6515947285
 40
0.7062054306
 40
0.7582431758
 40
0.8080508181
 40
0.8561591525
 40
0.90339738
 40
0.9508459839
 40
1.0
 40
1.0
 40
1.0
 40
1.0
 10
14.9376923427
 20
5.971468818
 30
0.0
 10
14.9427221161
 20
5.971468932
 30
0.0
 10
14.9526210195
 20
5.9711040814
 30
0.0
 10
14.9670642715
 20
5.9697366114
 30
0.0
 10
14.9786307555
 20
5.968130723
 30
0.0
 10
14.9874711064
 20
5.9667650869
 30
0.0
 10
14.9996110058
 20
5.9648386066
 30
0.0
 10
15.016600675
 20
5.9621067324
 30
0.0
 10
15.0348809544
 20
5.9601974273
 30
0.0
 10
15.0484066993
 20
5.9598864172
 30
0.0
 10
15.0577785715
 20
5.9602997648
 30
0.0
 10
15.066651202
 20
5.9614267535
 30
0.0
 10
15.075007313
 20
5.9633680757
 30
0.0
 10
15.0828072917
 20
5.9662373201
 30
0.0
 10
15.090003991
 20
5.9701352284
 30
0.0
 10
15.0965095151
 20
5.9752134114
 30
0.0
 10
15.1001708024
 20
5.9793905119
 30
0.0
 10
15.1018172614
 20
5.9816627688
 30
0.0
  0
SPLINE
  5
285
100
AcDbEntity
  8
0
100
AcDbSpline
 62
9
  6
CONTINUOUS
 70
0
 71
3
 72
12
 73
8
 74
0
 42
0.0000001
 43
0.0000001
 44
0.0000000001
 40
0.0
 40
0.0
 40
0.0
 40
0.0
 40
0.2945435281
 40
0.5603737777
 40
0.6818657548
 40
0.7955567929
 40
1.0
 40
1.0
 40
1.0
 40
1.0
 10
14.5246670558
 20
5.9530971864
 30
0.0
 10
14.5221013889
 20
5.9547332842
 30
0.0
 10
14.5171044012
 20
5.9576712419
 30
0.0
 10
14.5107009581
 20
5.9606449936
 30
0.0
 10
14.505810208
 20
5.9623555986
 30
0.0
 10
14.5014217375
 20
5.9635274985
 30
0.0
 10
14.4981317158
 20
5.9639693897
 30
0.0
 10
14.496019608
 20
5.9639696281
 30
0.0
  0
SPLINE
  5
286
100
AcDbEntity
  8
0
100
AcDbSpline
 62
9
  6
CONTINUOUS
 70
0
 71
3
 72
23
 73
19
 74
0
 42
0.0000001
 43
0.0000001
 44
0.0000000001
 40
0.0
 40
0.0
 40
0.0
 40
0.0
 40
0.0645588
 40
0.1288466108
 40
0.1924988388
 40
0.2553186944
 40
0.3172288836
 40
0.3782783719
 40
0.4386457492
 40
0.4986294052
 40
0.5586218726
 40
0.6190411683
 40
0.6802136623
 40
0.7423709915
 40
0.8055653188
 40
0.8696857248
 40
0.9345766796
 40
1.0
 40
1.0
 40
1.0
 40
1.0
 10
14.9376923427
 20
5.507863011
 30
0.0
 10
14.9315779946
 20
5.5078632652
 30
0.0
 10
14.9193687205
 20
5.5083793295
 30
0.0
 10
14.9012629951
 20
5.5106931102
 30
0.0
 10
14.8835876555
 20
5.5145502919
 30
0.0
 10
14.8665535516
 20
5.5199455028
 30
0.0
 10
14.8503482523
 20
5.5268749301
 30
0.0
 10
14.8351459623
 20
5.5353313427
 30
0.0
 10
14.8211144799
 20
5.5453092246
 30
0.0
 10
14.8084074393
 20
5.5567820081
 30
0.0
 10
14.797154852
 20
5.569693738
 30
0.0
 10
14.7874794713
 20
5.5839604457
 30
0.0
 10
14.7794180236
 20
5.5994257206
 30
0.0
 10
14.7730224909
 20
5.6159282357
 30
0.0
 10
14.7682189007
 20
5.6332455997
 30
0.0
 10
14.7649412089
 20
5.6511741723
 30
0.0
 10
14.7630771003
 20
5.6695109428
 30
0.0
 10
14.7626924113
 20
5.6818574856
 30
0.0
 10
14.7626930803
 20
5.6880537122
 30
0.0
  0
SPLINE
  5
287
100
AcDbEntity
  8
0
100
AcDbSpline
 62
9
  6
CONTINUOUS
 70
0
 71
3
 72
22
 73
18
 74
0
 42
0.0000001
 43
0.0000001
 44
0.0000000001
 40
0.0
 40
0.0
 40
0.0
 40
0.0
 40
0.0138918577
 40
0.029812776
 40
0.067028823
 40
0.1101914527
 40
0.1582754513
 40
0.2104642605
 40
0.2663063899
 40
0.3879152104
 40
0.5215258559
 40
0.5927962713
 40
0.6671964876
 40
0.7449201964
 40
0.8261635063
 40
0.9110963909
 40
1.0
 40
1.0
 40
1.0
 40
1.0
 10
13.8729480049
 20
5.9669542378
 30
0.0
 10
13.8733773105
 20
5.9666682317
 30
0.0
 10
13.8743343152
 20
5.9661078238
 30
0.0
 10
13.8765747658
 20
5.9650201189
 30
0.0
 10
13.8799292879
 20
5.9637606398
 30
0.0
 10
13.8845231229
 20
5.9624612971
 30
0.0
 10
13.889742324
 20
5.9613779875
 30
0.0
 10
13.8954858148
 20
5.9605644935
 30
0.0
 10
13.9039903156
 20
5.9598827371
 30
0.0
 10
13.915567724
 20
5.9599928323
 30
0.0
 10
13.9276281975
 20
5.9614860055
 30
0.0
 10
13.9377735389
 20
5.9636617738
 30
0.0
 10
13.9457677489
 20
5.965897373
 30
0.0
 10
13.9539571904
 20
5.9687475396
 30
0.0
 10
13.9623105847
 20
5.9722643854
 30
0.0
 10
13.970773238
 20
5.9765358529
 30
0.0
 10
13.9763145087
 20
5.9798607987
 30
0.0
 10
13.9790802084
 20
5.981663416
 30
0.0
  0
SPLINE
  5
288
100
AcDbEntity
  8
0
100
AcDbSpline
 62
9
  6
CONTINUOUS
 70
0
 71
3
 72
30
 73
26
 74
0
 42
0.0000001
 43
0.0000001
 44
0.0000000001
 40
0.0
 40
0.0
 40
0.0
 40
0.0
 40
0.0633525442
 40
0.1261758921
 40
0.1573171657
 40
0.1882469004
 40
0.2189862651
 40
0.2495768075
 40
0.280074724
 40
0.310543385
 40
0.3410475247
 40
0.371645348
 40
0.4023832007
 40
0.4332892144
 40
0.4643763921
 40
0.4956425626
 40
0.5585973858
 40
0.5902519722
 40
0.6219717401
 40
0.6854626324
 40
0.7488763284
 40
0.8120760584
 40
0.8749971313
 40
0.9376294985
 40
1.0
 40
1.0
 40
1.0
 40
1.0
 10
14.9376923427
 20
5.4299207765
 30
0.0
 10
14.9256081585
 20
5.4299213401
 30
0.0
 10
14.9014912208
 20
5.4320165318
 30
0.0
 10
14.8723473706
 20
5.4398148006
 30
0.0
 10
14.8503284357
 20
5.4489790004
 30
0.0
 10
14.8346297865
 20
5.4572135376
 30
0.0
 10
14.8198131851
 20
5.4667513083
 30
0.0
 10
14.8059654962
 20
5.4775144495
 30
0.0
 10
14.7931555613
 20
5.4894171663
 30
0.0
 10
14.7814326959
 20
5.5023683673
 30
0.0
 10
14.770830155
 20
5.5162741432
 30
0.0
 10
14.7613688768
 20
5.5310396017
 30
0.0
 10
14.7530506836
 20
5.5465627748
 30
0.0
 10
14.7458520991
 20
5.562735911
 30
0.0
 10
14.7397608678
 20
5.5794642232
 30
0.0
 10
14.7330558386
 20
5.6024198256
 30
0.0
 10
14.7283942975
 20
5.6260336785
 30
0.0
 10
14.7255767241
 20
5.6499715454
 30
0.0
 10
14.7238959255
 20
5.6741203716
 30
0.0
 10
14.7238047222
 20
5.7044156825
 30
0.0
 10
14.7265461125
 20
5.7406057779
 30
0.0
 10
14.7318469647
 20
5.7763971026
 30
0.0
 10
14.7395308607
 20
5.8115993527
 30
0.0
 10
14.7495167689
 20
5.8460527812
 30
0.0
 10
14.7577391642
 20
5.8684602093
 30
0.0
 10
14.7622551155
 20
5.8794666423
 30
0.0
  0
SPLINE
  5
289
100
AcDbEntity
  8
0
100
AcDbSpline
 62
9
  6
CONTINUOUS
 70
0
 71
3
 72
10
 73
6
 74
0
 42
0.0000001
 43
0.0000001
 44
0.0000000001
 40
0.0
 40
0.0
 40
0.0
 40
0.0
 40
0.4842883168
 40
0.7394698902
 40
1.0
 40
1.0
 40
1.0
 40
1.0
 10
15.0267476008
 20
5.981919644
 30
0.0
 10
15.0123702522
 20
5.9819211046
 30
0.0
 10
14.990419524
 20
5.9823716558
 30
0.0
 10
14.9607373067
 20
5.9829127518
 30
0.0
 10
14.945426852
 20
5.9830285019
 30
0.0
 10
14.9376923433
 20
5.9830278973
 30
0.0
  0
SPLINE
  5
28A
100
AcDbEntity
  8
0
100
AcDbSpline
 62
9
  6
CONTINUOUS
 70
0
 71
3
 72
22
 73
18
 74
0
 42
0.0000001
 43
0.0000001
 44
0.0000000001
 40
0.0
 40
0.0
 40
0.0
 40
0.0
 40
0.0491465644
 40
0.0965892643
 40
0.1438232189
 40
0.1919287452
 40
0.2417342875
 40
0.2937699564
 40
0.3483781603
 40
0.4059049641
 40
0.5306100101
 40
0.6699044933
 40
0.7073449913
 40
0.7459358966
 40
0.8266195668
 40
0.9118879647
 40
1.0
 40
1.0
 40
1.0
 40
1.0
 10
14.7735671932
 20
5.9816630173
 30
0.0
 10
14.7752133825
 20
5.9793910832
 30
0.0
 10
14.778874058
 20
5.9752144682
 30
0.0
 10
14.7853785611
 20
5.9701366008
 30
0.0
 10
14.7925744303
 20
5.9662386868
 30
0.0
 10
14.8003737861
 20
5.9633692255
 30
0.0
 10
14.8087294193
 20
5.9614275359
 30
0.0
 10
14.8176016344
 20
5.9603001404
 30
0.0
 10
14.8269730806
 20
5.9598864335
 30
0.0
 10
14.8404981313
 20
5.9601970119
 30
0.0
 10
14.8587780586
 20
5.9621057622
 30
0.0
 10
14.8757676607
 20
5.964837855
 30
0.0
 10
14.8879081666
 20
5.9667645779
 30
0.0
 10
14.896749636
 20
5.9681303618
 30
0.0
 10
14.908317658
 20
5.9697362836
 30
0.0
 10
14.9227624551
 20
5.9711038835
 30
0.0
 10
14.9326622703
 20
5.9714688815
 30
0.0
 10
14.9376923427
 20
5.9714687841
 30
0.0
  0
SPLINE
  5
28B
100
AcDbEntity
  8
0
100
AcDbSpline
 62
9
  6
CONTINUOUS
 70
0
 71
3
 72
10
 73
6
 74
0
 42
0.0000001
 43
0.0000001
 44
0.0000000001
 40
0.0
 40
0.0
 40
0.0
 40
0.0
 40
0.4842770232
 40
0.7394646878
 40
1.0
 40
1.0
 40
1.0
 40
1.0
 10
14.8486210558
 20
5.9819196063
 30
0.0
 10
14.8630006566
 20
5.981920843
 30
0.0
 10
14.8849551838
 20
5.9823715237
 30
0.0
 10
14.9146427429
 20
5.9829126744
 30
0.0
 10
14.9299562881
 20
5.9830284687
 30
0.0
 10
14.9376923433
 20
5.9830278973
 30
0.0
  0
SPLINE
  5
28C
100
AcDbEntity
  8
0
100
AcDbSpline
 62
9
  6
CONTINUOUS
 70
0
 71
3
 72
11
 73
7
 74
0
 42
0.0000001
 43
0.0000001
 44
0.0000000001
 40
0.0
 40
0.0
 40
0.0
 40
0.0
 40
0.2333527332
 40
0.4779407897
 40
0.7336669015
 40
1.0
 40
1.0
 40
1.0
 40
1.0
 10
15.3793653735
 20
5.9639697755
 30
0.0
 10
15.3766961068
 20
5.9621902657
 30
0.0
 10
15.3709915091
 20
5.9588872451
 30
0.0
 10
15.3616281929
 20
5.9550489934
 30
0.0
 10
15.3513561736
 20
5.9525200789
 30
0.0
 10
15.3441663649
 20
5.9519174048
 30
0.0
 10
15.3405049049
 20
5.9519135209
 30
0.0
  0
SPLINE
  5
28D
100
AcDbEntity
  8
0
100
AcDbSpline
 62
9
  6
CONTINUOUS
 70
0
 71
3
 72
22
 73
18
 74
0
 42
0.0000001
 43
0.0000001
 44
0.0000000001
 40
0.0
 40
0.0
 40
0.0
 40
0.0
 40
0.0889113916
 40
0.173844294
 40
0.2550851205
 40
0.3328080633
 40
0.4072093943
 40
0.4784815642
 40
0.6120932854
 40
0.733697842
 40
0.7895368649
 40
0.8417224798
 40
0.8898040895
 40
0.9329666147
 40
0.970185273
 40
0.9861075052
 40
1.0
 40
1.0
 40
1.0
 40
1.0
 10
15.8963049982
 20
5.9816625744
 30
0.0
 10
15.8990708829
 20
5.9798597493
 30
0.0
 10
15.9046123493
 20
5.9765346309
 30
0.0
 10
15.9130752574
 20
5.9722633447
 30
0.0
 10
15.921428677
 20
5.9687470109
 30
0.0
 10
15.929618106
 20
5.9658972268
 30
0.0
 10
15.9376123778
 20
5.9636617632
 30
0.0
 10
15.9477577977
 20
5.9614859882
 30
0.0
 10
15.959818128
 20
5.9599926837
 30
0.0
 10
15.9713952394
 20
5.9598827057
 30
0.0
 10
15.9798992862
 20
5.9605645385
 30
0.0
 10
15.9856424144
 20
5.9613780241
 30
0.0
 10
15.9908613788
 20
5.9624612666
 30
0.0
 10
15.9954551941
 20
5.9637605857
 30
0.0
 10
15.9988098382
 20
5.9650200783
 30
0.0
 10
16.0010504458
 20
5.9661078113
 30
0.0
 10
16.0020075164
 20
5.9666682378
 30
0.0
 10
16.002436839
 20
5.9669542554
 30
0.0
  0
SPLINE
  5
28E
100
AcDbEntity
  8
0
100
AcDbSpline
 62
9
  6
CONTINUOUS
 70
0
 71
3
 72
17
 73
13
 74
0
 42
0.0000001
 43
0.0000001
 44
0.0000000001
 40
0.0
 40
0.0
 40
0.0
 40
0.0
 40
0.0580903914
 40
0.1180744334
 40
0.1795676166
 40
0.2422064647
 40
0.3696625339
 40
0.4982962157
 40
0.6265685056
 40
0.7534207422
 40
0.8781058799
 40
1.0
 40
1.0
 40
1.0
 40
1.0
 10
15.3126923978
 20
5.5531314823
 30
0.0
 10
15.3126924619
 20
5.5588153204
 30
0.0
 10
15.3126211834
 20
5.5703682707
 30
0.0
 10
15.3123989359
 20
5.5879366257
 30
0.0
 10
15.3121263535
 20
5.6059493579
 30
0.0
 10
15.3117654829
 20
5.6305632684
 30
0.0
 10
15.3114326111
 20
5.6617477109
 30
0.0
 10
15.3113701921
 20
5.699356
 30
0.0
 10
15.3116223491
 20
5.7369041735
 30
0.0
 10
15.312069925
 20
5.7740639069
 30
0.0
 10
15.3125265431
 20
5.8105992778
 30
0.0
 10
15.3126920393
 20
5.8347256606
 30
0.0
 10
15.312692474
 20
5.8466523567
 30
0.0
  0
SPLINE
  5
28F
100
AcDbEntity
  8
0
100
AcDbSpline
 62
9
  6
CONTINUOUS
 70
0
 71
3
 72
11
 73
7
 74
0
 42
0.0000001
 43
0.0000001
 44
0.0000000001
 40
0.0
 40
0.0
 40
0.0
 40
0.0
 40
0.2059289656
 40
0.4412823117
 40
0.7065513715
 40
1.0
 40
1.0
 40
1.0
 40
1.0
 10
15.3793650747
 20
5.9639696262
 30
0.0
 10
15.3773400043
 20
5.9639695948
 30
0.0
 10
15.3729987536
 20
5.9634103236
 30
0.0
 10
15.3663401149
 20
5.9613572996
 30
0.0
 10
15.3592059381
 20
5.9581434177
 30
0.0
 10
15.3544296711
 20
5.9554128413
 30
0.0
 10
15.3519779446
 20
5.9538908562
 30
0.0
  0
SPLINE
  5
290
100
AcDbEntity
  8
0
100
AcDbSpline
 62
9
  6
CONTINUOUS
 70
0
 71
3
 72
17
 73
13
 74
0
 42
0.0000001
 43
0.0000001
 44
0.0000000001
 40
0.0
 40
0.0
 40
0.0
 40
0.0
 40
0.1218815966
 40
0.2465543339
 40
0.3734003141
 40
0.501667152
 40
0.6302994334
 40
0.7577613202
 40
0.8204071394
 40
0.8819042451
 40
0.9418946698
 40
1.0
 40
1.0
 40
1.0
 40
1.0
 10
14.5626922316
 20
5.8467762951
 30
0.0
 10
14.5626920392
 20
5.8348495303
 30
0.0
 10
14.562856692
 20
5.8107229593
 30
0.0
 10
14.5633132973
 20
5.7741866737
 30
0.0
 10
14.563760734
 20
5.7370252669
 30
0.0
 10
14.5640143731
 20
5.6994743117
 30
0.0
 10
14.5639525406
 20
5.6618620418
 30
0.0
 10
14.563620864
 20
5.6306730882
 30
0.0
 10
14.5632601725
 20
5.6060548674
 30
0.0
 10
14.5629874666
 20
5.5880384916
 30
0.0
 10
14.5627644637
 20
5.5704657693
 30
0.0
 10
14.5626925841
 20
5.5589094835
 30
0.0
 10
14.5626922459
 20
5.5532235667
 30
0.0
  0
ENDSEC
  0
SECTION
  2
OBJECTS
  0
DICTIONARY
  5
C
100
AcDbDictionary
280
0
281
1
  3
ACAD_GROUP
350
D
  3
ACAD_MLINESTYLE
350
17
  3
ACAD_LAYOUT
350
1A
  3
ACAD_PLOTSETTINGS
350
19
  3
ACAD_PLOTSTYLENAME
350
E
  0
DICTIONARY
  5
D
102
{ACAD_REACTORS
330
C
102
}
100
AcDbDictionary
280
0
281
1
  0
ACDBDICTIONARYWDFLT
  5
E
102
{ACAD_REACTORS
330
C
102
}
100
AcDbDictionary
281
1
  3
Normal
350
F
100
AcDbDictionaryWithDefault
340
F
  0
DICTIONARY
  5
17
102
{ACAD_REACTORS
330
C
102
}
100
AcDbDictionary
280
0
281
1
  3
Standard
350
18
  0
DICTIONARY
  5
19
102
{ACAD_REACTORS
330
C
102
}
100
AcDbDictionary
281
1
  0
DICTIONARY
  5
1A
102
{ACAD_REACTORS
330
C
102
}
100
AcDbDictionary
281
1
  3
Model
350
291
  3
Layout1
350
292
  0
ACDBPLACEHOLDER
  5
F
102
{ACAD_REACTORS
330
E
102
}
  0
MLINESTYLE
  5
18
102
{ACAD_REACTORS
330
17
102
}
100
AcDbMlineStyle
  2
STANDARD
 70
0
  3

 62
256
 51
90.0
 52
90.0
 71
2
 49
0.5
 62
256
  6
BYLAYER
 49
-0.5
 62
256
  6
BYLAYER
  0
LAYOUT
  5
291
102
{ACAD_REACTORS
330
1A
102
}
100
AcDbPlotSettings
  1

  2
none_device
  4
ANSI_C_(22.00_x_17.00_Inches)
  6

 40
0.0
 41
0.0
 42
0.0
 43
0.0
 44
558.8
 45
431.8
 46
0.0
 47
0.0
 48
0.0
 49
0.0
140
0.0
141
0.0
142
1.0
143
1.0
 70
1024
 72
0
 73
0
 74
0
  7

 75
0
147
1.0
148
0.0
149
0.0
100
AcDbLayout
  1
Model
 70
0
 71
0
 10
0.0
 20
0.0
 11
22.0
 21
17.0
 12
0.0
 22
0.0
 32
0.0
 14
0.0
 24
0.0
 34
0.0
 15
0.0
 25
0.0
 35
0.0
146
0.0
 13
0.0
 23
0.0
 33
0.0
 16
1.0
 26
0.0
 36
0.0
 17
0.0
 27
1.0
 37
0.0
 76
0
330
202
345
0
346
0
  0
LAYOUT
  5
292
102
{ACAD_REACTORS
330
1A
102
}
100
AcDbPlotSettings
  1

  2
none_device
  4
ANSI_C_(22.00_x_17.00_Inches)
  6

 40
0.0
 41
0.0
 42
0.0
 43
0.0
 44
558.8
 45
431.8
 46
0.0
 47
0.0
 48
0.0
 49
0.0
140
0.0
141
0.0
142
1.0
143
1.0
 70
0
 72
0
 73
0
 74
0
  7

 75
0
147
1.0
148
0.0
149
0.0
100
AcDbLayout
  1
Layout1
 70
0
 71
1
 10
0.0
 20
0.0
 11
22.0
 21
17.0
 12
0.0
 22
0.0
 32
0.0
 14
0.0
 24
0.0
 34
0.0
 15
0.0
 25
0.0
 35
0.0
146
0.0
 13
0.0
 23
0.0
 33
0.0
 16
1.0
 26
0.0
 36
0.0
 17
0.0
 27
1.0
 37
0.0
 76
0
330
203
345
0
346
0
  0
ENDSEC
  0
EOF
