999
DXF file: E:\BT Custom\CADOUTPUT\_RIGHT.dxf
999
Pro/ENGINEER 2018400 by Parametric Technology Corporation
  0
SECTION
  2
HEADER
  9
$ACADVER
  1
AC1018
  9
$DWGCODEPAGE
  3
ANSI_1252
  9
$EXTMAX
 10
22.0
 20
17.0
 30
0.0
  9
$EXTMIN
 10
0.0
 20
0.0
 30
0.0
  9
$LIMMIN
 10
0.0
 20
0.0
  9
$LIMMAX
 10
22.0
 20
17.0
  9
$VIEWCTR
 10
11.0
 20
8.5
  9
$VIEWSIZE
 40
17.0
  9
$CLAYER
  8
0
  9
$LTSCALE
 40
1.21
  9
$CELTYPE
  6
BYLAYER
  9
$DIMSCALE
 40
1.0
  9
$DIMASZ
 40
0.1
  9
$DIMEXO
 40
0.0625
  9
$DIMDLI
 40
0.836
  9
$DIMEXE
 40
0.125
  9
$DIMCEN
 40
0.198
  9
$DIMLFAC
 40
1.0
  9
$DIMBLK
  1
_FILLED
  9
$DIMALT
 70
1
  9
$DIMALTD
 70
2
  9
$DIMALTTD
 70
2
  9
$DIMALTF
 40
25.4
  9
$DIMTXT
 40
0.08
  9
$DIMTOL
 70
1
  9
$DIMLIM
 70
0
  9
$DIMTFAC
 40
1.0
  9
$DIMTP
 40
0.001
  9
$DIMTM
 40
0.001
  9
$DIMGAP
 40
0.09
  9
$DIMDSEP
 70
46
  9
$AUNITS
 70
0
  9
$PDMODE
 70
3
  9
$PDSIZE
 40
0.06
  9
$HANDSEED
  5
24C
  9
$TILEMODE
 70
1
  9
$MEASUREMENT
 70
0
  9
$INSUNITS
 70
1
  0
ENDSEC
  0
SECTION
  2
CLASSES
  0
CLASS
  1
ACDBDICTIONARYWDFLT
  2
AcDbDictionaryWithDefault
  3
AutoCAD 2000
 90
0
 91
1
280
0
281
0
  0
CLASS
  1
ACDBPLACEHOLDER
  2
AcDbPlaceHolder
  3
AutoCAD 2000
 90
0
 91
1
280
0
281
0
  0
CLASS
  1
LAYOUT
  2
AcDbLayout
  3
AutoCAD 2000
 90
0
 91
0
280
0
281
0
  0
ENDSEC
  0
SECTION
  2
TABLES
  0
TABLE
  2
VPORT
  5
8
100
AcDbSymbolTable
 70
2
  0
VPORT
  5
1F4
100
AcDbSymbolTableRecord
100
AcDbViewportTableRecord
  2
*ACTIVE
 70
0
 10
0.0
 20
0.0
 11
1.0
 21
1.0
 12
11.0
 22
8.5
 13
0.0
 23
0.0
 14
1.0
 24
1.0
 15
0.0
 25
0.0
 16
0.0
 26
0.0
 36
1.0
 17
0.0
 27
0.0
 37
0.0
 40
17.0
 41
1.2941176471
 42
50.0
 43
0.0
 44
0.0
 50
0.0
 51
0.0
 71
0
 72
100
 73
1
 74
1
 75
0
 76
0
 77
0
 78
0
  0
ENDTAB
  0
TABLE
  2
LTYPE
  5
5
100
AcDbSymbolTable
 70
6
  0
LTYPE
  5
14
100
AcDbSymbolTableRecord
100
AcDbLinetypeTableRecord
  2
BYBLOCK
 70
0
  3

 72
65
 73
0
 40
0.0
  0
LTYPE
  5
15
100
AcDbSymbolTableRecord
100
AcDbLinetypeTableRecord
  2
BYLAYER
 70
0
  3

 72
65
 73
0
 40
0.0
  0
LTYPE
  5
16
100
AcDbSymbolTableRecord
100
AcDbLinetypeTableRecord
  2
CONTINUOUS
 70
64
  3
Solid line
 72
65
 73
0
 40
0.0
  0
LTYPE
  5
1F5
100
AcDbSymbolTableRecord
100
AcDbLinetypeTableRecord
  2
CENTER
 70
64
  3
____ _ ____ _ ____ _ ____ _ ____ _ ____ _ ____
 72
65
 73
4
 40
0.6
 49
0.375
 74
0
 49
-0.075
 74
0
 49
0.075
 74
0
 49
-0.075
 74
0
  0
LTYPE
  5
1F6
100
AcDbSymbolTableRecord
100
AcDbLinetypeTableRecord
  2
HIDDEN
 70
64
  3
- - - - - - - - - - - - - - - - - - - -
 72
65
 73
2
 40
0.2
 49
0.1
 74
0
 49
-0.1
 74
0
  0
LTYPE
  5
1F7
100
AcDbSymbolTableRecord
100
AcDbLinetypeTableRecord
  2
PHANTOM
 70
64
  3
_____ _ _ _____ _ _ _____ _ _ _____
 72
65
 73
6
 40
0.8
 49
0.45
 74
0
 49
-0.05
 74
0
 49
0.1
 74
0
 49
-0.05
 74
0
 49
0.1
 74
0
 49
-0.05
 74
0
  0
LTYPE
  5
1F8
100
AcDbSymbolTableRecord
100
AcDbLinetypeTableRecord
  2
DOT
 70
64
  3
. . . . . . . . . . . . . . . . . . . .
 72
65
 73
2
 40
0.2
 49
0.1
 74
0
 49
-0.1
 74
0
  0
LTYPE
  5
1F9
100
AcDbSymbolTableRecord
100
AcDbLinetypeTableRecord
  2
DASHED
 70
64
  3
- - - - - - - - - - - - - - - - - - - -
 72
65
 73
2
 40
0.2
 49
0.1
 74
0
 49
-0.1
 74
0
  0
ENDTAB
  0
TABLE
  2
LAYER
  5
2
100
AcDbSymbolTable
 70
36
  0
LAYER
  5
10
100
AcDbSymbolTableRecord
100
AcDbLayerTableRecord
  2
0
 70
0
 62
7
  6
CONTINUOUS
370
-3
390
F
  0
LAYER
  5
1FA
100
AcDbSymbolTableRecord
100
AcDbLayerTableRecord
  2
DEFAULT_1
 70
0
 62
7
  6
CENTER
370
-3
390
F
  0
LAYER
  5
1FB
100
AcDbSymbolTableRecord
100
AcDbLayerTableRecord
  2
DEFAULT_2
 70
0
 62
8
  6
HIDDEN
370
-3
390
F
  0
LAYER
  5
1FC
100
AcDbSymbolTableRecord
100
AcDbLayerTableRecord
  2
DEFAULT_3
 70
0
 62
7
  6
PHANTOM
370
-3
390
F
  0
LAYER
  5
1FD
100
AcDbSymbolTableRecord
100
AcDbLayerTableRecord
  2
ALL_FEATURES
 70
0
 62
7
  6
CONTINUOUS
370
-3
390
F
  0
LAYER
  5
1FE
100
AcDbSymbolTableRecord
100
AcDbLayerTableRecord
  2
AXES_FEATURES
 70
0
 62
7
  6
CONTINUOUS
370
-3
390
F
  0
LAYER
  5
1FF
100
AcDbSymbolTableRecord
100
AcDbLayerTableRecord
  2
DIMENSIONS
 70
0
 62
7
  6
CONTINUOUS
370
-3
390
F
  0
ENDTAB
  0
TABLE
  2
STYLE
  5
3
100
AcDbSymbolTable
 70
1
  0
STYLE
  5
11
100
AcDbSymbolTableRecord
100
AcDbTextStyleTableRecord
  2
STANDARD
 70
0
 40
0.0
 41
0.8
 50
0.0
 71
0
 42
0.2
  3
txt
  4

  0
STYLE
  5
200
100
AcDbSymbolTableRecord
100
AcDbTextStyleTableRecord
  2
TEXTSTYLE_1
 70
0
 40
0.0
 41
0.8
 50
0.0
 71
0
 42
0.2
  3
gdt
  4

  0
ENDTAB
  0
TABLE
  2
VIEW
  5
6
100
AcDbSymbolTable
 70
0
  0
ENDTAB
  0
TABLE
  2
UCS
  5
7
100
AcDbSymbolTable
 70
0
  0
ENDTAB
  0
TABLE
  2
APPID
  5
9
100
AcDbSymbolTable
 70
1
  0
APPID
  5
201
100
AcDbSymbolTableRecord
100
AcDbRegAppTableRecord
  2
ACAD
 70
0
  0
ENDTAB
  0
TABLE
  2
BLOCK_RECORD
  5
1
100
AcDbSymbolTable
 70
0
  0
BLOCK_RECORD
  5
202
100
AcDbSymbolTableRecord
100
AcDbBlockTableRecord
  2
*Model_Space
  0
BLOCK_RECORD
  5
203
100
AcDbSymbolTableRecord
100
AcDbBlockTableRecord
  2
*Paper_Space
  0
BLOCK_RECORD
  5
204
100
AcDbSymbolTableRecord
100
AcDbBlockTableRecord
  2
_FILLED
  0
ENDTAB
  0
TABLE
  2
DIMSTYLE
  5
A
100
AcDbSymbolTable
 70
1
100
AcDbDimStyleTable
 71
0
  0
DIMSTYLE
105
205
100
AcDbSymbolTableRecord
100
AcDbDimStyleTableRecord
  2
STANDARD
 70
0
  3

  4

 40
1.0
 41
0.1
 42
0.0625
 43
0.38
 44
0.125
 45
0.0
 46
0.0
 47
0.001
 48
0.001
140
0.08
141
0.09
142
0.0
143
25.4
144
1.0
145
0.0
146
1.0
147
0.09
 71
1.0
 72
0.0
 73
1
 74
1
 75
0
 76
0
 77
0
 78
4
 79
1
170
1
171
2
172
0
173
0
174
0
175
0
176
0
177
0
178
0
270
2
179
3
271
3
272
3
273
2
274
2
275
0
280
0
281
0
282
0
283
1
284
4
285
0
286
0
287
3
288
0
340
11
278
46
341
204
342
204
343
204
344
204
  0
ENDTAB
  0
ENDSEC
  0
SECTION
  2
BLOCKS
  0
BLOCK
  5
20
100
AcDbEntity
  8
0
100
AcDbBlockBegin
  2
*Model_Space
 70
0
 10
0.0
 20
0.0
 30
0.0
  3
*Model_Space
  1

  0
ENDBLK
  5
21
100
AcDbEntity
  8
0
100
AcDbBlockEnd
  0
BLOCK
  5
1C
100
AcDbEntity
  8
0
100
AcDbBlockBegin
  2
*Paper_Space
 70
0
 10
0.0
 20
0.0
 30
0.0
  3
*Paper_Space
  1

  0
ENDBLK
  5
1D
100
AcDbEntity
  8
0
100
AcDbBlockEnd
  0
BLOCK
  5
206
100
AcDbEntity
  8
0
100
AcDbBlockBegin
  2
_FILLED
 70
64
 10
0.0
 20
0.0
  3
_FILLED
  1

  0
SOLID
  5
207
100
AcDbEntity
  8
0
  6
BYBLOCK
 62
0
100
AcDbTrace
 10
0.0
 20
0.0
 11
-1.0
 21
0.2
 12
-1.0
 22
-0.2
 13
-1.0
 23
-0.2
  0
ENDBLK
  5
208
100
AcDbEntity
  8
0
  6
BYBLOCK
 62
0
100
AcDbBlockEnd
  0
ENDSEC
  0
SECTION
  2
ENTITIES
  0
LINE
  5
209
100
AcDbEntity
  8
0
100
AcDbLine
 62
7
  6
CONTINUOUS
 10
12.9920482339
 20
3.021141804
 11
15.3670469443
 21
3.021141804
  0
LINE
  5
20A
100
AcDbEntity
  8
0
100
AcDbLine
 62
7
  6
CONTINUOUS
 10
15.3670469256
 20
3.396141804
 11
12.9920482526
 21
3.396141804
  0
LINE
  5
20B
100
AcDbEntity
  8
0
100
AcDbLine
 62
7
  6
CONTINUOUS
 10
5.8045475891
 20
9.448641804
 11
5.8045475891
 21
10.561141804
  0
LINE
  5
20C
100
AcDbEntity
  8
0
100
AcDbLine
 62
7
  6
CONTINUOUS
 10
15.3670475891
 20
4.124141804
 11
14.8357975891
 21
4.124141804
  0
LINE
  5
20D
100
AcDbEntity
  8
0
100
AcDbLine
 62
7
  6
CONTINUOUS
 10
13.5232975891
 20
4.124141804
 11
12.9920475891
 21
4.124141804
  0
LINE
  5
20E
100
AcDbEntity
  8
0
100
AcDbLine
 62
7
  6
CONTINUOUS
 10
14.8357904074
 20
4.504141804
 11
13.5233047708
 21
4.504141804
  0
LINE
  5
20F
100
AcDbEntity
  8
0
100
AcDbLine
 62
7
  6
CONTINUOUS
 10
13.8645606517
 20
4.524141804
 11
14.4945345265
 21
4.524141804
  0
LINE
  5
210
100
AcDbEntity
  8
0
100
AcDbLine
 62
7
  6
CONTINUOUS
 10
6.8045475891
 20
10.561141804
 11
6.8045475891
 21
9.448641804
  0
LINE
  5
211
100
AcDbEntity
  8
0
100
AcDbLine
 62
7
  6
CONTINUOUS
 10
14.8717297287
 20
5.7234354436
 11
14.8751471891
 21
5.7240638599
  0
LINE
  5
212
100
AcDbEntity
  8
0
100
AcDbLine
 62
7
  6
CONTINUOUS
 10
13.8045605999
 20
5.124141804
 11
14.5545345782
 21
5.124141804
  0
LINE
  5
213
100
AcDbEntity
  8
0
100
AcDbLine
 62
7
  6
CONTINUOUS
 10
14.873931959
 20
5.724141804
 11
15.4170475891
 21
5.724141804
  0
LINE
  5
214
100
AcDbEntity
  8
0
100
AcDbLine
 62
7
  6
CONTINUOUS
 10
14.7194318346
 20
5.724141804
 11
12.9442807968
 21
5.7241435838
  0
LINE
  5
215
100
AcDbEntity
  8
0
100
AcDbLine
 62
7
  6
CONTINUOUS
 10
12.9420475891
 20
6.124141804
 11
15.4170475891
 21
6.124141804
  0
LINE
  5
216
100
AcDbEntity
  8
0
100
AcDbLine
 62
7
  6
CONTINUOUS
 10
14.8670475891
 20
6.561141804
 11
13.4920475891
 21
6.561141804
  0
LINE
  5
217
100
AcDbEntity
  8
0
100
AcDbLine
 62
7
  6
CONTINUOUS
 10
13.7595475891
 20
5.2500853648
 11
12.9565586179
 21
5.7136912634
  0
LINE
  5
218
100
AcDbEntity
  8
0
100
AcDbLine
 62
7
  6
CONTINUOUS
 10
13.6695475891
 20
5.7061920774
 11
13.6384577506
 21
5.724141804
  0
LINE
  5
219
100
AcDbEntity
  8
0
100
AcDbLine
 62
7
  6
CONTINUOUS
 10
5.8045475891
 20
9.448641804
 11
6.8045475891
 21
9.448641804
  0
LINE
  5
21A
100
AcDbEntity
  8
0
100
AcDbLine
 62
9
  6
CONTINUOUS
 10
14.6795475891
 20
10.561141804
 11
13.6795475891
 21
10.561141804
  0
LINE
  5
21B
100
AcDbEntity
  8
0
100
AcDbLine
 62
9
  6
CONTINUOUS
 10
6.8045475891
 20
10.561141804
 11
5.8045475891
 21
10.561141804
  0
LINE
  5
21C
100
AcDbEntity
  8
0
100
AcDbLine
 62
7
  6
CONTINUOUS
 10
12.9920475891
 20
4.124141804
 11
12.9920475891
 21
3.021141804
  0
LINE
  5
21D
100
AcDbEntity
  8
0
100
AcDbLine
 62
7
  6
CONTINUOUS
 10
13.4920475891
 20
6.561141804
 11
13.4920475891
 21
6.124141804
  0
LINE
  5
21E
100
AcDbEntity
  8
0
100
AcDbLine
 62
7
  6
CONTINUOUS
 10
13.4920475891
 20
5.4045265618
 11
13.4920475891
 21
4.124141804
  0
LINE
  5
21F
100
AcDbEntity
  8
0
100
AcDbLine
 62
7
  6
CONTINUOUS
 10
13.5232975891
 20
4.504141804
 11
13.5232975891
 21
3.396141804
  0
LINE
  5
220
100
AcDbEntity
  8
0
100
AcDbLine
 62
7
  6
CONTINUOUS
 10
13.6795475891
 20
10.561141804
 11
13.6795475891
 21
6.561141804
  0
LINE
  5
221
100
AcDbEntity
  8
0
100
AcDbLine
 62
7
  6
CONTINUOUS
 10
13.8045475891
 20
5.1721430784
 11
13.8045475891
 21
5.124141804
  0
LINE
  5
222
100
AcDbEntity
  8
0
100
AcDbLine
 62
7
  6
CONTINUOUS
 10
13.8645475891
 20
5.124141804
 11
13.8645475891
 21
4.524141804
  0
LINE
  5
223
100
AcDbEntity
  8
0
100
AcDbLine
 62
7
  6
CONTINUOUS
 10
13.9795475891
 20
4.524141804
 11
13.9795475891
 21
4.504141804
  0
LINE
  5
224
100
AcDbEntity
  8
0
100
AcDbLine
 62
7
  6
CONTINUOUS
 10
14.3795475891
 20
4.524141804
 11
14.3795475891
 21
4.504141804
  0
LINE
  5
225
100
AcDbEntity
  8
0
100
AcDbLine
 62
7
  6
CONTINUOUS
 10
14.4945475891
 20
5.124141804
 11
14.4945475891
 21
4.524141804
  0
LINE
  5
226
100
AcDbEntity
  8
0
100
AcDbLine
 62
7
  6
CONTINUOUS
 10
14.5545475891
 20
5.3753666323
 11
14.5545475891
 21
5.124141804
  0
LINE
  5
227
100
AcDbEntity
  8
0
100
AcDbLine
 62
7
  6
CONTINUOUS
 10
14.6795475891
 20
10.561141804
 11
14.6795475891
 21
6.561141804
  0
LINE
  5
228
100
AcDbEntity
  8
0
100
AcDbLine
 62
7
  6
CONTINUOUS
 10
14.8357975891
 20
4.504141804
 11
14.8357975891
 21
3.396141804
  0
LINE
  5
229
100
AcDbEntity
  8
0
100
AcDbLine
 62
7
  6
CONTINUOUS
 10
14.8670475891
 20
6.561141804
 11
14.8670475891
 21
6.124141804
  0
LINE
  5
22A
100
AcDbEntity
  8
0
100
AcDbLine
 62
7
  6
CONTINUOUS
 10
14.8670475891
 20
5.7218514931
 11
14.8670475891
 21
4.124141804
  0
LINE
  5
22B
100
AcDbEntity
  8
0
100
AcDbLine
 62
7
  6
CONTINUOUS
 10
15.3670475891
 20
4.124141804
 11
15.3670475891
 21
3.021141804
  0
LINE
  5
22C
100
AcDbEntity
  8
0
100
AcDbLine
 62
7
  6
CONTINUOUS
 10
14.3935892686
 20
5.724141804
 11
14.3130480404
 21
5.6311408045
  0
LINE
  5
22D
100
AcDbEntity
  8
0
100
AcDbLine
 62
7
  6
CONTINUOUS
 10
14.8376803757
 20
5.7023002136
 11
14.8376835897
 21
5.7023039845
  0
LINE
  5
22E
100
AcDbEntity
  8
0
100
AcDbLine
 62
7
  6
CONTINUOUS
 10
14.8376863676
 20
5.7023071322
 11
14.4774681088
 21
5.2863629149
  0
LWPOLYLINE
  5
22F
100
AcDbEntity
  8
0
100
AcDbPolyline
 62
7
  6
CONTINUOUS
 90
4
 70
0
 10
14.8376895192
 20
5.7023108379
 10
14.8470861576
 20
5.7112962649
 10
14.8611789494
 20
5.7198678874
 10
14.8717297287
 20
5.7234354436
  0
ARC
  5
230
100
AcDbEntity
  8
0
100
AcDbCircle
 62
7
  6
CONTINUOUS
 10
10.2420475891
 20
10.561141804
 40
4.4375
100
AcDbArc
 50
0.0
 51
180.0
  0
ARC
  5
231
100
AcDbEntity
  8
0
100
AcDbCircle
 62
7
  6
CONTINUOUS
 10
10.2420475891
 20
10.561141804
 40
3.4375
100
AcDbArc
 50
0.0
 51
180.0
  0
ARC
  5
232
100
AcDbEntity
  8
0
100
AcDbCircle
 62
7
  6
CONTINUOUS
 10
12.9452375362
 20
5.993693964
 40
0.2695520027
100
AcDbArc
 50
269.366107216
 51
269.796442195
  0
ARC
  5
233
100
AcDbEntity
  8
0
100
AcDbCircle
 62
7
  6
CONTINUOUS
 10
15.4170475891
 20
5.924141804
 40
0.2
100
AcDbArc
 50
270.0
 51
90.0
  0
ARC
  5
234
100
AcDbEntity
  8
0
100
AcDbCircle
 62
7
  6
CONTINUOUS
 10
12.9420475891
 20
5.924141804
 40
0.2
100
AcDbArc
 50
90.0
 51
263.9650909851
  0
ARC
  5
235
100
AcDbEntity
  8
0
100
AcDbCircle
 62
7
  6
CONTINUOUS
 10
12.9111895827
 20
5.6346582946
 40
0.0911382422
100
AcDbArc
 50
68.0537907961
 51
75.0049677804
  0
ARC
  5
236
100
AcDbEntity
  8
0
100
AcDbCircle
 62
7
  6
CONTINUOUS
 10
12.9113288653
 20
5.635162483
 40
0.0906154208
100
AcDbArc
 50
75.0092632127
 51
75.9172548805
  0
ARC
  5
237
100
AcDbEntity
  8
0
100
AcDbCircle
 62
7
  6
CONTINUOUS
 10
12.9114536486
 20
5.6355238079
 40
0.0902349932
100
AcDbArc
 50
69.5610598463
 51
83.9138391277
  0
ARC
  5
238
100
AcDbEntity
  8
0
100
AcDbCircle
 62
7
  6
CONTINUOUS
 10
13.7145439781
 20
5.7841444046
 40
0.0900079522
100
AcDbArc
 50
240.0051864749
 51
317.7748257128
  0
ARC
  5
239
100
AcDbEntity
  8
0
100
AcDbCircle
 62
7
  6
CONTINUOUS
 10
13.7145393316
 20
5.172141185
 40
0.0900064545
100
AcDbArc
 50
0.0012052567
 51
59.9960367388
  0
ARC
  5
23A
100
AcDbEntity
  8
0
100
AcDbCircle
 62
7
  6
CONTINUOUS
 10
12.9119390209
 20
5.6363460087
 40
0.0892927593
100
AcDbArc
 50
60.0198420319
 51
69.0493240996
  0
SPLINE
  5
23B
100
AcDbEntity
  8
0
100
AcDbSpline
 62
7
  6
CONTINUOUS
 70
0
 71
3
 72
23
 73
19
 74
0
 42
0.0000001
 43
0.0000001
 44
0.0000000001
 40
0.0
 40
0.0
 40
0.0
 40
0.0
 40
0.2119454079
 40
0.4047780913
 40
0.5758754928
 40
0.6523489959
 40
0.7222246442
 40
0.7850887089
 40
0.8405468895
 40
0.8882634252
 40
0.9279124151
 40
0.9591684558
 40
0.9715579285
 40
0.9817504265
 40
0.9897184221
 40
0.9954343786
 40
0.9988707522
 40
1.0
 40
1.0
 40
1.0
 40
1.0
 10
12.9422554041
 20
5.7241584578
 30
0.0
 10
12.9407529093
 20
5.7241751067
 30
0.0
 10
12.9378836195
 20
5.7242311313
 30
0.0
 10
12.9338033744
 20
5.7243760681
 30
0.0
 10
12.9306849658
 20
5.724532968
 30
0.0
 10
12.9284385299
 20
5.7246690113
 30
0.0
 10
12.9269585874
 20
5.7247675622
 30
0.0
 10
12.925627786
 20
5.7248634739
 30
0.0
 10
12.9244541724
 20
5.7249537343
 30
0.0
 10
12.9234447873
 20
5.7250358661
 30
0.0
 10
12.9226073319
 20
5.725107233
 30
0.0
 10
12.922018004
 20
5.7251593897
 30
0.0
 10
12.9216395521
 20
5.7251932584
 30
0.0
 10
12.9214202614
 20
5.7252135749
 30
0.0
 10
12.9212610513
 20
5.7252272793
 30
0.0
 10
12.9211189267
 20
5.7252425664
 30
0.0
 10
12.9210836966
 20
5.7252421715
 30
0.0
 10
12.9210130518
 20
5.7252525246
 30
0.0
 10
12.9210207124
 20
5.7252501993
 30
0.0
  0
SPLINE
  5
23C
100
AcDbEntity
  8
0
100
AcDbSpline
 62
9
  6
CONTINUOUS
 70
0
 71
3
 72
25
 73
21
 74
0
 42
0.0000001
 43
0.0000001
 44
0.0000000001
 40
0.0
 40
0.0
 40
0.0
 40
0.0
 40
0.1500670912
 40
0.2835877022
 40
0.5022477013
 40
0.5901487672
 40
0.6663957277
 40
0.732587424
 40
0.7898146259
 40
0.8809036707
 40
0.9159324627
 40
0.9444993311
 40
0.9564441045
 40
0.9668482243
 40
0.9757297111
 40
0.9831169873
 40
0.9890602767
 40
0.9936594199
 40
0.9971370413
 40
1.0
 40
1.0
 40
1.0
 40
1.0
 10
14.7910420224
 20
5.713691203
 30
0.0
 10
14.7934784212
 20
5.7136912872
 30
0.0
 10
14.7980841921
 20
5.7135810407
 30
0.0
 10
14.8062155703
 20
5.712950451
 30
0.0
 10
14.8132929741
 20
5.7118167261
 30
0.0
 10
14.8192973871
 20
5.7101977904
 30
0.0
 10
14.8228461726
 20
5.7090126233
 30
0.0
 10
14.8258679812
 20
5.7078357339
 30
0.0
 10
14.8290511691
 20
5.7064203932
 30
0.0
 10
14.8317042749
 20
5.7050665367
 30
0.0
 10
14.8339041416
 20
5.7038552741
 30
0.0
 10
14.8349771534
 20
5.7032612285
 30
0.0
 10
14.8357076097
 20
5.7028741609
 30
0.0
 10
14.8361602555
 20
5.7026455951
 30
0.0
 10
14.8365528803
 20
5.7024626079
 30
0.0
 10
14.8368871368
 20
5.7023267962
 30
0.0
 10
14.8371654205
 20
5.7022392148
 30
0.0
 10
14.8373907057
 20
5.7022014613
 30
0.0
 10
14.8375715967
 20
5.702215445
 30
0.0
 10
14.8376633305
 20
5.7022740932
 30
0.0
 10
14.837693249
 20
5.7023096656
 30
0.0
  0
SPLINE
  5
23D
100
AcDbEntity
  8
0
100
AcDbSpline
 62
9
  6
CONTINUOUS
 70
0
 71
3
 72
11
 73
7
 74
0
 42
0.0000001
 43
0.0000001
 44
0.0000000001
 40
0.0
 40
0.0
 40
0.0
 40
0.0
 40
0.2621921147
 40
0.5160757086
 40
0.7612183279
 40
1.0
 40
1.0
 40
1.0
 40
1.0
 10
14.7910421171
 20
5.7136912635
 30
0.0
 10
14.7922748527
 20
5.7151147022
 30
0.0
 10
14.7948608076
 20
5.7177845705
 30
0.0
 10
14.7991630731
 20
5.7211880333
 30
0.0
 10
14.8038059801
 20
5.7237927739
 30
0.0
 10
14.8071332855
 20
5.7248954436
 30
0.0
 10
14.808811093
 20
5.7252501996
 30
0.0
  0
SPLINE
  5
23E
100
AcDbEntity
  8
0
100
AcDbSpline
 62
9
  6
CONTINUOUS
 70
0
 71
3
 72
48
 73
44
 74
0
 42
0.0000001
 43
0.0000001
 44
0.0000000001
 40
0.0
 40
0.0
 40
0.0
 40
0.0
 40
0.0003239068
 40
0.0012800313
 40
0.0028471571
 40
0.005004069
 40
0.0110023935
 40
0.019105303
 40
0.0291341837
 40
0.0408747281
 40
0.0541037563
 40
0.0685981668
 40
0.100632896
 40
0.1359049542
 40
0.1735503338
 40
0.2129720182
 40
0.2536887203
 40
0.2954094338
 40
0.3809124605
 40
0.4676858263
 40
0.5541867945
 40
0.5969496335
 40
0.639081273
 40
0.6803335934
 40
0.7204124111
 40
0.759041601
 40
0.7959157117
 40
0.8307263287
 40
0.8631923134
 40
0.8929869068
 40
0.9198088261
 40
0.9433087868
 40
0.9631568848
 40
0.9716024199
 40
0.9790119109
 40
0.9853516153
 40
0.9905864485
 40
0.9946841677
 40
0.9976278131
 40
0.9986627468
 40
0.9994042059
 40
0.9998505179
 40
1.0
 40
1.0
 40
1.0
 40
1.0
 10
13.6695478008
 20
5.7061919552
 30
0.0
 10
13.6695753068
 20
5.7061460237
 30
0.0
 10
13.6696892852
 20
5.7059677358
 30
0.0
 10
13.6699361559
 20
5.705567104
 30
0.0
 10
13.6703457702
 20
5.704910868
 30
0.0
 10
13.6711928814
 20
5.7035452973
 30
0.0
 10
13.6726082345
 20
5.70126096
 30
0.0
 10
13.6747027796
 20
5.6978668117
 30
0.0
 10
13.6772889266
 20
5.6936607477
 30
0.0
 10
13.6803075735
 20
5.6887259963
 30
0.0
 10
13.6836963698
 20
5.6831524534
 30
0.0
 10
13.6888012854
 20
5.674696652
 30
0.0
 10
13.6957245636
 20
5.6630827927
 30
0.0
 10
13.7044780725
 20
5.6481057221
 30
0.0
 10
13.7136805367
 20
5.6319778324
 30
0.0
 10
13.7231253381
 20
5.614953585
 30
0.0
 10
13.7326516145
 20
5.5972060216
 30
0.0
 10
13.7453728943
 20
5.5725331115
 30
0.0
 10
13.7606653536
 20
5.5406253501
 30
0.0
 10
13.777189263
 20
5.5011487284
 30
0.0
 10
13.7885899618
 20
5.467257706
 30
0.0
 10
13.7956318165
 20
5.4398048187
 30
0.0
 10
13.7996502707
 20
5.4193311792
 30
0.0
 10
13.8022280392
 20
5.3990708322
 30
0.0
 10
13.8032607734
 20
5.3792483663
 30
0.0
 10
13.8026364915
 20
5.3601309146
 30
0.0
 10
13.800473335
 20
5.3420016535
 30
0.0
 10
13.7968815375
 20
5.3251424597
 30
0.0
 10
13.7922174741
 20
5.3097716857
 30
0.0
 10
13.7868254197
 20
5.2960551379
 30
0.0
 10
13.7811294159
 20
5.2840905715
 30
0.0
 10
13.7755374951
 20
5.2739230327
 30
0.0
 10
13.7710471459
 20
5.2666311294
 30
0.0
 10
13.7678100583
 20
5.2616966905
 30
0.0
 10
13.7657478633
 20
5.258662473
 30
0.0
 10
13.76394664
 20
5.2560930183
 30
0.0
 10
13.7624344251
 20
5.2539897584
 30
0.0
 10
13.7612385129
 20
5.2523505214
 30
0.0
 10
13.7604442649
 20
5.2512775887
 30
0.0
 10
13.7599773814
 20
5.2506525515
 30
0.0
 10
13.7597555114
 20
5.2503597156
 30
0.0
 10
13.7596234227
 20
5.2501825098
 30
0.0
 10
13.7595621976
 20
5.2501053222
 30
0.0
 10
13.7595478008
 20
5.2500852425
 30
0.0
  0
SPLINE
  5
23F
100
AcDbEntity
  8
0
100
AcDbSpline
 62
9
  6
CONTINUOUS
 70
0
 71
3
 72
15
 73
11
 74
0
 42
0.0000001
 43
0.0000001
 44
0.0000000001
 40
0.0
 40
0.0
 40
0.0
 40
0.0
 40
0.1200973889
 40
0.2389420367
 40
0.3581206339
 40
0.4791272285
 40
0.6031204458
 40
0.7310477299
 40
0.863347196
 40
1.0
 40
1.0
 40
1.0
 40
1.0
 10
14.4774056157
 20
5.2862932154
 30
0.0
 10
14.4748329448
 20
5.2833266366
 30
0.0
 10
14.4693753588
 20
5.2777073815
 30
0.0
 10
14.4602573579
 20
5.270318362
 30
0.0
 10
14.4502934512
 20
5.2640583657
 30
0.0
 10
14.4395121997
 20
5.2589425243
 30
0.0
 10
14.4279602442
 20
5.2549664996
 30
0.0
 10
14.41569853
 20
5.2521370552
 30
0.0
 10
14.4028145277
 20
5.2504480997
 30
0.0
 10
14.3940154916
 20
5.250085445
 30
0.0
 10
14.3895474598
 20
5.2500852154
 30
0.0
  0
SPLINE
  5
240
100
AcDbEntity
  8
0
100
AcDbSpline
 62
9
  6
CONTINUOUS
 70
0
 71
3
 72
9
 73
5
 74
0
 42
0.0000001
 43
0.0000001
 44
0.0000000001
 40
0.0
 40
0.0
 40
0.0
 40
0.0
 40
0.2417022895
 40
1.0
 40
1.0
 40
1.0
 40
1.0
 10
14.3843577653
 20
5.713196814
 30
0.0
 10
14.3838414244
 20
5.7140031743
 30
0.0
 10
14.3817726954
 20
5.7173824152
 30
0.0
 10
14.3799637007
 20
5.7209181819
 30
0.0
 10
14.3787229017
 20
5.7236539683
 30
0.0
  0
SPLINE
  5
241
100
AcDbEntity
  8
0
100
AcDbSpline
 62
9
  6
CONTINUOUS
 70
0
 71
3
 72
42
 73
38
 74
0
 42
0.0000001
 43
0.0000001
 44
0.0000000001
 40
0.0
 40
0.0
 40
0.0
 40
0.0
 40
0.000043674
 40
0.0001743356
 40
0.0003909734
 40
0.0006925763
 40
0.001078133
 40
0.0015466324
 40
0.0027284161
 40
0.0042298417
 40
0.0060428256
 40
0.0081592867
 40
0.0105711463
 40
0.0162487566
 40
0.0230110814
 40
0.0307935695
 40
0.0395290932
 40
0.0491455165
 40
0.0595702169
 40
0.0825544252
 40
0.1079040683
 40
0.1351449447
 40
0.1640000033
 40
0.194216126
 40
0.2255553966
 40
0.2578583838
 40
0.2909947106
 40
0.3248373229
 40
0.3943122105
 40
0.4658270556
 40
0.5389928603
 40
0.61347012
 40
0.689049095
 40
0.765613158
 40
0.8431083624
 40
0.9213283397
 40
1.0
 40
1.0
 40
1.0
 40
1.0
 10
12.9565588666
 20
5.7136911199
 30
0.0
 10
12.9565563424
 20
5.713692961
 30
0.0
 10
12.9565819906
 20
5.7136837984
 30
0.0
 10
12.9565961622
 20
5.7136832628
 30
0.0
 10
12.9566486787
 20
5.713669016
 30
0.0
 10
12.9567083153
 20
5.7136554491
 30
0.0
 10
12.9567899688
 20
5.7136356668
 30
0.0
 10
12.9569310544
 20
5.7136021948
 30
0.0
 10
12.9571508172
 20
5.713550021
 30
0.0
 10
12.9574637254
 20
5.7134763552
 30
0.0
 10
12.9578420667
 20
5.7133878072
 30
0.0
 10
12.9582839001
 20
5.7132851169
 30
0.0
 10
12.958995297
 20
5.7131209222
 30
0.0
 10
12.9600311079
 20
5.7128845743
 30
0.0
 10
12.9614425534
 20
5.7125674434
 30
0.0
 10
12.9630686955
 20
5.7122080525
 30
0.0
 10
12.964895705
 20
5.7118114746
 30
0.0
 10
12.9669092474
 20
5.7113832694
 30
0.0
 10
12.969922705
 20
5.7107569092
 30
0.0
 10
12.9740446553
 20
5.7099332673
 30
0.0
 10
12.9793584017
 20
5.7089363645
 30
0.0
 10
12.9850988284
 20
5.7079387723
 30
0.0
 10
12.9911961603
 20
5.7069649293
 30
0.0
 10
12.9975971381
 20
5.7060373504
 30
0.0
 10
13.0042563866
 20
5.7051775453
 30
0.0
 10
13.0111361497
 20
5.7044010658
 30
0.0
 10
13.0182061425
 20
5.7037214561
 30
0.0
 10
13.0279378436
 20
5.7029560317
 30
0.0
 10
13.0404312731
 20
5.7023146933
 30
0.0
 10
13.0557536518
 20
5.7021129292
 30
0.0
 10
13.0714299837
 20
5.7025478888
 30
0.0
 10
13.0873628502
 20
5.7036945148
 30
0.0
 10
13.103463382
 20
5.7056492023
 30
0.0
 10
13.119647898
 20
5.7085136253
 30
0.0
 10
13.1358211385
 20
5.7123730534
 30
0.0
 10
13.1518444806
 20
5.7173582284
 30
0.0
 10
13.1622751068
 20
5.7215473873
 30
0.0
 10
13.1673944732
 20
5.7238850707
 30
0.0
  0
SPLINE
  5
242
100
AcDbEntity
  8
0
100
AcDbSpline
 62
9
  6
CONTINUOUS
 70
0
 71
3
 72
45
 73
41
 74
0
 42
0.0000001
 43
0.0000001
 44
0.0000000001
 40
0.0
 40
0.0
 40
0.0
 40
0.0
 40
0.1301010538
 40
0.2011451792
 40
0.274572624
 40
0.3497251404
 40
0.4261165554
 40
0.4646387395
 40
0.5032901393
 40
0.5806382322
 40
0.6191316558
 40
0.6573035392
 40
0.694971985
 40
0.7319150035
 40
0.7678629815
 40
0.8025269043
 40
0.8355783665
 40
0.866663772
 40
0.8954148018
 40
0.921446362
 40
0.9333195396
 40
0.9443663809
 40
0.9545390521
 40
0.9637911522
 40
0.9720770631
 40
0.9793545925
 40
0.9855836725
 40
0.988294554
 40
0.9907311446
 40
0.9928896669
 40
0.994767146
 40
0.9963609289
 40
0.9976683593
 40
0.9986869983
 40
0.9990876212
 40
0.9994156541
 40
0.9996710026
 40
0.9998535726
 40
0.9999632698
 40
1.0
 40
1.0
 40
1.0
 40
1.0
 10
13.8223203371
 20
5.7241686623
 30
0.0
 10
13.8290123871
 20
5.7004365036
 30
0.0
 10
13.8387432068
 20
5.6635631283
 30
0.0
 10
13.8502288774
 20
5.6128019
 30
0.0
 10
13.8581744614
 20
5.5719343644
 30
0.0
 10
13.8647495298
 20
5.5297946316
 30
0.0
 10
13.8686557238
 20
5.4939669437
 30
0.0
 10
13.8706011963
 20
5.46492327
 30
0.0
 10
13.8716706925
 20
5.4356535042
 30
0.0
 10
13.8712579324
 20
5.4063457334
 30
0.0
 10
13.8691876195
 20
5.3772233622
 30
0.0
 10
13.866771958
 20
5.355682544
 30
0.0
 10
13.8635020806
 20
5.3345524523
 30
0.0
 10
13.8594331981
 20
5.3139908396
 30
0.0
 10
13.854620601
 20
5.2941763076
 30
0.0
 10
13.8492049083
 20
5.2752850312
 30
0.0
 10
13.8433424247
 20
5.2574962097
 30
0.0
 10
13.8372211204
 20
5.2409860927
 30
0.0
 10
13.8310603746
 20
5.2259201432
 30
0.0
 10
13.8259357943
 20
5.2143712839
 30
0.0
 10
13.8220059514
 20
5.2059668664
 30
0.0
 10
13.8192828401
 20
5.200316754
 30
0.0
 10
13.8167205214
 20
5.1951410015
 30
0.0
 10
13.8143452412
 20
5.1904568344
 30
0.0
 10
13.8121827857
 20
5.1862801804
 30
0.0
 10
13.8102560684
 20
5.1826268076
 30
0.0
 10
13.8088048969
 20
5.1799172807
 30
0.0
 10
13.8077787653
 20
5.1780209437
 30
0.0
 10
13.8071168211
 20
5.1768047299
 30
0.0
 10
13.8065282425
 20
5.17572842
 30
0.0
 10
13.806014621
 20
5.174793182
 30
0.0
 10
13.8055773127
 20
5.1740000605
 30
0.0
 10
13.8052177484
 20
5.173349962
 30
0.0
 10
13.8049670691
 20
5.1728980316
 30
0.0
 10
13.8048065198
 20
5.1726084244
 30
0.0
 10
13.8047155408
 20
5.17244556
 30
0.0
 10
13.8046460049
 20
5.1723182938
 30
0.0
 10
13.8045932179
 20
5.1722285074
 30
0.0
 10
13.8045669445
 20
5.1721724473
 30
0.0
 10
13.8045492259
 20
5.1721498446
 30
0.0
 10
13.8045475891
 20
5.1721430784
 30
0.0
  0
SPLINE
  5
243
100
AcDbEntity
  8
0
100
AcDbSpline
 62
9
  6
CONTINUOUS
 70
0
 71
3
 72
11
 73
7
 74
0
 42
0.0000001
 43
0.0000001
 44
0.0000000001
 40
0.0
 40
0.0
 40
0.0
 40
0.0
 40
0.2069428443
 40
0.4404833311
 40
0.7045671912
 40
1.0
 40
1.0
 40
1.0
 40
1.0
 10
14.8739328681
 20
5.724141955
 30
0.0
 10
14.8694399364
 20
5.724141729
 30
0.0
 10
14.8598769423
 20
5.7243020695
 30
0.0
 10
14.8445866782
 20
5.7247416616
 30
0.0
 10
14.8273731105
 20
5.7251491352
 30
0.0
 10
14.8152251628
 20
5.7252508385
 30
0.0
 10
14.8088110274
 20
5.7252501993
 30
0.0
  0
SPLINE
  5
244
100
AcDbEntity
  8
0
100
AcDbSpline
 62
9
  6
CONTINUOUS
 70
0
 71
3
 72
11
 73
7
 74
0
 42
0.0000001
 43
0.0000001
 44
0.0000000001
 40
0.0
 40
0.0
 40
0.0
 40
0.0
 40
0.2598016364
 40
0.5161529023
 40
0.7648752451
 40
1.0
 40
1.0
 40
1.0
 40
1.0
 10
14.7194315875
 20
5.7241419017
 30
0.0
 10
14.7271725798
 20
5.7241416221
 30
0.0
 10
14.7425517853
 20
5.7242782736
 30
0.0
 10
14.7653378295
 20
5.7247056434
 30
0.0
 10
14.7873886894
 20
5.7251218392
 30
0.0
 10
14.8018053021
 20
5.7252507531
 30
0.0
 10
14.8088110274
 20
5.7252501993
 30
0.0
  0
SPLINE
  5
245
100
AcDbEntity
  8
0
100
AcDbSpline
 62
9
  6
CONTINUOUS
 70
0
 71
3
 72
21
 73
17
 74
0
 42
0.0000001
 43
0.0000001
 44
0.0000000001
 40
0.0
 40
0.0
 40
0.0
 40
0.0
 40
0.139436115
 40
0.272505377
 40
0.3365114484
 40
0.3988760007
 40
0.4597605195
 40
0.5194216059
 40
0.5782026477
 40
0.63650943
 40
0.6947909194
 40
0.7535024966
 40
0.8130657525
 40
0.8738381088
 40
0.9360986788
 40
1.0
 40
1.0
 40
1.0
 40
1.0
 10
14.5105539213
 20
5.3242136489
 30
0.0
 10
14.5087017806
 20
5.3136833803
 30
0.0
 10
14.5042958743
 20
5.2932283088
 30
0.0
 10
14.4963041905
 20
5.2686237022
 30
0.0
 10
14.4882753234
 20
5.2504048497
 30
0.0
 10
14.4815042302
 20
5.2377255304
 30
0.0
 10
14.473870839
 20
5.2259374825
 30
0.0
 10
14.4653465045
 20
5.2151205061
 30
0.0
 10
14.4559173146
 20
5.2053515095
 30
0.0
 10
14.4455818625
 20
5.1967072006
 30
0.0
 10
14.4343581157
 20
5.1892596803
 30
0.0
 10
14.4222844956
 20
5.1830719831
 30
0.0
 10
14.409416159
 20
5.178206638
 30
0.0
 10
14.3958318978
 20
5.174704293
 30
0.0
 10
14.3816289829
 20
5.1725977993
 30
0.0
 10
14.3719475198
 20
5.1721433622
 30
0.0
 10
14.3670475891
 20
5.1721430784
 30
0.0
  0
SPLINE
  5
246
100
AcDbEntity
  8
0
100
AcDbSpline
 62
9
  6
CONTINUOUS
 70
0
 71
3
 72
33
 73
29
 74
0
 42
0.0000001
 43
0.0000001
 44
0.0000000001
 40
0.0
 40
0.0
 40
0.0
 40
0.0
 40
0.0278681034
 40
0.056629136
 40
0.0861882053
 40
0.1164114785
 40
0.1471510154
 40
0.1782646143
 40
0.209628882
 40
0.2411461263
 40
0.2727461081
 40
0.3043831082
 40
0.3676217368
 40
0.4308668671
 40
0.4625168771
 40
0.494168858
 40
0.5574444273
 40
0.6207266476
 40
0.6523785651
 40
0.6840303458
 40
0.7473197051
 40
0.8106122414
 40
0.8422611928
 40
0.8739003903
 40
0.9055170897
 40
0.9370951165
 40
0.9686040682
 40
1.0
 40
1.0
 40
1.0
 40
1.0
 10
14.3670475891
 20
5.1721430784
 30
0.0
 10
14.3605894402
 20
5.172143427
 30
0.0
 10
14.3474551908
 20
5.1729558055
 30
0.0
 10
14.3277514628
 20
5.1764495855
 30
0.0
 10
14.3080072375
 20
5.1821713384
 30
0.0
 10
14.2885223063
 20
5.1900350221
 30
0.0
 10
14.2695771955
 20
5.1999236197
 30
0.0
 10
14.2514328421
 20
5.2117057033
 30
0.0
 10
14.2343296503
 20
5.2252458947
 30
0.0
 10
14.2184744269
 20
5.2403906533
 30
0.0
 10
14.2040409896
 20
5.2569819544
 30
0.0
 10
14.1868986679
 20
5.2807983156
 30
0.0
 10
14.1696255928
 20
5.3133533096
 30
0.0
 10
14.1582357312
 20
5.3483659339
 30
0.0
 10
14.1524541041
 20
5.3771387205
 30
0.0
 10
14.1487825461
 20
5.4062645659
 30
0.0
 10
14.1479092287
 20
5.4430232715
 30
0.0
 10
14.1513017129
 20
5.4796030406
 30
0.0
 10
14.1562356003
 20
5.5085299559
 30
0.0
 10
14.1625478498
 20
5.5371895284
 30
0.0
 10
14.1728845424
 20
5.5724249593
 30
0.0
 10
14.1862356288
 20
5.6066285804
 30
0.0
 10
14.1986710327
 20
5.6332050086
 30
0.0
 10
14.2088847679
 20
5.6526919103
 30
0.0
 10
14.2200044445
 20
5.6716579797
 30
0.0
 10
14.2320591409
 20
5.6900101946
 30
0.0
 10
14.2450912519
 20
5.7076194556
 30
0.0
 10
14.2544882569
 20
5.718781384
 30
0.0
 10
14.2593726125
 20
5.7241738504
 30
0.0
  0
SPLINE
  5
247
100
AcDbEntity
  8
0
100
AcDbSpline
 62
9
  6
CONTINUOUS
 70
0
 71
3
 72
15
 73
11
 74
0
 42
0.0000001
 43
0.0000001
 44
0.0000000001
 40
0.0
 40
0.0
 40
0.0
 40
0.0
 40
0.083763433
 40
0.1798559669
 40
0.2891275539
 40
0.4114326646
 40
0.5460788343
 40
0.6909864447
 40
0.8435080121
 40
1.0
 40
1.0
 40
1.0
 40
1.0
 10
14.3895475809
 20
5.2500853545
 30
0.0
 10
14.3880372372
 20
5.2483413589
 30
0.0
 10
14.3850398113
 20
5.2443802788
 30
0.0
 10
14.380961821
 20
5.2375242015
 30
0.0
 10
14.3771445942
 20
5.2293308243
 30
0.0
 10
14.3737254714
 20
5.2198275327
 30
0.0
 10
14.3708706349
 20
5.2091211611
 30
0.0
 10
14.3687002522
 20
5.1974082255
 30
0.0
 10
14.3673576444
 20
5.1849674041
 30
0.0
 10
14.3670475899
 20
5.1764533233
 30
0.0
 10
14.3670475899
 20
5.1721430784
 30
0.0
  0
SPLINE
  5
248
100
AcDbEntity
  8
0
100
AcDbSpline
 62
9
  6
CONTINUOUS
 70
0
 71
3
 72
25
 73
21
 74
0
 42
0.0000001
 43
0.0000001
 44
0.0000000001
 40
0.0
 40
0.0
 40
0.0
 40
0.0
 40
0.0561971327
 40
0.1136308718
 40
0.1428249189
 40
0.1723083093
 40
0.2321685939
 40
0.2932695185
 40
0.3555690325
 40
0.4833904574
 40
0.5487692369
 40
0.6149502955
 40
0.6817353927
 40
0.7488248981
 40
0.7823273979
 40
0.8156968726
 40
0.8812577134
 40
0.9436265873
 40
0.9727690445
 40
1.0
 40
1.0
 40
1.0
 40
1.0
 10
14.5434874789
 20
5.7238848763
 30
0.0
 10
14.5475612079
 20
5.7215197381
 30
0.0
 10
14.5561208514
 20
5.7172799791
 30
0.0
 10
14.5673793902
 20
5.7131558283
 30
0.0
 10
14.5767203893
 20
5.7104149579
 30
0.0
 10
14.5863599649
 20
5.7079964685
 30
0.0
 10
14.5987538279
 20
5.7056101873
 30
0.0
 10
14.6140004975
 20
5.7036687573
 30
0.0
 10
14.6350110466
 20
5.7021435376
 30
0.0
 10
14.6564546928
 20
5.7020745978
 30
0.0
 10
14.6781735695
 20
5.7031015912
 30
0.0
 10
14.6947531994
 20
5.7043677043
 30
0.0
 10
14.7114412624
 20
5.7060225837
 30
0.0
 10
14.7253789194
 20
5.7076308552
 30
0.0
 10
14.7365276368
 20
5.7089699449
 30
0.0
 10
14.7475479596
 20
5.7103037074
 30
0.0
 10
14.7609777482
 20
5.7118671272
 30
0.0
 10
14.7740940448
 20
5.7130522041
 30
0.0
 10
14.7840339237
 20
5.7135866105
 30
0.0
 10
14.7887594083
 20
5.7136911645
 30
0.0
 10
14.7910419517
 20
5.7136911214
 30
0.0
  0
SPLINE
  5
249
100
AcDbEntity
  8
0
100
AcDbSpline
 62
9
  6
CONTINUOUS
 70
0
 71
3
 72
32
 73
28
 74
0
 42
0.0000001
 43
0.0000001
 44
0.0000000001
 40
0.0
 40
0.0
 40
0.0
 40
0.0
 40
0.0553732397
 40
0.1133556581
 40
0.1429982379
 40
0.1728852699
 40
0.2328624452
 40
0.2628382046
 40
0.2927311381
 40
0.3225554663
 40
0.3523607328
 40
0.3822164166
 40
0.4122201278
 40
0.4424642056
 40
0.4730068522
 40
0.5039034343
 40
0.5351780613
 40
0.5987635246
 40
0.6310576658
 40
0.6636294515
 40
0.7295758987
 40
0.7629253708
 40
0.7964667357
 40
0.8639611565
 40
0.9318611479
 40
0.9659182492
 40
1.0
 40
1.0
 40
1.0
 40
1.0
 10
14.3895474683
 20
5.2500852253
 30
0.0
 10
14.3801973599
 20
5.2500856762
 30
0.0
 10
14.3610336929
 20
5.2517232115
 30
0.0
 10
14.3374675138
 20
5.2573820215
 30
0.0
 10
14.3187884521
 20
5.2641296029
 30
0.0
 10
14.3003764343
 20
5.27242245
 30
0.0
 10
14.2829482873
 20
5.2829318896
 30
0.0
 10
14.2671602675
 20
5.2956293692
 30
0.0
 10
14.2562960709
 20
5.3062184422
 30
0.0
 10
14.2465908182
 20
5.3178435719
 30
0.0
 10
14.2381702128
 20
5.3304245946
 30
0.0
 10
14.231145945
 20
5.3438717111
 30
0.0
 10
14.2256206009
 20
5.3580792126
 30
0.0
 10
14.2215765559
 20
5.3728944589
 30
0.0
 10
14.2190140926
 20
5.3881869372
 30
0.0
 10
14.2178730839
 20
5.4038215739
 30
0.0
 10
14.2181107405
 20
5.4250751266
 30
0.0
 10
14.2208244219
 20
5.4464550536
 30
0.0
 10
14.2254865671
 20
5.4676443719
 30
0.0
 10
14.2314157598
 20
5.4889328469
 30
0.0
 10
14.2390360014
 20
5.5098970239
 30
0.0
 10
14.248061367
 20
5.5304361383
 30
0.0
 10
14.2580242569
 20
5.5508298884
 30
0.0
 10
14.2720179024
 20
5.5757216438
 30
0.0
 10
14.2879590304
 20
5.599521089
 30
0.0
 10
14.3018608581
 20
5.6178138433
 30
0.0
 10
14.3091940949
 20
5.6266853715
 30
0.0
 10
14.3129596
 20
5.6310373792
 30
0.0
  0
ENDSEC
  0
SECTION
  2
OBJECTS
  0
DICTIONARY
  5
C
100
AcDbDictionary
280
0
281
1
  3
ACAD_GROUP
350
D
  3
ACAD_MLINESTYLE
350
17
  3
ACAD_LAYOUT
350
1A
  3
ACAD_PLOTSETTINGS
350
19
  3
ACAD_PLOTSTYLENAME
350
E
  0
DICTIONARY
  5
D
102
{ACAD_REACTORS
330
C
102
}
100
AcDbDictionary
280
0
281
1
  0
ACDBDICTIONARYWDFLT
  5
E
102
{ACAD_REACTORS
330
C
102
}
100
AcDbDictionary
281
1
  3
Normal
350
F
100
AcDbDictionaryWithDefault
340
F
  0
DICTIONARY
  5
17
102
{ACAD_REACTORS
330
C
102
}
100
AcDbDictionary
280
0
281
1
  3
Standard
350
18
  0
DICTIONARY
  5
19
102
{ACAD_REACTORS
330
C
102
}
100
AcDbDictionary
281
1
  0
DICTIONARY
  5
1A
102
{ACAD_REACTORS
330
C
102
}
100
AcDbDictionary
281
1
  3
Model
350
24A
  3
Layout1
350
24B
  0
ACDBPLACEHOLDER
  5
F
102
{ACAD_REACTORS
330
E
102
}
  0
MLINESTYLE
  5
18
102
{ACAD_REACTORS
330
17
102
}
100
AcDbMlineStyle
  2
STANDARD
 70
0
  3

 62
256
 51
90.0
 52
90.0
 71
2
 49
0.5
 62
256
  6
BYLAYER
 49
-0.5
 62
256
  6
BYLAYER
  0
LAYOUT
  5
24A
102
{ACAD_REACTORS
330
1A
102
}
100
AcDbPlotSettings
  1

  2
none_device
  4
ANSI_C_(22.00_x_17.00_Inches)
  6

 40
0.0
 41
0.0
 42
0.0
 43
0.0
 44
558.8
 45
431.8
 46
0.0
 47
0.0
 48
0.0
 49
0.0
140
0.0
141
0.0
142
1.0
143
1.0
 70
1024
 72
0
 73
0
 74
0
  7

 75
0
147
1.0
148
0.0
149
0.0
100
AcDbLayout
  1
Model
 70
0
 71
0
 10
0.0
 20
0.0
 11
22.0
 21
17.0
 12
0.0
 22
0.0
 32
0.0
 14
0.0
 24
0.0
 34
0.0
 15
0.0
 25
0.0
 35
0.0
146
0.0
 13
0.0
 23
0.0
 33
0.0
 16
1.0
 26
0.0
 36
0.0
 17
0.0
 27
1.0
 37
0.0
 76
0
330
202
345
0
346
0
  0
LAYOUT
  5
24B
102
{ACAD_REACTORS
330
1A
102
}
100
AcDbPlotSettings
  1

  2
none_device
  4
ANSI_C_(22.00_x_17.00_Inches)
  6

 40
0.0
 41
0.0
 42
0.0
 43
0.0
 44
558.8
 45
431.8
 46
0.0
 47
0.0
 48
0.0
 49
0.0
140
0.0
141
0.0
142
1.0
143
1.0
 70
0
 72
0
 73
0
 74
0
  7

 75
0
147
1.0
148
0.0
149
0.0
100
AcDbLayout
  1
Layout1
 70
0
 71
1
 10
0.0
 20
0.0
 11
22.0
 21
17.0
 12
0.0
 22
0.0
 32
0.0
 14
0.0
 24
0.0
 34
0.0
 15
0.0
 25
0.0
 35
0.0
146
0.0
 13
0.0
 23
0.0
 33
0.0
 16
1.0
 26
0.0
 36
0.0
 17
0.0
 27
1.0
 37
0.0
 76
0
330
203
345
0
346
0
  0
ENDSEC
  0
EOF
