999
DXF file: E:\BT Custom\CADOUTPUT\_TOP.dxf
999
Pro/ENGINEER 2018400 by Parametric Technology Corporation
  0
SECTION
  2
HEADER
  9
$ACADVER
  1
AC1018
  9
$DWGCODEPAGE
  3
ANSI_1252
  9
$EXTMAX
 10
22.0
 20
17.0
 30
0.0
  9
$EXTMIN
 10
0.0
 20
0.0
 30
0.0
  9
$LIMMIN
 10
0.0
 20
0.0
  9
$LIMMAX
 10
22.0
 20
17.0
  9
$VIEWCTR
 10
11.0
 20
8.5
  9
$VIEWSIZE
 40
17.0
  9
$CLAYER
  8
0
  9
$LTSCALE
 40
1.21
  9
$CELTYPE
  6
BYLAYER
  9
$DIMSCALE
 40
1.0
  9
$DIMASZ
 40
0.1
  9
$DIMEXO
 40
0.0625
  9
$DIMDLI
 40
0.836
  9
$DIMEXE
 40
0.125
  9
$DIMCEN
 40
0.198
  9
$DIMLFAC
 40
1.0
  9
$DIMBLK
  1
_FILLED
  9
$DIMALT
 70
1
  9
$DIMALTD
 70
2
  9
$DIMALTTD
 70
2
  9
$DIMALTF
 40
25.4
  9
$DIMTXT
 40
0.08
  9
$DIMTOL
 70
1
  9
$DIMLIM
 70
0
  9
$DIMTFAC
 40
1.0
  9
$DIMTP
 40
0.001
  9
$DIMTM
 40
0.001
  9
$DIMGAP
 40
0.09
  9
$DIMDSEP
 70
46
  9
$AUNITS
 70
0
  9
$PDMODE
 70
3
  9
$PDSIZE
 40
0.06
  9
$HANDSEED
  5
2BC
  9
$TILEMODE
 70
1
  9
$MEASUREMENT
 70
0
  9
$INSUNITS
 70
1
  0
ENDSEC
  0
SECTION
  2
CLASSES
  0
CLASS
  1
ACDBDICTIONARYWDFLT
  2
AcDbDictionaryWithDefault
  3
AutoCAD 2000
 90
0
 91
1
280
0
281
0
  0
CLASS
  1
ACDBPLACEHOLDER
  2
AcDbPlaceHolder
  3
AutoCAD 2000
 90
0
 91
1
280
0
281
0
  0
CLASS
  1
LAYOUT
  2
AcDbLayout
  3
AutoCAD 2000
 90
0
 91
0
280
0
281
0
  0
ENDSEC
  0
SECTION
  2
TABLES
  0
TABLE
  2
VPORT
  5
8
100
AcDbSymbolTable
 70
2
  0
VPORT
  5
1F4
100
AcDbSymbolTableRecord
100
AcDbViewportTableRecord
  2
*ACTIVE
 70
0
 10
0.0
 20
0.0
 11
1.0
 21
1.0
 12
11.0
 22
8.5
 13
0.0
 23
0.0
 14
1.0
 24
1.0
 15
0.0
 25
0.0
 16
0.0
 26
0.0
 36
1.0
 17
0.0
 27
0.0
 37
0.0
 40
17.0
 41
1.2941176471
 42
50.0
 43
0.0
 44
0.0
 50
0.0
 51
0.0
 71
0
 72
100
 73
1
 74
1
 75
0
 76
0
 77
0
 78
0
  0
ENDTAB
  0
TABLE
  2
LTYPE
  5
5
100
AcDbSymbolTable
 70
6
  0
LTYPE
  5
14
100
AcDbSymbolTableRecord
100
AcDbLinetypeTableRecord
  2
BYBLOCK
 70
0
  3

 72
65
 73
0
 40
0.0
  0
LTYPE
  5
15
100
AcDbSymbolTableRecord
100
AcDbLinetypeTableRecord
  2
BYLAYER
 70
0
  3

 72
65
 73
0
 40
0.0
  0
LTYPE
  5
16
100
AcDbSymbolTableRecord
100
AcDbLinetypeTableRecord
  2
CONTINUOUS
 70
64
  3
Solid line
 72
65
 73
0
 40
0.0
  0
LTYPE
  5
1F5
100
AcDbSymbolTableRecord
100
AcDbLinetypeTableRecord
  2
CENTER
 70
64
  3
____ _ ____ _ ____ _ ____ _ ____ _ ____ _ ____
 72
65
 73
4
 40
0.6
 49
0.375
 74
0
 49
-0.075
 74
0
 49
0.075
 74
0
 49
-0.075
 74
0
  0
LTYPE
  5
1F6
100
AcDbSymbolTableRecord
100
AcDbLinetypeTableRecord
  2
HIDDEN
 70
64
  3
- - - - - - - - - - - - - - - - - - - -
 72
65
 73
2
 40
0.2
 49
0.1
 74
0
 49
-0.1
 74
0
  0
LTYPE
  5
1F7
100
AcDbSymbolTableRecord
100
AcDbLinetypeTableRecord
  2
PHANTOM
 70
64
  3
_____ _ _ _____ _ _ _____ _ _ _____
 72
65
 73
6
 40
0.8
 49
0.45
 74
0
 49
-0.05
 74
0
 49
0.1
 74
0
 49
-0.05
 74
0
 49
0.1
 74
0
 49
-0.05
 74
0
  0
LTYPE
  5
1F8
100
AcDbSymbolTableRecord
100
AcDbLinetypeTableRecord
  2
DOT
 70
64
  3
. . . . . . . . . . . . . . . . . . . .
 72
65
 73
2
 40
0.2
 49
0.1
 74
0
 49
-0.1
 74
0
  0
LTYPE
  5
1F9
100
AcDbSymbolTableRecord
100
AcDbLinetypeTableRecord
  2
DASHED
 70
64
  3
- - - - - - - - - - - - - - - - - - - -
 72
65
 73
2
 40
0.2
 49
0.1
 74
0
 49
-0.1
 74
0
  0
ENDTAB
  0
TABLE
  2
LAYER
  5
2
100
AcDbSymbolTable
 70
36
  0
LAYER
  5
10
100
AcDbSymbolTableRecord
100
AcDbLayerTableRecord
  2
0
 70
0
 62
7
  6
CONTINUOUS
370
-3
390
F
  0
LAYER
  5
1FA
100
AcDbSymbolTableRecord
100
AcDbLayerTableRecord
  2
DEFAULT_1
 70
0
 62
7
  6
CENTER
370
-3
390
F
  0
LAYER
  5
1FB
100
AcDbSymbolTableRecord
100
AcDbLayerTableRecord
  2
DEFAULT_2
 70
0
 62
8
  6
HIDDEN
370
-3
390
F
  0
LAYER
  5
1FC
100
AcDbSymbolTableRecord
100
AcDbLayerTableRecord
  2
DEFAULT_3
 70
0
 62
7
  6
PHANTOM
370
-3
390
F
  0
LAYER
  5
1FD
100
AcDbSymbolTableRecord
100
AcDbLayerTableRecord
  2
ALL_FEATURES
 70
0
 62
7
  6
CONTINUOUS
370
-3
390
F
  0
LAYER
  5
1FE
100
AcDbSymbolTableRecord
100
AcDbLayerTableRecord
  2
AXES_FEATURES
 70
0
 62
7
  6
CONTINUOUS
370
-3
390
F
  0
LAYER
  5
1FF
100
AcDbSymbolTableRecord
100
AcDbLayerTableRecord
  2
DIMENSIONS
 70
0
 62
7
  6
CONTINUOUS
370
-3
390
F
  0
ENDTAB
  0
TABLE
  2
STYLE
  5
3
100
AcDbSymbolTable
 70
1
  0
STYLE
  5
11
100
AcDbSymbolTableRecord
100
AcDbTextStyleTableRecord
  2
STANDARD
 70
0
 40
0.0
 41
0.8
 50
0.0
 71
0
 42
0.2
  3
txt
  4

  0
STYLE
  5
200
100
AcDbSymbolTableRecord
100
AcDbTextStyleTableRecord
  2
TEXTSTYLE_1
 70
0
 40
0.0
 41
0.8
 50
0.0
 71
0
 42
0.2
  3
gdt
  4

  0
ENDTAB
  0
TABLE
  2
VIEW
  5
6
100
AcDbSymbolTable
 70
0
  0
ENDTAB
  0
TABLE
  2
UCS
  5
7
100
AcDbSymbolTable
 70
0
  0
ENDTAB
  0
TABLE
  2
APPID
  5
9
100
AcDbSymbolTable
 70
1
  0
APPID
  5
201
100
AcDbSymbolTableRecord
100
AcDbRegAppTableRecord
  2
ACAD
 70
0
  0
ENDTAB
  0
TABLE
  2
BLOCK_RECORD
  5
1
100
AcDbSymbolTable
 70
0
  0
BLOCK_RECORD
  5
202
100
AcDbSymbolTableRecord
100
AcDbBlockTableRecord
  2
*Model_Space
  0
BLOCK_RECORD
  5
203
100
AcDbSymbolTableRecord
100
AcDbBlockTableRecord
  2
*Paper_Space
  0
BLOCK_RECORD
  5
204
100
AcDbSymbolTableRecord
100
AcDbBlockTableRecord
  2
_FILLED
  0
ENDTAB
  0
TABLE
  2
DIMSTYLE
  5
A
100
AcDbSymbolTable
 70
1
100
AcDbDimStyleTable
 71
0
  0
DIMSTYLE
105
205
100
AcDbSymbolTableRecord
100
AcDbDimStyleTableRecord
  2
STANDARD
 70
0
  3

  4

 40
1.0
 41
0.1
 42
0.0625
 43
0.38
 44
0.125
 45
0.0
 46
0.0
 47
0.001
 48
0.001
140
0.08
141
0.09
142
0.0
143
25.4
144
1.0
145
0.0
146
1.0
147
0.09
 71
1.0
 72
0.0
 73
1
 74
1
 75
0
 76
0
 77
0
 78
4
 79
1
170
1
171
2
172
0
173
0
174
0
175
0
176
0
177
0
178
0
270
2
179
3
271
3
272
3
273
2
274
2
275
0
280
0
281
0
282
0
283
1
284
4
285
0
286
0
287
3
288
0
340
11
278
46
341
204
342
204
343
204
344
204
  0
ENDTAB
  0
ENDSEC
  0
SECTION
  2
BLOCKS
  0
BLOCK
  5
20
100
AcDbEntity
  8
0
100
AcDbBlockBegin
  2
*Model_Space
 70
0
 10
0.0
 20
0.0
 30
0.0
  3
*Model_Space
  1

  0
ENDBLK
  5
21
100
AcDbEntity
  8
0
100
AcDbBlockEnd
  0
BLOCK
  5
1C
100
AcDbEntity
  8
0
100
AcDbBlockBegin
  2
*Paper_Space
 70
0
 10
0.0
 20
0.0
 30
0.0
  3
*Paper_Space
  1

  0
ENDBLK
  5
1D
100
AcDbEntity
  8
0
100
AcDbBlockEnd
  0
BLOCK
  5
206
100
AcDbEntity
  8
0
100
AcDbBlockBegin
  2
_FILLED
 70
64
 10
0.0
 20
0.0
  3
_FILLED
  1

  0
SOLID
  5
207
100
AcDbEntity
  8
0
  6
BYBLOCK
 62
0
100
AcDbTrace
 10
0.0
 20
0.0
 11
-1.0
 21
0.2
 12
-1.0
 22
-0.2
 13
-1.0
 23
-0.2
  0
ENDBLK
  5
208
100
AcDbEntity
  8
0
  6
BYBLOCK
 62
0
100
AcDbBlockEnd
  0
ENDSEC
  0
SECTION
  2
ENTITIES
  0
LINE
  5
209
100
AcDbEntity
  8
0
100
AcDbLine
 62
7
  6
CONTINUOUS
 10
6.2880738207
 20
11.6584956708
 11
6.2891010581
 21
11.6600134947
  0
LINE
  5
20A
100
AcDbEntity
  8
0
100
AcDbLine
 62
7
  6
CONTINUOUS
 10
6.2887081396
 20
11.6596507318
 11
6.2888632038
 21
11.65981711
  0
LINE
  5
20B
100
AcDbEntity
  8
0
100
AcDbLine
 62
7
  6
CONTINUOUS
 10
6.0550209365
 20
11.2548024591
 11
6.0550796273
 21
11.2549942784
  0
LINE
  5
20C
100
AcDbEntity
  8
0
100
AcDbLine
 62
7
  6
CONTINUOUS
 10
6.2830612302
 20
11.6463833315
 11
6.2873908279
 21
11.657324835
  0
LINE
  5
20D
100
AcDbEntity
  8
0
100
AcDbLine
 62
7
  6
CONTINUOUS
 10
6.0549512009
 20
11.2544411207
 11
6.0563193836
 21
11.2571028518
  0
LINE
  5
20E
100
AcDbEntity
  8
0
100
AcDbLine
 62
7
  6
CONTINUOUS
 10
6.2873908279
 20
11.657324835
 11
6.2880738207
 21
11.6584956708
  0
LINE
  5
20F
100
AcDbEntity
  8
0
100
AcDbLine
 62
7
  6
CONTINUOUS
 10
6.0563193836
 20
11.2571028518
 11
6.0633588931
 21
11.2661270855
  0
LWPOLYLINE
  5
210
100
AcDbEntity
  8
0
100
AcDbPolyline
 62
7
  6
CONTINUOUS
 90
7
 70
0
 10
6.0633588931
 20
11.2661270855
 10
6.0769174117
 20
11.2764444422
 10
6.0942440313
 20
11.2830982867
 10
6.1104179361
 20
11.2845745098
 10
6.1219371945
 20
11.2828167134
 10
6.1277906892
 20
11.280675853
 10
6.1285231911
 20
11.2802905745
  0
LINE
  5
211
100
AcDbEntity
  8
0
100
AcDbLine
 62
7
  6
CONTINUOUS
 10
7.7911198846
 20
11.5834025775
 11
7.2907240856
 21
11.2944989283
  0
LINE
  5
212
100
AcDbEntity
  8
0
100
AcDbLine
 62
9
  6
CONTINUOUS
 10
7.488991369
 20
11.2068958308
 11
7.372077956
 21
11.1393958022
  0
LINE
  5
213
100
AcDbEntity
  8
0
100
AcDbLine
 62
9
  6
CONTINUOUS
 10
7.9549034342
 20
11.4758904046
 11
7.9789610176
 21
11.4897800223
  0
LINE
  5
214
100
AcDbEntity
  8
0
100
AcDbLine
 62
7
  6
CONTINUOUS
 10
7.9661177916
 20
11.2802924778
 11
7.4657296073
 21
10.9913932249
  0
LWPOLYLINE
  5
215
100
AcDbEntity
  8
0
100
AcDbPolyline
 62
7
  6
CONTINUOUS
 90
5
 70
0
 10
7.290728103
 20
11.2945013154
 10
7.2751748844
 20
11.2873967691
 10
7.2526333629
 20
11.282707893
 10
7.2296661373
 20
11.2838868923
 10
7.2077192947
 20
11.2908611698
  0
LWPOLYLINE
  5
216
100
AcDbEntity
  8
0
100
AcDbPolyline
 62
7
  6
CONTINUOUS
 90
5
 70
0
 10
6.8873118327
 20
11.291048579
 10
6.8655077764
 20
11.2839882749
 10
6.8423756609
 20
11.2826819348
 10
6.8196431368
 20
11.2873356705
 10
6.8039090772
 20
11.2945021062
  0
LWPOLYLINE
  5
217
100
AcDbEntity
  8
0
100
AcDbPolyline
 62
7
  6
CONTINUOUS
 90
7
 70
0
 10
7.9660902586
 20
11.280277526
 10
7.9668450993
 20
11.2806753369
 10
7.973213334
 20
11.2829551962
 10
7.9856689304
 20
11.2846196654
 10
8.0014240203
 20
11.2828571068
 10
8.0174846837
 20
11.276575478
 10
8.0308672014
 20
11.2665418353
  0
LINE
  5
218
100
AcDbEntity
  8
0
100
AcDbLine
 62
7
  6
CONTINUOUS
 10
6.8723183383
 20
9.9919942081
 11
6.8723183383
 21
10.569796458
  0
LINE
  5
219
100
AcDbEntity
  8
0
100
AcDbLine
 62
9
  6
CONTINUOUS
 10
7.0473185851
 20
10.4418959603
 11
7.0473186398
 21
10.5768959604
  0
LINE
  5
21A
100
AcDbEntity
  8
0
100
AcDbLine
 62
9
  6
CONTINUOUS
 10
7.0473184676
 20
9.9039069893
 11
7.0473185483
 21
9.8761277112
  0
LWPOLYLINE
  5
21B
100
AcDbEntity
  8
0
100
AcDbPolyline
 62
7
  6
CONTINUOUS
 90
8
 70
0
 10
6.8723192445
 20
9.9920038298
 10
6.8722874366
 20
9.9911877481
 10
6.871225564
 20
9.9850776852
 10
6.867025527
 20
9.9742723318
 10
6.8577149053
 20
9.961021096
 10
6.8433720915
 20
9.9493411867
 10
6.8277251971
 20
9.9427124824
 10
6.8163351352
 20
9.9410645731
  0
LWPOLYLINE
  5
21C
100
AcDbEntity
  8
0
100
AcDbPolyline
 62
7
  6
CONTINUOUS
 90
5
 70
0
 10
7.222319495
 20
10.5697860493
 10
7.2239698206
 20
10.5869507538
 10
7.2312499311
 20
10.6088812159
 10
7.2438155134
 20
10.6281670168
 10
7.2608458343
 20
10.6436238073
  0
LWPOLYLINE
  5
21D
100
AcDbEntity
  8
0
100
AcDbPolyline
 62
7
  6
CONTINUOUS
 90
5
 70
0
 10
7.4210366294
 20
10.9208899035
 10
7.4258189699
 20
10.9432879119
 10
7.4362587315
 20
10.9639886412
 10
7.451658656
 20
10.9813517188
 10
7.4657275041
 20
10.99139098
  0
LINE
  5
21E
100
AcDbEntity
  8
0
100
AcDbLine
 62
7
  6
CONTINUOUS
 10
7.2223183383
 20
9.9919920965
 11
7.2223183383
 21
10.5698036417
  0
LWPOLYLINE
  5
21F
100
AcDbEntity
  8
0
100
AcDbPolyline
 62
7
  6
CONTINUOUS
 90
5
 70
0
 10
14.8873118327
 20
11.291048579
 10
14.8655077751
 20
11.2839882747
 10
14.8423756578
 20
11.282681935
 10
14.8196431322
 20
11.2873356721
 10
14.8039090772
 20
11.2945021062
  0
LWPOLYLINE
  5
220
100
AcDbEntity
  8
0
100
AcDbPolyline
 62
7
  6
CONTINUOUS
 90
7
 70
0
 10
7.8114571473
 20
11.6468164844
 10
7.8135838902
 20
11.6298396891
 10
7.8106375959
 20
11.6115299886
 10
7.8038292594
 20
11.5968620506
 10
7.7965551909
 20
11.5878003598
 10
7.7918158598
 20
11.5838412737
 10
7.7911207472
 20
11.5834026471
  0
LWPOLYLINE
  5
221
100
AcDbEntity
  8
0
100
AcDbPolyline
 62
7
  6
CONTINUOUS
 90
5
 70
0
 10
15.290728103
 20
11.2945013154
 10
15.2751749234
 20
11.2873967826
 10
15.2526333989
 20
11.2827078958
 10
15.2296661601
 20
11.2838868881
 10
15.2077192956
 20
11.2908611694
  0
LINE
  5
222
100
AcDbEntity
  8
0
100
AcDbLine
 62
7
  6
CONTINUOUS
 10
7.8071485478
 20
11.6574983186
 11
7.8114571473
 21
11.6468164844
  0
LINE
  5
223
100
AcDbEntity
  8
0
100
AcDbLine
 62
7
  6
CONTINUOUS
 10
8.0395570493
 20
11.2549942782
 11
8.0396240207
 21
11.2547754439
  0
LWPOLYLINE
  5
224
100
AcDbEntity
  8
0
100
AcDbPolyline
 62
7
  6
CONTINUOUS
 90
7
 70
0
 10
14.0633590197
 20
11.2661272146
 10
14.0769177145
 20
11.2764446124
 10
14.0942444381
 20
11.2830983783
 10
14.1104183835
 20
11.2845744903
 10
14.1219375725
 20
11.2828166093
 10
14.1277908314
 20
11.2806757832
 10
14.1285231907
 20
11.2802905747
  0
LINE
  5
225
100
AcDbEntity
  8
0
100
AcDbLine
 62
7
  6
CONTINUOUS
 10
15.7911198509
 20
11.5834025581
 11
15.2907240856
 21
11.2944989283
  0
LINE
  5
226
100
AcDbEntity
  8
0
100
AcDbLine
 62
9
  6
CONTINUOUS
 10
15.9549034342
 20
11.4758904046
 11
15.9789610176
 21
11.4897800223
  0
LINE
  5
227
100
AcDbEntity
  8
0
100
AcDbLine
 62
9
  6
CONTINUOUS
 10
15.488991369
 20
11.2068958308
 11
15.372077956
 21
11.1393958022
  0
LWPOLYLINE
  5
228
100
AcDbEntity
  8
0
100
AcDbPolyline
 62
7
  6
CONTINUOUS
 90
7
 70
0
 10
15.9661081033
 20
11.2802878075
 10
15.9668330078
 20
11.280669402
 10
15.9726631448
 20
11.2828068912
 10
15.9841312159
 20
11.2845704516
 10
16.0002742116
 20
11.28312499
 10
16.0175633511
 20
11.2765316371
 10
16.0311065628
 20
11.2663013579
  0
LINE
  5
229
100
AcDbEntity
  8
0
100
AcDbLine
 62
7
  6
CONTINUOUS
 10
8.038873217
 20
11.256122447
 11
8.0396747054
 21
11.2544728258
  0
LINE
  5
22A
100
AcDbEntity
  8
0
100
AcDbLine
 62
7
  6
CONTINUOUS
 10
10.5473183383
 20
10.9518959604
 11
10.5473183383
 21
3.0768959604
  0
LINE
  5
22B
100
AcDbEntity
  8
0
100
AcDbLine
 62
7
  6
CONTINUOUS
 10
14.2887081396
 20
11.6596507318
 11
14.2888451523
 21
11.6597977237
  0
LINE
  5
22C
100
AcDbEntity
  8
0
100
AcDbLine
 62
7
  6
CONTINUOUS
 10
15.9661177916
 20
11.2802924778
 11
15.4657296073
 21
10.9913932249
  0
LWPOLYLINE
  5
22D
100
AcDbEntity
  8
0
100
AcDbPolyline
 62
7
  6
CONTINUOUS
 90
5
 70
0
 10
6.8336067135
 20
10.6437511743
 10
6.8506779445
 20
10.6283344759
 10
6.8633414448
 20
10.6089753595
 10
6.8706606425
 20
10.5869840506
 10
6.8723174191
 20
10.5697929302
  0
LINE
  5
22E
100
AcDbEntity
  8
0
100
AcDbLine
 62
7
  6
CONTINUOUS
 10
7.8055202119
 20
11.6600277188
 11
7.8071485478
 21
11.6574983186
  0
LINE
  5
22F
100
AcDbEntity
  8
0
100
AcDbLine
 62
7
  6
CONTINUOUS
 10
14.0563193987
 20
11.2571028773
 11
14.0633590197
 21
11.2661272146
  0
LWPOLYLINE
  5
230
100
AcDbEntity
  8
0
100
AcDbPolyline
 62
7
  6
CONTINUOUS
 90
3
 70
0
 10
8.0308672014
 20
11.2665418353
 10
8.0381994256
 20
11.2573013853
 10
8.038873217
 20
11.256122447
  0
LINE
  5
231
100
AcDbEntity
  8
0
100
AcDbLine
 62
7
  6
CONTINUOUS
 10
11.5473183383
 20
10.9518959604
 11
11.5473183383
 21
3.0768959604
  0
LINE
  5
232
100
AcDbEntity
  8
0
100
AcDbLine
 62
7
  6
CONTINUOUS
 10
14.2880767637
 20
11.6585004747
 11
14.2891017404
 21
11.6600141246
  0
LWPOLYLINE
  5
233
100
AcDbEntity
  8
0
100
AcDbPolyline
 62
7
  6
CONTINUOUS
 90
5
 70
0
 10
6.6289082886
 20
10.9913920518
 10
6.6429436197
 20
10.9813826744
 10
6.6583229851
 20
10.9640716373
 10
6.6687648343
 20
10.9434424594
 10
6.6736017584
 20
10.920889719
  0
LINE
  5
234
100
AcDbEntity
  8
0
100
AcDbLine
 62
7
  6
CONTINUOUS
 10
7.805928537
 20
11.6596507317
 11
7.8057892996
 21
11.6598001134
  0
LINE
  5
235
100
AcDbEntity
  8
0
100
AcDbLine
 62
7
  6
CONTINUOUS
 10
14.0549512007
 20
11.2544411201
 11
14.0563193987
 21
11.2571028773
  0
LINE
  5
236
100
AcDbEntity
  8
0
100
AcDbLine
 62
7
  6
CONTINUOUS
 10
6.1285169152
 20
11.2802936151
 11
6.6289111877
 21
10.9913908471
  0
LINE
  5
237
100
AcDbEntity
  8
0
100
AcDbLine
 62
9
  6
CONTINUOUS
 10
6.6056452975
 20
11.2068957378
 11
6.7225586683
 21
11.1393957116
  0
LINE
  5
238
100
AcDbEntity
  8
0
100
AcDbLine
 62
9
  6
CONTINUOUS
 10
6.1397332058
 20
11.4758903409
 11
6.115675607
 21
11.4897799146
  0
LWPOLYLINE
  5
239
100
AcDbEntity
  8
0
100
AcDbPolyline
 62
7
  6
CONTINUOUS
 90
7
 70
0
 10
6.3035440813
 20
11.583386015
 10
6.302819815
 20
11.5838423572
 10
6.2976589188
 20
11.5882213375
 10
6.2899841381
 20
11.59818895
 10
6.2836330739
 20
11.612734985
 10
6.2810536448
 20
11.6297945913
 10
6.2830612302
 20
11.6463833315
  0
LWPOLYLINE
  5
23A
100
AcDbEntity
  8
0
100
AcDbPolyline
 62
7
  6
CONTINUOUS
 90
3
 70
0
 10
14.2831317137
 20
11.6466439936
 10
14.2874041311
 20
11.6573486839
 10
14.2880767637
 20
11.6585004747
  0
LINE
  5
23B
100
AcDbEntity
  8
0
100
AcDbLine
 62
7
  6
CONTINUOUS
 10
15.2809468505
 20
9.941042871
 11
15.2811416958
 21
9.9410878101
  0
LINE
  5
23C
100
AcDbEntity
  8
0
100
AcDbLine
 62
7
  6
CONTINUOUS
 10
6.8136898259
 20
9.941042871
 11
6.8134942383
 21
9.9410879815
  0
LINE
  5
23D
100
AcDbEntity
  8
0
100
AcDbLine
 62
7
  6
CONTINUOUS
 10
6.303518856
 20
11.5834013859
 11
6.8039080831
 21
11.2945015309
  0
LINE
  5
23E
100
AcDbEntity
  8
0
100
AcDbLine
 62
7
  6
CONTINUOUS
 10
14.0550796273
 20
11.2549942784
 11
14.0550209343
 21
11.2548024519
  0
LWPOLYLINE
  5
23F
100
AcDbEntity
  8
0
100
AcDbPolyline
 62
7
  6
CONTINUOUS
 90
8
 70
0
 10
7.2785055178
 20
9.9410622024
 10
7.2671844214
 20
9.9426417725
 10
7.2514795968
 20
9.949213247
 10
7.2370469258
 20
9.9608853975
 10
7.2276692754
 20
9.9741603793
 10
7.2234244785
 20
9.9850270741
 10
7.2223500159
 20
9.9911708008
 10
7.2223174376
 20
9.9919991328
  0
LINE
  5
240
100
AcDbEntity
  8
0
100
AcDbLine
 62
7
  6
CONTINUOUS
 10
15.2814758383
 20
9.9412074823
 11
15.278505582
 21
9.9410622018
  0
LINE
  5
241
100
AcDbEntity
  8
0
100
AcDbLine
 62
7
  6
CONTINUOUS
 10
6.8163351352
 20
9.9410645731
 11
6.8150021995
 21
9.9410712528
  0
LINE
  5
242
100
AcDbEntity
  8
0
100
AcDbLine
 62
7
  6
CONTINUOUS
 10
14.8163350595
 20
9.941064572
 11
14.8150021415
 21
9.9410712543
  0
LINE
  5
243
100
AcDbEntity
  8
0
100
AcDbLine
 62
7
  6
CONTINUOUS
 10
6.8150021995
 20
9.9410712528
 11
6.8131628829
 21
9.9412032622
  0
LINE
  5
244
100
AcDbEntity
  8
0
100
AcDbLine
 62
7
  6
CONTINUOUS
 10
7.2814758423
 20
9.9412074836
 11
7.2785055178
 21
9.9410622024
  0
LINE
  5
245
100
AcDbEntity
  8
0
100
AcDbLine
 62
7
  6
CONTINUOUS
 10
14.8150021415
 20
9.9410712543
 11
14.8131628853
 21
9.9412032615
  0
LINE
  5
246
100
AcDbEntity
  8
0
100
AcDbLine
 62
7
  6
CONTINUOUS
 10
7.2809468505
 20
9.941042871
 11
7.281141692
 21
9.9410878092
  0
LWPOLYLINE
  5
247
100
AcDbEntity
  8
0
100
AcDbPolyline
 62
7
  6
CONTINUOUS
 90
8
 70
0
 10
15.278505582
 20
9.9410622018
 10
15.2671845424
 20
9.9426417414
 10
15.2514797469
 20
9.9492131581
 10
15.2370470655
 20
9.9608852462
 10
15.2276693453
 20
9.9741602452
 10
15.2234244992
 20
9.9850269949
 10
15.2223500181
 20
9.9911707691
 10
15.2223174376
 20
9.9919991336
  0
LINE
  5
248
100
AcDbEntity
  8
0
100
AcDbLine
 62
7
  6
CONTINUOUS
 10
14.8136898259
 20
9.941042871
 11
14.8134942343
 21
9.9410879824
  0
LINE
  5
249
100
AcDbEntity
  8
0
100
AcDbLine
 62
7
  6
CONTINUOUS
 10
14.8723183383
 20
9.9919942081
 11
14.8723183383
 21
10.569796458
  0
LWPOLYLINE
  5
24A
100
AcDbEntity
  8
0
100
AcDbPolyline
 62
7
  6
CONTINUOUS
 90
8
 70
0
 10
14.8723192445
 20
9.9920038292
 10
14.8722874341
 20
9.9911877106
 10
14.8712255385
 20
9.9850775867
 10
14.8670254433
 20
9.9742721703
 10
14.8577147109
 20
9.9610208842
 10
14.8433718472
 20
9.9493410407
 10
14.8277250148
 20
9.9427124345
 10
14.8163350595
 20
9.941064572
  0
LWPOLYLINE
  5
24B
100
AcDbEntity
  8
0
100
AcDbPolyline
 62
7
  6
CONTINUOUS
 90
5
 70
0
 10
15.222319495
 20
10.5697860493
 10
15.2239698269
 20
10.5869507863
 10
15.2312499539
 20
10.6088812632
 10
15.2438155401
 20
10.6281670481
 10
15.2608458343
 20
10.6436238074
  0
LWPOLYLINE
  5
24C
100
AcDbEntity
  8
0
100
AcDbPolyline
 62
7
  6
CONTINUOUS
 90
5
 70
0
 10
15.4210366294
 20
10.9208899035
 10
15.4258189685
 20
10.943287908
 10
15.4362587294
 20
10.9639886381
 10
15.451658658
 20
10.9813517205
 10
15.4657275041
 20
10.99139098
  0
LINE
  5
24D
100
AcDbEntity
  8
0
100
AcDbLine
 62
9
  6
CONTINUOUS
 10
15.0473185851
 20
10.4418959603
 11
15.0473186398
 21
10.5768959604
  0
LINE
  5
24E
100
AcDbEntity
  8
0
100
AcDbLine
 62
9
  6
CONTINUOUS
 10
15.0473184676
 20
9.9039069893
 11
15.0473185483
 21
9.8761277112
  0
LINE
  5
24F
100
AcDbEntity
  8
0
100
AcDbLine
 62
7
  6
CONTINUOUS
 10
15.2223183383
 20
9.9919921124
 11
15.2223183383
 21
10.5698036417
  0
LINE
  5
250
100
AcDbEntity
  8
0
100
AcDbLine
 62
7
  6
CONTINUOUS
 10
14.1285169251
 20
11.2802936094
 11
14.6289111877
 21
10.9913908471
  0
LWPOLYLINE
  5
251
100
AcDbEntity
  8
0
100
AcDbPolyline
 62
7
  6
CONTINUOUS
 90
5
 70
0
 10
14.6289082886
 20
10.9913920518
 10
14.6429436364
 20
10.9813826599
 10
14.658323001
 20
10.9640716138
 10
14.6687648413
 20
10.9434424397
 10
14.6736017584
 20
10.920889719
  0
LWPOLYLINE
  5
252
100
AcDbEntity
  8
0
100
AcDbPolyline
 62
7
  6
CONTINUOUS
 90
5
 70
0
 10
14.8336067135
 20
10.6437511743
 10
14.8506779632
 20
10.6283344541
 10
14.8633414621
 20
10.6089753236
 10
14.8706606489
 20
10.5869840178
 10
14.8723174191
 20
10.5697929302
  0
LINE
  5
253
100
AcDbEntity
  8
0
100
AcDbLine
 62
9
  6
CONTINUOUS
 10
14.1397332058
 20
11.4758903409
 11
14.115675607
 21
11.4897799146
  0
LINE
  5
254
100
AcDbEntity
  8
0
100
AcDbLine
 62
9
  6
CONTINUOUS
 10
14.6056452525
 20
11.2068957638
 11
14.7225586683
 21
11.1393957116
  0
LINE
  5
255
100
AcDbEntity
  8
0
100
AcDbLine
 62
7
  6
CONTINUOUS
 10
14.303518856
 20
11.5834013859
 11
14.8039080831
 21
11.2945015309
  0
LWPOLYLINE
  5
256
100
AcDbEntity
  8
0
100
AcDbPolyline
 62
7
  6
CONTINUOUS
 90
7
 70
0
 10
14.303526159
 20
11.5833963838
 10
14.3028346429
 20
11.5838324094
 10
14.298079966
 20
11.5878016055
 10
14.2908249372
 20
11.5968348829
 10
14.2840049536
 20
11.6115104458
 10
14.2810540049
 20
11.6297710233
 10
14.2831317137
 20
11.6466439936
  0
LWPOLYLINE
  5
257
100
AcDbEntity
  8
0
100
AcDbPolyline
 62
7
  6
CONTINUOUS
 90
7
 70
0
 10
15.8114570925
 20
11.6468166825
 10
15.8135838947
 20
11.6298399999
 10
15.8106377026
 20
11.6115303282
 10
15.8038294134
 20
11.5968622914
 10
15.7965553238
 20
11.5878004906
 10
15.791815919
 20
11.5838413133
 10
15.7911207457
 20
11.5834026462
  0
LINE
  5
258
100
AcDbEntity
  8
0
100
AcDbLine
 62
7
  6
CONTINUOUS
 10
16.0395570493
 20
11.2549942782
 11
16.0396154345
 21
11.2548034545
  0
LINE
  5
259
100
AcDbEntity
  8
0
100
AcDbLine
 62
7
  6
CONTINUOUS
 10
15.805928537
 20
11.6596507317
 11
15.8057892984
 21
11.6598001146
  0
LWPOLYLINE
  5
25A
100
AcDbEntity
  8
0
100
AcDbPolyline
 62
7
  6
CONTINUOUS
 90
3
 70
0
 10
16.0311065628
 20
11.2663013579
 10
16.0382209807
 20
11.2572652872
 10
16.0388801222
 20
11.2561097418
  0
LINE
  5
25B
100
AcDbEntity
  8
0
100
AcDbLine
 62
7
  6
CONTINUOUS
 10
15.8055202157
 20
11.6600277153
 11
15.8071485052
 21
11.657498394
  0
LINE
  5
25C
100
AcDbEntity
  8
0
100
AcDbLine
 62
7
  6
CONTINUOUS
 10
16.0388801222
 20
11.2561097418
 11
16.0396748502
 21
11.2544721839
  0
LINE
  5
25D
100
AcDbEntity
  8
0
100
AcDbLine
 62
7
  6
CONTINUOUS
 10
15.8071485052
 20
11.657498394
 11
15.8114570925
 21
11.6468166825
  0
ARC
  5
25E
100
AcDbEntity
  8
0
100
AcDbCircle
 62
7
  6
CONTINUOUS
 10
11.0473183383
 20
3.0768959604
 40
0.5
100
AcDbArc
 50
180.0
 51
360.0
  0
CIRCLE
  5
25F
100
AcDbEntity
  8
0
100
AcDbCircle
 62
7
  6
CONTINUOUS
 10
7.0473183383
 20
10.9518959604
 40
1.4375
  0
ARC
  5
260
100
AcDbEntity
  8
0
100
AcDbCircle
 62
7
  6
CONTINUOUS
 10
11.0473183383
 20
10.9518959604
 40
1.1875
100
AcDbArc
 50
294.9901353561
 51
245.0087205482
  0
ARC
  5
261
100
AcDbEntity
  8
0
100
AcDbCircle
 62
7
  6
CONTINUOUS
 10
7.0473183383
 20
10.9518959604
 40
1.0375
100
AcDbArc
 50
283.0137046198
 51
16.9862953725
  0
ARC
  5
262
100
AcDbEntity
  8
0
100
AcDbCircle
 62
7
  6
CONTINUOUS
 10
7.0473183383
 20
10.9518959604
 40
1.0375
100
AcDbArc
 50
163.01370462
 51
256.986295374
  0
ARC
  5
263
100
AcDbEntity
  8
0
100
AcDbCircle
 62
7
  6
CONTINUOUS
 10
7.0473183383
 20
10.9518959604
 40
1.0375
100
AcDbArc
 50
43.0137046213
 51
136.9862953723
  0
ARC
  5
264
100
AcDbEntity
  8
0
100
AcDbCircle
 62
7
  6
CONTINUOUS
 10
11.0473183383
 20
10.9518959604
 40
0.6875
100
AcDbArc
 50
317.0125252781
 51
223.0054823779
  0
ARC
  5
265
100
AcDbEntity
  8
0
100
AcDbCircle
 62
7
  6
CONTINUOUS
 10
7.0473183383
 20
10.9518959604
 40
0.65625
100
AcDbArc
 50
285.4721700545
 51
14.4845176737
  0
ARC
  5
266
100
AcDbEntity
  8
0
100
AcDbCircle
 62
7
  6
CONTINUOUS
 10
7.0473183383
 20
10.9518959604
 40
0.65625
100
AcDbArc
 50
165.5157724905
 51
254.4861027139
  0
ARC
  5
267
100
AcDbEntity
  8
0
100
AcDbCircle
 62
7
  6
CONTINUOUS
 10
7.0473183383
 20
10.9518959604
 40
0.65625
100
AcDbArc
 50
45.5194119283
 51
134.5241779201
  0
ARC
  5
268
100
AcDbEntity
  8
0
100
AcDbCircle
 62
7
  6
CONTINUOUS
 10
11.0473183383
 20
10.9518959604
 40
0.5
100
AcDbArc
 50
0.0
 51
180.0
  0
CIRCLE
  5
269
100
AcDbEntity
  8
0
100
AcDbCircle
 62
7
  6
CONTINUOUS
 10
7.0473183383
 20
10.9518959604
 40
0.375
  0
ARC
  5
26A
100
AcDbEntity
  8
0
100
AcDbCircle
 62
9
  6
CONTINUOUS
 10
8.2594801201
 20
11.3221701679
 40
0.2299538154
100
AcDbArc
 50
196.6837839555
 51
196.9853840541
  0
ARC
  5
26B
100
AcDbEntity
  8
0
100
AcDbCircle
 62
9
  6
CONTINUOUS
 10
6.1205791661
 20
11.8165136771
 40
0.2299420261
100
AcDbArc
 50
316.6840975754
 51
316.9853954954
  0
ARC
  5
26C
100
AcDbEntity
  8
0
100
AcDbCircle
 62
9
  6
CONTINUOUS
 10
6.7619121672
 20
9.7170310096
 40
0.2299178984
100
AcDbArc
 50
76.6851776703
 51
76.9853229804
  0
ARC
  5
26D
100
AcDbEntity
  8
0
100
AcDbCircle
 62
9
  6
CONTINUOUS
 10
7.9781538547
 20
11.2362363617
 40
0.0642044526
100
AcDbArc
 50
16.9872571624
 51
18.1483399836
  0
ARC
  5
26E
100
AcDbEntity
  8
0
100
AcDbCircle
 62
9
  6
CONTINUOUS
 10
6.3356543157
 20
11.6158531984
 40
0.0642041072
100
AcDbArc
 50
136.9872546927
 51
138.1470440741
  0
ARC
  5
26F
100
AcDbEntity
  8
0
100
AcDbCircle
 62
9
  6
CONTINUOUS
 10
6.8281462514
 20
10.0035970245
 40
0.0642028843
100
AcDbArc
 50
256.9872487321
 51
258.142536714
  0
CIRCLE
  5
270
100
AcDbEntity
  8
0
100
AcDbCircle
 62
7
  6
CONTINUOUS
 10
15.0473183383
 20
10.9518959604
 40
1.4375
  0
ARC
  5
271
100
AcDbEntity
  8
0
100
AcDbCircle
 62
7
  6
CONTINUOUS
 10
15.0473183383
 20
10.9518959604
 40
1.0375
100
AcDbArc
 50
283.0137046198
 51
16.9862953725
  0
ARC
  5
272
100
AcDbEntity
  8
0
100
AcDbCircle
 62
7
  6
CONTINUOUS
 10
15.0473183383
 20
10.9518959604
 40
1.0375
100
AcDbArc
 50
163.01370462
 51
256.986295374
  0
ARC
  5
273
100
AcDbEntity
  8
0
100
AcDbCircle
 62
7
  6
CONTINUOUS
 10
15.0473183383
 20
10.9518959604
 40
1.0375
100
AcDbArc
 50
43.0137046213
 51
136.9862953723
  0
ARC
  5
274
100
AcDbEntity
  8
0
100
AcDbCircle
 62
7
  6
CONTINUOUS
 10
15.0473183383
 20
10.9518959604
 40
0.65625
100
AcDbArc
 50
285.4721700545
 51
14.4845176737
  0
ARC
  5
275
100
AcDbEntity
  8
0
100
AcDbCircle
 62
7
  6
CONTINUOUS
 10
15.0473183383
 20
10.9518959604
 40
0.65625
100
AcDbArc
 50
165.5157724905
 51
254.4861027139
  0
ARC
  5
276
100
AcDbEntity
  8
0
100
AcDbCircle
 62
7
  6
CONTINUOUS
 10
15.0473183383
 20
10.9518959604
 40
0.65625
100
AcDbArc
 50
45.5194119283
 51
134.5241779201
  0
CIRCLE
  5
277
100
AcDbEntity
  8
0
100
AcDbCircle
 62
7
  6
CONTINUOUS
 10
15.0473183383
 20
10.9518959604
 40
0.375
  0
ARC
  5
278
100
AcDbEntity
  8
0
100
AcDbCircle
 62
9
  6
CONTINUOUS
 10
14.1205934942
 20
11.8165002621
 40
0.2299223982
100
AcDbArc
 50
316.6853899141
 51
316.9854040595
  0
ARC
  5
279
100
AcDbEntity
  8
0
100
AcDbCircle
 62
9
  6
CONTINUOUS
 10
14.761912191
 20
9.7170311111
 40
0.2299177942
100
AcDbArc
 50
76.6851914998
 51
76.9853230738
  0
ARC
  5
27A
100
AcDbEntity
  8
0
100
AcDbCircle
 62
9
  6
CONTINUOUS
 10
16.2594318012
 20
11.3221555007
 40
0.2299033195
100
AcDbArc
 50
196.6870999741
 51
196.9854059708
  0
ARC
  5
27B
100
AcDbEntity
  8
0
100
AcDbCircle
 62
9
  6
CONTINUOUS
 10
14.8281462053
 20
10.0035968245
 40
0.0642026791
100
AcDbArc
 50
256.9872486944
 51
258.1424890649
  0
ARC
  5
27C
100
AcDbEntity
  8
0
100
AcDbCircle
 62
9
  6
CONTINUOUS
 10
14.3356531858
 20
11.6158542402
 40
0.0642025704
100
AcDbArc
 50
136.9872466289
 51
138.1420768519
  0
ARC
  5
27D
100
AcDbEntity
  8
0
100
AcDbCircle
 62
9
  6
CONTINUOUS
 10
15.9781573273
 20
11.2362374468
 40
0.0642008146
100
AcDbArc
 50
16.9872364371
 51
18.1355847837
  0
SPLINE
  5
27E
100
AcDbEntity
  8
0
100
AcDbSpline
 62
9
  6
CONTINUOUS
 70
0
 71
3
 72
18
 73
14
 74
0
 42
0.0000001
 43
0.0000001
 44
0.0000000001
 40
0.0
 40
0.0
 40
0.0
 40
0.0
 40
0.2442161207
 40
0.3088306119
 40
0.3741758906
 40
0.4398265566
 40
0.5054323695
 40
0.6353257589
 40
0.6992248752
 40
0.7620181917
 40
0.8235271848
 40
0.8837464681
 40
1.0
 40
1.0
 40
1.0
 40
1.0
 10
6.9064189405
 20
10.0020424807
 30
0.0
 10
6.9033444431
 20
9.9927509823
 30
0.0
 10
6.8977589988
 20
9.9814330933
 30
0.0
 10
6.8886724064
 20
9.969498214
 30
0.0
 10
6.8834254341
 20
9.9636601992
 30
0.0
 10
6.8776748954
 20
9.9582594115
 30
0.0
 10
6.8694275992
 20
9.9517982395
 30
0.0
 10
6.8603361419
 20
9.9465961777
 30
0.0
 10
6.8507459869
 20
9.9428507999
 30
0.0
 10
6.8434650719
 20
9.9408282624
 30
0.0
 10
6.8361522531
 20
9.9396298055
 30
0.0
 10
6.8266183407
 20
9.9390989525
 30
0.0
 10
6.8195134219
 20
9.9398067493
 30
0.0
 10
6.8149539918
 20
9.940764114
 30
0.0
  0
SPLINE
  5
27F
100
AcDbEntity
  8
0
100
AcDbSpline
 62
9
  6
CONTINUOUS
 70
0
 71
3
 72
28
 73
24
 74
0
 42
0.0000001
 43
0.0000001
 44
0.0000000001
 40
0.0
 40
0.0
 40
0.0
 40
0.0
 40
0.0104945275
 40
0.0228294523
 40
0.0369876092
 40
0.0529048224
 40
0.0705165091
 40
0.0897460485
 40
0.1327057783
 40
0.1810555059
 40
0.2341071617
 40
0.2915232888
 40
0.3531093061
 40
0.4187392508
 40
0.4884031039
 40
0.5248066526
 40
0.5623011778
 40
0.6406756963
 40
0.6816859597
 40
0.7239501874
 40
0.8120482373
 40
0.9047305476
 40
1.0
 40
1.0
 40
1.0
 40
1.0
 10
6.872319077
 20
10.5697941181
 30
0.0
 10
6.8723196498
 20
10.5689894185
 30
0.0
 10
6.8724970959
 20
10.5672392709
 30
0.0
 10
6.8731266307
 20
10.5644701693
 30
0.0
 10
6.87411735
 20
10.5613694401
 30
0.0
 10
6.8754523938
 20
10.557963318
 30
0.0
 10
6.8771238542
 20
10.5542776254
 30
0.0
 10
6.8798925792
 20
10.5488191627
 30
0.0
 10
6.884159523
 20
10.5414873091
 30
0.0
 10
6.8902838691
 20
10.5322606258
 30
0.0
 10
6.8975426646
 20
10.5224754228
 30
0.0
 10
6.9059761144
 20
10.5123211478
 30
0.0
 10
6.9156378177
 20
10.5019621217
 30
0.0
 10
6.9265809287
 20
10.4915494116
 30
0.0
 10
6.9366946021
 20
10.4831026885
 30
0.0
 10
6.9455206027
 20
10.476519837
 30
0.0
 10
6.9551451994
 20
10.4699056389
 30
0.0
 10
6.9654943792
 20
10.4637360176
 30
0.0
 10
6.9765680154
 20
10.4581576663
 30
0.0
 10
6.9885921753
 20
10.452845946
 30
0.0
 10
7.0048044112
 20
10.447259376
 30
0.0
 10
7.0255850862
 20
10.442953976
 30
0.0
 10
7.0400132636
 20
10.4418962615
 30
0.0
 10
7.0473183383
 20
10.4418960503
 30
0.0
  0
SPLINE
  5
280
100
AcDbEntity
  8
0
100
AcDbSpline
 62
9
  6
CONTINUOUS
 70
0
 71
3
 72
22
 73
18
 74
0
 42
0.0000001
 43
0.0000001
 44
0.0000000001
 40
0.0
 40
0.0
 40
0.0
 40
0.0
 40
0.1602016991
 40
0.2332983948
 40
0.3013756181
 40
0.3642820171
 40
0.4219554889
 40
0.4746592901
 40
0.5231756778
 40
0.5689462691
 40
0.6140833255
 40
0.6612421323
 40
0.7131937578
 40
0.7720629232
 40
0.8390740187
 40
0.914937062
 40
1.0
 40
1.0
 40
1.0
 40
1.0
 10
7.9403650012
 20
11.304800216
 30
0.0
 10
7.9401315826
 20
11.3021073298
 30
0.0
 10
7.9399059597
 20
11.298171561
 30
0.0
 10
7.9399980391
 20
11.2930851561
 30
0.0
 10
7.9402740386
 20
11.2896501325
 30
0.0
 10
7.9407767486
 20
11.2865028186
 30
0.0
 10
7.9415292513
 20
11.2836709847
 30
0.0
 10
7.9425570865
 20
11.281184017
 30
0.0
 10
7.9438922797
 20
11.2790755834
 30
0.0
 10
7.9455638706
 20
11.2773896351
 30
0.0
 10
7.9475850284
 20
11.2761802385
 30
0.0
 10
7.9499483296
 20
11.2754994904
 30
0.0
 10
7.9526313784
 20
11.2753806801
 30
0.0
 10
7.9556140038
 20
11.2758118605
 30
0.0
 10
7.9588872675
 20
11.2767779034
 30
0.0
 10
7.9624362105
 20
11.2782758006
 30
0.0
 10
7.964835306
 20
11.2795544511
 30
0.0
 10
7.9660785561
 20
11.2802715065
 30
0.0
  0
SPLINE
  5
281
100
AcDbEntity
  8
0
100
AcDbSpline
 62
9
  6
CONTINUOUS
 70
0
 71
3
 72
19
 73
15
 74
0
 42
0.0000001
 43
0.0000001
 44
0.0000000001
 40
0.0
 40
0.0
 40
0.0
 40
0.0
 40
0.0707778286
 40
0.1410625859
 40
0.2787956212
 40
0.3460256751
 40
0.4121106059
 40
0.54084954
 40
0.6648834493
 40
0.7836709003
 40
0.8407693159
 40
0.8960648581
 40
0.9492795524
 40
1.0
 40
1.0
 40
1.0
 40
1.0
 10
7.0473183383
 20
9.8761277044
 30
0.0
 10
7.0416015351
 20
9.8761267136
 30
0.0
 10
7.0302028294
 20
9.8765888039
 30
0.0
 10
7.0078187629
 20
9.8791984733
 30
0.0
 10
6.9860443209
 20
9.8839360979
 30
0.0
 10
6.9649807425
 20
9.8899048994
 30
0.0
 10
6.9447954274
 20
9.896285209
 30
0.0
 10
6.9204941681
 20
9.9048263645
 30
0.0
 10
6.8923520102
 20
9.9152505285
 30
0.0
 10
6.8696158985
 20
9.9236144304
 30
0.0
 10
6.8519857208
 20
9.9297684338
 30
0.0
 10
6.8392809375
 20
9.9339569624
 30
0.0
 10
6.826968783
 20
9.9376800114
 30
0.0
 10
6.8188492411
 20
9.9398251421
 30
0.0
 10
6.8148626016
 20
9.9407685601
 30
0.0
  0
SPLINE
  5
282
100
AcDbEntity
  8
0
100
AcDbSpline
 62
9
  6
CONTINUOUS
 70
0
 71
3
 72
20
 73
16
 74
0
 42
0.0000001
 43
0.0000001
 44
0.0000000001
 40
0.0
 40
0.0
 40
0.0
 40
0.0
 40
0.0684295992
 40
0.1373474569
 40
0.206452586
 40
0.2756373892
 40
0.3443953916
 40
0.4124502642
 40
0.5454295622
 40
0.6727131202
 40
0.7924885246
 40
0.8489630864
 40
0.9026568575
 40
0.9531339161
 40
1.0
 40
1.0
 40
1.0
 40
1.0
 10
7.954903256
 20
11.475890357
 30
0.0
 10
7.9568950796
 20
11.4724407099
 30
0.0
 10
7.9600992007
 20
11.4650397563
 30
0.0
 10
7.9627617251
 20
11.4532683811
 30
0.0
 10
7.9636475802
 20
11.4412045897
 30
0.0
 10
7.9632385209
 20
11.4291453752
 30
0.0
 10
7.9620329147
 20
11.4172085716
 30
0.0
 10
7.959681798
 20
11.4016760567
 30
0.0
 10
7.9559183211
 20
11.382931129
 30
0.0
 10
7.9510408663
 20
11.3613537729
 30
0.0
 10
7.9471055869
 20
11.3441276497
 30
0.0
 10
7.9443658978
 20
11.3310250949
 30
0.0
 10
7.942634487
 20
11.3218343744
 30
0.0
 10
7.9412582798
 20
11.3131492101
 30
0.0
 10
7.9406008067
 20
11.3075181691
 30
0.0
 10
7.9403650815
 20
11.3048002241
 30
0.0
  0
SPLINE
  5
283
100
AcDbEntity
  8
0
100
AcDbSpline
 62
9
  6
CONTINUOUS
 70
0
 71
3
 72
20
 73
16
 74
0
 42
0.0000001
 43
0.0000001
 44
0.0000000001
 40
0.0
 40
0.0
 40
0.0
 40
0.0
 40
0.0468690382
 40
0.0973558649
 40
0.1510612377
 40
0.2075442943
 40
0.3273177411
 40
0.454588028
 40
0.587558337
 40
0.6556097313
 40
0.724367174
 40
0.7935558791
 40
0.8626640642
 40
0.9315788872
 40
1.0
 40
1.0
 40
1.0
 40
1.0
 10
7.7994657184
 20
11.5488449269
 30
0.0
 10
7.8019375647
 20
11.5476900712
 30
0.0
 10
7.8071436454
 20
11.5454437517
 30
0.0
 10
7.8153546453
 20
11.5422925228
 30
0.0
 10
7.8241813581
 20
11.5391959722
 30
0.0
 10
7.8368993162
 20
11.5350169347
 30
0.0
 10
7.85378492
 20
11.5298123472
 30
0.0
 10
7.8749088989
 20
11.5232483313
 30
0.0
 10
7.8930225974
 20
11.5171350588
 30
0.0
 10
7.9076489144
 20
11.5114050288
 30
0.0
 10
7.9185892134
 20
11.5064805785
 30
0.0
 10
7.92923758
 20
11.5008049394
 30
0.0
 10
7.9392424022
 20
11.4940057717
 30
0.0
 10
7.9481049547
 20
11.4858144644
 30
0.0
 10
7.9529118357
 20
11.4793396623
 30
0.0
 10
7.9549031915
 20
11.4758903197
 30
0.0
  0
SPLINE
  5
284
100
AcDbEntity
  8
0
100
AcDbSpline
 62
9
  6
CONTINUOUS
 70
0
 71
3
 72
28
 73
24
 74
0
 42
0.0000001
 43
0.0000001
 44
0.0000000001
 40
0.0
 40
0.0
 40
0.0
 40
0.0
 40
0.0951787337
 40
0.1877243255
 40
0.2757722321
 40
0.3180343613
 40
0.3590490659
 40
0.437443229
 40
0.474951208
 40
0.5113695022
 40
0.5810651466
 40
0.6467276054
 40
0.7083452228
 40
0.7657912133
 40
0.8188699882
 40
0.8672426127
 40
0.9102209128
 40
0.9294583603
 40
0.9470771387
 40
0.9630006765
 40
0.977164294
 40
0.9895032421
 40
1.0
 40
1.0
 40
1.0
 40
1.0
 10
7.4889910744
 20
11.2068958335
 30
0.0
 10
7.485342
 20
11.2132161487
 30
0.0
 10
7.4772251019
 20
11.2251701456
 30
0.0
 10
7.4631216641
 20
11.2409992018
 30
0.0
 10
7.4501916962
 20
11.2522400095
 30
0.0
 10
7.4395857026
 20
11.259999523
 30
0.0
 10
7.4292190803
 20
11.2668052162
 30
0.0
 10
7.4187006907
 20
11.2726875953
 30
0.0
 10
7.4081584034
 20
11.2777200235
 30
0.0
 10
7.3980413703
 20
11.2820764379
 30
0.0
 10
7.3856647817
 20
11.2866165348
 30
0.0
 10
7.3711693155
 20
11.2908918892
 30
0.0
 10
7.3573607382
 20
11.2940831627
 30
0.0
 10
7.3443437396
 20
11.2963121485
 30
0.0
 10
7.3322341921
 20
11.2977076635
 30
0.0
 10
7.3211763159
 20
11.298399323
 30
0.0
 10
7.3126895164
 20
11.2984291795
 30
0.0
 10
7.3065754189
 20
11.2980979843
 30
0.0
 10
7.3025461432
 20
11.2977028157
 30
0.0
 10
7.2989273634
 20
11.2971560852
 30
0.0
 10
7.2957454198
 20
11.2964639215
 30
0.0
 10
7.2930315657
 20
11.2956247122
 30
0.0
 10
7.2914266522
 20
11.2949032711
 30
0.0
 10
7.2907293327
 20
11.2945013288
 30
0.0
  0
SPLINE
  5
285
100
AcDbEntity
  8
0
100
AcDbSpline
 62
9
  6
CONTINUOUS
 70
0
 71
3
 72
22
 73
18
 74
0
 42
0.0000001
 43
0.0000001
 44
0.0000000001
 40
0.0
 40
0.0
 40
0.0
 40
0.0
 40
0.0850916891
 40
0.1609867931
 40
0.2280294887
 40
0.2869260218
 40
0.3388959464
 40
0.3860597685
 40
0.4311897346
 40
0.4769443372
 40
0.5254393511
 40
0.5781196136
 40
0.6357706009
 40
0.6986582203
 40
0.7667221537
 40
0.8398101385
 40
1.0
 40
1.0
 40
1.0
 40
1.0
 10
6.1285370299
 20
11.2802835677
 30
0.0
 10
6.1297810267
 20
11.2795655021
 30
0.0
 10
6.1321816561
 20
11.2782848704
 30
0.0
 10
6.1357330395
 20
11.2767841598
 30
0.0
 10
6.1390087889
 20
11.2758155514
 30
0.0
 10
6.1419937847
 20
11.2753820471
 30
0.0
 10
6.14467901
 20
11.2754986826
 30
0.0
 10
6.1470443043
 20
11.2761776195
 30
0.0
 10
6.1490672182
 20
11.2773856542
 30
0.0
 10
6.1507402837
 20
11.2790706711
 30
0.0
 10
6.1520767043
 20
11.2811785061
 30
0.0
 10
6.1531055287
 20
11.283665203
 30
0.0
 10
6.1538587994
 20
11.2864971187
 30
0.0
 10
6.1543620745
 20
11.2896449144
 30
0.0
 10
6.154638442
 20
11.2930808262
 30
0.0
 10
6.1547308052
 20
11.2981690187
 30
0.0
 10
6.1545051658
 20
11.3021062765
 30
0.0
 10
6.1542716784
 20
11.3048002157
 30
0.0
  0
SPLINE
  5
286
100
AcDbEntity
  8
0
100
AcDbSpline
 62
9
  6
CONTINUOUS
 70
0
 71
3
 72
16
 73
12
 74
0
 42
0.0000001
 43
0.0000001
 44
0.0000000001
 40
0.0
 40
0.0
 40
0.0
 40
0.0
 40
0.1267295488
 40
0.2581200017
 40
0.3915406631
 40
0.5237218404
 40
0.6520135355
 40
0.7142585886
 40
0.7748929614
 40
0.8908019676
 40
1.0
 40
1.0
 40
1.0
 40
1.0
 10
7.7994658881
 20
11.5488451555
 30
0.0
 10
7.8028807898
 20
11.5526791764
 30
0.0
 10
7.8092627923
 20
11.561018891
 30
0.0
 10
7.8169230061
 20
11.5749860649
 30
0.0
 10
7.8221881082
 20
11.5902680035
 30
0.0
 10
7.8247215961
 20
11.6061148612
 30
0.0
 10
7.8242050207
 20
11.6192750089
 30
0.0
 10
7.822296994
 20
11.6292849211
 30
0.0
 10
7.8195325444
 20
11.6385722125
 30
0.0
 10
7.8144977495
 20
11.6490926578
 30
0.0
 10
7.8089465097
 20
11.6564159037
 30
0.0
 10
7.8059285407
 20
11.6596507278
 30
0.0
  0
SPLINE
  5
287
100
AcDbEntity
  8
0
100
AcDbSpline
 62
9
  6
CONTINUOUS
 70
0
 71
3
 72
19
 73
15
 74
0
 42
0.0000001
 43
0.0000001
 44
0.0000000001
 40
0.0
 40
0.0
 40
0.0
 40
0.0
 40
0.0708716329
 40
0.1412451151
 40
0.2791206988
 40
0.346406839
 40
0.4125413297
 40
0.5413533218
 40
0.6654134842
 40
0.7841626804
 40
0.8412024361
 40
0.8964025772
 40
0.9494818928
 40
1.0
 40
1.0
 40
1.0
 40
1.0
 10
7.9789609765
 20
11.4897800884
 30
0.0
 10
7.9760856507
 20
11.4947628046
 30
0.0
 10
7.9699431939
 20
11.504460965
 30
0.0
 10
7.9563997807
 20
11.5226459543
 30
0.0
 10
7.9412993826
 20
11.5392159943
 30
0.0
 10
7.925489857
 20
11.5545462193
 30
0.0
 10
7.9097708969
 20
11.5689041807
 30
0.0
 10
7.8901067159
 20
11.5857580378
 30
0.0
 10
7.8668850659
 20
11.6050107719
 30
0.0
 10
7.8481918131
 20
11.6205998579
 30
0.0
 10
7.8340020312
 20
11.6328568896
 30
0.0
 10
7.8240061446
 20
11.6418118381
 30
0.0
 10
7.8146285723
 20
11.6506580212
 30
0.0
 10
7.8087258906
 20
11.6566523381
 30
0.0
 10
7.805928537
 20
11.6596507317
 30
0.0
  0
SPLINE
  5
288
100
AcDbEntity
  8
0
100
AcDbSpline
 62
9
  6
CONTINUOUS
 70
0
 71
3
 72
19
 73
15
 74
0
 42
0.0000001
 43
0.0000001
 44
0.0000000001
 40
0.0
 40
0.0
 40
0.0
 40
0.0
 40
0.0708716064
 40
0.1412457726
 40
0.279119655
 40
0.346405481
 40
0.4125406692
 40
0.5413535727
 40
0.6654130563
 40
0.7841603925
 40
0.84120227
 40
0.8964049178
 40
0.9494832514
 40
1.0
 40
1.0
 40
1.0
 40
1.0
 10
6.1156757
 20
11.4897800884
 30
0.0
 10
6.1127980746
 20
11.4847987036
 30
0.0
 10
6.1074715306
 20
11.4746294999
 30
0.0
 10
6.0984922126
 20
11.4538092014
 30
0.0
 10
6.0916945679
 20
11.4324461234
 30
0.0
 10
6.0863227669
 20
11.4110897737
 30
0.0
 10
6.0817473632
 20
11.3902977762
 30
0.0
 10
6.0769832689
 20
11.3648411535
 30
0.0
 10
6.0719210032
 20
11.3351043411
 30
0.0
 10
6.0677673355
 20
11.3111209613
 30
0.0
 10
6.064247133
 20
11.2927035433
 30
0.0
 10
6.0614895245
 20
11.27956915
 30
0.0
 10
6.0585173737
 20
11.2670248144
 30
0.0
 10
6.0562775852
 20
11.2589159537
 30
0.0
 10
6.0550796273
 20
11.2549942784
 30
0.0
  0
SPLINE
  5
289
100
AcDbEntity
  8
0
100
AcDbSpline
 62
9
  6
CONTINUOUS
 70
0
 71
3
 72
22
 73
18
 74
0
 42
0.0000001
 43
0.0000001
 44
0.0000000001
 40
0.0
 40
0.0
 40
0.0
 40
0.0
 40
0.0851251127
 40
0.1610403922
 40
0.2280927859
 40
0.2869919907
 40
0.3389604773
 40
0.3861201466
 40
0.4312444765
 40
0.4769929651
 40
0.5254816949
 40
0.5781552221
 40
0.6357990275
 40
0.698679329
 40
0.7667362604
 40
0.8398180494
 40
1.0
 40
1.0
 40
1.0
 40
1.0
 10
7.7911065747
 20
11.5833929024
 30
0.0
 10
7.789862011
 20
11.5826743645
 30
0.0
 10
7.7875514453
 20
11.5812352913
 30
0.0
 10
7.7844746379
 20
11.5789094921
 30
0.0
 10
7.7819970038
 20
11.5765565169
 30
0.0
 10
7.7801285513
 20
11.5741879313
 30
0.0
 10
7.7788866242
 20
11.5718040215
 30
0.0
 10
7.7782917497
 20
11.5694161042
 30
0.0
 10
7.778326375
 20
11.567060189
 30
0.0
 10
7.7789490377
 20
11.5647687835
 30
0.0
 10
7.7801061501
 20
11.5625574824
 30
0.0
 10
7.7817451403
 20
11.5604230856
 30
0.0
 10
7.7838208907
 20
11.5583546877
 30
0.0
 10
7.7862952407
 20
11.5563448393
 30
0.0
 10
7.7891326315
 20
11.5543874445
 30
0.0
 10
7.7934931101
 20
11.5517631899
 30
0.0
 10
7.7970158861
 20
11.549989882
 30
0.0
 10
7.7994658109
 20
11.5488450551
 30
0.0
  0
SPLINE
  5
28A
100
AcDbEntity
  8
0
100
AcDbSpline
 62
9
  6
CONTINUOUS
 70
0
 71
3
 72
19
 73
15
 74
0
 42
0.0000001
 43
0.0000001
 44
0.0000000001
 40
0.0
 40
0.0
 40
0.0
 40
0.0
 40
0.0708716188
 40
0.1412448193
 40
0.2791210033
 40
0.3464070917
 40
0.4125412907
 40
0.5413532183
 40
0.6654134739
 40
0.784162687
 40
0.841202463
 40
0.8964026399
 40
0.9494819084
 40
1.0
 40
1.0
 40
1.0
 40
1.0
 10
7.0473183383
 20
9.8761277044
 30
0.0
 10
7.0530711593
 20
9.8761265265
 30
0.0
 10
7.0645412449
 20
9.8765964888
 30
0.0
 10
7.0870615288
 20
9.8792339338
 30
0.0
 10
7.1089619935
 20
9.8840252679
 30
0.0
 10
7.1301430853
 20
9.89005188
 30
0.0
 10
7.1504368339
 20
9.8964860794
 30
0.0
 10
7.1748647849
 20
9.9050887939
 30
0.0
 10
7.2031489805
 20
9.9155729436
 30
0.0
 10
7.2259961584
 20
9.9239672481
 30
0.0
 10
7.2437059616
 20
9.9301274325
 30
0.0
 10
7.2564591185
 20
9.9343066522
 30
0.0
 10
7.2688089235
 20
9.9380047727
 30
0.0
 10
7.2769514898
 20
9.9401194885
 30
0.0
 10
7.2809468505
 20
9.941042871
 30
0.0
  0
SPLINE
  5
28B
100
AcDbEntity
  8
0
100
AcDbSpline
 62
9
  6
CONTINUOUS
 70
0
 71
3
 72
19
 73
15
 74
0
 42
0.0000001
 43
0.0000001
 44
0.0000000001
 40
0.0
 40
0.0
 40
0.0
 40
0.0
 40
0.0707773512
 40
0.1410630597
 40
0.2787935425
 40
0.3460231273
 40
0.4121086738
 40
0.5408485485
 40
0.6648811414
 40
0.7836685481
 40
0.840766595
 40
0.896061722
 40
0.9492778776
 40
1.0
 40
1.0
 40
1.0
 40
1.0
 10
7.9789609766
 20
11.4897800884
 30
0.0
 10
7.9818204016
 20
11.4848299917
 30
0.0
 10
7.9871172583
 20
11.4747264832
 30
0.0
 10
7.9960534429
 20
11.4540391443
 30
0.0
 10
8.0028343424
 20
11.4328125363
 30
0.0
 10
8.008197512
 20
11.4115875133
 30
0.0
 10
8.0127651426
 20
11.3909169016
 30
0.0
 10
8.0175192855
 20
11.3656015214
 30
0.0
 10
8.0225620912
 20
11.3360182891
 30
0.0
 10
8.026686649
 20
11.3121470189
 30
0.0
 10
8.0301719463
 20
11.2938023274
 30
0.0
 10
8.0328967222
 20
11.2807056327
 30
0.0
 10
8.035828367
 20
11.2681815317
 30
0.0
 10
8.0380302792
 20
11.26007716
 30
0.0
 10
8.0392064897
 20
11.2561528599
 30
0.0
  0
SPLINE
  5
28C
100
AcDbEntity
  8
0
100
AcDbSpline
 62
9
  6
CONTINUOUS
 70
0
 71
3
 72
16
 73
12
 74
0
 42
0.0000001
 43
0.0000001
 44
0.0000000001
 40
0.0
 40
0.0
 40
0.0
 40
0.0
 40
0.1267294333
 40
0.2581197985
 40
0.3915404093
 40
0.5237215742
 40
0.652013296
 40
0.7142583744
 40
0.7748927792
 40
0.8908018673
 40
1.0
 40
1.0
 40
1.0
 40
1.0
 10
6.1542713953
 20
11.3048002514
 30
0.0
 10
6.1492435897
 20
11.3058406315
 30
0.0
 10
6.1388301923
 20
11.30719775
 30
0.0
 10
6.1229041687
 20
11.3068481058
 30
0.0
 10
6.1070370762
 20
11.3037668547
 30
0.0
 10
6.0920465505
 20
11.2980374968
 30
0.0
 10
6.0809078121
 20
11.2910100592
 30
0.0
 10
6.0731929822
 20
11.2843527044
 30
0.0
 10
6.0665321705
 20
11.2773149736
 30
0.0
 10
6.0599385877
 20
11.2676944852
 30
0.0
 10
6.0563720866
 20
11.2592253412
 30
0.0
 10
6.0550796301
 20
11.2549942876
 30
0.0
  0
SPLINE
  5
28D
100
AcDbEntity
  8
0
100
AcDbSpline
 62
9
  6
CONTINUOUS
 70
0
 71
3
 72
19
 73
15
 74
0
 42
0.0000001
 43
0.0000001
 44
0.0000000001
 40
0.0
 40
0.0
 40
0.0
 40
0.0
 40
0.0707774471
 40
0.1410619483
 40
0.2787945108
 40
0.3460242891
 40
0.4121094822
 40
0.5408492391
 40
0.6648817903
 40
0.7836692583
 40
0.8407671792
 40
0.8960621679
 40
0.9492780577
 40
1.0
 40
1.0
 40
1.0
 40
1.0
 10
6.1156757
 20
11.4897800884
 30
0.0
 10
6.1185331419
 20
11.4947313751
 30
0.0
 10
6.124632693
 20
11.5043715634
 30
0.0
 10
6.1380841514
 20
11.5224516811
 30
0.0
 10
6.1530738198
 20
11.5389398349
 30
0.0
 10
6.1687744862
 20
11.5541966183
 30
0.0
 10
6.1843921413
 20
11.5684875002
 30
0.0
 10
6.2039389553
 20
11.5852624204
 30
0.0
 10
6.2270375348
 20
11.6044212915
 30
0.0
 10
6.2456484858
 20
11.6199289695
 30
0.0
 10
6.2597928281
 20
11.6321197761
 30
0.0
 10
6.2697725349
 20
11.6410278669
 30
0.0
 10
6.2791528839
 20
11.6498288498
 30
0.0
 10
6.2850705054
 20
11.6557879756
 30
0.0
 10
6.2878809329
 20
11.6587687749
 30
0.0
  0
SPLINE
  5
28E
100
AcDbEntity
  8
0
100
AcDbSpline
 62
9
  6
CONTINUOUS
 70
0
 71
3
 72
16
 73
12
 74
0
 42
0.0000001
 43
0.0000001
 44
0.0000000001
 40
0.0
 40
0.0
 40
0.0
 40
0.0
 40
0.1267295715
 40
0.2581200416
 40
0.3915407128
 40
0.5237218926
 40
0.6520135825
 40
0.7142586306
 40
0.7748929972
 40
0.8908019873
 40
1.0
 40
1.0
 40
1.0
 40
1.0
 10
7.1882177285
 20
10.0020424754
 30
0.0
 10
7.1898306374
 20
9.9971680726
 30
0.0
 10
7.1938620418
 20
9.9874712378
 30
0.0
 10
7.2021278637
 20
9.9738537101
 30
0.0
 10
7.2127298611
 20
9.9616530287
 30
0.0
 10
7.2251868992
 20
9.9515355359
 30
0.0
 10
7.2368422089
 20
9.9454028305
 30
0.0
 10
7.2464650599
 20
9.9420502749
 30
0.0
 10
7.2558903137
 20
9.9398007136
 30
0.0
 10
7.2675186822
 20
9.9389007517
 30
0.0
 10
7.2766364174
 20
9.9400466433
 30
0.0
 10
7.2809468409
 20
9.9410428688
 30
0.0
  0
SPLINE
  5
28F
100
AcDbEntity
  8
0
100
AcDbSpline
 62
9
  6
CONTINUOUS
 70
0
 71
3
 72
18
 73
14
 74
0
 42
0.0000001
 43
0.0000001
 44
0.0000000001
 40
0.0
 40
0.0
 40
0.0
 40
0.0
 40
0.2442146555
 40
0.3088286716
 40
0.3741735403
 40
0.4398238869
 40
0.5054294771
 40
0.6353227781
 40
0.6992220843
 40
0.762015766
 40
0.8235252322
 40
0.8837450429
 40
1.0
 40
1.0
 40
1.0
 40
1.0
 10
6.2951707979
 20
11.5488451599
 30
0.0
 10
6.2886616846
 20
11.5561531516
 30
0.0
 10
6.281653109
 20
11.5666486594
 30
0.0
 10
6.2758605411
 20
11.580484553
 30
0.0
 10
6.2734281189
 20
11.587947161
 30
0.0
 10
6.2716260546
 20
11.5956272603
 30
0.0
 10
6.2701538915
 20
11.605999705
 30
0.0
 10
6.2701940769
 20
11.6164737184
 30
0.0
 10
6.2717450109
 20
11.6266513898
 30
0.0
 10
6.2736334223
 20
11.6339679522
 30
0.0
 10
6.2762514078
 20
11.6409001927
 30
0.0
 10
6.2805579346
 20
11.6494222424
 30
0.0
 10
6.2847228154
 20
11.6552214984
 30
0.0
 10
6.2878312678
 20
11.6586915396
 30
0.0
  0
SPLINE
  5
290
100
AcDbEntity
  8
0
100
AcDbSpline
 62
9
  6
CONTINUOUS
 70
0
 71
3
 72
22
 73
18
 74
0
 42
0.0000001
 43
0.0000001
 44
0.0000000001
 40
0.0
 40
0.0
 40
0.0
 40
0.0
 40
0.160202355
 40
0.2332981988
 40
0.3013742787
 40
0.3642795055
 40
0.4219518563
 40
0.4746546696
 40
0.5231703103
 40
0.5689404974
 40
0.6140775499
 40
0.6612367026
 40
0.7131888449
 40
0.7720585223
 40
0.8390703528
 40
0.9149347511
 40
1.0
 40
1.0
 40
1.0
 40
1.0
 10
6.2951709677
 20
11.5488449137
 30
0.0
 10
6.2976198229
 20
11.5499892207
 30
0.0
 10
6.3011411451
 20
11.5517617251
 30
0.0
 10
6.3055000749
 20
11.5543847061
 30
0.0
 10
6.3083368635
 20
11.5563412513
 30
0.0
 10
6.3108111237
 20
11.5583502758
 30
0.0
 10
6.3128872676
 20
11.560417889
 30
0.0
 10
6.3145270766
 20
11.5625515179
 30
0.0
 10
6.3156853786
 20
11.5647620656
 30
0.0
 10
6.3163095924
 20
11.567052703
 30
0.0
 10
6.3163463157
 20
11.5694077987
 30
0.0
 10
6.3157541506
 20
11.571794876
 30
0.0
 10
6.3145154732
 20
11.5741779008
 30
0.0
 10
6.3126507072
 20
11.576545385
 30
0.0
 10
6.3101773958
 20
11.5788971434
 30
0.0
 10
6.3071056048
 20
11.5812217239
 30
0.0
 10
6.3047986249
 20
11.5826601048
 30
0.0
 10
6.3035559594
 20
11.5833782803
 30
0.0
  0
SPLINE
  5
291
100
AcDbEntity
  8
0
100
AcDbSpline
 62
9
  6
CONTINUOUS
 70
0
 71
3
 72
28
 73
24
 74
0
 42
0.0000001
 43
0.0000001
 44
0.0000000001
 40
0.0
 40
0.0
 40
0.0
 40
0.0
 40
0.0104891667
 40
0.0228182995
 40
0.036971096
 40
0.052884119
 40
0.0704927534
 40
0.0897201888
 40
0.132677722
 40
0.1810264667
 40
0.2340775309
 40
0.291494225
 40
0.3530825903
 40
0.4187173594
 40
0.4883893435
 40
0.5247984425
 40
0.5622996663
 40
0.640693197
 40
0.6817172187
 40
0.7239969393
 40
0.8121138725
 40
0.9047747341
 40
1.0
 40
1.0
 40
1.0
 40
1.0
 10
7.4657269495
 20
10.9913919264
 30
0.0
 10
7.4664232648
 20
10.991794461
 30
0.0
 10
7.4678496834
 20
10.9928224983
 30
0.0
 10
7.469932336
 20
10.9947511574
 30
0.0
 10
7.472121711
 20
10.9971584754
 30
0.0
 10
7.4744035076
 20
11.0000168909
 30
0.0
 10
7.4767593625
 20
11.0033066445
 30
0.0
 10
7.4801019902
 20
11.0084331542
 30
0.0
 10
7.4843181043
 20
11.0157939496
 30
0.0
 10
7.4892468632
 20
11.0257106925
 30
0.0
 10
7.494092388
 20
11.0368893024
 30
0.0
 10
7.4986702928
 20
11.0492700252
 30
0.0
 10
7.5028114468
 20
11.0628172895
 30
0.0
 10
7.5063584031
 20
11.077501772
 30
0.0
 10
7.5086171142
 20
11.0904852873
 30
0.0
 10
7.5099053315
 20
11.1014218674
 30
0.0
 10
7.5108213527
 20
11.1130665765
 30
0.0
 10
7.5109895328
 20
11.1251171802
 30
0.0
 10
7.5102825603
 20
11.1375001395
 30
0.0
 10
7.5088688505
 20
11.1505728456
 30
0.0
 10
7.5055996108
 20
11.1674071943
 30
0.0
 10
7.4989383316
 20
11.1875530221
 30
0.0
 10
7.492641732
 20
11.2005722231
 30
0.0
 10
7.4889910855
 20
11.2068958399
 30
0.0
  0
SPLINE
  5
292
100
AcDbEntity
  8
0
100
AcDbSpline
 62
9
  6
CONTINUOUS
 70
0
 71
3
 72
20
 73
16
 74
0
 42
0.0000001
 43
0.0000001
 44
0.0000000001
 40
0.0
 40
0.0
 40
0.0
 40
0.0
 40
0.068422583
 40
0.1373307559
 40
0.2064324796
 40
0.2756185906
 40
0.3443798333
 40
0.4124381572
 40
0.5454209123
 40
0.6727067461
 40
0.7924844701
 40
0.8489601858
 40
0.9026550544
 40
0.9531330986
 40
1.0
 40
1.0
 40
1.0
 40
1.0
 10
6.1397334749
 20
11.4758903255
 30
0.0
 10
6.141724917
 20
11.479339721
 30
0.0
 10
6.1465315584
 20
11.4858143338
 30
0.0
 10
6.1553936424
 20
11.4940051343
 30
0.0
 10
6.1653972967
 20
11.5008043608
 30
0.0
 10
6.1760451146
 20
11.5064804427
 30
0.0
 10
6.186985933
 20
11.5114049464
 30
0.0
 10
6.2016137136
 20
11.5171349761
 30
0.0
 10
6.2197294704
 20
11.5232485331
 30
0.0
 10
6.2408551789
 20
11.529813375
 30
0.0
 10
6.2577414124
 20
11.5350184339
 30
0.0
 10
6.2704586606
 20
11.5391971359
 30
0.0
 10
6.2792839429
 20
11.5422931068
 30
0.0
 10
6.2874937776
 20
11.5454439165
 30
0.0
 10
6.2926992354
 20
11.5476900893
 30
0.0
 10
6.2951709505
 20
11.5488449376
 30
0.0
  0
SPLINE
  5
293
100
AcDbEntity
  8
0
100
AcDbSpline
 62
9
  6
CONTINUOUS
 70
0
 71
3
 72
20
 73
16
 74
0
 42
0.0000001
 43
0.0000001
 44
0.0000000001
 40
0.0
 40
0.0
 40
0.0
 40
0.0
 40
0.0468629995
 40
0.097334407
 40
0.1510212115
 40
0.207488748
 40
0.3272527566
 40
0.4545266021
 40
0.5874966545
 40
0.6555495625
 40
0.724312761
 40
0.7935128868
 40
0.8626358739
 40
0.9315661297
 40
1.0
 40
1.0
 40
1.0
 40
1.0
 10
6.1542715915
 20
11.3048002245
 30
0.0
 10
6.1540358927
 20
11.307517989
 30
0.0
 10
6.1533785285
 20
11.3131485249
 30
0.0
 10
6.1520025304
 20
11.3218327889
 30
0.0
 10
6.1502713729
 20
11.3310223848
 30
0.0
 10
6.1475320099
 20
11.3441234856
 30
0.0
 10
6.1435970998
 20
11.3613479956
 30
0.0
 10
6.1387201278
 20
11.3829236328
 30
0.0
 10
6.1349571119
 20
11.4016673815
 30
0.0
 10
6.1326055033
 20
11.4171994469
 30
0.0
 10
6.1313992174
 20
11.4291372549
 30
0.0
 10
6.1309892862
 20
11.4411986566
 30
0.0
 10
6.1318744166
 20
11.4532651731
 30
0.0
 10
6.1345370678
 20
11.4650386038
 30
0.0
 10
6.1377414782
 20
11.4724404955
 30
0.0
 10
6.1397334177
 20
11.4758903585
 30
0.0
  0
SPLINE
  5
294
100
AcDbEntity
  8
0
100
AcDbSpline
 62
9
  6
CONTINUOUS
 70
0
 71
3
 72
28
 73
24
 74
0
 42
0.0000001
 43
0.0000001
 44
0.0000000001
 40
0.0
 40
0.0
 40
0.0
 40
0.0
 40
0.0952738119
 40
0.1879671299
 40
0.2760895895
 40
0.3183642382
 40
0.3593796039
 40
0.437750716
 40
0.4752417634
 40
0.5116433018
 40
0.5813059647
 40
0.6469344825
 40
0.7085174268
 40
0.7659291481
 40
0.8189753985
 40
0.8673200857
 40
0.9102751922
 40
0.9295021
 40
0.9471107143
 40
0.963024271
 40
0.9771782655
 40
0.9895091616
 40
1.0
 40
1.0
 40
1.0
 40
1.0
 10
6.6056453462
 20
11.2068959812
 30
0.0
 10
6.6019929136
 20
11.2005691526
 30
0.0
 10
6.595694366
 20
11.1875440224
 30
0.0
 10
6.5890324977
 20
11.1673915233
 30
0.0
 10
6.5857644009
 20
11.1505544679
 30
0.0
 10
6.5843523315
 20
11.1374823037
 30
0.0
 10
6.5836468708
 20
11.1251021195
 30
0.0
 10
6.5838160942
 20
11.1130547876
 30
0.0
 10
6.584732748
 20
11.1014132964
 30
0.0
 10
6.5860212503
 20
11.0904789168
 30
0.0
 10
6.5882797593
 20
11.0774972671
 30
0.0
 10
6.5918262828
 20
11.0628144396
 30
0.0
 10
6.5959669188
 20
11.0492684519
 30
0.0
 10
6.6005442342
 20
11.0368888468
 30
0.0
 10
6.6053892437
 20
11.0257112562
 30
0.0
 10
6.6103175633
 20
11.0157953449
 30
0.0
 10
6.614533329
 20
11.0084350342
 30
0.0
 10
6.6178757972
 20
11.0033087402
 30
0.0
 10
6.6202316433
 20
11.0000190141
 30
0.0
 10
6.6225135323
 20
10.9971605336
 30
0.0
 10
6.6247031135
 20
10.9947530709
 30
0.0
 10
6.6267859713
 20
10.9928241434
 30
0.0
 10
6.62821252
 20
10.9917958624
 30
0.0
 10
6.628908904
 20
10.9913932011
 30
0.0
  0
SPLINE
  5
295
100
AcDbEntity
  8
0
100
AcDbSpline
 62
9
  6
CONTINUOUS
 70
0
 71
3
 72
20
 73
16
 74
0
 42
0.0000001
 43
0.0000001
 44
0.0000000001
 40
0.0
 40
0.0
 40
0.0
 40
0.0
 40
0.0468690369
 40
0.0973557218
 40
0.1510609106
 40
0.2075438378
 40
0.3273173965
 40
0.454588101
 40
0.5875594748
 40
0.655612258
 40
0.7243709435
 40
0.7935599553
 40
0.862667297
 40
0.9315801929
 40
1.0
 40
1.0
 40
1.0
 40
1.0
 10
7.1882176055
 20
10.0020427664
 30
0.0
 10
7.1859815474
 20
10.0004795138
 30
0.0
 10
7.1814331431
 20
9.9970940822
 30
0.0
 10
7.1745986142
 20
9.9915587743
 30
0.0
 10
7.1675035874
 20
9.9854629091
 30
0.0
 10
7.1575254626
 20
9.9765383643
 30
0.0
 10
7.1445753214
 20
9.9645173007
 30
0.0
 10
7.1283286471
 20
9.9495053584
 30
0.0
 10
7.1139774397
 20
9.9368749459
 30
0.0
 10
7.1017018111
 20
9.9270730046
 30
0.0
 10
7.0919668274
 20
9.9200605445
 30
0.0
 10
7.0817272758
 20
9.9136767188
 30
0.0
 10
7.0708366832
 20
9.9084120708
 30
0.0
 10
7.059311753
 20
9.9048326159
 30
0.0
 10
7.0513011583
 20
9.9039071778
 30
0.0
 10
7.0473183383
 20
9.9039072689
 30
0.0
  0
SPLINE
  5
296
100
AcDbEntity
  8
0
100
AcDbSpline
 62
9
  6
CONTINUOUS
 70
0
 71
3
 72
28
 73
24
 74
0
 42
0.0000001
 43
0.0000001
 44
0.0000000001
 40
0.0
 40
0.0
 40
0.0
 40
0.0
 40
0.0952293222
 40
0.1878867665
 40
0.2759883675
 40
0.3182580634
 40
0.35927187
 40
0.4376466661
 40
0.475140299
 40
0.5115435514
 40
0.5812082374
 40
0.6468395941
 40
0.7084274189
 40
0.7658463351
 40
0.8189023588
 40
0.8672589473
 40
0.9102274921
 40
0.9294616977
 40
0.9470779858
 40
0.9629995703
 40
0.977161829
 40
0.9895009792
 40
1.0
 40
1.0
 40
1.0
 40
1.0
 10
7.0473183383
 20
10.4418961721
 30
0.0
 10
7.0546201122
 20
10.4418964396
 30
0.0
 10
7.0690428681
 20
10.4429530703
 30
0.0
 10
7.0898184786
 20
10.4472564158
 30
0.0
 10
7.1060294987
 20
10.45284104
 30
0.0
 10
7.1180548563
 20
10.4581514304
 30
0.0
 10
7.1291294923
 20
10.46372854
 30
0.0
 10
7.1394792111
 20
10.4698970008
 30
0.0
 10
7.1491039879
 20
10.4765101843
 30
0.0
 10
7.15793019
 20
10.4830921559
 30
0.0
 10
7.1680442795
 20
10.4915379882
 30
0.0
 10
7.1789879392
 20
10.5019499028
 30
0.0
 10
7.188650337
 20
10.5123083166
 30
0.0
 10
7.1970846365
 20
10.522462255
 30
0.0
 10
7.2043444818
 20
10.5322475519
 30
0.0
 10
7.2104702204
 20
10.5414747434
 30
0.0
 10
7.2147386007
 20
10.5488072604
 30
0.0
 10
7.2175085369
 20
10.554266453
 30
0.0
 10
7.2191808567
 20
10.5579527675
 30
0.0
 10
7.2205166857
 20
10.5613595398
 30
0.0
 10
7.2215080707
 20
10.5644609723
 30
0.0
 10
7.2221382962
 20
10.5672308334
 30
0.0
 10
7.2223163255
 20
10.5689815206
 30
0.0
 10
7.2223172583
 20
10.5697865397
 30
0.0
  0
SPLINE
  5
297
100
AcDbEntity
  8
0
100
AcDbSpline
 62
9
  6
CONTINUOUS
 70
0
 71
3
 72
22
 73
18
 74
0
 42
0.0000001
 43
0.0000001
 44
0.0000000001
 40
0.0
 40
0.0
 40
0.0
 40
0.0
 40
0.1601730639
 40
0.2332516382
 40
0.3013107661
 40
0.3642003284
 40
0.421858257
 40
0.4745480983
 40
0.5230529972
 40
0.5688159088
 40
0.6139510269
 40
0.6611157733
 40
0.71308247
 40
0.7719740038
 40
0.8390124896
 40
0.9149059804
 40
1.0
 40
1.0
 40
1.0
 40
1.0
 10
6.9064190853
 20
10.002042798
 30
0.0
 10
6.904203256
 20
10.0035917209
 30
0.0
 10
6.9009069994
 20
10.005755398
 30
0.0
 10
6.89645518
 20
10.0082191051
 30
0.0
 10
6.8933418917
 20
10.0096975721
 30
0.0
 10
6.890364434
 20
10.0108357093
 30
0.0
 10
6.8875353041
 20
10.0115996075
 30
0.0
 10
6.8848671924
 20
10.0119524063
 30
0.0
 10
6.8823732686
 20
10.0118494683
 30
0.0
 10
6.8800771266
 20
10.011243614
 30
0.0
 10
6.878019095
 20
10.0100963394
 30
0.0
 10
6.8762480801
 20
10.0083880234
 30
0.0
 10
6.8748041396
 20
10.0061214654
 30
0.0
 10
6.8736868823
 20
10.0033201915
 30
0.0
 10
6.8728877114
 20
9.9999995171
 30
0.0
 10
6.8724115248
 20
9.9961739774
 30
0.0
 10
6.8723201341
 20
9.9934548771
 30
0.0
 10
6.8723199241
 20
9.992018593
 30
0.0
  0
SPLINE
  5
298
100
AcDbEntity
  8
0
100
AcDbSpline
 62
9
  6
CONTINUOUS
 70
0
 71
3
 72
28
 73
24
 74
0
 42
0.0000001
 43
0.0000001
 44
0.0000000001
 40
0.0
 40
0.0
 40
0.0
 40
0.0
 40
0.0104896112
 40
0.0228191696
 40
0.0369722286
 40
0.0528852604
 40
0.070493697
 40
0.0897207972
 40
0.1326775407
 40
0.1810258375
 40
0.234077198
 40
0.2914947453
 40
0.3530842489
 40
0.4187201826
 40
0.4883931251
 40
0.524802568
 40
0.5623040119
 40
0.6406973094
 40
0.6817206909
 40
0.7239994328
 40
0.8121142581
 40
0.904774165
 40
1.0
 40
1.0
 40
1.0
 40
1.0
 10
6.8039096784
 20
11.2945001555
 30
0.0
 10
6.8032128809
 20
11.2949019247
 30
0.0
 10
6.8016092965
 20
11.2956232348
 30
0.0
 10
6.7988976161
 20
11.2964625583
 30
0.0
 10
6.7957180784
 20
11.2971549823
 30
0.0
 10
6.7921017164
 20
11.2977019092
 30
0.0
 10
6.7880748192
 20
11.2980973081
 30
0.0
 10
6.7819639163
 20
11.2984289205
 30
0.0
 10
6.7734813339
 20
11.2983998649
 30
0.0
 10
6.7624288592
 20
11.2977099845
 30
0.0
 10
6.7503250653
 20
11.2963170588
 30
0.0
 10
6.737313899
 20
11.2940912836
 30
0.0
 10
6.7235107904
 20
11.2909039607
 30
0.0
 10
6.7090199245
 20
11.2866333866
 30
0.0
 10
6.6966463369
 20
11.2820976215
 30
0.0
 10
6.6865307775
 20
11.2777448539
 30
0.0
 10
6.6759881546
 20
11.272715705
 30
0.0
 10
6.6654680072
 20
11.2668360015
 30
0.0
 10
6.6550976714
 20
11.2600322948
 30
0.0
 10
6.6444834685
 20
11.2522717684
 30
0.0
 10
6.6315393653
 20
11.2410235069
 30
0.0
 10
6.6174233509
 20
11.2251818545
 30
0.0
 10
6.6092967131
 20
11.2132192415
 30
0.0
 10
6.605645603
 20
11.2068958329
 30
0.0
  0
SPLINE
  5
299
100
AcDbEntity
  8
0
100
AcDbSpline
 62
9
  6
CONTINUOUS
 70
0
 71
3
 72
20
 73
16
 74
0
 42
0.0000001
 43
0.0000001
 44
0.0000000001
 40
0.0
 40
0.0
 40
0.0
 40
0.0
 40
0.0684286025
 40
0.1373421032
 40
0.2064485166
 40
0.275639237
 40
0.3444054029
 40
0.4124673798
 40
0.5454506013
 40
0.6727365947
 40
0.7925089525
 40
0.8489774124
 40
0.9026639035
 40
0.9531352645
 40
1.0
 40
1.0
 40
1.0
 40
1.0
 10
7.0473183383
 20
9.9039071034
 30
0.0
 10
7.043335002
 20
9.9039070463
 30
0.0
 10
7.0353238373
 20
9.9048325726
 30
0.0
 10
7.023798527
 20
9.9084124637
 30
0.0
 10
7.0129077046
 20
9.9136768045
 30
0.0
 10
7.0026676218
 20
9.9200607595
 30
0.0
 10
6.9929321843
 20
9.9270744633
 30
0.0
 10
6.9806559347
 20
9.9368783053
 30
0.0
 10
6.966303249
 20
9.9495102418
 30
0.0
 10
6.9500551384
 20
9.9645228954
 30
0.0
 10
6.9371047913
 20
9.9765437296
 30
0.0
 10
6.9271282234
 20
9.9854670353
 30
0.0
 10
6.920035366
 20
9.9915611108
 30
0.0
 10
6.9132024991
 20
9.9970949453
 30
0.0
 10
6.9086548911
 20
10.0004795443
 30
0.0
 10
6.9064189948
 20
10.0020425966
 30
0.0
  0
SPLINE
  5
29A
100
AcDbEntity
  8
0
100
AcDbSpline
 62
9
  6
CONTINUOUS
 70
0
 71
3
 72
22
 73
18
 74
0
 42
0.0000001
 43
0.0000001
 44
0.0000000001
 40
0.0
 40
0.0
 40
0.0
 40
0.0
 40
0.0851089621
 40
0.1610102465
 40
0.2280509463
 40
0.2869408748
 40
0.3389032838
 40
0.3860613901
 40
0.4311885319
 40
0.4769430639
 40
0.5254395448
 40
0.5781214156
 40
0.6357734585
 40
0.6986614529
 40
0.7667252542
 40
0.8398126643
 40
1.0
 40
1.0
 40
1.0
 40
1.0
 10
7.222316357
 20
9.9920177226
 30
0.0
 10
7.2223161523
 20
9.9934542817
 30
0.0
 10
7.222224767
 20
9.9961738099
 30
0.0
 10
7.2217485253
 20
9.9999998301
 30
0.0
 10
7.2209492936
 20
10.003320693
 30
0.0
 10
7.219832029
 20
10.0061219458
 30
0.0
 10
7.2183882246
 20
10.0083883833
 30
0.0
 10
7.216617462
 20
10.0100965534
 30
0.0
 10
7.2145597571
 20
10.0112436897
 30
0.0
 10
7.2122639992
 20
10.0118494785
 30
0.0
 10
7.2097704669
 20
10.0119525255
 30
0.0
 10
7.2071026636
 20
10.0115999435
 30
0.0
 10
7.2042737002
 20
10.0108362429
 30
0.0
 10
7.2012962041
 20
10.0096981897
 30
0.0
 10
7.1981826771
 20
10.0082196248
 30
0.0
 10
7.1937303729
 20
10.0057556594
 30
0.0
 10
7.1904337074
 20
10.0035917829
 30
0.0
 10
7.18821762
 20
10.0020427342
 30
0.0
  0
SPLINE
  5
29B
100
AcDbEntity
  8
0
100
AcDbSpline
 62
9
  6
CONTINUOUS
 70
0
 71
3
 72
18
 73
14
 74
0
 42
0.0000001
 43
0.0000001
 44
0.0000000001
 40
0.0
 40
0.0
 40
0.0
 40
0.0
 40
0.2442141136
 40
0.3088279739
 40
0.3741727106
 40
0.4398229569
 40
0.5054284808
 40
0.63532177
 40
0.6992211454
 40
0.7620149514
 40
0.8235245776
 40
0.8837445679
 40
1.0
 40
1.0
 40
1.0
 40
1.0
 10
7.9403652802
 20
11.304800239
 30
0.0
 10
7.9499486064
 20
11.3067832723
 30
0.0
 10
7.9625420812
 20
11.3076051356
 30
0.0
 10
7.9774203975
 20
11.3057038018
 30
0.0
 10
7.9850993187
 20
11.3040791078
 30
0.0
 10
7.9926514264
 20
11.3017997806
 30
0.0
 10
8.0023702217
 20
11.2978886319
 30
0.0
 10
8.0114208418
 20
11.292616996
 30
0.0
 10
8.0194594955
 20
11.2861851983
 30
0.0
 10
8.0248516493
 20
11.2808916467
 30
0.0
 10
8.0295462132
 20
11.2751584258
 30
0.0
 10
8.0347733684
 20
11.267168008
 30
0.0
 10
8.0377133404
 20
11.2606616043
 30
0.0
 10
8.0391643463
 20
11.256234653
 30
0.0
  0
SPLINE
  5
29C
100
AcDbEntity
  8
0
100
AcDbSpline
 62
9
  6
CONTINUOUS
 70
0
 71
3
 72
18
 73
14
 74
0
 42
0.0000001
 43
0.0000001
 44
0.0000000001
 40
0.0
 40
0.0
 40
0.0
 40
0.0
 40
0.244213656
 40
0.3088281199
 40
0.3741734815
 40
0.4398243089
 40
0.5054303694
 40
0.6353244298
 40
0.6992238278
 40
0.7620173366
 40
0.8235265357
 40
0.8837461016
 40
1.0
 40
1.0
 40
1.0
 40
1.0
 10
15.9403652802
 20
11.304800239
 30
0.0
 10
15.9499497263
 20
11.3067835041
 30
0.0
 10
15.9625447761
 20
11.3076052644
 30
0.0
 10
15.9774248122
 20
11.3057030808
 30
0.0
 10
15.9851046345
 20
11.3040777803
 30
0.0
 10
15.9926575611
 20
11.3017976689
 30
0.0
 10
16.002377258
 20
11.2978852142
 30
0.0
 10
16.0114284627
 20
11.292611959
 30
0.0
 10
16.0194672733
 20
11.2861783613
 30
0.0
 10
16.02485926
 20
11.2808833893
 30
0.0
 10
16.0295533659
 20
11.2751487102
 30
0.0
 10
16.0347796439
 20
11.2671564777
 30
0.0
 10
16.0377186371
 20
11.260648764
 30
0.0
 10
16.0391688121
 20
11.256221023
 30
0.0
  0
SPLINE
  5
29D
100
AcDbEntity
  8
0
100
AcDbSpline
 62
9
  6
CONTINUOUS
 70
0
 71
3
 72
18
 73
14
 74
0
 42
0.0000001
 43
0.0000001
 44
0.0000000001
 40
0.0
 40
0.0
 40
0.0
 40
0.0
 40
0.2442113203
 40
0.3088250421
 40
0.374169765
 40
0.4398200968
 40
0.5054258146
 40
0.6353197501
 40
0.6992194501
 40
0.7620135329
 40
0.8235234747
 40
0.8837438694
 40
1.0
 40
1.0
 40
1.0
 40
1.0
 10
14.9064189405
 20
10.0020424807
 30
0.0
 10
14.903344502
 20
9.9927511602
 30
0.0
 10
14.8977591896
 20
9.981433464
 30
0.0
 10
14.8886728183
 20
9.9694987156
 30
0.0
 10
14.8834259322
 20
9.9636607078
 30
0.0
 10
14.8776754639
 20
9.9582598972
 30
0.0
 10
14.8694282155
 20
9.9517986481
 30
0.0
 10
14.8603367642
 20
9.9465964812
 30
0.0
 10
14.8507465664
 20
9.9428509891
 30
0.0
 10
14.8434655744
 20
9.9408283684
 30
0.0
 10
14.8361526469
 20
9.9396298461
 30
0.0
 10
14.8266185453
 20
9.9390989368
 30
0.0
 10
14.8195134691
 20
9.9398067355
 30
0.0
 10
14.8149539356
 20
9.9407641259
 30
0.0
  0
SPLINE
  5
29E
100
AcDbEntity
  8
0
100
AcDbSpline
 62
9
  6
CONTINUOUS
 70
0
 71
3
 72
22
 73
18
 74
0
 42
0.0000001
 43
0.0000001
 44
0.0000000001
 40
0.0
 40
0.0
 40
0.0
 40
0.0
 40
0.1601795291
 40
0.2332638174
 40
0.3013276828
 40
0.3642197349
 40
0.4218781259
 40
0.4745668942
 40
0.5230697801
 40
0.5688304571
 40
0.6139637021
 40
0.6611269377
 40
0.7130918262
 40
0.7719807426
 40
0.8390162774
 40
0.9149072434
 40
1.0
 40
1.0
 40
1.0
 40
1.0
 10
15.9403650054
 20
11.3048002164
 30
0.0
 10
15.9401315247
 20
11.3021066142
 30
0.0
 10
15.9399058708
 20
11.2981698318
 30
0.0
 10
15.9399981632
 20
11.293082181
 30
0.0
 10
15.9402744487
 20
11.2896464596
 30
0.0
 10
15.9407775944
 20
11.2864986376
 30
0.0
 10
15.9415307074
 20
11.2836665093
 30
0.0
 10
15.9425593575
 20
11.2811794837
 30
0.0
 10
15.9438956152
 20
11.2790712748
 30
0.0
 10
15.9455685239
 20
11.2773858953
 30
0.0
 10
15.9475912236
 20
11.2761774922
 30
0.0
 10
15.9499562195
 20
11.275498179
 30
0.0
 10
15.9526410541
 20
11.275381186
 30
0.0
 10
15.9556255792
 20
11.2758144057
 30
0.0
 10
15.9589008565
 20
11.276782773
 30
0.0
 10
15.9624518878
 20
11.2782832793
 30
0.0
 10
15.9648523568
 20
11.2795637533
 30
0.0
 10
15.9660963136
 20
11.2802817521
 30
0.0
  0
SPLINE
  5
29F
100
AcDbEntity
  8
0
100
AcDbSpline
 62
9
  6
CONTINUOUS
 70
0
 71
3
 72
19
 73
15
 74
0
 42
0.0000001
 43
0.0000001
 44
0.0000000001
 40
0.0
 40
0.0
 40
0.0
 40
0.0
 40
0.0707778389
 40
0.1410626019
 40
0.2787956419
 40
0.3460256977
 40
0.4121106296
 40
0.5408495679
 40
0.6648834758
 40
0.7836709187
 40
0.8407693329
 40
0.8960648712
 40
0.9492795616
 40
1.0
 40
1.0
 40
1.0
 40
1.0
 10
15.0473183383
 20
9.8761277044
 30
0.0
 10
15.0416015329
 20
9.8761267136
 30
0.0
 10
15.0302028233
 20
9.8765888026
 30
0.0
 10
15.0078187504
 20
9.8791984776
 30
0.0
 10
14.9860443022
 20
9.8839361018
 30
0.0
 10
14.9649807189
 20
9.8899049067
 30
0.0
 10
14.9447953988
 20
9.8962852184
 30
0.0
 10
14.9204941338
 20
9.9048263765
 30
0.0
 10
14.8923519702
 20
9.9152505437
 30
0.0
 10
14.8696158538
 20
9.9236144462
 30
0.0
 10
14.8519856729
 20
9.9297684504
 30
0.0
 10
14.839280887
 20
9.9339569783
 30
0.0
 10
14.8269687306
 20
9.9376800265
 30
0.0
 10
14.8188491874
 20
9.9398251558
 30
0.0
 10
14.8148625474
 20
9.9407685729
 30
0.0
  0
SPLINE
  5
2A0
100
AcDbEntity
  8
0
100
AcDbSpline
 62
9
  6
CONTINUOUS
 70
0
 71
3
 72
20
 73
16
 74
0
 42
0.0000001
 43
0.0000001
 44
0.0000000001
 40
0.0
 40
0.0
 40
0.0
 40
0.0
 40
0.0684295996
 40
0.1373474576
 40
0.2064525869
 40
0.2756373902
 40
0.3443953927
 40
0.4124502652
 40
0.5454295631
 40
0.672713121
 40
0.7924885251
 40
0.8489630868
 40
0.9026568578
 40
0.9531339163
 40
1.0
 40
1.0
 40
1.0
 40
1.0
 10
15.9549032563
 20
11.4758903571
 30
0.0
 10
15.95689508
 20
11.47244071
 30
0.0
 10
15.960099201
 20
11.4650397565
 30
0.0
 10
15.9627617255
 20
11.4532683812
 30
0.0
 10
15.9636475805
 20
11.4412045897
 30
0.0
 10
15.9632385213
 20
11.4291453752
 30
0.0
 10
15.962032915
 20
11.4172085715
 30
0.0
 10
15.9596817984
 20
11.4016760567
 30
0.0
 10
15.9559183215
 20
11.3829311289
 30
0.0
 10
15.9510408667
 20
11.3613537729
 30
0.0
 10
15.9471055873
 20
11.3441276497
 30
0.0
 10
15.9443658981
 20
11.3310250949
 30
0.0
 10
15.9426344874
 20
11.3218343744
 30
0.0
 10
15.9412582802
 20
11.3131492102
 30
0.0
 10
15.9406008071
 20
11.3075181691
 30
0.0
 10
15.9403650818
 20
11.3048002242
 30
0.0
  0
SPLINE
  5
2A1
100
AcDbEntity
  8
0
100
AcDbSpline
 62
9
  6
CONTINUOUS
 70
0
 71
3
 72
20
 73
16
 74
0
 42
0.0000001
 43
0.0000001
 44
0.0000000001
 40
0.0
 40
0.0
 40
0.0
 40
0.0
 40
0.046869038
 40
0.0973558645
 40
0.151061237
 40
0.2075442935
 40
0.3273177399
 40
0.4545880265
 40
0.5875583354
 40
0.6556097296
 40
0.7243671724
 40
0.7935558777
 40
0.8626640631
 40
0.9315788866
 40
1.0
 40
1.0
 40
1.0
 40
1.0
 10
15.7994657188
 20
11.5488449274
 30
0.0
 10
15.8019375651
 20
11.5476900717
 30
0.0
 10
15.8071436457
 20
11.5454437523
 30
0.0
 10
15.8153546456
 20
11.5422925234
 30
0.0
 10
15.8241813584
 20
11.5391959728
 30
0.0
 10
15.8368993165
 20
11.5350169353
 30
0.0
 10
15.8537849203
 20
11.5298123478
 30
0.0
 10
15.8749088991
 20
11.5232483319
 30
0.0
 10
15.8930225976
 20
11.5171350594
 30
0.0
 10
15.9076489146
 20
11.5114050293
 30
0.0
 10
15.9185892137
 20
11.506480579
 30
0.0
 10
15.9292375803
 20
11.50080494
 30
0.0
 10
15.9392424026
 20
11.4940057722
 30
0.0
 10
15.9481049552
 20
11.4858144648
 30
0.0
 10
15.9529118362
 20
11.4793396627
 30
0.0
 10
15.954903192
 20
11.47589032
 30
0.0
  0
SPLINE
  5
2A2
100
AcDbEntity
  8
0
100
AcDbSpline
 62
9
  6
CONTINUOUS
 70
0
 71
3
 72
28
 73
24
 74
0
 42
0.0000001
 43
0.0000001
 44
0.0000000001
 40
0.0
 40
0.0
 40
0.0
 40
0.0
 40
0.0951787303
 40
0.1877243193
 40
0.2757722242
 40
0.3180343528
 40
0.3590490571
 40
0.4374432199
 40
0.4749511989
 40
0.5113694934
 40
0.5810651384
 40
0.646727598
 40
0.7083452164
 40
0.7657912081
 40
0.818869984
 40
0.8672426097
 40
0.9102209109
 40
0.9294583589
 40
0.9470771377
 40
0.9630006759
 40
0.9771642937
 40
0.989503242
 40
1.0
 40
1.0
 40
1.0
 40
1.0
 10
15.4889910702
 20
11.2068958311
 30
0.0
 10
15.485341996
 20
11.2132161461
 30
0.0
 10
15.4772250982
 20
11.2251701425
 30
0.0
 10
15.4631216607
 20
11.2409991981
 30
0.0
 10
15.450191693
 20
11.2522400054
 30
0.0
 10
15.4395856996
 20
11.2599995187
 30
0.0
 10
15.4292190773
 20
11.2668052118
 30
0.0
 10
15.4187006877
 20
11.2726875907
 30
0.0
 10
15.4081584004
 20
11.2777200189
 30
0.0
 10
15.3980413672
 20
11.2820764332
 30
0.0
 10
15.3856647786
 20
11.2866165302
 30
0.0
 10
15.3711693122
 20
11.2908918847
 30
0.0
 10
15.3573607348
 20
11.2940831584
 30
0.0
 10
15.344343736
 20
11.2963121443
 30
0.0
 10
15.3322341883
 20
11.2977076595
 30
0.0
 10
15.3211763118
 20
11.2983993193
 30
0.0
 10
15.3126895122
 20
11.2984291759
 30
0.0
 10
15.3065754145
 20
11.2980979809
 30
0.0
 10
15.3025461387
 20
11.2977028124
 30
0.0
 10
15.2989273588
 20
11.297156082
 30
0.0
 10
15.2957454152
 20
11.2964639184
 30
0.0
 10
15.293031561
 20
11.2956247093
 30
0.0
 10
15.2914266474
 20
11.2949032683
 30
0.0
 10
15.2907293279
 20
11.294501326
 30
0.0
  0
SPLINE
  5
2A3
100
AcDbEntity
  8
0
100
AcDbSpline
 62
9
  6
CONTINUOUS
 70
0
 71
3
 72
22
 73
18
 74
0
 42
0.0000001
 43
0.0000001
 44
0.0000000001
 40
0.0
 40
0.0
 40
0.0
 40
0.0
 40
0.0850916888
 40
0.1609867925
 40
0.2280294879
 40
0.2869260206
 40
0.338895945
 40
0.3860597671
 40
0.4311897331
 40
0.4769443357
 40
0.5254393496
 40
0.5781196122
 40
0.6357705996
 40
0.6986582191
 40
0.7667221528
 40
0.8398101378
 40
1.0
 40
1.0
 40
1.0
 40
1.0
 10
14.1285370291
 20
11.2802835681
 30
0.0
 10
14.1297810259
 20
11.2795655025
 30
0.0
 10
14.1321816553
 20
11.2782848709
 30
0.0
 10
14.1357330386
 20
11.2767841603
 30
0.0
 10
14.139008788
 20
11.275815552
 30
0.0
 10
14.1419937837
 20
11.2753820477
 30
0.0
 10
14.1446790089
 20
11.2754986833
 30
0.0
 10
14.1470443031
 20
11.2761776202
 30
0.0
 10
14.1490672169
 20
11.2773856548
 30
0.0
 10
14.1507402824
 20
11.2790706718
 30
0.0
 10
14.152076703
 20
11.2811785067
 30
0.0
 10
14.1531055273
 20
11.2836652035
 30
0.0
 10
14.153858798
 20
11.2864971192
 30
0.0
 10
14.1543620731
 20
11.2896449149
 30
0.0
 10
14.1546384405
 20
11.2930808265
 30
0.0
 10
14.1547308038
 20
11.298169019
 30
0.0
 10
14.1545051643
 20
11.3021062767
 30
0.0
 10
14.1542716769
 20
11.3048002158
 30
0.0
  0
SPLINE
  5
2A4
100
AcDbEntity
  8
0
100
AcDbSpline
 62
9
  6
CONTINUOUS
 70
0
 71
3
 72
16
 73
12
 74
0
 42
0.0000001
 43
0.0000001
 44
0.0000000001
 40
0.0
 40
0.0
 40
0.0
 40
0.0
 40
0.1267295465
 40
0.2581199975
 40
0.3915406579
 40
0.523721835
 40
0.6520135306
 40
0.7142585842
 40
0.7748929577
 40
0.8908019656
 40
1.0
 40
1.0
 40
1.0
 40
1.0
 10
15.7994658881
 20
11.5488451555
 30
0.0
 10
15.8028807897
 20
11.5526791763
 30
0.0
 10
15.8092627922
 20
11.5610188908
 30
0.0
 10
15.8169230059
 20
11.5749860644
 30
0.0
 10
15.8221881081
 20
11.5902680029
 30
0.0
 10
15.824721596
 20
11.6061148606
 30
0.0
 10
15.8242050208
 20
11.6192750083
 30
0.0
 10
15.8222969942
 20
11.6292849206
 30
0.0
 10
15.8195325446
 20
11.6385722121
 30
0.0
 10
15.8144977496
 20
11.6490926576
 30
0.0
 10
15.8089465098
 20
11.6564159036
 30
0.0
 10
15.8059285407
 20
11.6596507278
 30
0.0
  0
SPLINE
  5
2A5
100
AcDbEntity
  8
0
100
AcDbSpline
 62
9
  6
CONTINUOUS
 70
0
 71
3
 72
19
 73
15
 74
0
 42
0.0000001
 43
0.0000001
 44
0.0000000001
 40
0.0
 40
0.0
 40
0.0
 40
0.0
 40
0.0708716414
 40
0.1412451267
 40
0.2791207104
 40
0.3464068483
 40
0.4125413365
 40
0.5413533278
 40
0.6654134847
 40
0.7841626734
 40
0.8412024312
 40
0.8964025734
 40
0.949481893
 40
1.0
 40
1.0
 40
1.0
 40
1.0
 10
15.9789609765
 20
11.4897800884
 30
0.0
 10
15.9760856504
 20
11.4947628052
 30
0.0
 10
15.9699431952
 20
11.5044609679
 30
0.0
 10
15.9563997752
 20
11.5226459533
 30
0.0
 10
15.941299383
 20
11.5392159984
 30
0.0
 10
15.9254898553
 20
11.5545462208
 30
0.0
 10
15.909770896
 20
11.5689041824
 30
0.0
 10
15.8901067154
 20
11.5857580389
 30
0.0
 10
15.8668850657
 20
11.6050107716
 30
0.0
 10
15.8481918141
 20
11.6205998576
 30
0.0
 10
15.8340020319
 20
11.6328568885
 30
0.0
 10
15.8240061453
 20
11.6418118378
 30
0.0
 10
15.8146285724
 20
11.6506580208
 30
0.0
 10
15.8087258906
 20
11.6566523381
 30
0.0
 10
15.805928537
 20
11.6596507317
 30
0.0
  0
SPLINE
  5
2A6
100
AcDbEntity
  8
0
100
AcDbSpline
 62
9
  6
CONTINUOUS
 70
0
 71
3
 72
19
 73
15
 74
0
 42
0.0000001
 43
0.0000001
 44
0.0000000001
 40
0.0
 40
0.0
 40
0.0
 40
0.0
 40
0.0708716156
 40
0.141245785
 40
0.2791196663
 40
0.3464054888
 40
0.4125406744
 40
0.5413535769
 40
0.6654130563
 40
0.7841603869
 40
0.8412022663
 40
0.8964049147
 40
0.9494832516
 40
1.0
 40
1.0
 40
1.0
 40
1.0
 10
14.1156757
 20
11.4897800884
 30
0.0
 10
14.1127980742
 20
11.484798703
 30
0.0
 10
14.1074715271
 20
11.4746294996
 30
0.0
 10
14.0984922167
 20
11.4538091969
 30
0.0
 10
14.0916945635
 20
11.4324461219
 30
0.0
 10
14.0863227671
 20
11.4110897716
 30
0.0
 10
14.0817473624
 20
11.390297775
 30
0.0
 10
14.0769832685
 20
11.3648411527
 30
0.0
 10
14.0719210035
 20
11.3351043411
 30
0.0
 10
14.0677673353
 20
11.3111209621
 30
0.0
 10
14.0642471335
 20
11.2927035442
 30
0.0
 10
14.0614895245
 20
11.2795691505
 30
0.0
 10
14.058517374
 20
11.2670248145
 30
0.0
 10
14.0562775852
 20
11.2589159537
 30
0.0
 10
14.0550796273
 20
11.2549942784
 30
0.0
  0
SPLINE
  5
2A7
100
AcDbEntity
  8
0
100
AcDbSpline
 62
9
  6
CONTINUOUS
 70
0
 71
3
 72
22
 73
18
 74
0
 42
0.0000001
 43
0.0000001
 44
0.0000000001
 40
0.0
 40
0.0
 40
0.0
 40
0.0
 40
0.0851251088
 40
0.1610403844
 40
0.2280927745
 40
0.2869919763
 40
0.3389604607
 40
0.3861201289
 40
0.4312444588
 40
0.4769929482
 40
0.5254816793
 40
0.5781552082
 40
0.6357990154
 40
0.698679319
 40
0.7667362525
 40
0.8398180439
 40
1.0
 40
1.0
 40
1.0
 40
1.0
 10
15.7911065774
 20
11.583392904
 30
0.0
 10
15.789862014
 20
11.5826743662
 30
0.0
 10
15.7875514489
 20
11.5812352931
 30
0.0
 10
15.7844746423
 20
11.5789094941
 30
0.0
 10
15.781997009
 20
11.5765565192
 30
0.0
 10
15.7801285571
 20
11.574187934
 30
0.0
 10
15.7788866305
 20
11.5718040245
 30
0.0
 10
15.7782917563
 20
11.5694161076
 30
0.0
 10
15.7783263819
 20
11.5670601928
 30
0.0
 10
15.7789490447
 20
11.5647687876
 30
0.0
 10
15.780106157
 20
11.5625574869
 30
0.0
 10
15.7817451471
 20
11.5604230905
 30
0.0
 10
15.7838208973
 20
11.5583546929
 30
0.0
 10
15.786295247
 20
11.5563448448
 30
0.0
 10
15.7891326375
 20
11.5543874504
 30
0.0
 10
15.7934931156
 20
11.5517631961
 30
0.0
 10
15.7970158912
 20
11.5499898885
 30
0.0
 10
15.7994658157
 20
11.5488450617
 30
0.0
  0
SPLINE
  5
2A8
100
AcDbEntity
  8
0
100
AcDbSpline
 62
9
  6
CONTINUOUS
 70
0
 71
3
 72
19
 73
15
 74
0
 42
0.0000001
 43
0.0000001
 44
0.0000000001
 40
0.0
 40
0.0
 40
0.0
 40
0.0
 40
0.070871627
 40
0.1412448304
 40
0.2791210146
 40
0.346407101
 40
0.4125412975
 40
0.5413532242
 40
0.6654134745
 40
0.7841626804
 40
0.8412024584
 40
0.8964026363
 40
0.9494819087
 40
1.0
 40
1.0
 40
1.0
 40
1.0
 10
15.0473183383
 20
9.8761277044
 30
0.0
 10
15.05307116
 20
9.8761265265
 30
0.0
 10
15.0645412466
 20
9.8765964863
 30
0.0
 10
15.0870615306
 20
9.8792339388
 30
0.0
 10
15.1089619967
 20
9.8840252657
 30
0.0
 10
15.1301430874
 20
9.8900518807
 30
0.0
 10
15.1504368358
 20
9.8964860794
 30
0.0
 10
15.1748647861
 20
9.9050887938
 30
0.0
 10
15.2031489804
 20
9.915572944
 30
0.0
 10
15.2259961577
 20
9.9239672474
 30
0.0
 10
15.2437059603
 20
9.9301274325
 30
0.0
 10
15.2564591179
 20
9.9343066518
 30
0.0
 10
15.2688089232
 20
9.9380047728
 30
0.0
 10
15.2769514898
 20
9.9401194885
 30
0.0
 10
15.2809468505
 20
9.941042871
 30
0.0
  0
SPLINE
  5
2A9
100
AcDbEntity
  8
0
100
AcDbSpline
 62
9
  6
CONTINUOUS
 70
0
 71
3
 72
19
 73
15
 74
0
 42
0.0000001
 43
0.0000001
 44
0.0000000001
 40
0.0
 40
0.0
 40
0.0
 40
0.0
 40
0.0707783981
 40
0.1410650764
 40
0.2787971554
 40
0.3460273781
 40
0.4121134658
 40
0.5408541241
 40
0.6648870055
 40
0.7836739574
 40
0.8407713778
 40
0.8960654816
 40
0.9492801292
 40
1.0
 40
1.0
 40
1.0
 40
1.0
 10
15.9789609766
 20
11.4897800884
 30
0.0
 10
15.981820603
 20
11.4848296431
 30
0.0
 10
15.9871178035
 20
11.474725412
 30
0.0
 10
15.996054438
 20
11.4540365815
 30
0.0
 10
16.0028355413
 20
11.4328084627
 30
0.0
 10
16.0081988248
 20
11.4115819817
 30
0.0
 10
16.0127665344
 20
11.3909100194
 30
0.0
 10
16.0175207801
 20
11.3655930692
 30
0.0
 10
16.0225638007
 20
11.3360081301
 30
0.0
 10
16.0266886773
 20
11.3121356114
 30
0.0
 10
16.0301743571
 20
11.2937901078
 30
0.0
 10
16.0328994938
 20
11.2806929878
 30
0.0
 10
16.0358315839
 20
11.2681686516
 30
0.0
 10
16.0380339119
 20
11.2600642207
 30
0.0
 10
16.0392103613
 20
11.256139944
 30
0.0
  0
SPLINE
  5
2AA
100
AcDbEntity
  8
0
100
AcDbSpline
 62
9
  6
CONTINUOUS
 70
0
 71
3
 72
16
 73
12
 74
0
 42
0.0000001
 43
0.0000001
 44
0.0000000001
 40
0.0
 40
0.0
 40
0.0
 40
0.0
 40
0.1267294582
 40
0.2581198422
 40
0.3915404639
 40
0.5237216315
 40
0.6520133475
 40
0.7142584205
 40
0.7748928184
 40
0.8908018889
 40
1.0
 40
1.0
 40
1.0
 40
1.0
 10
14.1542713953
 20
11.3048002514
 30
0.0
 10
14.1492435887
 20
11.3058406317
 30
0.0
 10
14.1388301895
 20
11.3071977503
 30
0.0
 10
14.1229041637
 20
11.3068481054
 30
0.0
 10
14.10703707
 20
11.303766853
 30
0.0
 10
14.0920465445
 20
11.2980374938
 30
0.0
 10
14.080907807
 20
11.2910100555
 30
0.0
 10
14.0731929781
 20
11.2843527005
 30
0.0
 10
14.0665321678
 20
11.2773149701
 30
0.0
 10
14.0599385866
 20
11.2676944829
 30
0.0
 10
14.0563720864
 20
11.2592253404
 30
0.0
 10
14.0550796301
 20
11.2549942876
 30
0.0
  0
SPLINE
  5
2AB
100
AcDbEntity
  8
0
100
AcDbSpline
 62
9
  6
CONTINUOUS
 70
0
 71
3
 72
19
 73
15
 74
0
 42
0.0000001
 43
0.0000001
 44
0.0000000001
 40
0.0
 40
0.0
 40
0.0
 40
0.0
 40
0.0707778578
 40
0.1410627379
 40
0.278795922
 40
0.3460259487
 40
0.4121113523
 40
0.5408514152
 40
0.6648840771
 40
0.7836713644
 40
0.8407690416
 40
0.8960636317
 40
0.9492789351
 40
1.0
 40
1.0
 40
1.0
 40
1.0
 10
14.1156757
 20
11.4897800884
 30
0.0
 10
14.1185332204
 20
11.4947315111
 30
0.0
 10
14.124632948
 20
11.504371957
 30
0.0
 10
14.1380848238
 20
11.5224525162
 30
0.0
 10
14.1530749614
 20
11.5389410341
 30
0.0
 10
14.1687760979
 20
11.5541981397
 30
0.0
 10
14.1843941933
 20
11.5684893116
 30
0.0
 10
14.203941517
 20
11.5852645724
 30
0.0
 10
14.2270406308
 20
11.604423848
 30
0.0
 10
14.2456519404
 20
11.6199318769
 30
0.0
 10
14.2597964824
 20
11.6321229706
 30
0.0
 10
14.2697762624
 20
11.6410312662
 30
0.0
 10
14.2791566042
 20
11.6498324452
 30
0.0
 10
14.2850741647
 20
11.6557917231
 30
0.0
 10
14.2878845378
 20
11.6587725984
 30
0.0
  0
SPLINE
  5
2AC
100
AcDbEntity
  8
0
100
AcDbSpline
 62
9
  6
CONTINUOUS
 70
0
 71
3
 72
28
 73
24
 74
0
 42
0.0000001
 43
0.0000001
 44
0.0000000001
 40
0.0
 40
0.0
 40
0.0
 40
0.0
 40
0.0104891668
 40
0.0228182996
 40
0.0369710962
 40
0.0528841192
 40
0.0704927537
 40
0.0897201892
 40
0.1326777226
 40
0.1810264675
 40
0.2340775318
 40
0.2914942261
 40
0.3530825915
 40
0.4187173606
 40
0.4883893448
 40
0.5247984438
 40
0.5622996677
 40
0.6406931983
 40
0.68171722
 40
0.7239969405
 40
0.8121138734
 40
0.9047747346
 40
1.0
 40
1.0
 40
1.0
 40
1.0
 10
15.4657269489
 20
10.991391926
 30
0.0
 10
15.4664232642
 20
10.9917944606
 30
0.0
 10
15.4678496828
 20
10.992822498
 30
0.0
 10
15.4699323353
 20
10.9947511571
 30
0.0
 10
15.4721217104
 20
10.9971584751
 30
0.0
 10
15.474403507
 20
11.0000168906
 30
0.0
 10
15.4767593619
 20
11.0033066443
 30
0.0
 10
15.4801019896
 20
11.008433154
 30
0.0
 10
15.4843181036
 20
11.0157939495
 30
0.0
 10
15.4892468625
 20
11.0257106924
 30
0.0
 10
15.4940923873
 20
11.0368893024
 30
0.0
 10
15.4986702921
 20
11.0492700252
 30
0.0
 10
15.502811446
 20
11.0628172895
 30
0.0
 10
15.5063584024
 20
11.077501772
 30
0.0
 10
15.5086171134
 20
11.0904852873
 30
0.0
 10
15.5099053308
 20
11.1014218674
 30
0.0
 10
15.510821352
 20
11.1130665765
 30
0.0
 10
15.5109895321
 20
11.1251171802
 30
0.0
 10
15.5102825596
 20
11.1375001394
 30
0.0
 10
15.5088688498
 20
11.1505728455
 30
0.0
 10
15.5055996101
 20
11.1674071941
 30
0.0
 10
15.498938331
 20
11.1875530219
 30
0.0
 10
15.4926417314
 20
11.2005722229
 30
0.0
 10
15.4889910849
 20
11.2068958396
 30
0.0
  0
SPLINE
  5
2AD
100
AcDbEntity
  8
0
100
AcDbSpline
 62
9
  6
CONTINUOUS
 70
0
 71
3
 72
18
 73
14
 74
0
 42
0.0000001
 43
0.0000001
 44
0.0000000001
 40
0.0
 40
0.0
 40
0.0
 40
0.0
 40
0.2442114671
 40
0.3088252344
 40
0.3741699962
 40
0.4398203581
 40
0.5054260965
 40
0.6353200385
 40
0.6992197195
 40
0.7620137669
 40
0.823523663
 40
0.8837440066
 40
1.0
 40
1.0
 40
1.0
 40
1.0
 10
14.2951707979
 20
11.5488451599
 30
0.0
 10
14.2886614683
 20
11.5561533944
 30
0.0
 10
14.2816526857
 20
11.5666493179
 30
0.0
 10
14.2758600716
 20
11.5804857914
 30
0.0
 10
14.2734276551
 20
11.5879487699
 30
0.0
 10
14.2716256606
 20
11.5956292644
 30
0.0
 10
14.270153704
 20
11.6060022623
 30
0.0
 10
14.2701942601
 20
11.6164768148
 30
0.0
 10
14.2717457184
 20
11.6266549463
 30
0.0
 10
14.2736346173
 20
11.6339717956
 30
0.0
 10
14.2762531788
 20
11.6409042443
 30
0.0
 10
14.2805605124
 20
11.6494264716
 30
0.0
 10
14.2847260722
 20
11.6552257381
 30
0.0
 10
14.2878349966
 20
11.6586957017
 30
0.0
  0
SPLINE
  5
2AE
100
AcDbEntity
  8
0
100
AcDbSpline
 62
9
  6
CONTINUOUS
 70
0
 71
3
 72
22
 73
18
 74
0
 42
0.0000001
 43
0.0000001
 44
0.0000000001
 40
0.0
 40
0.0
 40
0.0
 40
0.0
 40
0.160180042
 40
0.2332633985
 40
0.3013260351
 40
0.3642168236
 40
0.4218739975
 40
0.4745616824
 40
0.5230637359
 40
0.5688239462
 40
0.6139571636
 40
0.6611207735
 40
0.7130862623
 40
0.7719758152
 40
0.8390122406
 40
0.9149047409
 40
1.0
 40
1.0
 40
1.0
 40
1.0
 10
14.295170965
 20
11.5488449175
 30
0.0
 10
14.2976204754
 20
11.5499895307
 30
0.0
 10
14.3011426965
 20
11.551762518
 30
0.0
 10
14.3055026049
 20
11.5543863115
 30
0.0
 10
14.3083398578
 20
11.5563434571
 30
0.0
 10
14.3108143415
 20
11.558353117
 30
0.0
 10
14.3128904349
 20
11.5604214102
 30
0.0
 10
14.3145298842
 20
11.5625557784
 30
0.0
 10
14.3156874548
 20
11.5647671409
 30
0.0
 10
14.3163105097
 20
11.5670586405
 30
0.0
 10
14.3163455914
 20
11.5694145801
 30
0.0
 10
14.315751323
 20
11.5718024122
 30
0.0
 10
14.3145101633
 20
11.574186079
 30
0.0
 10
14.3126426641
 20
11.5765541928
 30
0.0
 10
14.3101663136
 20
11.5789065366
 30
0.0
 10
14.3070911978
 20
11.5812316242
 30
0.0
 10
14.3047819374
 20
11.5826702846
 30
0.0
 10
14.3035380941
 20
11.5833886013
 30
0.0
  0
SPLINE
  5
2AF
100
AcDbEntity
  8
0
100
AcDbSpline
 62
9
  6
CONTINUOUS
 70
0
 71
3
 72
16
 73
12
 74
0
 42
0.0000001
 43
0.0000001
 44
0.0000000001
 40
0.0
 40
0.0
 40
0.0
 40
0.0
 40
0.1267295595
 40
0.2581200205
 40
0.3915406865
 40
0.523721865
 40
0.6520135576
 40
0.7142586084
 40
0.7748929782
 40
0.8908019769
 40
1.0
 40
1.0
 40
1.0
 40
1.0
 10
15.1882177285
 20
10.0020424754
 30
0.0
 10
15.1898306373
 20
9.997168073
 30
0.0
 10
15.1938620412
 20
9.987471239
 30
0.0
 10
15.2021278623
 20
9.9738537121
 30
0.0
 10
15.2127298589
 20
9.9616530308
 30
0.0
 10
15.2251868965
 20
9.9515355376
 30
0.0
 10
15.2368422061
 20
9.9454028317
 30
0.0
 10
15.2464650573
 20
9.9420502756
 30
0.0
 10
15.2558903117
 20
9.9398007138
 30
0.0
 10
15.267518681
 20
9.9389007516
 30
0.0
 10
15.276636417
 20
9.9400466432
 30
0.0
 10
15.2809468409
 20
9.9410428688
 30
0.0
  0
SPLINE
  5
2B0
100
AcDbEntity
  8
0
100
AcDbSpline
 62
9
  6
CONTINUOUS
 70
0
 71
3
 72
20
 73
16
 74
0
 42
0.0000001
 43
0.0000001
 44
0.0000000001
 40
0.0
 40
0.0
 40
0.0
 40
0.0
 40
0.0684225833
 40
0.1373307565
 40
0.2064324804
 40
0.2756185914
 40
0.3443798342
 40
0.4124381581
 40
0.5454209131
 40
0.6727067468
 40
0.7924844706
 40
0.8489601862
 40
0.9026550547
 40
0.9531330987
 40
1.0
 40
1.0
 40
1.0
 40
1.0
 10
14.1397334746
 20
11.4758903257
 30
0.0
 10
14.1417249168
 20
11.4793397212
 30
0.0
 10
14.1465315582
 20
11.485814334
 30
0.0
 10
14.1553936422
 20
11.4940051345
 30
0.0
 10
14.1653972965
 20
11.5008043611
 30
0.0
 10
14.1760451145
 20
11.506480443
 30
0.0
 10
14.1869859329
 20
11.5114049467
 30
0.0
 10
14.2016137135
 20
11.5171349764
 30
0.0
 10
14.2197294703
 20
11.5232485334
 30
0.0
 10
14.2408551787
 20
11.5298133753
 30
0.0
 10
14.2577414122
 20
11.5350184342
 30
0.0
 10
14.2704586604
 20
11.5391971362
 30
0.0
 10
14.2792839427
 20
11.5422931071
 30
0.0
 10
14.2874937775
 20
11.5454439168
 30
0.0
 10
14.2926992352
 20
11.5476900896
 30
0.0
 10
14.2951709503
 20
11.5488449379
 30
0.0
  0
SPLINE
  5
2B1
100
AcDbEntity
  8
0
100
AcDbSpline
 62
9
  6
CONTINUOUS
 70
0
 71
3
 72
20
 73
16
 74
0
 42
0.0000001
 43
0.0000001
 44
0.0000000001
 40
0.0
 40
0.0
 40
0.0
 40
0.0
 40
0.0468629997
 40
0.0973344073
 40
0.151021212
 40
0.2074887486
 40
0.3272527574
 40
0.4545266031
 40
0.5874966557
 40
0.6555495637
 40
0.7243127622
 40
0.7935128878
 40
0.8626358747
 40
0.9315661301
 40
1.0
 40
1.0
 40
1.0
 40
1.0
 10
14.1542715919
 20
11.3048002245
 30
0.0
 10
14.1540358932
 20
11.307517989
 30
0.0
 10
14.153378529
 20
11.3131485249
 30
0.0
 10
14.1520025308
 20
11.3218327889
 30
0.0
 10
14.1502713734
 20
11.3310223849
 30
0.0
 10
14.1475320104
 20
11.3441234857
 30
0.0
 10
14.1435971003
 20
11.3613479956
 30
0.0
 10
14.1387201283
 20
11.3829236328
 30
0.0
 10
14.1349571124
 20
11.4016673816
 30
0.0
 10
14.1326055038
 20
11.417199447
 30
0.0
 10
14.1313992179
 20
11.4291372549
 30
0.0
 10
14.1309892867
 20
11.4411986566
 30
0.0
 10
14.131874417
 20
11.453265173
 30
0.0
 10
14.1345370682
 20
11.4650386036
 30
0.0
 10
14.1377414786
 20
11.4724404953
 30
0.0
 10
14.1397334181
 20
11.4758903583
 30
0.0
  0
SPLINE
  5
2B2
100
AcDbEntity
  8
0
100
AcDbSpline
 62
9
  6
CONTINUOUS
 70
0
 71
3
 72
28
 73
24
 74
0
 42
0.0000001
 43
0.0000001
 44
0.0000000001
 40
0.0
 40
0.0
 40
0.0
 40
0.0
 40
0.0952738117
 40
0.1879671295
 40
0.2760895889
 40
0.3183642376
 40
0.3593796033
 40
0.4377507153
 40
0.4752417628
 40
0.5116433012
 40
0.5813059641
 40
0.646934482
 40
0.7085174263
 40
0.7659291477
 40
0.8189753981
 40
0.8673200855
 40
0.910275192
 40
0.9295020998
 40
0.9471107142
 40
0.9630242709
 40
0.9771782655
 40
0.9895091615
 40
1.0
 40
1.0
 40
1.0
 40
1.0
 10
14.6056453465
 20
11.206895981
 30
0.0
 10
14.6019929139
 20
11.2005691525
 30
0.0
 10
14.5956943663
 20
11.1875440223
 30
0.0
 10
14.589032498
 20
11.1673915233
 30
0.0
 10
14.5857644012
 20
11.1505544679
 30
0.0
 10
14.5843523318
 20
11.1374823037
 30
0.0
 10
14.5836468712
 20
11.1251021195
 30
0.0
 10
14.5838160946
 20
11.1130547876
 30
0.0
 10
14.5847327483
 20
11.1014132964
 30
0.0
 10
14.5860212507
 20
11.0904789168
 30
0.0
 10
14.5882797596
 20
11.0774972671
 30
0.0
 10
14.5918262831
 20
11.0628144396
 30
0.0
 10
14.5959669191
 20
11.0492684519
 30
0.0
 10
14.6005442345
 20
11.0368888468
 30
0.0
 10
14.605389244
 20
11.0257112562
 30
0.0
 10
14.6103175636
 20
11.0157953448
 30
0.0
 10
14.6145333293
 20
11.0084350341
 30
0.0
 10
14.6178757975
 20
11.0033087401
 30
0.0
 10
14.6202316436
 20
11.000019014
 30
0.0
 10
14.6225135326
 20
10.9971605335
 30
0.0
 10
14.6247031137
 20
10.9947530708
 30
0.0
 10
14.6267859715
 20
10.9928241432
 30
0.0
 10
14.6282125203
 20
10.9917958623
 30
0.0
 10
14.6289089043
 20
10.9913932009
 30
0.0
  0
SPLINE
  5
2B3
100
AcDbEntity
  8
0
100
AcDbSpline
 62
9
  6
CONTINUOUS
 70
0
 71
3
 72
20
 73
16
 74
0
 42
0.0000001
 43
0.0000001
 44
0.0000000001
 40
0.0
 40
0.0
 40
0.0
 40
0.0
 40
0.0468690367
 40
0.0973557214
 40
0.1510609099
 40
0.2075438369
 40
0.3273173952
 40
0.4545880995
 40
0.5875594731
 40
0.6556122563
 40
0.7243709418
 40
0.7935599538
 40
0.8626672959
 40
0.9315801922
 40
1.0
 40
1.0
 40
1.0
 40
1.0
 10
15.1882176057
 20
10.0020427658
 30
0.0
 10
15.1859815477
 20
10.0004795132
 30
0.0
 10
15.1814331434
 20
9.9970940816
 30
0.0
 10
15.1745986145
 20
9.9915587737
 30
0.0
 10
15.1675035877
 20
9.9854629086
 30
0.0
 10
15.157525463
 20
9.9765383637
 30
0.0
 10
15.1445753218
 20
9.9645173002
 30
0.0
 10
15.1283286475
 20
9.9495053578
 30
0.0
 10
15.1139774401
 20
9.9368749454
 30
0.0
 10
15.1017018114
 20
9.9270730041
 30
0.0
 10
15.0919668278
 20
9.920060544
 30
0.0
 10
15.0817272761
 20
9.9136767183
 30
0.0
 10
15.0708366834
 20
9.9084120702
 30
0.0
 10
15.0593117531
 20
9.9048326154
 30
0.0
 10
15.0513011583
 20
9.9039071772
 30
0.0
 10
15.0473183383
 20
9.9039072683
 30
0.0
  0
SPLINE
  5
2B4
100
AcDbEntity
  8
0
100
AcDbSpline
 62
9
  6
CONTINUOUS
 70
0
 71
3
 72
28
 73
24
 74
0
 42
0.0000001
 43
0.0000001
 44
0.0000000001
 40
0.0
 40
0.0
 40
0.0
 40
0.0
 40
0.0952293222
 40
0.1878867666
 40
0.2759883676
 40
0.3182580635
 40
0.3592718701
 40
0.4376466662
 40
0.4751402991
 40
0.5115435515
 40
0.5812082375
 40
0.6468395942
 40
0.708427419
 40
0.7658463351
 40
0.8189023589
 40
0.8672589474
 40
0.9102274921
 40
0.9294616977
 40
0.9470779858
 40
0.9629995703
 40
0.977161829
 40
0.9895009792
 40
1.0
 40
1.0
 40
1.0
 40
1.0
 10
15.0473183383
 20
10.4418961721
 30
0.0
 10
15.0546201122
 20
10.4418964395
 30
0.0
 10
15.0690428681
 20
10.4429530702
 30
0.0
 10
15.0898184786
 20
10.4472564158
 30
0.0
 10
15.1060294987
 20
10.45284104
 30
0.0
 10
15.1180548563
 20
10.4581514304
 30
0.0
 10
15.1291294924
 20
10.46372854
 30
0.0
 10
15.1394792111
 20
10.4698970007
 30
0.0
 10
15.1491039879
 20
10.4765101843
 30
0.0
 10
15.15793019
 20
10.4830921558
 30
0.0
 10
15.1680442795
 20
10.4915379881
 30
0.0
 10
15.1789879392
 20
10.5019499028
 30
0.0
 10
15.1886503371
 20
10.5123083165
 30
0.0
 10
15.1970846365
 20
10.5224622549
 30
0.0
 10
15.2043444818
 20
10.5322475519
 30
0.0
 10
15.2104702204
 20
10.5414747434
 30
0.0
 10
15.2147386007
 20
10.5488072603
 30
0.0
 10
15.2175085369
 20
10.554266453
 30
0.0
 10
15.2191808567
 20
10.5579527675
 30
0.0
 10
15.2205166857
 20
10.5613595397
 30
0.0
 10
15.2215080707
 20
10.5644609723
 30
0.0
 10
15.2221382962
 20
10.5672308333
 30
0.0
 10
15.2223163255
 20
10.5689815205
 30
0.0
 10
15.2223172583
 20
10.5697865396
 30
0.0
  0
SPLINE
  5
2B5
100
AcDbEntity
  8
0
100
AcDbSpline
 62
9
  6
CONTINUOUS
 70
0
 71
3
 72
22
 73
18
 74
0
 42
0.0000001
 43
0.0000001
 44
0.0000000001
 40
0.0
 40
0.0
 40
0.0
 40
0.0
 40
0.1601730656
 40
0.2332516405
 40
0.3013107688
 40
0.3642003315
 40
0.4218582604
 40
0.4745481019
 40
0.5230530009
 40
0.5688159125
 40
0.6139510304
 40
0.6611157765
 40
0.7130824727
 40
0.7719740059
 40
0.839012491
 40
0.914905981
 40
1.0
 40
1.0
 40
1.0
 40
1.0
 10
14.9064190838
 20
10.0020427948
 30
0.0
 10
14.9042032547
 20
10.0035917176
 30
0.0
 10
14.9009069982
 20
10.0057553946
 30
0.0
 10
14.896455179
 20
10.0082191016
 30
0.0
 10
14.8933418909
 20
10.0096975686
 30
0.0
 10
14.8903644333
 20
10.0108357057
 30
0.0
 10
14.8875353036
 20
10.0115996039
 30
0.0
 10
14.884867192
 20
10.0119524027
 30
0.0
 10
14.8823732684
 20
10.0118494648
 30
0.0
 10
14.8800771265
 20
10.0112436105
 30
0.0
 10
14.878019095
 20
10.0100963361
 30
0.0
 10
14.8762480802
 20
10.0083880202
 30
0.0
 10
14.8748041397
 20
10.0061214624
 30
0.0
 10
14.8736868825
 20
10.0033201887
 30
0.0
 10
14.8728877115
 20
9.9999995145
 30
0.0
 10
14.8724115248
 20
9.996173975
 30
0.0
 10
14.8723201342
 20
9.993454875
 30
0.0
 10
14.8723199241
 20
9.992018591
 30
0.0
  0
SPLINE
  5
2B6
100
AcDbEntity
  8
0
100
AcDbSpline
 62
9
  6
CONTINUOUS
 70
0
 71
3
 72
28
 73
24
 74
0
 42
0.0000001
 43
0.0000001
 44
0.0000000001
 40
0.0
 40
0.0
 40
0.0
 40
0.0
 40
0.0104896112
 40
0.0228191697
 40
0.0369722287
 40
0.0528852607
 40
0.0704936972
 40
0.0897207975
 40
0.1326775412
 40
0.1810258381
 40
0.2340771988
 40
0.2914947462
 40
0.3530842499
 40
0.4187201837
 40
0.4883931263
 40
0.5248025693
 40
0.5623040131
 40
0.6406973106
 40
0.6817206921
 40
0.7239994338
 40
0.8121142589
 40
0.9047741655
 40
1.0
 40
1.0
 40
1.0
 40
1.0
 10
14.803909679
 20
11.2945001551
 30
0.0
 10
14.8032128815
 20
11.2949019244
 30
0.0
 10
14.8016092971
 20
11.2956232345
 30
0.0
 10
14.7988976166
 20
11.296462558
 30
0.0
 10
14.7957180789
 20
11.2971549819
 30
0.0
 10
14.7921017169
 20
11.2977019088
 30
0.0
 10
14.7880748197
 20
11.2980973077
 30
0.0
 10
14.7819639168
 20
11.29842892
 30
0.0
 10
14.7734813344
 20
11.2983998644
 30
0.0
 10
14.7624288596
 20
11.297709984
 30
0.0
 10
14.7503250657
 20
11.2963170583
 30
0.0
 10
14.7373138994
 20
11.2940912831
 30
0.0
 10
14.7235107908
 20
11.2909039602
 30
0.0
 10
14.7090199248
 20
11.286633386
 30
0.0
 10
14.6966463373
 20
11.2820976209
 30
0.0
 10
14.6865307778
 20
11.2777448533
 30
0.0
 10
14.6759881549
 20
11.2727157045
 30
0.0
 10
14.6654680075
 20
11.2668360009
 30
0.0
 10
14.6550976718
 20
11.2600322943
 30
0.0
 10
14.6444834689
 20
11.2522717679
 30
0.0
 10
14.6315393657
 20
11.2410235064
 30
0.0
 10
14.6174233513
 20
11.2251818541
 30
0.0
 10
14.6092967135
 20
11.2132192412
 30
0.0
 10
14.6056456035
 20
11.2068958326
 30
0.0
  0
SPLINE
  5
2B7
100
AcDbEntity
  8
0
100
AcDbSpline
 62
9
  6
CONTINUOUS
 70
0
 71
3
 72
28
 73
24
 74
0
 42
0.0000001
 43
0.0000001
 44
0.0000000001
 40
0.0
 40
0.0
 40
0.0
 40
0.0
 40
0.0104945275
 40
0.0228294523
 40
0.0369876092
 40
0.0529048224
 40
0.0705165091
 40
0.0897460485
 40
0.1327057782
 40
0.1810555059
 40
0.2341071616
 40
0.2915232888
 40
0.3531093061
 40
0.4187392507
 40
0.4884031038
 40
0.5248066525
 40
0.5623011778
 40
0.6406756962
 40
0.6816859596
 40
0.7239501874
 40
0.8120482372
 40
0.9047305476
 40
1.0
 40
1.0
 40
1.0
 40
1.0
 10
14.872319077
 20
10.569794118
 30
0.0
 10
14.8723196498
 20
10.5689894184
 30
0.0
 10
14.8724970959
 20
10.5672392709
 30
0.0
 10
14.8731266307
 20
10.5644701693
 30
0.0
 10
14.87411735
 20
10.5613694401
 30
0.0
 10
14.8754523938
 20
10.5579633179
 30
0.0
 10
14.8771238542
 20
10.5542776254
 30
0.0
 10
14.8798925792
 20
10.5488191626
 30
0.0
 10
14.884159523
 20
10.541487309
 30
0.0
 10
14.8902838691
 20
10.5322606258
 30
0.0
 10
14.8975426646
 20
10.5224754228
 30
0.0
 10
14.9059761144
 20
10.5123211477
 30
0.0
 10
14.9156378177
 20
10.5019621216
 30
0.0
 10
14.9265809287
 20
10.4915494115
 30
0.0
 10
14.9366946021
 20
10.4831026884
 30
0.0
 10
14.9455206027
 20
10.476519837
 30
0.0
 10
14.9551451994
 20
10.4699056388
 30
0.0
 10
14.9654943791
 20
10.4637360176
 30
0.0
 10
14.9765680154
 20
10.4581576663
 30
0.0
 10
14.9885921753
 20
10.452845946
 30
0.0
 10
15.0048044112
 20
10.447259376
 30
0.0
 10
15.0255850862
 20
10.442953976
 30
0.0
 10
15.0400132636
 20
10.4418962615
 30
0.0
 10
15.0473183383
 20
10.4418960502
 30
0.0
  0
SPLINE
  5
2B8
100
AcDbEntity
  8
0
100
AcDbSpline
 62
9
  6
CONTINUOUS
 70
0
 71
3
 72
22
 73
18
 74
0
 42
0.0000001
 43
0.0000001
 44
0.0000000001
 40
0.0
 40
0.0
 40
0.0
 40
0.0
 40
0.0851089596
 40
0.1610102417
 40
0.2280509395
 40
0.2869408664
 40
0.3389032743
 40
0.3860613802
 40
0.4311885223
 40
0.4769430552
 40
0.5254395373
 40
0.5781214094
 40
0.6357734535
 40
0.6986614491
 40
0.7667252514
 40
0.8398126626
 40
1.0
 40
1.0
 40
1.0
 40
1.0
 10
15.222316357
 20
9.9920177246
 30
0.0
 10
15.2223161522
 20
9.9934542836
 30
0.0
 10
15.2222247669
 20
9.9961738116
 30
0.0
 10
15.2217485251
 20
9.9999998316
 30
0.0
 10
15.2209492933
 20
10.0033206943
 30
0.0
 10
15.2198320287
 20
10.0061219468
 30
0.0
 10
15.2183882242
 20
10.0083883842
 30
0.0
 10
15.2166174615
 20
10.0100965541
 30
0.0
 10
15.2145597566
 20
10.0112436903
 30
0.0
 10
15.2122639987
 20
10.0118494789
 30
0.0
 10
15.2097704664
 20
10.0119525258
 30
0.0
 10
15.2071026631
 20
10.0115999438
 30
0.0
 10
15.2042736997
 20
10.0108362432
 30
0.0
 10
15.2012962037
 20
10.0096981899
 30
0.0
 10
15.1981826768
 20
10.008219625
 30
0.0
 10
15.1937303726
 20
10.0057556597
 30
0.0
 10
15.1904337072
 20
10.0035917832
 30
0.0
 10
15.1882176198
 20
10.0020427345
 30
0.0
  0
SPLINE
  5
2B9
100
AcDbEntity
  8
0
100
AcDbSpline
 62
9
  6
CONTINUOUS
 70
0
 71
3
 72
20
 73
16
 74
0
 42
0.0000001
 43
0.0000001
 44
0.0000000001
 40
0.0
 40
0.0
 40
0.0
 40
0.0
 40
0.0684286028
 40
0.1373421038
 40
0.2064485173
 40
0.2756392378
 40
0.3444054037
 40
0.4124673805
 40
0.545450602
 40
0.6727365953
 40
0.7925089529
 40
0.8489774127
 40
0.9026639037
 40
0.9531352646
 40
1.0
 40
1.0
 40
1.0
 40
1.0
 10
15.0473183383
 20
9.9039071031
 30
0.0
 10
15.043335002
 20
9.9039070461
 30
0.0
 10
15.0353238373
 20
9.9048325723
 30
0.0
 10
15.0237985269
 20
9.9084124635
 30
0.0
 10
15.0129077045
 20
9.9136768042
 30
0.0
 10
15.0026676217
 20
9.9200607592
 30
0.0
 10
14.9929321842
 20
9.927074463
 30
0.0
 10
14.9806559345
 20
9.9368783051
 30
0.0
 10
14.9663032488
 20
9.9495102415
 30
0.0
 10
14.9500551382
 20
9.9645228952
 30
0.0
 10
14.9371047911
 20
9.9765437294
 30
0.0
 10
14.9271282232
 20
9.9854670351
 30
0.0
 10
14.9200353659
 20
9.9915611105
 30
0.0
 10
14.913202499
 20
9.997094945
 30
0.0
 10
14.908654891
 20
10.000479544
 30
0.0
 10
14.9064189947
 20
10.0020425963
 30
0.0
  0
ENDSEC
  0
SECTION
  2
OBJECTS
  0
DICTIONARY
  5
C
100
AcDbDictionary
280
0
281
1
  3
ACAD_GROUP
350
D
  3
ACAD_MLINESTYLE
350
17
  3
ACAD_LAYOUT
350
1A
  3
ACAD_PLOTSETTINGS
350
19
  3
ACAD_PLOTSTYLENAME
350
E
  0
DICTIONARY
  5
D
102
{ACAD_REACTORS
330
C
102
}
100
AcDbDictionary
280
0
281
1
  0
ACDBDICTIONARYWDFLT
  5
E
102
{ACAD_REACTORS
330
C
102
}
100
AcDbDictionary
281
1
  3
Normal
350
F
100
AcDbDictionaryWithDefault
340
F
  0
DICTIONARY
  5
17
102
{ACAD_REACTORS
330
C
102
}
100
AcDbDictionary
280
0
281
1
  3
Standard
350
18
  0
DICTIONARY
  5
19
102
{ACAD_REACTORS
330
C
102
}
100
AcDbDictionary
281
1
  0
DICTIONARY
  5
1A
102
{ACAD_REACTORS
330
C
102
}
100
AcDbDictionary
281
1
  3
Model
350
2BA
  3
Layout1
350
2BB
  0
ACDBPLACEHOLDER
  5
F
102
{ACAD_REACTORS
330
E
102
}
  0
MLINESTYLE
  5
18
102
{ACAD_REACTORS
330
17
102
}
100
AcDbMlineStyle
  2
STANDARD
 70
0
  3

 62
256
 51
90.0
 52
90.0
 71
2
 49
0.5
 62
256
  6
BYLAYER
 49
-0.5
 62
256
  6
BYLAYER
  0
LAYOUT
  5
2BA
102
{ACAD_REACTORS
330
1A
102
}
100
AcDbPlotSettings
  1

  2
none_device
  4
ANSI_C_(22.00_x_17.00_Inches)
  6

 40
0.0
 41
0.0
 42
0.0
 43
0.0
 44
558.8
 45
431.8
 46
0.0
 47
0.0
 48
0.0
 49
0.0
140
0.0
141
0.0
142
1.0
143
1.0
 70
1024
 72
0
 73
0
 74
0
  7

 75
0
147
1.0
148
0.0
149
0.0
100
AcDbLayout
  1
Model
 70
0
 71
0
 10
0.0
 20
0.0
 11
22.0
 21
17.0
 12
0.0
 22
0.0
 32
0.0
 14
0.0
 24
0.0
 34
0.0
 15
0.0
 25
0.0
 35
0.0
146
0.0
 13
0.0
 23
0.0
 33
0.0
 16
1.0
 26
0.0
 36
0.0
 17
0.0
 27
1.0
 37
0.0
 76
0
330
202
345
0
346
0
  0
LAYOUT
  5
2BB
102
{ACAD_REACTORS
330
1A
102
}
100
AcDbPlotSettings
  1

  2
none_device
  4
ANSI_C_(22.00_x_17.00_Inches)
  6

 40
0.0
 41
0.0
 42
0.0
 43
0.0
 44
558.8
 45
431.8
 46
0.0
 47
0.0
 48
0.0
 49
0.0
140
0.0
141
0.0
142
1.0
143
1.0
 70
0
 72
0
 73
0
 74
0
  7

 75
0
147
1.0
148
0.0
149
0.0
100
AcDbLayout
  1
Layout1
 70
0
 71
1
 10
0.0
 20
0.0
 11
22.0
 21
17.0
 12
0.0
 22
0.0
 32
0.0
 14
0.0
 24
0.0
 34
0.0
 15
0.0
 25
0.0
 35
0.0
146
0.0
 13
0.0
 23
0.0
 33
0.0
 16
1.0
 26
0.0
 36
0.0
 17
0.0
 27
1.0
 37
0.0
 76
0
330
203
345
0
346
0
  0
ENDSEC
  0
EOF
