999
DXF file: 3-2941_top.dxf
999
Pro/ENGINEER 2019352 by Parametric Technology Corporation
  0
SECTION
  2
HEADER
  9
$ACADVER
  1
AC1032
  9
$DWGCODEPAGE
  3
ANSI_1252
  9
$EXTMAX
 10
11.0
 20
8.5
 30
0.0
  9
$EXTMIN
 10
0.0
 20
0.0
 30
0.0
  9
$LIMMIN
 10
0.0
 20
0.0
  9
$LIMMAX
 10
11.0
 20
8.5
  9
$VIEWCTR
 10
5.5
 20
4.25
  9
$VIEWSIZE
 40
8.5
  9
$CLAYER
  8
0
  9
$LTSCALE
 40
0.605
  9
$CELTYPE
  6
BYLAYER
  9
$DIMSCALE
 40
1.0
  9
$DIMASZ
 40
0.1
  9
$DIMEXO
 40
0.0625
  9
$DIMDLI
 40
0.418
  9
$DIMEXE
 40
0.125
  9
$DIMCEN
 40
0.099
  9
$DIMLFAC
 40
1.0
  9
$DIMBLK
  1
_FILLED
  9
$DIMALT
 70
1
  9
$DIMALTD
 70
2
  9
$DIMALTTD
 70
2
  9
$DIMALTF
 40
25.4
  9
$DIMTXT
 40
0.08
  9
$DIMTOL
 70
1
  9
$DIMLIM
 70
0
  9
$DIMTFAC
 40
1.0
  9
$DIMTP
 40
0.001
  9
$DIMTM
 40
0.001
  9
$DIMGAP
 40
0.09
  9
$DIMDSEP
 70
46
  9
$AUNITS
 70
0
  9
$PDMODE
 70
3
  9
$PDSIZE
 40
0.3125
  9
$HANDSEED
  5
568
  9
$TILEMODE
 70
1
  9
$MEASUREMENT
 70
0
  9
$INSUNITS
 70
1
  0
ENDSEC
  0
SECTION
  2
CLASSES
  0
CLASS
  1
ACDBDICTIONARYWDFLT
  2
AcDbDictionaryWithDefault
  3
AutoCAD 2000
 90
0
 91
1
280
0
281
0
  0
CLASS
  1
ACDBPLACEHOLDER
  2
AcDbPlaceHolder
  3
AutoCAD 2000
 90
0
 91
1
280
0
281
0
  0
CLASS
  1
LAYOUT
  2
AcDbLayout
  3
AutoCAD 2000
 90
0
 91
0
280
0
281
0
  0
ENDSEC
  0
SECTION
  2
TABLES
  0
TABLE
  2
VPORT
  5
8
100
AcDbSymbolTable
 70
2
  0
VPORT
  5
1F4
100
AcDbSymbolTableRecord
100
AcDbViewportTableRecord
  2
*ACTIVE
 70
0
 10
0.0
 20
0.0
 11
1.0
 21
1.0
 12
5.5
 22
4.25
 13
0.0
 23
0.0
 14
1.0
 24
1.0
 15
0.0
 25
0.0
 16
0.0
 26
0.0
 36
1.0
 17
0.0
 27
0.0
 37
0.0
 40
8.5
 41
1.2941176471
 42
50.0
 43
0.0
 44
0.0
 50
0.0
 51
0.0
 71
0
 72
100
 73
1
 74
1
 75
0
 76
0
 77
0
 78
0
  0
ENDTAB
  0
TABLE
  2
LTYPE
  5
5
100
AcDbSymbolTable
 70
6
  0
LTYPE
  5
14
100
AcDbSymbolTableRecord
100
AcDbLinetypeTableRecord
  2
BYBLOCK
 70
0
  3

 72
65
 73
0
 40
0.0
  0
LTYPE
  5
15
100
AcDbSymbolTableRecord
100
AcDbLinetypeTableRecord
  2
BYLAYER
 70
0
  3

 72
65
 73
0
 40
0.0
  0
LTYPE
  5
16
100
AcDbSymbolTableRecord
100
AcDbLinetypeTableRecord
  2
CONTINUOUS
 70
64
  3
Solid line
 72
65
 73
0
 40
0.0
  0
LTYPE
  5
1F5
100
AcDbSymbolTableRecord
100
AcDbLinetypeTableRecord
  2
CENTER
 70
64
  3
____ _ ____ _ ____ _ ____ _ ____ _ ____ _ ____
 72
65
 73
4
 40
0.6
 49
0.375
 74
0
 49
-0.075
 74
0
 49
0.075
 74
0
 49
-0.075
 74
0
  0
LTYPE
  5
1F6
100
AcDbSymbolTableRecord
100
AcDbLinetypeTableRecord
  2
HIDDEN
 70
64
  3
- - - - - - - - - - - - - - - - - - - -
 72
65
 73
2
 40
0.2
 49
0.1
 74
0
 49
-0.1
 74
0
  0
LTYPE
  5
1F7
100
AcDbSymbolTableRecord
100
AcDbLinetypeTableRecord
  2
PHANTOM
 70
64
  3
_____ _ _ _____ _ _ _____ _ _ _____
 72
65
 73
6
 40
0.8
 49
0.45
 74
0
 49
-0.05
 74
0
 49
0.1
 74
0
 49
-0.05
 74
0
 49
0.1
 74
0
 49
-0.05
 74
0
  0
LTYPE
  5
1F8
100
AcDbSymbolTableRecord
100
AcDbLinetypeTableRecord
  2
DOT
 70
64
  3
. . . . . . . . . . . . . . . . . . . .
 72
65
 73
2
 40
0.2
 49
0.1
 74
0
 49
-0.1
 74
0
  0
LTYPE
  5
1F9
100
AcDbSymbolTableRecord
100
AcDbLinetypeTableRecord
  2
DASHED
 70
64
  3
- - - - - - - - - - - - - - - - - - - -
 72
65
 73
2
 40
0.2
 49
0.1
 74
0
 49
-0.1
 74
0
  0
ENDTAB
  0
TABLE
  2
LAYER
  5
2
100
AcDbSymbolTable
 70
36
  0
LAYER
  5
10
100
AcDbSymbolTableRecord
100
AcDbLayerTableRecord
  2
0
 70
0
 62
7
  6
CONTINUOUS
370
-3
390
F
  0
LAYER
  5
1FA
100
AcDbSymbolTableRecord
100
AcDbLayerTableRecord
  2
DEFAULT_1
 70
0
 62
7
  6
CENTER
370
-3
390
F
  0
LAYER
  5
1FB
100
AcDbSymbolTableRecord
100
AcDbLayerTableRecord
  2
DEFAULT_2
 70
0
 62
8
  6
HIDDEN
370
-3
390
F
  0
LAYER
  5
1FC
100
AcDbSymbolTableRecord
100
AcDbLayerTableRecord
  2
DEFAULT_3
 70
0
 62
7
  6
PHANTOM
370
-3
390
F
  0
LAYER
  5
1FD
100
AcDbSymbolTableRecord
100
AcDbLayerTableRecord
  2
DEFAULT_COORDINATE_SYSTEM
 70
0
 62
7
  6
CONTINUOUS
370
-3
390
F
  0
LAYER
  5
1FE
100
AcDbSymbolTableRecord
100
AcDbLayerTableRecord
  2
DEFAULT_DATUM_AXES
 70
0
 62
7
  6
CONTINUOUS
370
-3
390
F
  0
LAYER
  5
1FF
100
AcDbSymbolTableRecord
100
AcDbLayerTableRecord
  2
DEFAULT_DATUM_PLANES
 70
0
 62
7
  6
CONTINUOUS
370
-3
390
F
  0
ENDTAB
  0
TABLE
  2
STYLE
  5
3
100
AcDbSymbolTable
 70
1
  0
STYLE
  5
11
100
AcDbSymbolTableRecord
100
AcDbTextStyleTableRecord
  2
STANDARD
 70
0
 40
0.0
 41
0.8
 50
0.0
 71
0
 42
0.2
  3
txt
  4

  0
STYLE
  5
200
100
AcDbSymbolTableRecord
100
AcDbTextStyleTableRecord
  2
TEXTSTYLE_1
 70
0
 40
0.0
 41
0.8
 50
0.0
 71
0
 42
0.2
  3
gdt
  4

  0
ENDTAB
  0
TABLE
  2
VIEW
  5
6
100
AcDbSymbolTable
 70
0
  0
ENDTAB
  0
TABLE
  2
UCS
  5
7
100
AcDbSymbolTable
 70
0
  0
ENDTAB
  0
TABLE
  2
APPID
  5
9
100
AcDbSymbolTable
 70
1
  0
APPID
  5
201
100
AcDbSymbolTableRecord
100
AcDbRegAppTableRecord
  2
ACAD
 70
0
  0
ENDTAB
  0
TABLE
  2
BLOCK_RECORD
  5
1
100
AcDbSymbolTable
 70
0
  0
BLOCK_RECORD
  5
202
100
AcDbSymbolTableRecord
100
AcDbBlockTableRecord
  2
*Model_Space
  0
BLOCK_RECORD
  5
203
100
AcDbSymbolTableRecord
100
AcDbBlockTableRecord
  2
*Paper_Space
  0
BLOCK_RECORD
  5
204
100
AcDbSymbolTableRecord
100
AcDbBlockTableRecord
  2
_FILLED
  0
ENDTAB
  0
TABLE
  2
DIMSTYLE
  5
A
100
AcDbSymbolTable
 70
1
100
AcDbDimStyleTable
 71
0
  0
DIMSTYLE
105
205
100
AcDbSymbolTableRecord
100
AcDbDimStyleTableRecord
  2
STANDARD
 70
0
  3

  4

 40
1.0
 41
0.1
 42
0.0625
 43
0.38
 44
0.125
 45
0.0
 46
0.0
 47
0.001
 48
0.001
140
0.08
141
0.09
142
0.0
143
25.4
144
1.0
145
0.0
146
1.0
147
0.09
 71
1.0
 72
0.0
 73
1
 74
1
 75
0
 76
0
 77
0
 78
4
 79
1
170
1
171
2
172
0
173
0
174
0
175
0
176
0
177
0
178
0
270
2
179
3
271
3
272
3
273
2
274
2
275
0
280
0
281
0
282
0
283
1
284
4
285
0
286
0
287
3
288
0
340
11
278
46
341
204
342
204
343
204
344
204
  0
ENDTAB
  0
ENDSEC
  0
SECTION
  2
BLOCKS
  0
BLOCK
  5
20
100
AcDbEntity
  8
0
100
AcDbBlockBegin
  2
*Model_Space
 70
0
 10
0.0
 20
0.0
 30
0.0
  3
*Model_Space
  1

  0
ENDBLK
  5
21
100
AcDbEntity
  8
0
100
AcDbBlockEnd
  0
BLOCK
  5
1C
100
AcDbEntity
  8
0
100
AcDbBlockBegin
  2
*Paper_Space
 70
0
 10
0.0
 20
0.0
 30
0.0
  3
*Paper_Space
  1

  0
ENDBLK
  5
1D
100
AcDbEntity
  8
0
100
AcDbBlockEnd
  0
BLOCK
  5
206
100
AcDbEntity
  8
0
100
AcDbBlockBegin
  2
_FILLED
 70
64
 10
0.0
 20
0.0
  3
_FILLED
  1

  0
SOLID
  5
207
100
AcDbEntity
  8
0
  6
BYBLOCK
 62
0
100
AcDbTrace
 10
0.0
 20
0.0
 11
-1.0
 21
0.2
 12
-1.0
 22
-0.2
 13
-1.0
 23
-0.2
  0
ENDBLK
  5
208
100
AcDbEntity
  8
0
  6
BYBLOCK
 62
0
100
AcDbBlockEnd
  0
ENDSEC
  0
SECTION
  2
ENTITIES
  0
MTEXT
  5
209
100
AcDbEntity
  8
0
100
AcDbMText
 62
2
  6
CONTINUOUS
  7
STANDARD
 71
3
 72
1
 10
5.8085986512
 20
1.2455740276
 30
0.0
 11
1.0
 21
0.0
 31
0.0
 73
2
 44
0.9
  1
SCALE 0.500
 40
0.08
 41
0.704
  0
LINE
  5
20A
100
AcDbEntity
  8
0
100
AcDbLine
 62
7
  6
CONTINUOUS
 10
0.0
 20
0.0
 11
0.0
 21
8.5
  0
LINE
  5
20B
100
AcDbEntity
  8
0
100
AcDbLine
 62
7
  6
CONTINUOUS
 10
0.0
 20
0.0
 11
11.0
 21
0.0
  0
LINE
  5
20C
100
AcDbEntity
  8
0
100
AcDbLine
 62
7
  6
CONTINUOUS
 10
0.0
 20
8.5
 11
11.0
 21
8.5
  0
LINE
  5
20D
100
AcDbEntity
  8
0
100
AcDbLine
 62
7
  6
CONTINUOUS
 10
11.0
 20
0.0
 11
11.0
 21
8.5
  0
LINE
  5
20E
100
AcDbEntity
  8
0
100
AcDbLine
 62
7
  6
CONTINUOUS
 10
1.6183702949
 20
5.492933187
 11
1.6183702949
 21
5.815433187
  0
LINE
  5
20F
100
AcDbEntity
  8
0
100
AcDbLine
 62
7
  6
CONTINUOUS
 10
1.6783702949
 20
5.492933187
 11
1.6783702949
 21
5.815433187
  0
LINE
  5
210
100
AcDbEntity
  8
0
100
AcDbLine
 62
7
  6
CONTINUOUS
 10
3.8708702949
 20
6.954683187
 11
3.8958702949
 21
6.979683187
  0
LINE
  5
211
100
AcDbEntity
  8
0
100
AcDbLine
 62
7
  6
CONTINUOUS
 10
2.9458702949
 20
6.979683187
 11
2.9458702949
 21
7.019683187
  0
LINE
  5
212
100
AcDbEntity
  8
0
100
AcDbLine
 62
7
  6
CONTINUOUS
 10
2.9459555657
 20
6.904683187
 11
2.9459555657
 21
6.864683187
  0
LINE
  5
213
100
AcDbEntity
  8
0
100
AcDbLine
 62
7
  6
CONTINUOUS
 10
2.9461353962
 20
6.904683187
 11
2.9461353962
 21
6.864683187
  0
LINE
  5
214
100
AcDbEntity
  8
0
100
AcDbLine
 62
7
  6
CONTINUOUS
 10
2.9470774434
 20
6.904683187
 11
2.9470774434
 21
6.864683187
  0
LINE
  5
215
100
AcDbEntity
  8
0
100
AcDbLine
 62
7
  6
CONTINUOUS
 10
2.9476164421
 20
6.904683187
 11
2.9476164421
 21
6.864683187
  0
LINE
  5
216
100
AcDbEntity
  8
0
100
AcDbLine
 62
7
  6
CONTINUOUS
 10
2.9494979544
 20
6.904683187
 11
2.9494979544
 21
6.864683187
  0
LINE
  5
217
100
AcDbEntity
  8
0
100
AcDbLine
 62
7
  6
CONTINUOUS
 10
2.9503946439
 20
6.904683187
 11
2.9503946439
 21
6.864683187
  0
LINE
  5
218
100
AcDbEntity
  8
0
100
AcDbLine
 62
7
  6
CONTINUOUS
 10
2.9532104642
 20
6.904683187
 11
2.9532104642
 21
6.864683187
  0
LINE
  5
219
100
AcDbEntity
  8
0
100
AcDbLine
 62
7
  6
CONTINUOUS
 10
2.9544623867
 20
6.904683187
 11
2.9544623867
 21
6.864683187
  0
LINE
  5
21A
100
AcDbEntity
  8
0
100
AcDbLine
 62
7
  6
CONTINUOUS
 10
2.9582047972
 20
6.904683187
 11
2.9582047972
 21
6.864683187
  0
LINE
  5
21B
100
AcDbEntity
  8
0
100
AcDbLine
 62
7
  6
CONTINUOUS
 10
2.9598085212
 20
6.904683187
 11
2.9598085212
 21
6.864683187
  0
LINE
  5
21C
100
AcDbEntity
  8
0
100
AcDbLine
 62
7
  6
CONTINUOUS
 10
2.9644672641
 20
6.904683187
 11
2.9644672641
 21
6.864683187
  0
LINE
  5
21D
100
AcDbEntity
  8
0
100
AcDbLine
 62
7
  6
CONTINUOUS
 10
2.966418394
 20
6.904683187
 11
2.966418394
 21
6.864683187
  0
LINE
  5
21E
100
AcDbEntity
  8
0
100
AcDbLine
 62
7
  6
CONTINUOUS
 10
2.9683702949
 20
5.504183187
 11
2.9683702949
 21
5.804183187
  0
LINE
  5
21F
100
AcDbEntity
  8
0
100
AcDbLine
 62
7
  6
CONTINUOUS
 10
2.9708702949
 20
6.904683187
 11
2.9708702949
 21
6.954683187
  0
LINE
  5
220
100
AcDbEntity
  8
0
100
AcDbLine
 62
7
  6
CONTINUOUS
 10
2.9719806999
 20
6.904683187
 11
2.9719806999
 21
6.864683187
  0
LINE
  5
221
100
AcDbEntity
  8
0
100
AcDbLine
 62
7
  6
CONTINUOUS
 10
2.9742738879
 20
6.904683187
 11
2.9742738879
 21
6.864683187
  0
LINE
  5
222
100
AcDbEntity
  8
0
100
AcDbLine
 62
7
  6
CONTINUOUS
 10
2.980724511
 20
6.904683187
 11
2.980724511
 21
6.864683187
  0
LINE
  5
223
100
AcDbEntity
  8
0
100
AcDbLine
 62
7
  6
CONTINUOUS
 10
2.9833534715
 20
6.904683187
 11
2.9833534715
 21
6.864683187
  0
LINE
  5
224
100
AcDbEntity
  8
0
100
AcDbLine
 62
7
  6
CONTINUOUS
 10
2.990674731
 20
6.904683187
 11
2.990674731
 21
6.864683187
  0
LINE
  5
225
100
AcDbEntity
  8
0
100
AcDbLine
 62
7
  6
CONTINUOUS
 10
2.9936322582
 20
6.904683187
 11
2.9936322582
 21
6.864683187
  0
LINE
  5
226
100
AcDbEntity
  8
0
100
AcDbLine
 62
7
  6
CONTINUOUS
 10
3.0018040872
 20
6.904683187
 11
3.0018040872
 21
6.864683187
  0
LINE
  5
227
100
AcDbEntity
  8
0
100
AcDbLine
 62
7
  6
CONTINUOUS
 10
3.0050820747
 20
6.904683187
 11
3.0050820747
 21
6.864683187
  0
LINE
  5
228
100
AcDbEntity
  8
0
100
AcDbLine
 62
7
  6
CONTINUOUS
 10
3.0140820747
 20
6.904683187
 11
3.0140820747
 21
6.864683187
  0
LINE
  5
229
100
AcDbEntity
  8
0
100
AcDbLine
 62
7
  6
CONTINUOUS
 10
3.0176715379
 20
6.904683187
 11
3.0176715379
 21
6.864683187
  0
LINE
  5
22A
100
AcDbEntity
  8
0
100
AcDbLine
 62
7
  6
CONTINUOUS
 10
3.0274750405
 20
6.904683187
 11
3.0274750405
 21
6.864683187
  0
LINE
  5
22B
100
AcDbEntity
  8
0
100
AcDbLine
 62
7
  6
CONTINUOUS
 10
3.0308702949
 20
5.504183187
 11
3.0308702949
 21
5.804183187
  0
LINE
  5
22C
100
AcDbEntity
  8
0
100
AcDbLine
 62
7
  6
CONTINUOUS
 10
3.0313661408
 20
6.904683187
 11
3.0313661408
 21
6.864683187
  0
LINE
  5
22D
100
AcDbEntity
  8
0
100
AcDbLine
 62
7
  6
CONTINUOUS
 10
3.0419462753
 20
6.904683187
 11
3.0419462753
 21
6.864683187
  0
LINE
  5
22E
100
AcDbEntity
  8
0
100
AcDbLine
 62
7
  6
CONTINUOUS
 10
3.0461283475
 20
6.904683187
 11
3.0461283475
 21
6.864683187
  0
LINE
  5
22F
100
AcDbEntity
  8
0
100
AcDbLine
 62
7
  6
CONTINUOUS
 10
3.0571659849
 20
6.864683187
 11
3.0571659849
 21
6.904683187
  0
LINE
  5
230
100
AcDbEntity
  8
0
100
AcDbLine
 62
7
  6
CONTINUOUS
 10
3.0574561146
 20
6.904683187
 11
3.0574561146
 21
6.864683187
  0
LINE
  5
231
100
AcDbEntity
  8
0
100
AcDbLine
 62
7
  6
CONTINUOUS
 10
3.0619176959
 20
6.904683187
 11
3.0619176959
 21
6.864683187
  0
LINE
  5
232
100
AcDbEntity
  8
0
100
AcDbLine
 62
7
  6
CONTINUOUS
 10
3.0633814958
 20
6.214683187
 11
3.0633814958
 21
6.164683187
  0
LINE
  5
233
100
AcDbEntity
  8
0
100
AcDbLine
 62
7
  6
CONTINUOUS
 10
3.0634968304
 20
6.214683187
 11
3.0634968304
 21
6.164683187
  0
LINE
  5
234
100
AcDbEntity
  8
0
100
AcDbLine
 62
7
  6
CONTINUOUS
 10
3.0644285348
 20
6.214683187
 11
3.0644285348
 21
6.164683187
  0
LINE
  5
235
100
AcDbEntity
  8
0
100
AcDbLine
 62
7
  6
CONTINUOUS
 10
3.0650045208
 20
6.214683187
 11
3.0650045208
 21
6.164683187
  0
LINE
  5
236
100
AcDbEntity
  8
0
100
AcDbLine
 62
7
  6
CONTINUOUS
 10
3.067174181
 20
6.214683187
 11
3.067174181
 21
6.164683187
  0
LINE
  5
237
100
AcDbEntity
  8
0
100
AcDbLine
 62
7
  6
CONTINUOUS
 10
3.0682080737
 20
6.214683187
 11
3.0682080737
 21
6.164683187
  0
LINE
  5
238
100
AcDbEntity
  8
0
100
AcDbLine
 62
7
  6
CONTINUOUS
 10
3.0683702949
 20
5.537183187
 11
3.0683702949
 21
5.771183187
  0
LINE
  5
239
100
AcDbEntity
  8
0
100
AcDbLine
 62
7
  6
CONTINUOUS
 10
3.0716053504
 20
6.214683187
 11
3.0716053504
 21
6.164683187
  0
LINE
  5
23A
100
AcDbEntity
  8
0
100
AcDbLine
 62
7
  6
CONTINUOUS
 10
3.0730785165
 20
6.864683187
 11
3.0730785165
 21
6.904683187
  0
LINE
  5
23B
100
AcDbEntity
  8
0
100
AcDbLine
 62
7
  6
CONTINUOUS
 10
3.0730922226
 20
6.214683187
 11
3.0730922226
 21
6.164683187
  0
LINE
  5
23C
100
AcDbEntity
  8
0
100
AcDbLine
 62
7
  6
CONTINUOUS
 10
3.0739620468
 20
6.904683187
 11
3.0739620468
 21
6.864683187
  0
LINE
  5
23D
100
AcDbEntity
  8
0
100
AcDbLine
 62
7
  6
CONTINUOUS
 10
3.0777009262
 20
6.214683187
 11
3.0777009262
 21
6.164683187
  0
LINE
  5
23E
100
AcDbEntity
  8
0
100
AcDbLine
 62
7
  6
CONTINUOUS
 10
3.0786909083
 20
6.904683187
 11
3.0786909083
 21
6.864683187
  0
LINE
  5
23F
100
AcDbEntity
  8
0
100
AcDbLine
 62
7
  6
CONTINUOUS
 10
3.0796336924
 20
6.214683187
 11
3.0796336924
 21
6.164683187
  0
LINE
  5
240
100
AcDbEntity
  8
0
100
AcDbLine
 62
7
  6
CONTINUOUS
 10
3.0854318604
 20
6.214683187
 11
3.0854318604
 21
6.164683187
  0
LINE
  5
241
100
AcDbEntity
  8
0
100
AcDbLine
 62
7
  6
CONTINUOUS
 10
3.0878013101
 20
6.214683187
 11
3.0878013101
 21
6.164683187
  0
LINE
  5
242
100
AcDbEntity
  8
0
100
AcDbLine
 62
7
  6
CONTINUOUS
 10
3.0899443213
 20
6.864683187
 11
3.0899443213
 21
6.904683187
  0
LINE
  5
243
100
AcDbEntity
  8
0
100
AcDbLine
 62
7
  6
CONTINUOUS
 10
3.0914188304
 20
6.904683187
 11
3.0914188304
 21
6.864683187
  0
LINE
  5
244
100
AcDbEntity
  8
0
100
AcDbLine
 62
7
  6
CONTINUOUS
 10
3.0947613115
 20
6.214683187
 11
3.0947613115
 21
6.164683187
  0
LINE
  5
245
100
AcDbEntity
  8
0
100
AcDbLine
 62
7
  6
CONTINUOUS
 10
3.0964020107
 20
6.904683187
 11
3.0964020107
 21
6.864683187
  0
LINE
  5
246
100
AcDbEntity
  8
0
100
AcDbLine
 62
7
  6
CONTINUOUS
 10
3.0975561531
 20
6.214683187
 11
3.0975561531
 21
6.164683187
  0
LINE
  5
247
100
AcDbEntity
  8
0
100
AcDbLine
 62
7
  6
CONTINUOUS
 10
3.1056448204
 20
6.214683187
 11
3.1056448204
 21
6.164683187
  0
LINE
  5
248
100
AcDbEntity
  8
0
100
AcDbLine
 62
7
  6
CONTINUOUS
 10
3.1077171711
 20
6.864683187
 11
3.1077171711
 21
6.904683187
  0
LINE
  5
249
100
AcDbEntity
  8
0
100
AcDbLine
 62
7
  6
CONTINUOUS
 10
3.1083702949
 20
6.214683187
 11
3.1083702949
 21
6.824683187
  0
LINE
  5
24A
100
AcDbEntity
  8
0
100
AcDbLine
 62
7
  6
CONTINUOUS
 10
3.1088517353
 20
6.214683187
 11
3.1088517353
 21
6.164683187
  0
LINE
  5
24B
100
AcDbEntity
  8
0
100
AcDbLine
 62
7
  6
CONTINUOUS
 10
3.1097786176
 20
6.904683187
 11
3.1097786176
 21
6.864683187
  0
LINE
  5
24C
100
AcDbEntity
  8
0
100
AcDbLine
 62
7
  6
CONTINUOUS
 10
3.1150024581
 20
6.904683187
 11
3.1150024581
 21
6.864683187
  0
LINE
  5
24D
100
AcDbEntity
  8
0
100
AcDbLine
 62
7
  6
CONTINUOUS
 10
3.1180305222
 20
6.214683187
 11
3.1180305222
 21
6.164683187
  0
LINE
  5
24E
100
AcDbEntity
  8
0
100
AcDbLine
 62
7
  6
CONTINUOUS
 10
3.1208702949
 20
6.824683187
 11
3.1208702949
 21
6.829683187
  0
LINE
  5
24F
100
AcDbEntity
  8
0
100
AcDbLine
 62
7
  6
CONTINUOUS
 10
3.121634228
 20
6.214683187
 11
3.121634228
 21
6.164683187
  0
LINE
  5
250
100
AcDbEntity
  8
0
100
AcDbLine
 62
7
  6
CONTINUOUS
 10
3.1263483518
 20
6.864683187
 11
3.1263483518
 21
6.904683187
  0
LINE
  5
251
100
AcDbEntity
  8
0
100
AcDbLine
 62
7
  6
CONTINUOUS
 10
3.1289910854
 20
6.904683187
 11
3.1289910854
 21
6.864683187
  0
LINE
  5
252
100
AcDbEntity
  8
0
100
AcDbLine
 62
7
  6
CONTINUOUS
 10
3.1318593934
 20
6.214683187
 11
3.1318593934
 21
6.164683187
  0
LINE
  5
253
100
AcDbEntity
  8
0
100
AcDbLine
 62
7
  6
CONTINUOUS
 10
3.134441268
 20
6.904683187
 11
3.134441268
 21
6.864683187
  0
LINE
  5
254
100
AcDbEntity
  8
0
100
AcDbLine
 62
7
  6
CONTINUOUS
 10
3.1358427168
 20
6.214683187
 11
3.1358427168
 21
6.164683187
  0
LINE
  5
255
100
AcDbEntity
  8
0
100
AcDbLine
 62
7
  6
CONTINUOUS
 10
3.1457867968
 20
6.864683187
 11
3.1457867968
 21
6.904683187
  0
LINE
  5
256
100
AcDbEntity
  8
0
100
AcDbLine
 62
7
  6
CONTINUOUS
 10
3.1468383603
 20
6.164683187
 11
3.1468383603
 21
6.214683187
  0
LINE
  5
257
100
AcDbEntity
  8
0
100
AcDbLine
 62
7
  6
CONTINUOUS
 10
3.1470655332
 20
6.214683187
 11
3.1470655332
 21
6.164683187
  0
LINE
  5
258
100
AcDbEntity
  8
0
100
AcDbLine
 62
7
  6
CONTINUOUS
 10
3.1490035739
 20
6.904683187
 11
3.1490035739
 21
6.864683187
  0
LINE
  5
259
100
AcDbEntity
  8
0
100
AcDbLine
 62
7
  6
CONTINUOUS
 10
3.1514094918
 20
6.214683187
 11
3.1514094918
 21
6.164683187
  0
LINE
  5
25A
100
AcDbEntity
  8
0
100
AcDbLine
 62
7
  6
CONTINUOUS
 10
3.1546651599
 20
6.904683187
 11
3.1546651599
 21
6.864683187
  0
LINE
  5
25B
100
AcDbEntity
  8
0
100
AcDbLine
 62
7
  6
CONTINUOUS
 10
3.1625681576
 20
6.164683187
 11
3.1625681576
 21
6.214683187
  0
LINE
  5
25C
100
AcDbEntity
  8
0
100
AcDbLine
 62
7
  6
CONTINUOUS
 10
3.1635764774
 20
6.214683187
 11
3.1635764774
 21
6.164683187
  0
LINE
  5
25D
100
AcDbEntity
  8
0
100
AcDbLine
 62
7
  6
CONTINUOUS
 10
3.1659792265
 20
6.864683187
 11
3.1659792265
 21
6.904683187
  0
LINE
  5
25E
100
AcDbEntity
  8
0
100
AcDbLine
 62
7
  6
CONTINUOUS
 10
3.1682603703
 20
6.214683187
 11
3.1682603703
 21
6.164683187
  0
LINE
  5
25F
100
AcDbEntity
  8
0
100
AcDbLine
 62
7
  6
CONTINUOUS
 10
3.1697612301
 20
6.904683187
 11
3.1697612301
 21
6.864683187
  0
LINE
  5
260
100
AcDbEntity
  8
0
100
AcDbLine
 62
7
  6
CONTINUOUS
 10
3.1756187016
 20
6.904683187
 11
3.1756187016
 21
6.864683187
  0
LINE
  5
261
100
AcDbEntity
  8
0
100
AcDbLine
 62
7
  6
CONTINUOUS
 10
3.1795288823
 20
6.164683187
 11
3.1795288823
 21
6.214683187
  0
LINE
  5
262
100
AcDbEntity
  8
0
100
AcDbLine
 62
7
  6
CONTINUOUS
 10
3.1813135438
 20
6.214683187
 11
3.1813135438
 21
6.164683187
  0
LINE
  5
263
100
AcDbEntity
  8
0
100
AcDbLine
 62
7
  6
CONTINUOUS
 10
3.1863150501
 20
6.214683187
 11
3.1863150501
 21
6.164683187
  0
LINE
  5
264
100
AcDbEntity
  8
0
100
AcDbLine
 62
7
  6
CONTINUOUS
 10
3.1868702949
 20
6.864683187
 11
3.1868702949
 21
6.904683187
  0
LINE
  5
265
100
AcDbEntity
  8
0
100
AcDbLine
 62
7
  6
CONTINUOUS
 10
3.1912071589
 20
6.904683187
 11
3.1912071589
 21
6.864683187
  0
LINE
  5
266
100
AcDbEntity
  8
0
100
AcDbLine
 62
7
  6
CONTINUOUS
 10
3.1972444609
 20
6.904683187
 11
3.1972444609
 21
6.864683187
  0
LINE
  5
267
100
AcDbEntity
  8
0
100
AcDbLine
 62
7
  6
CONTINUOUS
 10
3.1976397087
 20
6.164683187
 11
3.1976397087
 21
6.214683187
  0
LINE
  5
268
100
AcDbEntity
  8
0
100
AcDbLine
 62
7
  6
CONTINUOUS
 10
3.2001922073
 20
6.214683187
 11
3.2001922073
 21
6.164683187
  0
LINE
  5
269
100
AcDbEntity
  8
0
100
AcDbLine
 62
7
  6
CONTINUOUS
 10
3.2054874925
 20
6.214683187
 11
3.2054874925
 21
6.164683187
  0
LINE
  5
26A
100
AcDbEntity
  8
0
100
AcDbLine
 62
7
  6
CONTINUOUS
 10
3.208402741
 20
6.864683187
 11
3.208402741
 21
6.904683187
  0
LINE
  5
26B
100
AcDbEntity
  8
0
100
AcDbLine
 62
7
  6
CONTINUOUS
 10
3.2132825783
 20
6.904683187
 11
3.2132825783
 21
6.864683187
  0
LINE
  5
26C
100
AcDbEntity
  8
0
100
AcDbLine
 62
7
  6
CONTINUOUS
 10
3.2168143305
 20
6.164683187
 11
3.2168143305
 21
6.214683187
  0
LINE
  5
26D
100
AcDbEntity
  8
0
100
AcDbLine
 62
7
  6
CONTINUOUS
 10
3.219483163
 20
6.904683187
 11
3.219483163
 21
6.864683187
  0
LINE
  5
26E
100
AcDbEntity
  8
0
100
AcDbLine
 62
7
  6
CONTINUOUS
 10
3.2201225023
 20
6.214683187
 11
3.2201225023
 21
6.164683187
  0
LINE
  5
26F
100
AcDbEntity
  8
0
100
AcDbLine
 62
7
  6
CONTINUOUS
 10
3.2208702949
 20
6.042183187
 11
3.2208702949
 21
6.087183187
  0
LINE
  5
270
100
AcDbEntity
  8
0
100
AcDbLine
 62
7
  6
CONTINUOUS
 10
3.225686332
 20
6.214683187
 11
3.225686332
 21
6.164683187
  0
LINE
  5
271
100
AcDbEntity
  8
0
100
AcDbLine
 62
7
  6
CONTINUOUS
 10
3.2305175459
 20
6.864683187
 11
3.2305175459
 21
6.904683187
  0
LINE
  5
272
100
AcDbEntity
  8
0
100
AcDbLine
 62
7
  6
CONTINUOUS
 10
3.2359269813
 20
6.904683187
 11
3.2359269813
 21
6.864683187
  0
LINE
  5
273
100
AcDbEntity
  8
0
100
AcDbLine
 62
7
  6
CONTINUOUS
 10
3.2369613719
 20
6.164683187
 11
3.2369613719
 21
6.214683187
  0
LINE
  5
274
100
AcDbEntity
  8
0
100
AcDbLine
 62
7
  6
CONTINUOUS
 10
3.2410094519
 20
6.214683187
 11
3.2410094519
 21
6.164683187
  0
LINE
  5
275
100
AcDbEntity
  8
0
100
AcDbLine
 62
7
  6
CONTINUOUS
 10
3.2422738533
 20
6.904683187
 11
3.2422738533
 21
6.864683187
  0
LINE
  5
276
100
AcDbEntity
  8
0
100
AcDbLine
 62
7
  6
CONTINUOUS
 10
3.2458702949
 20
5.556683187
 11
3.2458702949
 21
5.751683187
  0
LINE
  5
277
100
AcDbEntity
  8
0
100
AcDbLine
 62
7
  6
CONTINUOUS
 10
3.2468153119
 20
6.214683187
 11
3.2468153119
 21
6.164683187
  0
LINE
  5
278
100
AcDbEntity
  8
0
100
AcDbLine
 62
7
  6
CONTINUOUS
 10
3.2531540945
 20
6.864683187
 11
3.2531540945
 21
6.904683187
  0
LINE
  5
279
100
AcDbEntity
  8
0
100
AcDbLine
 62
7
  6
CONTINUOUS
 10
3.2579848231
 20
6.164683187
 11
3.2579848231
 21
6.214683187
  0
LINE
  5
27A
100
AcDbEntity
  8
0
100
AcDbLine
 62
7
  6
CONTINUOUS
 10
3.259078301
 20
6.904683187
 11
3.259078301
 21
6.864683187
  0
LINE
  5
27B
100
AcDbEntity
  8
0
100
AcDbLine
 62
7
  6
CONTINUOUS
 10
3.2627535204
 20
6.214683187
 11
3.2627535204
 21
6.164683187
  0
LINE
  5
27C
100
AcDbEntity
  8
0
100
AcDbLine
 62
7
  6
CONTINUOUS
 10
3.265554064
 20
6.904683187
 11
3.265554064
 21
6.864683187
  0
LINE
  5
27D
100
AcDbEntity
  8
0
100
AcDbLine
 62
7
  6
CONTINUOUS
 10
3.2687737431
 20
6.214683187
 11
3.2687737431
 21
6.164683187
  0
LINE
  5
27E
100
AcDbEntity
  8
0
100
AcDbLine
 62
7
  6
CONTINUOUS
 10
3.2721202949
 20
6.027183187
 11
3.2721202949
 21
5.9213694566
  0
LINE
  5
27F
100
AcDbEntity
  8
0
100
AcDbLine
 62
7
  6
CONTINUOUS
 10
3.2762503415
 20
6.864683187
 11
3.2762503415
 21
6.904683187
  0
LINE
  5
280
100
AcDbEntity
  8
0
100
AcDbLine
 62
7
  6
CONTINUOUS
 10
3.2797844977
 20
6.164683187
 11
3.2797844977
 21
6.214683187
  0
LINE
  5
281
100
AcDbEntity
  8
0
100
AcDbLine
 62
7
  6
CONTINUOUS
 10
3.2826730813
 20
6.904683187
 11
3.2826730813
 21
6.864683187
  0
LINE
  5
282
100
AcDbEntity
  8
0
100
AcDbLine
 62
7
  6
CONTINUOUS
 10
3.2852510873
 20
6.214683187
 11
3.2852510873
 21
6.164683187
  0
LINE
  5
283
100
AcDbEntity
  8
0
100
AcDbLine
 62
7
  6
CONTINUOUS
 10
3.2892599857
 20
6.904683187
 11
3.2892599857
 21
6.864683187
  0
LINE
  5
284
100
AcDbEntity
  8
0
100
AcDbLine
 62
7
  6
CONTINUOUS
 10
3.2914569837
 20
6.214683187
 11
3.2914569837
 21
6.164683187
  0
LINE
  5
285
100
AcDbEntity
  8
0
100
AcDbLine
 62
7
  6
CONTINUOUS
 10
3.2997429817
 20
6.864683187
 11
3.2997429817
 21
6.904683187
  0
LINE
  5
286
100
AcDbEntity
  8
0
100
AcDbLine
 62
7
  6
CONTINUOUS
 10
3.3022565104
 20
6.164683187
 11
3.3022565104
 21
6.214683187
  0
LINE
  5
287
100
AcDbEntity
  8
0
100
AcDbLine
 62
7
  6
CONTINUOUS
 10
3.3066466506
 20
6.904683187
 11
3.3066466506
 21
6.864683187
  0
LINE
  5
288
100
AcDbEntity
  8
0
100
AcDbLine
 62
7
  6
CONTINUOUS
 10
3.3083949415
 20
6.214683187
 11
3.3083949415
 21
6.164683187
  0
LINE
  5
289
100
AcDbEntity
  8
0
100
AcDbLine
 62
7
  6
CONTINUOUS
 10
3.3133266421
 20
6.904683187
 11
3.3133266421
 21
6.864683187
  0
LINE
  5
28A
100
AcDbEntity
  8
0
100
AcDbLine
 62
7
  6
CONTINUOUS
 10
3.3147569376
 20
6.214683187
 11
3.3147569376
 21
6.164683187
  0
LINE
  5
28B
100
AcDbEntity
  8
0
100
AcDbLine
 62
7
  6
CONTINUOUS
 10
3.3233702949
 20
5.841683187
 11
3.3233702949
 21
5.829183187
  0
LINE
  5
28C
100
AcDbEntity
  8
0
100
AcDbLine
 62
7
  6
CONTINUOUS
 10
3.3235676236
 20
6.864683187
 11
3.3235676236
 21
6.904683187
  0
LINE
  5
28D
100
AcDbEntity
  8
0
100
AcDbLine
 62
7
  6
CONTINUOUS
 10
3.3252937718
 20
6.164683187
 11
3.3252937718
 21
6.214683187
  0
LINE
  5
28E
100
AcDbEntity
  8
0
100
AcDbLine
 62
7
  6
CONTINUOUS
 10
3.3309332989
 20
6.904683187
 11
3.3309332989
 21
6.864683187
  0
LINE
  5
28F
100
AcDbEntity
  8
0
100
AcDbLine
 62
7
  6
CONTINUOUS
 10
3.332074792
 20
6.214683187
 11
3.332074792
 21
6.164683187
  0
LINE
  5
290
100
AcDbEntity
  8
0
100
AcDbLine
 62
7
  6
CONTINUOUS
 10
3.3376880682
 20
6.904683187
 11
3.3376880682
 21
6.864683187
  0
LINE
  5
291
100
AcDbEntity
  8
0
100
AcDbLine
 62
7
  6
CONTINUOUS
 10
3.33856257
 20
6.214683187
 11
3.33856257
 21
6.164683187
  0
LINE
  5
292
100
AcDbEntity
  8
0
100
AcDbLine
 62
7
  6
CONTINUOUS
 10
3.3476589652
 20
6.864683187
 11
3.3476589652
 21
6.904683187
  0
LINE
  5
293
100
AcDbEntity
  8
0
100
AcDbLine
 62
7
  6
CONTINUOUS
 10
3.3487864988
 20
6.164683187
 11
3.3487864988
 21
6.214683187
  0
LINE
  5
294
100
AcDbEntity
  8
0
100
AcDbLine
 62
7
  6
CONTINUOUS
 10
3.3554664583
 20
6.904683187
 11
3.3554664583
 21
6.864683187
  0
LINE
  5
295
100
AcDbEntity
  8
0
100
AcDbLine
 62
7
  6
CONTINUOUS
 10
3.3561777935
 20
6.214683187
 11
3.3561777935
 21
6.164683187
  0
LINE
  5
296
100
AcDbEntity
  8
0
100
AcDbLine
 62
7
  6
CONTINUOUS
 10
3.362277491
 20
6.904683187
 11
3.362277491
 21
6.864683187
  0
LINE
  5
297
100
AcDbEntity
  8
0
100
AcDbLine
 62
7
  6
CONTINUOUS
 10
3.3627604362
 20
6.214683187
 11
3.3627604362
 21
6.164683187
  0
LINE
  5
298
100
AcDbEntity
  8
0
100
AcDbLine
 62
7
  6
CONTINUOUS
 10
3.371950974
 20
6.864683187
 11
3.371950974
 21
6.904683187
  0
LINE
  5
299
100
AcDbEntity
  8
0
100
AcDbLine
 62
7
  6
CONTINUOUS
 10
3.372622738
 20
6.164683187
 11
3.372622738
 21
6.214683187
  0
LINE
  5
29A
100
AcDbEntity
  8
0
100
AcDbLine
 62
7
  6
CONTINUOUS
 10
3.3801788851
 20
6.904683187
 11
3.3801788851
 21
6.864683187
  0
LINE
  5
29B
100
AcDbEntity
  8
0
100
AcDbLine
 62
7
  6
CONTINUOUS
 10
3.3805890842
 20
6.214683187
 11
3.3805890842
 21
6.164683187
  0
LINE
  5
29C
100
AcDbEntity
  8
0
100
AcDbLine
 62
7
  6
CONTINUOUS
 10
3.3870275126
 20
6.904683187
 11
3.3870275126
 21
6.864683187
  0
LINE
  5
29D
100
AcDbEntity
  8
0
100
AcDbLine
 62
7
  6
CONTINUOUS
 10
3.3872352223
 20
6.214683187
 11
3.3872352223
 21
6.164683187
  0
LINE
  5
29E
100
AcDbEntity
  8
0
100
AcDbLine
 62
7
  6
CONTINUOUS
 10
3.3963770673
 20
6.864683187
 11
3.3963770673
 21
6.904683187
  0
LINE
  5
29F
100
AcDbEntity
  8
0
100
AcDbLine
 62
7
  6
CONTINUOUS
 10
3.3966888987
 20
6.164683187
 11
3.3966888987
 21
6.214683187
  0
LINE
  5
2A0
100
AcDbEntity
  8
0
100
AcDbLine
 62
7
  6
CONTINUOUS
 10
3.4050028442
 20
6.904683187
 11
3.4050028442
 21
6.864683187
  0
LINE
  5
2A1
100
AcDbEntity
  8
0
100
AcDbLine
 62
7
  6
CONTINUOUS
 10
3.4051923332
 20
6.214683187
 11
3.4051923332
 21
6.164683187
  0
LINE
  5
2A2
100
AcDbEntity
  8
0
100
AcDbLine
 62
7
  6
CONTINUOUS
 10
3.4118702949
 20
6.904683187
 11
3.4118702949
 21
6.864683187
  0
LINE
  5
2A3
100
AcDbEntity
  8
0
100
AcDbLine
 62
7
  6
CONTINUOUS
 10
3.4118702949
 20
6.214683187
 11
3.4118702949
 21
6.164683187
  0
LINE
  5
2A4
100
AcDbEntity
  8
0
100
AcDbLine
 62
7
  6
CONTINUOUS
 10
3.4208702949
 20
6.164683187
 11
3.4208702949
 21
6.214683187
  0
LINE
  5
2A5
100
AcDbEntity
  8
0
100
AcDbLine
 62
7
  6
CONTINUOUS
 10
3.4208702949
 20
6.864683187
 11
3.4208702949
 21
6.904683187
  0
LINE
  5
2A6
100
AcDbEntity
  8
0
100
AcDbLine
 62
7
  6
CONTINUOUS
 10
3.4298702949
 20
6.904683187
 11
3.4298702949
 21
6.864683187
  0
LINE
  5
2A7
100
AcDbEntity
  8
0
100
AcDbLine
 62
7
  6
CONTINUOUS
 10
3.4298702949
 20
6.214683187
 11
3.4298702949
 21
6.164683187
  0
LINE
  5
2A8
100
AcDbEntity
  8
0
100
AcDbLine
 62
7
  6
CONTINUOUS
 10
3.4365482565
 20
6.214683187
 11
3.4365482565
 21
6.164683187
  0
LINE
  5
2A9
100
AcDbEntity
  8
0
100
AcDbLine
 62
7
  6
CONTINUOUS
 10
3.4367377455
 20
6.904683187
 11
3.4367377455
 21
6.864683187
  0
LINE
  5
2AA
100
AcDbEntity
  8
0
100
AcDbLine
 62
7
  6
CONTINUOUS
 10
3.445051691
 20
6.164683187
 11
3.445051691
 21
6.214683187
  0
LINE
  5
2AB
100
AcDbEntity
  8
0
100
AcDbLine
 62
7
  6
CONTINUOUS
 10
3.4453635224
 20
6.864683187
 11
3.4453635224
 21
6.904683187
  0
LINE
  5
2AC
100
AcDbEntity
  8
0
100
AcDbLine
 62
7
  6
CONTINUOUS
 10
3.4545053674
 20
6.214683187
 11
3.4545053674
 21
6.164683187
  0
LINE
  5
2AD
100
AcDbEntity
  8
0
100
AcDbLine
 62
7
  6
CONTINUOUS
 10
3.4547130772
 20
6.904683187
 11
3.4547130772
 21
6.864683187
  0
LINE
  5
2AE
100
AcDbEntity
  8
0
100
AcDbLine
 62
7
  6
CONTINUOUS
 10
3.4611515055
 20
6.214683187
 11
3.4611515055
 21
6.164683187
  0
LINE
  5
2AF
100
AcDbEntity
  8
0
100
AcDbLine
 62
7
  6
CONTINUOUS
 10
3.4615617046
 20
6.904683187
 11
3.4615617046
 21
6.864683187
  0
LINE
  5
2B0
100
AcDbEntity
  8
0
100
AcDbLine
 62
7
  6
CONTINUOUS
 10
3.4691178517
 20
6.164683187
 11
3.4691178517
 21
6.214683187
  0
LINE
  5
2B1
100
AcDbEntity
  8
0
100
AcDbLine
 62
7
  6
CONTINUOUS
 10
3.4697896157
 20
6.864683187
 11
3.4697896157
 21
6.904683187
  0
LINE
  5
2B2
100
AcDbEntity
  8
0
100
AcDbLine
 62
7
  6
CONTINUOUS
 10
3.4789801535
 20
6.214683187
 11
3.4789801535
 21
6.164683187
  0
LINE
  5
2B3
100
AcDbEntity
  8
0
100
AcDbLine
 62
7
  6
CONTINUOUS
 10
3.4794630987
 20
6.904683187
 11
3.4794630987
 21
6.864683187
  0
LINE
  5
2B4
100
AcDbEntity
  8
0
100
AcDbLine
 62
7
  6
CONTINUOUS
 10
3.4855627963
 20
6.214683187
 11
3.4855627963
 21
6.164683187
  0
LINE
  5
2B5
100
AcDbEntity
  8
0
100
AcDbLine
 62
7
  6
CONTINUOUS
 10
3.4862741314
 20
6.904683187
 11
3.4862741314
 21
6.864683187
  0
LINE
  5
2B6
100
AcDbEntity
  8
0
100
AcDbLine
 62
7
  6
CONTINUOUS
 10
3.4929540909
 20
6.164683187
 11
3.4929540909
 21
6.214683187
  0
LINE
  5
2B7
100
AcDbEntity
  8
0
100
AcDbLine
 62
7
  6
CONTINUOUS
 10
3.4940816245
 20
6.864683187
 11
3.4940816245
 21
6.904683187
  0
LINE
  5
2B8
100
AcDbEntity
  8
0
100
AcDbLine
 62
7
  6
CONTINUOUS
 10
3.5031780197
 20
6.214683187
 11
3.5031780197
 21
6.164683187
  0
LINE
  5
2B9
100
AcDbEntity
  8
0
100
AcDbLine
 62
7
  6
CONTINUOUS
 10
3.5040525215
 20
6.904683187
 11
3.5040525215
 21
6.864683187
  0
LINE
  5
2BA
100
AcDbEntity
  8
0
100
AcDbLine
 62
7
  6
CONTINUOUS
 10
3.5096657977
 20
6.214683187
 11
3.5096657977
 21
6.164683187
  0
LINE
  5
2BB
100
AcDbEntity
  8
0
100
AcDbLine
 62
7
  6
CONTINUOUS
 10
3.5108072908
 20
6.904683187
 11
3.5108072908
 21
6.864683187
  0
LINE
  5
2BC
100
AcDbEntity
  8
0
100
AcDbLine
 62
7
  6
CONTINUOUS
 10
3.5164468179
 20
6.164683187
 11
3.5164468179
 21
6.214683187
  0
LINE
  5
2BD
100
AcDbEntity
  8
0
100
AcDbLine
 62
7
  6
CONTINUOUS
 10
3.5181729662
 20
6.864683187
 11
3.5181729662
 21
6.904683187
  0
LINE
  5
2BE
100
AcDbEntity
  8
0
100
AcDbLine
 62
7
  6
CONTINUOUS
 10
3.5183702949
 20
5.841683187
 11
3.5183702949
 21
5.829183187
  0
LINE
  5
2BF
100
AcDbEntity
  8
0
100
AcDbLine
 62
7
  6
CONTINUOUS
 10
3.5269836521
 20
6.214683187
 11
3.5269836521
 21
6.164683187
  0
LINE
  5
2C0
100
AcDbEntity
  8
0
100
AcDbLine
 62
7
  6
CONTINUOUS
 10
3.5284139476
 20
6.904683187
 11
3.5284139476
 21
6.864683187
  0
LINE
  5
2C1
100
AcDbEntity
  8
0
100
AcDbLine
 62
7
  6
CONTINUOUS
 10
3.5333456482
 20
6.214683187
 11
3.5333456482
 21
6.164683187
  0
LINE
  5
2C2
100
AcDbEntity
  8
0
100
AcDbLine
 62
7
  6
CONTINUOUS
 10
3.5350939391
 20
6.904683187
 11
3.5350939391
 21
6.864683187
  0
LINE
  5
2C3
100
AcDbEntity
  8
0
100
AcDbLine
 62
7
  6
CONTINUOUS
 10
3.5394840793
 20
6.164683187
 11
3.5394840793
 21
6.214683187
  0
LINE
  5
2C4
100
AcDbEntity
  8
0
100
AcDbLine
 62
7
  6
CONTINUOUS
 10
3.541997608
 20
6.864683187
 11
3.541997608
 21
6.904683187
  0
LINE
  5
2C5
100
AcDbEntity
  8
0
100
AcDbLine
 62
7
  6
CONTINUOUS
 10
3.550283606
 20
6.214683187
 11
3.550283606
 21
6.164683187
  0
LINE
  5
2C6
100
AcDbEntity
  8
0
100
AcDbLine
 62
7
  6
CONTINUOUS
 10
3.552480604
 20
6.904683187
 11
3.552480604
 21
6.864683187
  0
LINE
  5
2C7
100
AcDbEntity
  8
0
100
AcDbLine
 62
7
  6
CONTINUOUS
 10
3.5564895024
 20
6.214683187
 11
3.5564895024
 21
6.164683187
  0
LINE
  5
2C8
100
AcDbEntity
  8
0
100
AcDbLine
 62
7
  6
CONTINUOUS
 10
3.5590675084
 20
6.904683187
 11
3.5590675084
 21
6.864683187
  0
LINE
  5
2C9
100
AcDbEntity
  8
0
100
AcDbLine
 62
7
  6
CONTINUOUS
 10
3.561956092
 20
6.164683187
 11
3.561956092
 21
6.214683187
  0
LINE
  5
2CA
100
AcDbEntity
  8
0
100
AcDbLine
 62
7
  6
CONTINUOUS
 10
3.5654902482
 20
6.864683187
 11
3.5654902482
 21
6.904683187
  0
LINE
  5
2CB
100
AcDbEntity
  8
0
100
AcDbLine
 62
7
  6
CONTINUOUS
 10
3.5696202949
 20
6.027183187
 11
3.5696202949
 21
5.9213694566
  0
LINE
  5
2CC
100
AcDbEntity
  8
0
100
AcDbLine
 62
7
  6
CONTINUOUS
 10
3.5729668466
 20
6.214683187
 11
3.5729668466
 21
6.164683187
  0
LINE
  5
2CD
100
AcDbEntity
  8
0
100
AcDbLine
 62
7
  6
CONTINUOUS
 10
3.5761865257
 20
6.904683187
 11
3.5761865257
 21
6.864683187
  0
LINE
  5
2CE
100
AcDbEntity
  8
0
100
AcDbLine
 62
7
  6
CONTINUOUS
 10
3.5789870693
 20
6.214683187
 11
3.5789870693
 21
6.164683187
  0
LINE
  5
2CF
100
AcDbEntity
  8
0
100
AcDbLine
 62
7
  6
CONTINUOUS
 10
3.5826622887
 20
6.904683187
 11
3.5826622887
 21
6.864683187
  0
LINE
  5
2D0
100
AcDbEntity
  8
0
100
AcDbLine
 62
7
  6
CONTINUOUS
 10
3.5837557667
 20
6.164683187
 11
3.5837557667
 21
6.214683187
  0
LINE
  5
2D1
100
AcDbEntity
  8
0
100
AcDbLine
 62
7
  6
CONTINUOUS
 10
3.5885864952
 20
6.864683187
 11
3.5885864952
 21
6.904683187
  0
LINE
  5
2D2
100
AcDbEntity
  8
0
100
AcDbLine
 62
7
  6
CONTINUOUS
 10
3.5949252778
 20
6.214683187
 11
3.5949252778
 21
6.164683187
  0
LINE
  5
2D3
100
AcDbEntity
  8
0
100
AcDbLine
 62
7
  6
CONTINUOUS
 10
3.5994667364
 20
6.904683187
 11
3.5994667364
 21
6.864683187
  0
LINE
  5
2D4
100
AcDbEntity
  8
0
100
AcDbLine
 62
7
  6
CONTINUOUS
 10
3.6007311378
 20
6.214683187
 11
3.6007311378
 21
6.164683187
  0
LINE
  5
2D5
100
AcDbEntity
  8
0
100
AcDbLine
 62
7
  6
CONTINUOUS
 10
3.6047792178
 20
6.164683187
 11
3.6047792178
 21
6.214683187
  0
LINE
  5
2D6
100
AcDbEntity
  8
0
100
AcDbLine
 62
7
  6
CONTINUOUS
 10
3.6058136084
 20
6.904683187
 11
3.6058136084
 21
6.864683187
  0
LINE
  5
2D7
100
AcDbEntity
  8
0
100
AcDbLine
 62
7
  6
CONTINUOUS
 10
3.6112230438
 20
6.864683187
 11
3.6112230438
 21
6.904683187
  0
LINE
  5
2D8
100
AcDbEntity
  8
0
100
AcDbLine
 62
7
  6
CONTINUOUS
 10
3.6160542578
 20
6.214683187
 11
3.6160542578
 21
6.164683187
  0
LINE
  5
2D9
100
AcDbEntity
  8
0
100
AcDbLine
 62
7
  6
CONTINUOUS
 10
3.6208702949
 20
6.042183187
 11
3.6208702949
 21
6.087183187
  0
LINE
  5
2DA
100
AcDbEntity
  8
0
100
AcDbLine
 62
7
  6
CONTINUOUS
 10
3.6216180875
 20
6.214683187
 11
3.6216180875
 21
6.164683187
  0
LINE
  5
2DB
100
AcDbEntity
  8
0
100
AcDbLine
 62
7
  6
CONTINUOUS
 10
3.6222574267
 20
6.904683187
 11
3.6222574267
 21
6.864683187
  0
LINE
  5
2DC
100
AcDbEntity
  8
0
100
AcDbLine
 62
7
  6
CONTINUOUS
 10
3.6249262592
 20
6.164683187
 11
3.6249262592
 21
6.214683187
  0
LINE
  5
2DD
100
AcDbEntity
  8
0
100
AcDbLine
 62
7
  6
CONTINUOUS
 10
3.6284580114
 20
6.904683187
 11
3.6284580114
 21
6.864683187
  0
LINE
  5
2DE
100
AcDbEntity
  8
0
100
AcDbLine
 62
7
  6
CONTINUOUS
 10
3.6333378487
 20
6.864683187
 11
3.6333378487
 21
6.904683187
  0
LINE
  5
2DF
100
AcDbEntity
  8
0
100
AcDbLine
 62
7
  6
CONTINUOUS
 10
3.6362530972
 20
6.214683187
 11
3.6362530972
 21
6.164683187
  0
LINE
  5
2E0
100
AcDbEntity
  8
0
100
AcDbLine
 62
7
  6
CONTINUOUS
 10
3.6415483825
 20
6.214683187
 11
3.6415483825
 21
6.164683187
  0
LINE
  5
2E1
100
AcDbEntity
  8
0
100
AcDbLine
 62
7
  6
CONTINUOUS
 10
3.644100881
 20
6.164683187
 11
3.644100881
 21
6.214683187
  0
LINE
  5
2E2
100
AcDbEntity
  8
0
100
AcDbLine
 62
7
  6
CONTINUOUS
 10
3.6444961288
 20
6.904683187
 11
3.6444961288
 21
6.864683187
  0
LINE
  5
2E3
100
AcDbEntity
  8
0
100
AcDbLine
 62
7
  6
CONTINUOUS
 10
3.6505334308
 20
6.904683187
 11
3.6505334308
 21
6.864683187
  0
LINE
  5
2E4
100
AcDbEntity
  8
0
100
AcDbLine
 62
7
  6
CONTINUOUS
 10
3.6548702949
 20
6.864683187
 11
3.6548702949
 21
6.904683187
  0
LINE
  5
2E5
100
AcDbEntity
  8
0
100
AcDbLine
 62
7
  6
CONTINUOUS
 10
3.6554255396
 20
6.214683187
 11
3.6554255396
 21
6.164683187
  0
LINE
  5
2E6
100
AcDbEntity
  8
0
100
AcDbLine
 62
7
  6
CONTINUOUS
 10
3.6604270459
 20
6.214683187
 11
3.6604270459
 21
6.164683187
  0
LINE
  5
2E7
100
AcDbEntity
  8
0
100
AcDbLine
 62
7
  6
CONTINUOUS
 10
3.6622117074
 20
6.164683187
 11
3.6622117074
 21
6.214683187
  0
LINE
  5
2E8
100
AcDbEntity
  8
0
100
AcDbLine
 62
7
  6
CONTINUOUS
 10
3.6661218881
 20
6.904683187
 11
3.6661218881
 21
6.864683187
  0
LINE
  5
2E9
100
AcDbEntity
  8
0
100
AcDbLine
 62
7
  6
CONTINUOUS
 10
3.6719793596
 20
6.904683187
 11
3.6719793596
 21
6.864683187
  0
LINE
  5
2EA
100
AcDbEntity
  8
0
100
AcDbLine
 62
7
  6
CONTINUOUS
 10
3.6734802194
 20
6.214683187
 11
3.6734802194
 21
6.164683187
  0
LINE
  5
2EB
100
AcDbEntity
  8
0
100
AcDbLine
 62
7
  6
CONTINUOUS
 10
3.6757613632
 20
6.864683187
 11
3.6757613632
 21
6.904683187
  0
LINE
  5
2EC
100
AcDbEntity
  8
0
100
AcDbLine
 62
7
  6
CONTINUOUS
 10
3.6781641123
 20
6.214683187
 11
3.6781641123
 21
6.164683187
  0
LINE
  5
2ED
100
AcDbEntity
  8
0
100
AcDbLine
 62
7
  6
CONTINUOUS
 10
3.6791724321
 20
6.164683187
 11
3.6791724321
 21
6.214683187
  0
LINE
  5
2EE
100
AcDbEntity
  8
0
100
AcDbLine
 62
7
  6
CONTINUOUS
 10
3.6870754298
 20
6.904683187
 11
3.6870754298
 21
6.864683187
  0
LINE
  5
2EF
100
AcDbEntity
  8
0
100
AcDbLine
 62
7
  6
CONTINUOUS
 10
3.6903310979
 20
6.214683187
 11
3.6903310979
 21
6.164683187
  0
LINE
  5
2F0
100
AcDbEntity
  8
0
100
AcDbLine
 62
7
  6
CONTINUOUS
 10
3.6927370158
 20
6.904683187
 11
3.6927370158
 21
6.864683187
  0
LINE
  5
2F1
100
AcDbEntity
  8
0
100
AcDbLine
 62
7
  6
CONTINUOUS
 10
3.6946750565
 20
6.214683187
 11
3.6946750565
 21
6.164683187
  0
LINE
  5
2F2
100
AcDbEntity
  8
0
100
AcDbLine
 62
7
  6
CONTINUOUS
 10
3.6949022295
 20
6.164683187
 11
3.6949022295
 21
6.214683187
  0
LINE
  5
2F3
100
AcDbEntity
  8
0
100
AcDbLine
 62
7
  6
CONTINUOUS
 10
3.6959537929
 20
6.864683187
 11
3.6959537929
 21
6.904683187
  0
LINE
  5
2F4
100
AcDbEntity
  8
0
100
AcDbLine
 62
7
  6
CONTINUOUS
 10
3.7058978729
 20
6.214683187
 11
3.7058978729
 21
6.164683187
  0
LINE
  5
2F5
100
AcDbEntity
  8
0
100
AcDbLine
 62
7
  6
CONTINUOUS
 10
3.7072993217
 20
6.904683187
 11
3.7072993217
 21
6.864683187
  0
LINE
  5
2F6
100
AcDbEntity
  8
0
100
AcDbLine
 62
7
  6
CONTINUOUS
 10
3.7098811963
 20
6.214683187
 11
3.7098811963
 21
6.164683187
  0
LINE
  5
2F7
100
AcDbEntity
  8
0
100
AcDbLine
 62
7
  6
CONTINUOUS
 10
3.7127495043
 20
6.904683187
 11
3.7127495043
 21
6.864683187
  0
LINE
  5
2F8
100
AcDbEntity
  8
0
100
AcDbLine
 62
7
  6
CONTINUOUS
 10
3.7153922379
 20
6.864683187
 11
3.7153922379
 21
6.904683187
  0
LINE
  5
2F9
100
AcDbEntity
  8
0
100
AcDbLine
 62
7
  6
CONTINUOUS
 10
3.7201063617
 20
6.214683187
 11
3.7201063617
 21
6.164683187
  0
LINE
  5
2FA
100
AcDbEntity
  8
0
100
AcDbLine
 62
7
  6
CONTINUOUS
 10
3.7208702949
 20
6.824683187
 11
3.7208702949
 21
6.829683187
  0
LINE
  5
2FB
100
AcDbEntity
  8
0
100
AcDbLine
 62
7
  6
CONTINUOUS
 10
3.7237100675
 20
6.214683187
 11
3.7237100675
 21
6.164683187
  0
LINE
  5
2FC
100
AcDbEntity
  8
0
100
AcDbLine
 62
7
  6
CONTINUOUS
 10
3.7267381316
 20
6.904683187
 11
3.7267381316
 21
6.864683187
  0
LINE
  5
2FD
100
AcDbEntity
  8
0
100
AcDbLine
 62
7
  6
CONTINUOUS
 10
3.7319619721
 20
6.904683187
 11
3.7319619721
 21
6.864683187
  0
LINE
  5
2FE
100
AcDbEntity
  8
0
100
AcDbLine
 62
7
  6
CONTINUOUS
 10
3.7328888544
 20
6.214683187
 11
3.7328888544
 21
6.164683187
  0
LINE
  5
2FF
100
AcDbEntity
  8
0
100
AcDbLine
 62
7
  6
CONTINUOUS
 10
3.7333702949
 20
6.214683187
 11
3.7333702949
 21
6.824683187
  0
LINE
  5
300
100
AcDbEntity
  8
0
100
AcDbLine
 62
7
  6
CONTINUOUS
 10
3.7340234186
 20
6.864683187
 11
3.7340234186
 21
6.904683187
  0
LINE
  5
301
100
AcDbEntity
  8
0
100
AcDbLine
 62
7
  6
CONTINUOUS
 10
3.7360957694
 20
6.214683187
 11
3.7360957694
 21
6.164683187
  0
LINE
  5
302
100
AcDbEntity
  8
0
100
AcDbLine
 62
7
  6
CONTINUOUS
 10
3.7441844366
 20
6.214683187
 11
3.7441844366
 21
6.164683187
  0
LINE
  5
303
100
AcDbEntity
  8
0
100
AcDbLine
 62
7
  6
CONTINUOUS
 10
3.745338579
 20
6.904683187
 11
3.745338579
 21
6.864683187
  0
LINE
  5
304
100
AcDbEntity
  8
0
100
AcDbLine
 62
7
  6
CONTINUOUS
 10
3.7469792782
 20
6.214683187
 11
3.7469792782
 21
6.164683187
  0
LINE
  5
305
100
AcDbEntity
  8
0
100
AcDbLine
 62
7
  6
CONTINUOUS
 10
3.7503217593
 20
6.904683187
 11
3.7503217593
 21
6.864683187
  0
LINE
  5
306
100
AcDbEntity
  8
0
100
AcDbLine
 62
7
  6
CONTINUOUS
 10
3.7517962685
 20
6.864683187
 11
3.7517962685
 21
6.904683187
  0
LINE
  5
307
100
AcDbEntity
  8
0
100
AcDbLine
 62
7
  6
CONTINUOUS
 10
3.7539392796
 20
6.214683187
 11
3.7539392796
 21
6.164683187
  0
LINE
  5
308
100
AcDbEntity
  8
0
100
AcDbLine
 62
7
  6
CONTINUOUS
 10
3.7563087293
 20
6.214683187
 11
3.7563087293
 21
6.164683187
  0
LINE
  5
309
100
AcDbEntity
  8
0
100
AcDbLine
 62
7
  6
CONTINUOUS
 10
3.7621068973
 20
6.214683187
 11
3.7621068973
 21
6.164683187
  0
LINE
  5
30A
100
AcDbEntity
  8
0
100
AcDbLine
 62
7
  6
CONTINUOUS
 10
3.7630496814
 20
6.904683187
 11
3.7630496814
 21
6.864683187
  0
LINE
  5
30B
100
AcDbEntity
  8
0
100
AcDbLine
 62
7
  6
CONTINUOUS
 10
3.7640396635
 20
6.214683187
 11
3.7640396635
 21
6.164683187
  0
LINE
  5
30C
100
AcDbEntity
  8
0
100
AcDbLine
 62
7
  6
CONTINUOUS
 10
3.7677785429
 20
6.904683187
 11
3.7677785429
 21
6.864683187
  0
LINE
  5
30D
100
AcDbEntity
  8
0
100
AcDbLine
 62
7
  6
CONTINUOUS
 10
3.7686483671
 20
6.214683187
 11
3.7686483671
 21
6.164683187
  0
LINE
  5
30E
100
AcDbEntity
  8
0
100
AcDbLine
 62
7
  6
CONTINUOUS
 10
3.7686620732
 20
6.864683187
 11
3.7686620732
 21
6.904683187
  0
LINE
  5
30F
100
AcDbEntity
  8
0
100
AcDbLine
 62
7
  6
CONTINUOUS
 10
3.7701352393
 20
6.214683187
 11
3.7701352393
 21
6.164683187
  0
LINE
  5
310
100
AcDbEntity
  8
0
100
AcDbLine
 62
7
  6
CONTINUOUS
 10
3.7735325161
 20
6.214683187
 11
3.7735325161
 21
6.164683187
  0
LINE
  5
311
100
AcDbEntity
  8
0
100
AcDbLine
 62
7
  6
CONTINUOUS
 10
3.7745664087
 20
6.214683187
 11
3.7745664087
 21
6.164683187
  0
LINE
  5
312
100
AcDbEntity
  8
0
100
AcDbLine
 62
7
  6
CONTINUOUS
 10
3.7767360689
 20
6.214683187
 11
3.7767360689
 21
6.164683187
  0
LINE
  5
313
100
AcDbEntity
  8
0
100
AcDbLine
 62
7
  6
CONTINUOUS
 10
3.777312055
 20
6.214683187
 11
3.777312055
 21
6.164683187
  0
LINE
  5
314
100
AcDbEntity
  8
0
100
AcDbLine
 62
7
  6
CONTINUOUS
 10
3.7782437593
 20
6.214683187
 11
3.7782437593
 21
6.164683187
  0
LINE
  5
315
100
AcDbEntity
  8
0
100
AcDbLine
 62
7
  6
CONTINUOUS
 10
3.7783590939
 20
6.214683187
 11
3.7783590939
 21
6.164683187
  0
LINE
  5
316
100
AcDbEntity
  8
0
100
AcDbLine
 62
7
  6
CONTINUOUS
 10
3.7798228939
 20
6.904683187
 11
3.7798228939
 21
6.864683187
  0
LINE
  5
317
100
AcDbEntity
  8
0
100
AcDbLine
 62
7
  6
CONTINUOUS
 10
3.7842844752
 20
6.904683187
 11
3.7842844752
 21
6.864683187
  0
LINE
  5
318
100
AcDbEntity
  8
0
100
AcDbLine
 62
7
  6
CONTINUOUS
 10
3.7845746048
 20
6.864683187
 11
3.7845746048
 21
6.904683187
  0
LINE
  5
319
100
AcDbEntity
  8
0
100
AcDbLine
 62
7
  6
CONTINUOUS
 10
3.7956122422
 20
6.904683187
 11
3.7956122422
 21
6.864683187
  0
LINE
  5
31A
100
AcDbEntity
  8
0
100
AcDbLine
 62
7
  6
CONTINUOUS
 10
3.7997943144
 20
6.904683187
 11
3.7997943144
 21
6.864683187
  0
LINE
  5
31B
100
AcDbEntity
  8
0
100
AcDbLine
 62
7
  6
CONTINUOUS
 10
3.8103744489
 20
6.904683187
 11
3.8103744489
 21
6.864683187
  0
LINE
  5
31C
100
AcDbEntity
  8
0
100
AcDbLine
 62
7
  6
CONTINUOUS
 10
3.8142655492
 20
6.904683187
 11
3.8142655492
 21
6.864683187
  0
LINE
  5
31D
100
AcDbEntity
  8
0
100
AcDbLine
 62
7
  6
CONTINUOUS
 10
3.8240690518
 20
6.904683187
 11
3.8240690518
 21
6.864683187
  0
LINE
  5
31E
100
AcDbEntity
  8
0
100
AcDbLine
 62
7
  6
CONTINUOUS
 10
3.827658515
 20
6.904683187
 11
3.827658515
 21
6.864683187
  0
LINE
  5
31F
100
AcDbEntity
  8
0
100
AcDbLine
 62
7
  6
CONTINUOUS
 10
3.836658515
 20
6.904683187
 11
3.836658515
 21
6.864683187
  0
LINE
  5
320
100
AcDbEntity
  8
0
100
AcDbLine
 62
7
  6
CONTINUOUS
 10
3.8399365025
 20
6.904683187
 11
3.8399365025
 21
6.864683187
  0
LINE
  5
321
100
AcDbEntity
  8
0
100
AcDbLine
 62
7
  6
CONTINUOUS
 10
3.8481083315
 20
6.904683187
 11
3.8481083315
 21
6.864683187
  0
LINE
  5
322
100
AcDbEntity
  8
0
100
AcDbLine
 62
7
  6
CONTINUOUS
 10
3.8510658587
 20
6.904683187
 11
3.8510658587
 21
6.864683187
  0
LINE
  5
323
100
AcDbEntity
  8
0
100
AcDbLine
 62
7
  6
CONTINUOUS
 10
3.8583871183
 20
6.904683187
 11
3.8583871183
 21
6.864683187
  0
LINE
  5
324
100
AcDbEntity
  8
0
100
AcDbLine
 62
7
  6
CONTINUOUS
 10
3.8610160787
 20
6.904683187
 11
3.8610160787
 21
6.864683187
  0
LINE
  5
325
100
AcDbEntity
  8
0
100
AcDbLine
 62
7
  6
CONTINUOUS
 10
3.8674667018
 20
6.904683187
 11
3.8674667018
 21
6.864683187
  0
LINE
  5
326
100
AcDbEntity
  8
0
100
AcDbLine
 62
7
  6
CONTINUOUS
 10
3.8697598898
 20
6.904683187
 11
3.8697598898
 21
6.864683187
  0
LINE
  5
327
100
AcDbEntity
  8
0
100
AcDbLine
 62
7
  6
CONTINUOUS
 10
3.8708702949
 20
6.904683187
 11
3.8708702949
 21
6.954683187
  0
LINE
  5
328
100
AcDbEntity
  8
0
100
AcDbLine
 62
7
  6
CONTINUOUS
 10
3.8753221957
 20
6.904683187
 11
3.8753221957
 21
6.864683187
  0
LINE
  5
329
100
AcDbEntity
  8
0
100
AcDbLine
 62
7
  6
CONTINUOUS
 10
3.8772733257
 20
6.904683187
 11
3.8772733257
 21
6.864683187
  0
LINE
  5
32A
100
AcDbEntity
  8
0
100
AcDbLine
 62
7
  6
CONTINUOUS
 10
3.8819320685
 20
6.904683187
 11
3.8819320685
 21
6.864683187
  0
LINE
  5
32B
100
AcDbEntity
  8
0
100
AcDbLine
 62
7
  6
CONTINUOUS
 10
3.8835357925
 20
6.904683187
 11
3.8835357925
 21
6.864683187
  0
LINE
  5
32C
100
AcDbEntity
  8
0
100
AcDbLine
 62
7
  6
CONTINUOUS
 10
3.887278203
 20
6.904683187
 11
3.887278203
 21
6.864683187
  0
LINE
  5
32D
100
AcDbEntity
  8
0
100
AcDbLine
 62
7
  6
CONTINUOUS
 10
3.8885301255
 20
6.904683187
 11
3.8885301255
 21
6.864683187
  0
LINE
  5
32E
100
AcDbEntity
  8
0
100
AcDbLine
 62
7
  6
CONTINUOUS
 10
3.8913459458
 20
6.904683187
 11
3.8913459458
 21
6.864683187
  0
LINE
  5
32F
100
AcDbEntity
  8
0
100
AcDbLine
 62
7
  6
CONTINUOUS
 10
3.8922426353
 20
6.904683187
 11
3.8922426353
 21
6.864683187
  0
LINE
  5
330
100
AcDbEntity
  8
0
100
AcDbLine
 62
7
  6
CONTINUOUS
 10
3.8941241476
 20
6.904683187
 11
3.8941241476
 21
6.864683187
  0
LINE
  5
331
100
AcDbEntity
  8
0
100
AcDbLine
 62
7
  6
CONTINUOUS
 10
3.8946631463
 20
6.904683187
 11
3.8946631463
 21
6.864683187
  0
LINE
  5
332
100
AcDbEntity
  8
0
100
AcDbLine
 62
7
  6
CONTINUOUS
 10
3.8956051935
 20
6.904683187
 11
3.8956051935
 21
6.864683187
  0
LINE
  5
333
100
AcDbEntity
  8
0
100
AcDbLine
 62
7
  6
CONTINUOUS
 10
3.895785024
 20
6.904683187
 11
3.895785024
 21
6.864683187
  0
LINE
  5
334
100
AcDbEntity
  8
0
100
AcDbLine
 62
7
  6
CONTINUOUS
 10
3.8958702949
 20
6.979683187
 11
3.8958702949
 21
7.019683187
  0
LINE
  5
335
100
AcDbEntity
  8
0
100
AcDbLine
 62
7
  6
CONTINUOUS
 10
5.9518702949
 20
6.979683187
 11
5.9268702949
 21
6.954683187
  0
LINE
  5
336
100
AcDbEntity
  8
0
100
AcDbLine
 62
7
  6
CONTINUOUS
 10
5.1706202949
 20
3.269683187
 11
5.6081202949
 21
3.269683187
  0
LINE
  5
337
100
AcDbEntity
  8
0
100
AcDbLine
 62
7
  6
CONTINUOUS
 10
4.8268702949
 20
7.019683187
 11
4.8268702949
 21
6.979683187
  0
LINE
  5
338
100
AcDbEntity
  8
0
100
AcDbLine
 62
7
  6
CONTINUOUS
 10
4.8268702949
 20
6.904683187
 11
4.8268702949
 21
6.864683187
  0
LINE
  5
339
100
AcDbEntity
  8
0
100
AcDbLine
 62
7
  6
CONTINUOUS
 10
4.8518702949
 20
6.954683187
 11
4.8518702949
 21
6.904683187
  0
LINE
  5
33A
100
AcDbEntity
  8
0
100
AcDbLine
 62
7
  6
CONTINUOUS
 10
5.0144783104
 20
5.907183187
 11
5.0144783104
 21
5.957183187
  0
LINE
  5
33B
100
AcDbEntity
  8
0
100
AcDbLine
 62
7
  6
CONTINUOUS
 10
5.0146923548
 20
5.907183187
 11
5.0146923548
 21
5.957183187
  0
LINE
  5
33C
100
AcDbEntity
  8
0
100
AcDbLine
 62
7
  6
CONTINUOUS
 10
5.0158696111
 20
5.907183187
 11
5.0158696111
 21
5.957183187
  0
LINE
  5
33D
100
AcDbEntity
  8
0
100
AcDbLine
 62
7
  6
CONTINUOUS
 10
5.0165108276
 20
5.907183187
 11
5.0165108276
 21
5.957183187
  0
LINE
  5
33E
100
AcDbEntity
  8
0
100
AcDbLine
 62
7
  6
CONTINUOUS
 10
5.018860299
 20
5.907183187
 11
5.018860299
 21
5.957183187
  0
LINE
  5
33F
100
AcDbEntity
  8
0
100
AcDbLine
 62
7
  6
CONTINUOUS
 10
5.0199259419
 20
5.907183187
 11
5.0199259419
 21
5.957183187
  0
LINE
  5
340
100
AcDbEntity
  8
0
100
AcDbLine
 62
7
  6
CONTINUOUS
 10
5.0234375677
 20
5.907183187
 11
5.0234375677
 21
5.957183187
  0
LINE
  5
341
100
AcDbEntity
  8
0
100
AcDbLine
 62
7
  6
CONTINUOUS
 10
5.0249230736
 20
5.907183187
 11
5.0249230736
 21
5.957183187
  0
LINE
  5
342
100
AcDbEntity
  8
0
100
AcDbLine
 62
7
  6
CONTINUOUS
 10
5.0295818164
 20
5.907183187
 11
5.0295818164
 21
5.957183187
  0
LINE
  5
343
100
AcDbEntity
  8
0
100
AcDbLine
 62
7
  6
CONTINUOUS
 10
5.0314808243
 20
5.907183187
 11
5.0314808243
 21
5.957183187
  0
LINE
  5
344
100
AcDbEntity
  8
0
100
AcDbLine
 62
7
  6
CONTINUOUS
 10
5.0372667347
 20
5.907183187
 11
5.0372667347
 21
5.957183187
  0
LINE
  5
345
100
AcDbEntity
  8
0
100
AcDbLine
 62
7
  6
CONTINUOUS
 10
5.0395711126
 20
5.907183187
 11
5.0395711126
 21
5.957183187
  0
LINE
  5
346
100
AcDbEntity
  8
0
100
AcDbLine
 62
7
  6
CONTINUOUS
 10
5.0464594144
 20
5.907183187
 11
5.0464594144
 21
5.957183187
  0
LINE
  5
347
100
AcDbEntity
  8
0
100
AcDbLine
 62
7
  6
CONTINUOUS
 10
5.0491592948
 20
5.907183187
 11
5.0491592948
 21
5.957183187
  0
LINE
  5
348
100
AcDbEntity
  8
0
100
AcDbLine
 62
7
  6
CONTINUOUS
 10
5.0571204912
 20
5.907183187
 11
5.0571204912
 21
5.957183187
  0
LINE
  5
349
100
AcDbEntity
  8
0
100
AcDbLine
 62
7
  6
CONTINUOUS
 10
5.0602043127
 20
5.907183187
 11
5.0602043127
 21
5.957183187
  0
LINE
  5
34A
100
AcDbEntity
  8
0
100
AcDbLine
 62
7
  6
CONTINUOUS
 10
5.0613702949
 20
6.829683187
 11
5.0613702949
 21
5.957183187
  0
LINE
  5
34B
100
AcDbEntity
  8
0
100
AcDbLine
 62
7
  6
CONTINUOUS
 10
5.0692043127
 20
5.907183187
 11
5.0692043127
 21
5.957183187
  0
LINE
  5
34C
100
AcDbEntity
  8
0
100
AcDbLine
 62
7
  6
CONTINUOUS
 10
5.0726588698
 20
5.907183187
 11
5.0726588698
 21
5.957183187
  0
LINE
  5
34D
100
AcDbEntity
  8
0
100
AcDbLine
 62
7
  6
CONTINUOUS
 10
5.082659134
 20
5.907183187
 11
5.082659134
 21
5.957183187
  0
LINE
  5
34E
100
AcDbEntity
  8
0
100
AcDbLine
 62
7
  6
CONTINUOUS
 10
5.0864696339
 20
5.907183187
 11
5.0864696339
 21
5.957183187
  0
LINE
  5
34F
100
AcDbEntity
  8
0
100
AcDbLine
 62
7
  6
CONTINUOUS
 10
5.0974273396
 20
5.907183187
 11
5.0974273396
 21
5.957183187
  0
LINE
  5
350
100
AcDbEntity
  8
0
100
AcDbLine
 62
7
  6
CONTINUOUS
 10
5.1015774651
 20
5.907183187
 11
5.1015774651
 21
5.957183187
  0
LINE
  5
351
100
AcDbEntity
  8
0
100
AcDbLine
 62
7
  6
CONTINUOUS
 10
5.1126932457
 20
5.957183187
 11
5.1126932457
 21
5.907183187
  0
LINE
  5
352
100
AcDbEntity
  8
0
100
AcDbLine
 62
7
  6
CONTINUOUS
 10
5.1134456898
 20
5.907183187
 11
5.1134456898
 21
5.957183187
  0
LINE
  5
353
100
AcDbEntity
  8
0
100
AcDbLine
 62
7
  6
CONTINUOUS
 10
5.1179176694
 20
5.907183187
 11
5.1179176694
 21
5.957183187
  0
LINE
  5
354
100
AcDbEntity
  8
0
100
AcDbLine
 62
7
  6
CONTINUOUS
 10
5.1291549994
 20
5.957183187
 11
5.1291549994
 21
5.907183187
  0
LINE
  5
355
100
AcDbEntity
  8
0
100
AcDbLine
 62
7
  6
CONTINUOUS
 10
5.1306455915
 20
5.907183187
 11
5.1306455915
 21
5.957183187
  0
LINE
  5
356
100
AcDbEntity
  8
0
100
AcDbLine
 62
7
  6
CONTINUOUS
 10
5.1354202755
 20
5.907183187
 11
5.1354202755
 21
5.957183187
  0
LINE
  5
357
100
AcDbEntity
  8
0
100
AcDbLine
 62
7
  6
CONTINUOUS
 10
5.1393702949
 20
5.829683187
 11
5.1393702949
 21
5.784683187
  0
LINE
  5
358
100
AcDbEntity
  8
0
100
AcDbLine
 62
7
  6
CONTINUOUS
 10
5.1467310349
 20
5.957183187
 11
5.1467310349
 21
5.907183187
  0
LINE
  5
359
100
AcDbEntity
  8
0
100
AcDbLine
 62
7
  6
CONTINUOUS
 10
5.1489533921
 20
5.907183187
 11
5.1489533921
 21
5.957183187
  0
LINE
  5
35A
100
AcDbEntity
  8
0
100
AcDbLine
 62
7
  6
CONTINUOUS
 10
5.1540103346
 20
5.907183187
 11
5.1540103346
 21
5.957183187
  0
LINE
  5
35B
100
AcDbEntity
  8
0
100
AcDbLine
 62
7
  6
CONTINUOUS
 10
5.165346089
 20
5.957183187
 11
5.165346089
 21
5.907183187
  0
LINE
  5
35C
100
AcDbEntity
  8
0
100
AcDbLine
 62
7
  6
CONTINUOUS
 10
5.1682906947
 20
5.907183187
 11
5.1682906947
 21
5.957183187
  0
LINE
  5
35D
100
AcDbEntity
  8
0
100
AcDbLine
 62
7
  6
CONTINUOUS
 10
5.1706202949
 20
2.269683187
 11
5.1706202949
 21
5.769683187
  0
LINE
  5
35E
100
AcDbEntity
  8
0
100
AcDbLine
 62
7
  6
CONTINUOUS
 10
5.1736082412
 20
5.907183187
 11
5.1736082412
 21
5.957183187
  0
LINE
  5
35F
100
AcDbEntity
  8
0
100
AcDbLine
 62
7
  6
CONTINUOUS
 10
5.1849204491
 20
5.957183187
 11
5.1849204491
 21
5.907183187
  0
LINE
  5
360
100
AcDbEntity
  8
0
100
AcDbLine
 62
7
  6
CONTINUOUS
 10
5.1885746942
 20
5.907183187
 11
5.1885746942
 21
5.957183187
  0
LINE
  5
361
100
AcDbEntity
  8
0
100
AcDbLine
 62
7
  6
CONTINUOUS
 10
5.194130074
 20
5.907183187
 11
5.194130074
 21
5.957183187
  0
LINE
  5
362
100
AcDbEntity
  8
0
100
AcDbLine
 62
7
  6
CONTINUOUS
 10
5.2053702949
 20
5.957183187
 11
5.2053702949
 21
5.907183187
  0
LINE
  5
363
100
AcDbEntity
  8
0
100
AcDbLine
 62
7
  6
CONTINUOUS
 10
5.2097185313
 20
5.907183187
 11
5.2097185313
 21
5.957183187
  0
LINE
  5
364
100
AcDbEntity
  8
0
100
AcDbLine
 62
7
  6
CONTINUOUS
 10
5.2154879554
 20
5.907183187
 11
5.2154879554
 21
5.957183187
  0
LINE
  5
365
100
AcDbEntity
  8
0
100
AcDbLine
 62
7
  6
CONTINUOUS
 10
5.2266080569
 20
5.957183187
 11
5.2266080569
 21
5.907183187
  0
LINE
  5
366
100
AcDbEntity
  8
0
100
AcDbLine
 62
7
  6
CONTINUOUS
 10
5.2316316648
 20
5.907183187
 11
5.2316316648
 21
5.957183187
  0
LINE
  5
367
100
AcDbEntity
  8
0
100
AcDbLine
 62
7
  6
CONTINUOUS
 10
5.2375904277
 20
5.907183187
 11
5.2375904277
 21
5.957183187
  0
LINE
  5
368
100
AcDbEntity
  8
0
100
AcDbLine
 62
7
  6
CONTINUOUS
 10
5.2485427917
 20
5.957183187
 11
5.2485427917
 21
5.907183187
  0
LINE
  5
369
100
AcDbEntity
  8
0
100
AcDbLine
 62
7
  6
CONTINUOUS
 10
5.2542202593
 20
5.907183187
 11
5.2542202593
 21
5.957183187
  0
LINE
  5
36A
100
AcDbEntity
  8
0
100
AcDbLine
 62
7
  6
CONTINUOUS
 10
5.2603428447
 20
5.907183187
 11
5.2603428447
 21
5.957183187
  0
LINE
  5
36B
100
AcDbEntity
  8
0
100
AcDbLine
 62
7
  6
CONTINUOUS
 10
5.2710805716
 20
5.957183187
 11
5.2710805716
 21
5.907183187
  0
LINE
  5
36C
100
AcDbEntity
  8
0
100
AcDbLine
 62
7
  6
CONTINUOUS
 10
5.277387587
 20
5.907183187
 11
5.277387587
 21
5.957183187
  0
LINE
  5
36D
100
AcDbEntity
  8
0
100
AcDbLine
 62
7
  6
CONTINUOUS
 10
5.283647777
 20
5.907183187
 11
5.283647777
 21
5.957183187
  0
LINE
  5
36E
100
AcDbEntity
  8
0
100
AcDbLine
 62
7
  6
CONTINUOUS
 10
5.2941248863
 20
5.957183187
 11
5.2941248863
 21
5.907183187
  0
LINE
  5
36F
100
AcDbEntity
  8
0
100
AcDbLine
 62
7
  6
CONTINUOUS
 10
5.3010344419
 20
5.907183187
 11
5.3010344419
 21
5.957183187
  0
LINE
  5
370
100
AcDbEntity
  8
0
100
AcDbLine
 62
7
  6
CONTINUOUS
 10
5.3074054294
 20
5.907183187
 11
5.3074054294
 21
5.957183187
  0
LINE
  5
371
100
AcDbEntity
  8
0
100
AcDbLine
 62
7
  6
CONTINUOUS
 10
5.3175770564
 20
5.957183187
 11
5.3175770564
 21
5.907183187
  0
LINE
  5
372
100
AcDbEntity
  8
0
100
AcDbLine
 62
7
  6
CONTINUOUS
 10
5.3250595644
 20
5.907183187
 11
5.3250595644
 21
5.957183187
  0
LINE
  5
373
100
AcDbEntity
  8
0
100
AcDbLine
 62
7
  6
CONTINUOUS
 10
5.3315140679
 20
5.907183187
 11
5.3315140679
 21
5.957183187
  0
LINE
  5
374
100
AcDbEntity
  8
0
100
AcDbLine
 62
7
  6
CONTINUOUS
 10
5.3413366561
 20
5.957183187
 11
5.3413366561
 21
5.907183187
  0
LINE
  5
375
100
AcDbEntity
  8
0
100
AcDbLine
 62
7
  6
CONTINUOUS
 10
5.3493600754
 20
5.907183187
 11
5.3493600754
 21
5.957183187
  0
LINE
  5
376
100
AcDbEntity
  8
0
100
AcDbLine
 62
7
  6
CONTINUOUS
 10
5.3558704556
 20
5.907183187
 11
5.3558704556
 21
5.957183187
  0
LINE
  5
377
100
AcDbEntity
  8
0
100
AcDbLine
 62
7
  6
CONTINUOUS
 10
5.3653019433
 20
5.957183187
 11
5.3653019433
 21
5.907183187
  0
LINE
  5
378
100
AcDbEntity
  8
0
100
AcDbLine
 62
7
  6
CONTINUOUS
 10
5.3738319163
 20
5.907183187
 11
5.3738319163
 21
5.957183187
  0
LINE
  5
379
100
AcDbEntity
  8
0
100
AcDbLine
 62
7
  6
CONTINUOUS
 10
5.3803702949
 20
5.907183187
 11
5.3803702949
 21
5.957183187
  0
LINE
  5
37A
100
AcDbEntity
  8
0
100
AcDbLine
 62
7
  6
CONTINUOUS
 10
5.3893702949
 20
5.957183187
 11
5.3893702949
 21
5.907183187
  0
LINE
  5
37B
100
AcDbEntity
  8
0
100
AcDbLine
 62
7
  6
CONTINUOUS
 10
5.3983702949
 20
5.907183187
 11
5.3983702949
 21
5.957183187
  0
LINE
  5
37C
100
AcDbEntity
  8
0
100
AcDbLine
 62
7
  6
CONTINUOUS
 10
5.4049086735
 20
5.907183187
 11
5.4049086735
 21
5.957183187
  0
LINE
  5
37D
100
AcDbEntity
  8
0
100
AcDbLine
 62
7
  6
CONTINUOUS
 10
5.4134386464
 20
5.957183187
 11
5.4134386464
 21
5.907183187
  0
LINE
  5
37E
100
AcDbEntity
  8
0
100
AcDbLine
 62
7
  6
CONTINUOUS
 10
5.4228701341
 20
5.907183187
 11
5.4228701341
 21
5.957183187
  0
LINE
  5
37F
100
AcDbEntity
  8
0
100
AcDbLine
 62
7
  6
CONTINUOUS
 10
5.4293805143
 20
5.907183187
 11
5.4293805143
 21
5.957183187
  0
LINE
  5
380
100
AcDbEntity
  8
0
100
AcDbLine
 62
7
  6
CONTINUOUS
 10
7.8078702949
 20
6.954683187
 11
7.8328702949
 21
6.979683187
  0
LINE
  5
381
100
AcDbEntity
  8
0
100
AcDbLine
 62
7
  6
CONTINUOUS
 10
2.9708702949
 20
6.954683187
 11
2.9458702949
 21
6.979683187
  0
LINE
  5
382
100
AcDbEntity
  8
0
100
AcDbLine
 62
7
  6
CONTINUOUS
 10
5.4374039336
 20
5.957183187
 11
5.4374039336
 21
5.907183187
  0
LINE
  5
383
100
AcDbEntity
  8
0
100
AcDbLine
 62
7
  6
CONTINUOUS
 10
5.4472265218
 20
5.907183187
 11
5.4472265218
 21
5.957183187
  0
LINE
  5
384
100
AcDbEntity
  8
0
100
AcDbLine
 62
7
  6
CONTINUOUS
 10
5.4536810253
 20
5.907183187
 11
5.4536810253
 21
5.957183187
  0
LINE
  5
385
100
AcDbEntity
  8
0
100
AcDbLine
 62
7
  6
CONTINUOUS
 10
5.4611635334
 20
5.957183187
 11
5.4611635334
 21
5.907183187
  0
LINE
  5
386
100
AcDbEntity
  8
0
100
AcDbLine
 62
7
  6
CONTINUOUS
 10
5.4713351603
 20
5.907183187
 11
5.4713351603
 21
5.957183187
  0
LINE
  5
387
100
AcDbEntity
  8
0
100
AcDbLine
 62
7
  6
CONTINUOUS
 10
5.4777061478
 20
5.907183187
 11
5.4777061478
 21
5.957183187
  0
LINE
  5
388
100
AcDbEntity
  8
0
100
AcDbLine
 62
7
  6
CONTINUOUS
 10
5.4846157035
 20
5.957183187
 11
5.4846157035
 21
5.907183187
  0
LINE
  5
389
100
AcDbEntity
  8
0
100
AcDbLine
 62
7
  6
CONTINUOUS
 10
5.4950928127
 20
5.907183187
 11
5.4950928127
 21
5.957183187
  0
LINE
  5
38A
100
AcDbEntity
  8
0
100
AcDbLine
 62
7
  6
CONTINUOUS
 10
5.5013530027
 20
5.907183187
 11
5.5013530027
 21
5.957183187
  0
LINE
  5
38B
100
AcDbEntity
  8
0
100
AcDbLine
 62
7
  6
CONTINUOUS
 10
5.5076600181
 20
5.957183187
 11
5.5076600181
 21
5.907183187
  0
LINE
  5
38C
100
AcDbEntity
  8
0
100
AcDbLine
 62
7
  6
CONTINUOUS
 10
5.518397745
 20
5.907183187
 11
5.518397745
 21
5.957183187
  0
LINE
  5
38D
100
AcDbEntity
  8
0
100
AcDbLine
 62
7
  6
CONTINUOUS
 10
5.5245203304
 20
5.907183187
 11
5.5245203304
 21
5.957183187
  0
LINE
  5
38E
100
AcDbEntity
  8
0
100
AcDbLine
 62
7
  6
CONTINUOUS
 10
5.530197798
 20
5.957183187
 11
5.530197798
 21
5.907183187
  0
LINE
  5
38F
100
AcDbEntity
  8
0
100
AcDbLine
 62
7
  6
CONTINUOUS
 10
5.541150162
 20
5.907183187
 11
5.541150162
 21
5.957183187
  0
LINE
  5
390
100
AcDbEntity
  8
0
100
AcDbLine
 62
7
  6
CONTINUOUS
 10
5.547108925
 20
5.907183187
 11
5.547108925
 21
5.957183187
  0
LINE
  5
391
100
AcDbEntity
  8
0
100
AcDbLine
 62
7
  6
CONTINUOUS
 10
5.5521325329
 20
5.957183187
 11
5.5521325329
 21
5.907183187
  0
LINE
  5
392
100
AcDbEntity
  8
0
100
AcDbLine
 62
7
  6
CONTINUOUS
 10
5.5632526343
 20
5.907183187
 11
5.5632526343
 21
5.957183187
  0
LINE
  5
393
100
AcDbEntity
  8
0
100
AcDbLine
 62
7
  6
CONTINUOUS
 10
5.5690220584
 20
5.907183187
 11
5.5690220584
 21
5.957183187
  0
LINE
  5
394
100
AcDbEntity
  8
0
100
AcDbLine
 62
7
  6
CONTINUOUS
 10
5.5733702949
 20
5.957183187
 11
5.5733702949
 21
5.907183187
  0
LINE
  5
395
100
AcDbEntity
  8
0
100
AcDbLine
 62
7
  6
CONTINUOUS
 10
5.5846105157
 20
5.907183187
 11
5.5846105157
 21
5.957183187
  0
LINE
  5
396
100
AcDbEntity
  8
0
100
AcDbLine
 62
7
  6
CONTINUOUS
 10
5.5901658955
 20
5.907183187
 11
5.5901658955
 21
5.957183187
  0
LINE
  5
397
100
AcDbEntity
  8
0
100
AcDbLine
 62
7
  6
CONTINUOUS
 10
5.5938201406
 20
5.957183187
 11
5.5938201406
 21
5.907183187
  0
LINE
  5
398
100
AcDbEntity
  8
0
100
AcDbLine
 62
7
  6
CONTINUOUS
 10
5.6051323485
 20
5.907183187
 11
5.6051323485
 21
5.957183187
  0
LINE
  5
399
100
AcDbEntity
  8
0
100
AcDbLine
 62
7
  6
CONTINUOUS
 10
5.6081202949
 20
2.269683187
 11
5.6081202949
 21
5.769683187
  0
LINE
  5
39A
100
AcDbEntity
  8
0
100
AcDbLine
 62
7
  6
CONTINUOUS
 10
5.610449895
 20
5.907183187
 11
5.610449895
 21
5.957183187
  0
LINE
  5
39B
100
AcDbEntity
  8
0
100
AcDbLine
 62
7
  6
CONTINUOUS
 10
5.6133945007
 20
5.957183187
 11
5.6133945007
 21
5.907183187
  0
LINE
  5
39C
100
AcDbEntity
  8
0
100
AcDbLine
 62
7
  6
CONTINUOUS
 10
5.6247302551
 20
5.907183187
 11
5.6247302551
 21
5.957183187
  0
LINE
  5
39D
100
AcDbEntity
  8
0
100
AcDbLine
 62
7
  6
CONTINUOUS
 10
5.6297871976
 20
5.907183187
 11
5.6297871976
 21
5.957183187
  0
LINE
  5
39E
100
AcDbEntity
  8
0
100
AcDbLine
 62
7
  6
CONTINUOUS
 10
5.6320095548
 20
5.957183187
 11
5.6320095548
 21
5.907183187
  0
LINE
  5
39F
100
AcDbEntity
  8
0
100
AcDbLine
 62
7
  6
CONTINUOUS
 10
5.6393702949
 20
5.829683187
 11
5.6393702949
 21
5.784683187
  0
LINE
  5
3A0
100
AcDbEntity
  8
0
100
AcDbLine
 62
7
  6
CONTINUOUS
 10
5.6433203142
 20
5.907183187
 11
5.6433203142
 21
5.957183187
  0
LINE
  5
3A1
100
AcDbEntity
  8
0
100
AcDbLine
 62
7
  6
CONTINUOUS
 10
5.6480949982
 20
5.907183187
 11
5.6480949982
 21
5.957183187
  0
LINE
  5
3A2
100
AcDbEntity
  8
0
100
AcDbLine
 62
7
  6
CONTINUOUS
 10
5.6495855903
 20
5.957183187
 11
5.6495855903
 21
5.907183187
  0
LINE
  5
3A3
100
AcDbEntity
  8
0
100
AcDbLine
 62
7
  6
CONTINUOUS
 10
5.6608229203
 20
5.907183187
 11
5.6608229203
 21
5.957183187
  0
LINE
  5
3A4
100
AcDbEntity
  8
0
100
AcDbLine
 62
7
  6
CONTINUOUS
 10
5.6652948999
 20
5.907183187
 11
5.6652948999
 21
5.957183187
  0
LINE
  5
3A5
100
AcDbEntity
  8
0
100
AcDbLine
 62
7
  6
CONTINUOUS
 10
5.666047344
 20
5.957183187
 11
5.666047344
 21
5.907183187
  0
LINE
  5
3A6
100
AcDbEntity
  8
0
100
AcDbLine
 62
7
  6
CONTINUOUS
 10
5.6771631246
 20
5.907183187
 11
5.6771631246
 21
5.957183187
  0
LINE
  5
3A7
100
AcDbEntity
  8
0
100
AcDbLine
 62
7
  6
CONTINUOUS
 10
5.6813132501
 20
5.907183187
 11
5.6813132501
 21
5.957183187
  0
LINE
  5
3A8
100
AcDbEntity
  8
0
100
AcDbLine
 62
7
  6
CONTINUOUS
 10
5.6922709558
 20
5.907183187
 11
5.6922709558
 21
5.957183187
  0
LINE
  5
3A9
100
AcDbEntity
  8
0
100
AcDbLine
 62
7
  6
CONTINUOUS
 10
5.6960814557
 20
5.907183187
 11
5.6960814557
 21
5.957183187
  0
LINE
  5
3AA
100
AcDbEntity
  8
0
100
AcDbLine
 62
7
  6
CONTINUOUS
 10
5.7060817199
 20
5.907183187
 11
5.7060817199
 21
5.957183187
  0
LINE
  5
3AB
100
AcDbEntity
  8
0
100
AcDbLine
 62
7
  6
CONTINUOUS
 10
5.7095362771
 20
5.907183187
 11
5.7095362771
 21
5.957183187
  0
LINE
  5
3AC
100
AcDbEntity
  8
0
100
AcDbLine
 62
7
  6
CONTINUOUS
 10
5.7173702949
 20
6.829683187
 11
5.7173702949
 21
5.957183187
  0
LINE
  5
3AD
100
AcDbEntity
  8
0
100
AcDbLine
 62
7
  6
CONTINUOUS
 10
5.7185362771
 20
5.907183187
 11
5.7185362771
 21
5.957183187
  0
LINE
  5
3AE
100
AcDbEntity
  8
0
100
AcDbLine
 62
7
  6
CONTINUOUS
 10
5.7216200985
 20
5.907183187
 11
5.7216200985
 21
5.957183187
  0
LINE
  5
3AF
100
AcDbEntity
  8
0
100
AcDbLine
 62
7
  6
CONTINUOUS
 10
5.7295812949
 20
5.907183187
 11
5.7295812949
 21
5.957183187
  0
LINE
  5
3B0
100
AcDbEntity
  8
0
100
AcDbLine
 62
7
  6
CONTINUOUS
 10
5.7322811753
 20
5.907183187
 11
5.7322811753
 21
5.957183187
  0
LINE
  5
3B1
100
AcDbEntity
  8
0
100
AcDbLine
 62
7
  6
CONTINUOUS
 10
5.7391694771
 20
5.907183187
 11
5.7391694771
 21
5.957183187
  0
LINE
  5
3B2
100
AcDbEntity
  8
0
100
AcDbLine
 62
7
  6
CONTINUOUS
 10
5.741473855
 20
5.907183187
 11
5.741473855
 21
5.957183187
  0
LINE
  5
3B3
100
AcDbEntity
  8
0
100
AcDbLine
 62
7
  6
CONTINUOUS
 10
5.7472597654
 20
5.907183187
 11
5.7472597654
 21
5.957183187
  0
LINE
  5
3B4
100
AcDbEntity
  8
0
100
AcDbLine
 62
7
  6
CONTINUOUS
 10
5.7491587733
 20
5.907183187
 11
5.7491587733
 21
5.957183187
  0
LINE
  5
3B5
100
AcDbEntity
  8
0
100
AcDbLine
 62
7
  6
CONTINUOUS
 10
5.7538175161
 20
5.907183187
 11
5.7538175161
 21
5.957183187
  0
LINE
  5
3B6
100
AcDbEntity
  8
0
100
AcDbLine
 62
7
  6
CONTINUOUS
 10
5.755303022
 20
5.907183187
 11
5.755303022
 21
5.957183187
  0
LINE
  5
3B7
100
AcDbEntity
  8
0
100
AcDbLine
 62
7
  6
CONTINUOUS
 10
5.7588146478
 20
5.907183187
 11
5.7588146478
 21
5.957183187
  0
LINE
  5
3B8
100
AcDbEntity
  8
0
100
AcDbLine
 62
7
  6
CONTINUOUS
 10
5.7598802907
 20
5.907183187
 11
5.7598802907
 21
5.957183187
  0
LINE
  5
3B9
100
AcDbEntity
  8
0
100
AcDbLine
 62
7
  6
CONTINUOUS
 10
5.7622297621
 20
5.907183187
 11
5.7622297621
 21
5.957183187
  0
LINE
  5
3BA
100
AcDbEntity
  8
0
100
AcDbLine
 62
7
  6
CONTINUOUS
 10
5.7628709786
 20
5.907183187
 11
5.7628709786
 21
5.957183187
  0
LINE
  5
3BB
100
AcDbEntity
  8
0
100
AcDbLine
 62
7
  6
CONTINUOUS
 10
5.7640482349
 20
5.907183187
 11
5.7640482349
 21
5.957183187
  0
LINE
  5
3BC
100
AcDbEntity
  8
0
100
AcDbLine
 62
7
  6
CONTINUOUS
 10
5.7642622793
 20
5.907183187
 11
5.7642622793
 21
5.957183187
  0
LINE
  5
3BD
100
AcDbEntity
  8
0
100
AcDbLine
 62
7
  6
CONTINUOUS
 10
5.9268702949
 20
6.954683187
 11
5.9268702949
 21
6.904683187
  0
LINE
  5
3BE
100
AcDbEntity
  8
0
100
AcDbLine
 62
7
  6
CONTINUOUS
 10
5.9518702949
 20
7.019683187
 11
5.9518702949
 21
6.979683187
  0
LINE
  5
3BF
100
AcDbEntity
  8
0
100
AcDbLine
 62
7
  6
CONTINUOUS
 10
5.9518702949
 20
6.904683187
 11
5.9518702949
 21
6.864683187
  0
LINE
  5
3C0
100
AcDbEntity
  8
0
100
AcDbLine
 62
7
  6
CONTINUOUS
 10
9.1003702949
 20
5.504183187
 11
7.8103702949
 21
5.504183187
  0
LINE
  5
3C1
100
AcDbEntity
  8
0
100
AcDbLine
 62
7
  6
CONTINUOUS
 10
1.6783702949
 20
5.504183187
 11
2.9683702949
 21
5.504183187
  0
LINE
  5
3C2
100
AcDbEntity
  8
0
100
AcDbLine
 62
7
  6
CONTINUOUS
 10
3.2458702949
 20
5.556683187
 11
3.0683702949
 21
5.556683187
  0
LINE
  5
3C3
100
AcDbEntity
  8
0
100
AcDbLine
 62
7
  6
CONTINUOUS
 10
7.5328702949
 20
5.556683187
 11
7.7103702949
 21
5.556683187
  0
LINE
  5
3C4
100
AcDbEntity
  8
0
100
AcDbLine
 62
7
  6
CONTINUOUS
 10
3.2458702949
 20
5.751683187
 11
3.0683702949
 21
5.751683187
  0
LINE
  5
3C5
100
AcDbEntity
  8
0
100
AcDbLine
 62
7
  6
CONTINUOUS
 10
7.5328702949
 20
5.751683187
 11
7.7103702949
 21
5.751683187
  0
LINE
  5
3C6
100
AcDbEntity
  8
0
100
AcDbLine
 62
7
  6
CONTINUOUS
 10
5.6243702949
 20
5.769683187
 11
5.1543702949
 21
5.769683187
  0
LINE
  5
3C7
100
AcDbEntity
  8
0
100
AcDbLine
 62
7
  6
CONTINUOUS
 10
6.8828702949
 20
6.979683187
 11
6.8828702949
 21
7.019683187
  0
LINE
  5
3C8
100
AcDbEntity
  8
0
100
AcDbLine
 62
7
  6
CONTINUOUS
 10
6.8829555657
 20
6.904683187
 11
6.8829555657
 21
6.864683187
  0
LINE
  5
3C9
100
AcDbEntity
  8
0
100
AcDbLine
 62
7
  6
CONTINUOUS
 10
6.8831353962
 20
6.904683187
 11
6.8831353962
 21
6.864683187
  0
LINE
  5
3CA
100
AcDbEntity
  8
0
100
AcDbLine
 62
7
  6
CONTINUOUS
 10
6.8840774434
 20
6.904683187
 11
6.8840774434
 21
6.864683187
  0
LINE
  5
3CB
100
AcDbEntity
  8
0
100
AcDbLine
 62
7
  6
CONTINUOUS
 10
6.8846164421
 20
6.904683187
 11
6.8846164421
 21
6.864683187
  0
LINE
  5
3CC
100
AcDbEntity
  8
0
100
AcDbLine
 62
7
  6
CONTINUOUS
 10
6.8864979544
 20
6.904683187
 11
6.8864979544
 21
6.864683187
  0
LINE
  5
3CD
100
AcDbEntity
  8
0
100
AcDbLine
 62
7
  6
CONTINUOUS
 10
6.8873946439
 20
6.904683187
 11
6.8873946439
 21
6.864683187
  0
LINE
  5
3CE
100
AcDbEntity
  8
0
100
AcDbLine
 62
7
  6
CONTINUOUS
 10
6.8902104642
 20
6.904683187
 11
6.8902104642
 21
6.864683187
  0
LINE
  5
3CF
100
AcDbEntity
  8
0
100
AcDbLine
 62
7
  6
CONTINUOUS
 10
6.8914623867
 20
6.904683187
 11
6.8914623867
 21
6.864683187
  0
LINE
  5
3D0
100
AcDbEntity
  8
0
100
AcDbLine
 62
7
  6
CONTINUOUS
 10
6.8952047972
 20
6.904683187
 11
6.8952047972
 21
6.864683187
  0
LINE
  5
3D1
100
AcDbEntity
  8
0
100
AcDbLine
 62
7
  6
CONTINUOUS
 10
6.8968085212
 20
6.904683187
 11
6.8968085212
 21
6.864683187
  0
LINE
  5
3D2
100
AcDbEntity
  8
0
100
AcDbLine
 62
7
  6
CONTINUOUS
 10
6.9014672641
 20
6.904683187
 11
6.9014672641
 21
6.864683187
  0
LINE
  5
3D3
100
AcDbEntity
  8
0
100
AcDbLine
 62
7
  6
CONTINUOUS
 10
6.903418394
 20
6.904683187
 11
6.903418394
 21
6.864683187
  0
LINE
  5
3D4
100
AcDbEntity
  8
0
100
AcDbLine
 62
7
  6
CONTINUOUS
 10
6.9078702949
 20
6.904683187
 11
6.9078702949
 21
6.954683187
  0
LINE
  5
3D5
100
AcDbEntity
  8
0
100
AcDbLine
 62
7
  6
CONTINUOUS
 10
6.9089806999
 20
6.904683187
 11
6.9089806999
 21
6.864683187
  0
LINE
  5
3D6
100
AcDbEntity
  8
0
100
AcDbLine
 62
7
  6
CONTINUOUS
 10
6.9112738879
 20
6.904683187
 11
6.9112738879
 21
6.864683187
  0
LINE
  5
3D7
100
AcDbEntity
  8
0
100
AcDbLine
 62
7
  6
CONTINUOUS
 10
6.917724511
 20
6.904683187
 11
6.917724511
 21
6.864683187
  0
LINE
  5
3D8
100
AcDbEntity
  8
0
100
AcDbLine
 62
7
  6
CONTINUOUS
 10
6.9203534715
 20
6.904683187
 11
6.9203534715
 21
6.864683187
  0
LINE
  5
3D9
100
AcDbEntity
  8
0
100
AcDbLine
 62
7
  6
CONTINUOUS
 10
6.927674731
 20
6.904683187
 11
6.927674731
 21
6.864683187
  0
LINE
  5
3DA
100
AcDbEntity
  8
0
100
AcDbLine
 62
7
  6
CONTINUOUS
 10
6.9306322582
 20
6.904683187
 11
6.9306322582
 21
6.864683187
  0
LINE
  5
3DB
100
AcDbEntity
  8
0
100
AcDbLine
 62
7
  6
CONTINUOUS
 10
5.6393702949
 20
5.784683187
 11
5.1393702949
 21
5.784683187
  0
LINE
  5
3DC
100
AcDbEntity
  8
0
100
AcDbLine
 62
7
  6
CONTINUOUS
 10
9.1003702949
 20
5.804183187
 11
7.8103702949
 21
5.804183187
  0
LINE
  5
3DD
100
AcDbEntity
  8
0
100
AcDbLine
 62
7
  6
CONTINUOUS
 10
1.6783702949
 20
5.804183187
 11
2.9683702949
 21
5.804183187
  0
LINE
  5
3DE
100
AcDbEntity
  8
0
100
AcDbLine
 62
7
  6
CONTINUOUS
 10
7.4553702949
 20
5.829183187
 11
7.2603702949
 21
5.829183187
  0
LINE
  5
3DF
100
AcDbEntity
  8
0
100
AcDbLine
 62
7
  6
CONTINUOUS
 10
3.5183702949
 20
5.829183187
 11
3.3233702949
 21
5.829183187
  0
LINE
  5
3E0
100
AcDbEntity
  8
0
100
AcDbLine
 62
7
  6
CONTINUOUS
 10
5.1393702949
 20
5.829683187
 11
5.6393702949
 21
5.829683187
  0
LINE
  5
3E1
100
AcDbEntity
  8
0
100
AcDbLine
 62
7
  6
CONTINUOUS
 10
7.4553702949
 20
5.841683187
 11
7.2603702949
 21
5.841683187
  0
LINE
  5
3E2
100
AcDbEntity
  8
0
100
AcDbLine
 62
7
  6
CONTINUOUS
 10
3.5183702949
 20
5.841683187
 11
3.3233702949
 21
5.841683187
  0
LINE
  5
3E3
100
AcDbEntity
  8
0
100
AcDbLine
 62
7
  6
CONTINUOUS
 10
5.6588756096
 20
5.844683187
 11
5.1198649801
 21
5.844683187
  0
LINE
  5
3E4
100
AcDbEntity
  8
0
100
AcDbLine
 62
7
  6
CONTINUOUS
 10
3.5746202949
 20
5.851683187
 11
3.2671202949
 21
5.851683187
  0
LINE
  5
3E5
100
AcDbEntity
  8
0
100
AcDbLine
 62
7
  6
CONTINUOUS
 10
7.2041202949
 20
5.851683187
 11
7.5116202949
 21
5.851683187
  0
LINE
  5
3E6
100
AcDbEntity
  8
0
100
AcDbLine
 62
7
  6
CONTINUOUS
 10
5.6731582234
 20
5.8550998536
 11
5.1055823663
 21
5.8550998536
  0
LINE
  5
3E7
100
AcDbEntity
  8
0
100
AcDbLine
 62
7
  6
CONTINUOUS
 10
5.7642622793
 20
5.907183187
 11
5.0144783104
 21
5.907183187
  0
LINE
  5
3E8
100
AcDbEntity
  8
0
100
AcDbLine
 62
7
  6
CONTINUOUS
 10
3.2633702949
 20
5.9114478892
 11
3.5783702949
 21
5.9114478892
  0
LINE
  5
3E9
100
AcDbEntity
  8
0
100
AcDbLine
 62
7
  6
CONTINUOUS
 10
7.2003702949
 20
5.9114478892
 11
7.5153702949
 21
5.9114478892
  0
LINE
  5
3EA
100
AcDbEntity
  8
0
100
AcDbLine
 62
7
  6
CONTINUOUS
 10
3.2721202949
 20
5.9213694566
 11
3.5696202949
 21
5.9213694566
  0
LINE
  5
3EB
100
AcDbEntity
  8
0
100
AcDbLine
 62
7
  6
CONTINUOUS
 10
7.2091202949
 20
5.9213694566
 11
7.5066202949
 21
5.9213694566
  0
LINE
  5
3EC
100
AcDbEntity
  8
0
100
AcDbLine
 62
7
  6
CONTINUOUS
 10
5.0144783104
 20
5.957183187
 11
5.7642622793
 21
5.957183187
  0
LINE
  5
3ED
100
AcDbEntity
  8
0
100
AcDbLine
 62
7
  6
CONTINUOUS
 10
3.2358702949
 20
6.027183187
 11
3.6058702949
 21
6.027183187
  0
LINE
  5
3EE
100
AcDbEntity
  8
0
100
AcDbLine
 62
7
  6
CONTINUOUS
 10
7.1728702949
 20
6.027183187
 11
7.5428702949
 21
6.027183187
  0
LINE
  5
3EF
100
AcDbEntity
  8
0
100
AcDbLine
 62
7
  6
CONTINUOUS
 10
3.2208702949
 20
6.042183187
 11
3.6208702949
 21
6.042183187
  0
LINE
  5
3F0
100
AcDbEntity
  8
0
100
AcDbLine
 62
7
  6
CONTINUOUS
 10
7.1578702949
 20
6.042183187
 11
7.5578702949
 21
6.042183187
  0
LINE
  5
3F1
100
AcDbEntity
  8
0
100
AcDbLine
 62
7
  6
CONTINUOUS
 10
4.8268702949
 20
6.979683187
 11
4.8518702949
 21
6.954683187
  0
LINE
  5
3F2
100
AcDbEntity
  8
0
100
AcDbLine
 62
7
  6
CONTINUOUS
 10
6.9388040872
 20
6.904683187
 11
6.9388040872
 21
6.864683187
  0
LINE
  5
3F3
100
AcDbEntity
  8
0
100
AcDbLine
 62
7
  6
CONTINUOUS
 10
6.9420820747
 20
6.904683187
 11
6.9420820747
 21
6.864683187
  0
LINE
  5
3F4
100
AcDbEntity
  8
0
100
AcDbLine
 62
7
  6
CONTINUOUS
 10
6.9510820747
 20
6.904683187
 11
6.9510820747
 21
6.864683187
  0
LINE
  5
3F5
100
AcDbEntity
  8
0
100
AcDbLine
 62
7
  6
CONTINUOUS
 10
6.9546715379
 20
6.904683187
 11
6.9546715379
 21
6.864683187
  0
LINE
  5
3F6
100
AcDbEntity
  8
0
100
AcDbLine
 62
7
  6
CONTINUOUS
 10
6.9644750405
 20
6.904683187
 11
6.9644750405
 21
6.864683187
  0
LINE
  5
3F7
100
AcDbEntity
  8
0
100
AcDbLine
 62
7
  6
CONTINUOUS
 10
6.9683661408
 20
6.904683187
 11
6.9683661408
 21
6.864683187
  0
LINE
  5
3F8
100
AcDbEntity
  8
0
100
AcDbLine
 62
7
  6
CONTINUOUS
 10
6.9789462753
 20
6.904683187
 11
6.9789462753
 21
6.864683187
  0
LINE
  5
3F9
100
AcDbEntity
  8
0
100
AcDbLine
 62
7
  6
CONTINUOUS
 10
6.9831283475
 20
6.904683187
 11
6.9831283475
 21
6.864683187
  0
LINE
  5
3FA
100
AcDbEntity
  8
0
100
AcDbLine
 62
7
  6
CONTINUOUS
 10
6.9941659849
 20
6.864683187
 11
6.9941659849
 21
6.904683187
  0
LINE
  5
3FB
100
AcDbEntity
  8
0
100
AcDbLine
 62
7
  6
CONTINUOUS
 10
6.9944561146
 20
6.904683187
 11
6.9944561146
 21
6.864683187
  0
LINE
  5
3FC
100
AcDbEntity
  8
0
100
AcDbLine
 62
7
  6
CONTINUOUS
 10
6.9989176959
 20
6.904683187
 11
6.9989176959
 21
6.864683187
  0
LINE
  5
3FD
100
AcDbEntity
  8
0
100
AcDbLine
 62
7
  6
CONTINUOUS
 10
7.0003814958
 20
6.214683187
 11
7.0003814958
 21
6.164683187
  0
LINE
  5
3FE
100
AcDbEntity
  8
0
100
AcDbLine
 62
7
  6
CONTINUOUS
 10
7.0006921873
 20
6.214683187
 11
7.0006921873
 21
6.164683187
  0
LINE
  5
3FF
100
AcDbEntity
  8
0
100
AcDbLine
 62
7
  6
CONTINUOUS
 10
7.0010380537
 20
6.214683187
 11
7.0010380537
 21
6.164683187
  0
LINE
  5
400
100
AcDbEntity
  8
0
100
AcDbLine
 62
7
  6
CONTINUOUS
 10
7.0025896606
 20
6.214683187
 11
7.0025896606
 21
6.164683187
  0
LINE
  5
401
100
AcDbEntity
  8
0
100
AcDbLine
 62
7
  6
CONTINUOUS
 10
7.0033950798
 20
6.214683187
 11
7.0033950798
 21
6.164683187
  0
LINE
  5
402
100
AcDbEntity
  8
0
100
AcDbLine
 62
7
  6
CONTINUOUS
 10
7.0061802078
 20
6.214683187
 11
7.0061802078
 21
6.164683187
  0
LINE
  5
403
100
AcDbEntity
  8
0
100
AcDbLine
 62
7
  6
CONTINUOUS
 10
7.0074413417
 20
6.214683187
 11
7.0074413417
 21
6.164683187
  0
LINE
  5
404
100
AcDbEntity
  8
0
100
AcDbLine
 62
7
  6
CONTINUOUS
 10
7.0100785165
 20
6.864683187
 11
7.0100785165
 21
6.904683187
  0
LINE
  5
405
100
AcDbEntity
  8
0
100
AcDbLine
 62
7
  6
CONTINUOUS
 10
7.0109620468
 20
6.904683187
 11
7.0109620468
 21
6.864683187
  0
LINE
  5
406
100
AcDbEntity
  8
0
100
AcDbLine
 62
7
  6
CONTINUOUS
 10
7.0114467185
 20
6.214683187
 11
7.0114467185
 21
6.164683187
  0
LINE
  5
407
100
AcDbEntity
  8
0
100
AcDbLine
 62
7
  6
CONTINUOUS
 10
7.0131575572
 20
6.214683187
 11
7.0131575572
 21
6.164683187
  0
LINE
  5
408
100
AcDbEntity
  8
0
100
AcDbLine
 62
7
  6
CONTINUOUS
 10
7.0156909083
 20
6.904683187
 11
7.0156909083
 21
6.864683187
  0
LINE
  5
409
100
AcDbEntity
  8
0
100
AcDbLine
 62
7
  6
CONTINUOUS
 10
7.0183640953
 20
6.214683187
 11
7.0183640953
 21
6.164683187
  0
LINE
  5
40A
100
AcDbEntity
  8
0
100
AcDbLine
 62
7
  6
CONTINUOUS
 10
7.0205164858
 20
6.214683187
 11
7.0205164858
 21
6.164683187
  0
LINE
  5
40B
100
AcDbEntity
  8
0
100
AcDbLine
 62
7
  6
CONTINUOUS
 10
7.0268993738
 20
6.214683187
 11
7.0268993738
 21
6.164683187
  0
LINE
  5
40C
100
AcDbEntity
  8
0
100
AcDbLine
 62
7
  6
CONTINUOUS
 10
7.0269443213
 20
6.864683187
 11
7.0269443213
 21
6.904683187
  0
LINE
  5
40D
100
AcDbEntity
  8
0
100
AcDbLine
 62
7
  6
CONTINUOUS
 10
7.0284188304
 20
6.904683187
 11
7.0284188304
 21
6.864683187
  0
LINE
  5
40E
100
AcDbEntity
  8
0
100
AcDbLine
 62
7
  6
CONTINUOUS
 10
7.029483059
 20
6.214683187
 11
7.029483059
 21
6.164683187
  0
LINE
  5
40F
100
AcDbEntity
  8
0
100
AcDbLine
 62
7
  6
CONTINUOUS
 10
7.0334020107
 20
6.904683187
 11
7.0334020107
 21
6.864683187
  0
LINE
  5
410
100
AcDbEntity
  8
0
100
AcDbLine
 62
7
  6
CONTINUOUS
 10
7.0370118794
 20
6.214683187
 11
7.0370118794
 21
6.164683187
  0
LINE
  5
411
100
AcDbEntity
  8
0
100
AcDbLine
 62
7
  6
CONTINUOUS
 10
7.0400145469
 20
6.214683187
 11
7.0400145469
 21
6.164683187
  0
LINE
  5
412
100
AcDbEntity
  8
0
100
AcDbLine
 62
7
  6
CONTINUOUS
 10
7.0447171711
 20
6.864683187
 11
7.0447171711
 21
6.904683187
  0
LINE
  5
413
100
AcDbEntity
  8
0
100
AcDbLine
 62
7
  6
CONTINUOUS
 10
7.0453702949
 20
6.214683187
 11
7.0453702949
 21
6.824683187
  0
LINE
  5
414
100
AcDbEntity
  8
0
100
AcDbLine
 62
7
  6
CONTINUOUS
 10
7.0467786176
 20
6.904683187
 11
7.0467786176
 21
6.864683187
  0
LINE
  5
415
100
AcDbEntity
  8
0
100
AcDbLine
 62
7
  6
CONTINUOUS
 10
7.0486534215
 20
6.214683187
 11
7.0486534215
 21
6.164683187
  0
LINE
  5
416
100
AcDbEntity
  8
0
100
AcDbLine
 62
7
  6
CONTINUOUS
 10
7.0520024581
 20
6.904683187
 11
7.0520024581
 21
6.864683187
  0
LINE
  5
417
100
AcDbEntity
  8
0
100
AcDbLine
 62
7
  6
CONTINUOUS
 10
7.0520607621
 20
6.214683187
 11
7.0520607621
 21
6.164683187
  0
LINE
  5
418
100
AcDbEntity
  8
0
100
AcDbLine
 62
7
  6
CONTINUOUS
 10
7.0578702949
 20
6.824683187
 11
7.0578702949
 21
6.829683187
  0
LINE
  5
419
100
AcDbEntity
  8
0
100
AcDbLine
 62
7
  6
CONTINUOUS
 10
7.0617685228
 20
6.214683187
 11
7.0617685228
 21
6.164683187
  0
LINE
  5
41A
100
AcDbEntity
  8
0
100
AcDbLine
 62
7
  6
CONTINUOUS
 10
7.0633483518
 20
6.864683187
 11
7.0633483518
 21
6.904683187
  0
LINE
  5
41B
100
AcDbEntity
  8
0
100
AcDbLine
 62
7
  6
CONTINUOUS
 10
7.0655642991
 20
6.214683187
 11
7.0655642991
 21
6.164683187
  0
LINE
  5
41C
100
AcDbEntity
  8
0
100
AcDbLine
 62
7
  6
CONTINUOUS
 10
7.0659910854
 20
6.904683187
 11
7.0659910854
 21
6.864683187
  0
LINE
  5
41D
100
AcDbEntity
  8
0
100
AcDbLine
 62
7
  6
CONTINUOUS
 10
7.071441268
 20
6.904683187
 11
7.071441268
 21
6.864683187
  0
LINE
  5
41E
100
AcDbEntity
  8
0
100
AcDbLine
 62
7
  6
CONTINUOUS
 10
7.0762946839
 20
6.214683187
 11
7.0762946839
 21
6.164683187
  0
LINE
  5
41F
100
AcDbEntity
  8
0
100
AcDbLine
 62
7
  6
CONTINUOUS
 10
7.0804608073
 20
6.214683187
 11
7.0804608073
 21
6.164683187
  0
LINE
  5
420
100
AcDbEntity
  8
0
100
AcDbLine
 62
7
  6
CONTINUOUS
 10
7.0827867968
 20
6.864683187
 11
7.0827867968
 21
6.904683187
  0
LINE
  5
421
100
AcDbEntity
  8
0
100
AcDbLine
 62
7
  6
CONTINUOUS
 10
7.0860035739
 20
6.904683187
 11
7.0860035739
 21
6.864683187
  0
LINE
  5
422
100
AcDbEntity
  8
0
100
AcDbLine
 62
7
  6
CONTINUOUS
 10
7.0915445662
 20
6.164683187
 11
7.0915445662
 21
6.214683187
  0
LINE
  5
423
100
AcDbEntity
  8
0
100
AcDbLine
 62
7
  6
CONTINUOUS
 10
7.0916651599
 20
6.904683187
 11
7.0916651599
 21
6.864683187
  0
LINE
  5
424
100
AcDbEntity
  8
0
100
AcDbLine
 62
7
  6
CONTINUOUS
 10
7.092162681
 20
6.214683187
 11
7.092162681
 21
6.164683187
  0
LINE
  5
425
100
AcDbEntity
  8
0
100
AcDbLine
 62
7
  6
CONTINUOUS
 10
7.096679298
 20
6.214683187
 11
7.096679298
 21
6.164683187
  0
LINE
  5
426
100
AcDbEntity
  8
0
100
AcDbLine
 62
7
  6
CONTINUOUS
 10
7.1029792265
 20
6.864683187
 11
7.1029792265
 21
6.904683187
  0
LINE
  5
427
100
AcDbEntity
  8
0
100
AcDbLine
 62
7
  6
CONTINUOUS
 10
7.1067612301
 20
6.904683187
 11
7.1067612301
 21
6.864683187
  0
LINE
  5
428
100
AcDbEntity
  8
0
100
AcDbLine
 62
7
  6
CONTINUOUS
 10
7.1078995725
 20
6.164683187
 11
7.1078995725
 21
6.214683187
  0
LINE
  5
429
100
AcDbEntity
  8
0
100
AcDbLine
 62
7
  6
CONTINUOUS
 10
7.1092968958
 20
6.214683187
 11
7.1092968958
 21
6.164683187
  0
LINE
  5
42A
100
AcDbEntity
  8
0
100
AcDbLine
 62
7
  6
CONTINUOUS
 10
7.1126187016
 20
6.904683187
 11
7.1126187016
 21
6.864683187
  0
LINE
  5
42B
100
AcDbEntity
  8
0
100
AcDbLine
 62
7
  6
CONTINUOUS
 10
7.1141424827
 20
6.214683187
 11
7.1141424827
 21
6.164683187
  0
LINE
  5
42C
100
AcDbEntity
  8
0
100
AcDbLine
 62
7
  6
CONTINUOUS
 10
7.1238702949
 20
6.864683187
 11
7.1238702949
 21
6.904683187
  0
LINE
  5
42D
100
AcDbEntity
  8
0
100
AcDbLine
 62
7
  6
CONTINUOUS
 10
7.1254458031
 20
6.164683187
 11
7.1254458031
 21
6.214683187
  0
LINE
  5
42E
100
AcDbEntity
  8
0
100
AcDbLine
 62
7
  6
CONTINUOUS
 10
7.1276156762
 20
6.214683187
 11
7.1276156762
 21
6.164683187
  0
LINE
  5
42F
100
AcDbEntity
  8
0
100
AcDbLine
 62
7
  6
CONTINUOUS
 10
7.1282071589
 20
6.904683187
 11
7.1282071589
 21
6.864683187
  0
LINE
  5
430
100
AcDbEntity
  8
0
100
AcDbLine
 62
7
  6
CONTINUOUS
 10
7.1327671414
 20
6.214683187
 11
7.1327671414
 21
6.164683187
  0
LINE
  5
431
100
AcDbEntity
  8
0
100
AcDbLine
 62
7
  6
CONTINUOUS
 10
7.1342444609
 20
6.904683187
 11
7.1342444609
 21
6.864683187
  0
LINE
  5
432
100
AcDbEntity
  8
0
100
AcDbLine
 62
7
  6
CONTINUOUS
 10
7.1440996423
 20
6.164683187
 11
7.1440996423
 21
6.214683187
  0
LINE
  5
433
100
AcDbEntity
  8
0
100
AcDbLine
 62
7
  6
CONTINUOUS
 10
7.145402741
 20
6.864683187
 11
7.145402741
 21
6.904683187
  0
LINE
  5
434
100
AcDbEntity
  8
0
100
AcDbLine
 62
7
  6
CONTINUOUS
 10
7.1470317246
 20
6.214683187
 11
7.1470317246
 21
6.164683187
  0
LINE
  5
435
100
AcDbEntity
  8
0
100
AcDbLine
 62
7
  6
CONTINUOUS
 10
7.1502825783
 20
6.904683187
 11
7.1502825783
 21
6.864683187
  0
LINE
  5
436
100
AcDbEntity
  8
0
100
AcDbLine
 62
7
  6
CONTINUOUS
 10
7.1524645192
 20
6.214683187
 11
7.1524645192
 21
6.164683187
  0
LINE
  5
437
100
AcDbEntity
  8
0
100
AcDbLine
 62
7
  6
CONTINUOUS
 10
7.156483163
 20
6.904683187
 11
7.156483163
 21
6.864683187
  0
LINE
  5
438
100
AcDbEntity
  8
0
100
AcDbLine
 62
7
  6
CONTINUOUS
 10
7.1578702949
 20
6.042183187
 11
7.1578702949
 21
6.087183187
  0
LINE
  5
439
100
AcDbEntity
  8
0
100
AcDbLine
 62
7
  6
CONTINUOUS
 10
7.163772196
 20
6.164683187
 11
7.163772196
 21
6.214683187
  0
LINE
  5
43A
100
AcDbEntity
  8
0
100
AcDbLine
 62
7
  6
CONTINUOUS
 10
7.1674525149
 20
6.214683187
 11
7.1674525149
 21
6.164683187
  0
LINE
  5
43B
100
AcDbEntity
  8
0
100
AcDbLine
 62
7
  6
CONTINUOUS
 10
7.1675175459
 20
6.864683187
 11
7.1675175459
 21
6.904683187
  0
LINE
  5
43C
100
AcDbEntity
  8
0
100
AcDbLine
 62
7
  6
CONTINUOUS
 10
7.1729269813
 20
6.904683187
 11
7.1729269813
 21
6.864683187
  0
LINE
  5
43D
100
AcDbEntity
  8
0
100
AcDbLine
 62
7
  6
CONTINUOUS
 10
7.1731407491
 20
6.214683187
 11
7.1731407491
 21
6.164683187
  0
LINE
  5
43E
100
AcDbEntity
  8
0
100
AcDbLine
 62
7
  6
CONTINUOUS
 10
7.1792738533
 20
6.904683187
 11
7.1792738533
 21
6.864683187
  0
LINE
  5
43F
100
AcDbEntity
  8
0
100
AcDbLine
 62
7
  6
CONTINUOUS
 10
7.1843697155
 20
6.164683187
 11
7.1843697155
 21
6.214683187
  0
LINE
  5
440
100
AcDbEntity
  8
0
100
AcDbLine
 62
7
  6
CONTINUOUS
 10
7.1887807325
 20
6.214683187
 11
7.1887807325
 21
6.164683187
  0
LINE
  5
441
100
AcDbEntity
  8
0
100
AcDbLine
 62
7
  6
CONTINUOUS
 10
7.1901540945
 20
6.864683187
 11
7.1901540945
 21
6.904683187
  0
LINE
  5
442
100
AcDbEntity
  8
0
100
AcDbLine
 62
7
  6
CONTINUOUS
 10
7.1946972994
 20
6.214683187
 11
7.1946972994
 21
6.164683187
  0
LINE
  5
443
100
AcDbEntity
  8
0
100
AcDbLine
 62
7
  6
CONTINUOUS
 10
7.196078301
 20
6.904683187
 11
7.196078301
 21
6.864683187
  0
LINE
  5
444
100
AcDbEntity
  8
0
100
AcDbLine
 62
7
  6
CONTINUOUS
 10
7.202554064
 20
6.904683187
 11
7.202554064
 21
6.864683187
  0
LINE
  5
445
100
AcDbEntity
  8
0
100
AcDbLine
 62
7
  6
CONTINUOUS
 10
7.2057940443
 20
6.164683187
 11
7.2057940443
 21
6.214683187
  0
LINE
  5
446
100
AcDbEntity
  8
0
100
AcDbLine
 62
7
  6
CONTINUOUS
 10
7.2091202949
 20
6.027183187
 11
7.2091202949
 21
5.9213694566
  0
LINE
  5
447
100
AcDbEntity
  8
0
100
AcDbLine
 62
7
  6
CONTINUOUS
 10
7.210914739
 20
6.214683187
 11
7.210914739
 21
6.164683187
  0
LINE
  5
448
100
AcDbEntity
  8
0
100
AcDbLine
 62
7
  6
CONTINUOUS
 10
7.2132503415
 20
6.864683187
 11
7.2132503415
 21
6.904683187
  0
LINE
  5
449
100
AcDbEntity
  8
0
100
AcDbLine
 62
7
  6
CONTINUOUS
 10
7.2170314433
 20
6.214683187
 11
7.2170314433
 21
6.164683187
  0
LINE
  5
44A
100
AcDbEntity
  8
0
100
AcDbLine
 62
7
  6
CONTINUOUS
 10
7.2196730813
 20
6.904683187
 11
7.2196730813
 21
6.864683187
  0
LINE
  5
44B
100
AcDbEntity
  8
0
100
AcDbLine
 62
7
  6
CONTINUOUS
 10
7.2262599857
 20
6.904683187
 11
7.2262599857
 21
6.864683187
  0
LINE
  5
44C
100
AcDbEntity
  8
0
100
AcDbLine
 62
7
  6
CONTINUOUS
 10
7.2279430857
 20
6.164683187
 11
7.2279430857
 21
6.214683187
  0
LINE
  5
44D
100
AcDbEntity
  8
0
100
AcDbLine
 62
7
  6
CONTINUOUS
 10
7.2337490556
 20
6.214683187
 11
7.2337490556
 21
6.164683187
  0
LINE
  5
44E
100
AcDbEntity
  8
0
100
AcDbLine
 62
7
  6
CONTINUOUS
 10
7.5578702949
 20
6.087183187
 11
7.1578702949
 21
6.087183187
  0
LINE
  5
44F
100
AcDbEntity
  8
0
100
AcDbLine
 62
7
  6
CONTINUOUS
 10
3.6208702949
 20
6.087183187
 11
3.2208702949
 21
6.087183187
  0
LINE
  5
450
100
AcDbEntity
  8
0
100
AcDbLine
 62
7
  6
CONTINUOUS
 10
3.1917093575
 20
6.102183187
 11
3.6500312322
 21
6.102183187
  0
LINE
  5
451
100
AcDbEntity
  8
0
100
AcDbLine
 62
7
  6
CONTINUOUS
 10
7.1287093575
 20
6.102183187
 11
7.5870312322
 21
6.102183187
  0
LINE
  5
452
100
AcDbEntity
  8
0
100
AcDbLine
 62
7
  6
CONTINUOUS
 10
3.179217332
 20
6.1088796155
 11
3.6625232577
 21
6.1088796155
  0
LINE
  5
453
100
AcDbEntity
  8
0
100
AcDbLine
 62
7
  6
CONTINUOUS
 10
7.116217332
 20
6.1088796155
 11
7.5995232577
 21
6.1088796155
  0
LINE
  5
454
100
AcDbEntity
  8
0
100
AcDbLine
 62
7
  6
CONTINUOUS
 10
3.0633814958
 20
6.164683187
 11
3.7783590939
 21
6.164683187
  0
LINE
  5
455
100
AcDbEntity
  8
0
100
AcDbLine
 62
7
  6
CONTINUOUS
 10
7.0003814958
 20
6.164683187
 11
7.7153590939
 21
6.164683187
  0
LINE
  5
456
100
AcDbEntity
  8
0
100
AcDbLine
 62
7
  6
CONTINUOUS
 10
3.0633814958
 20
6.214683187
 11
3.7783590939
 21
6.214683187
  0
LINE
  5
457
100
AcDbEntity
  8
0
100
AcDbLine
 62
7
  6
CONTINUOUS
 10
7.0003814958
 20
6.214683187
 11
7.7153590939
 21
6.214683187
  0
LINE
  5
458
100
AcDbEntity
  8
0
100
AcDbLine
 62
7
  6
CONTINUOUS
 10
7.2367429817
 20
6.864683187
 11
7.2367429817
 21
6.904683187
  0
LINE
  5
459
100
AcDbEntity
  8
0
100
AcDbLine
 62
7
  6
CONTINUOUS
 10
7.2400367484
 20
6.214683187
 11
7.2400367484
 21
6.164683187
  0
LINE
  5
45A
100
AcDbEntity
  8
0
100
AcDbLine
 62
7
  6
CONTINUOUS
 10
7.2436466506
 20
6.904683187
 11
7.2436466506
 21
6.864683187
  0
LINE
  5
45B
100
AcDbEntity
  8
0
100
AcDbLine
 62
7
  6
CONTINUOUS
 10
7.2503266421
 20
6.904683187
 11
7.2503266421
 21
6.864683187
  0
LINE
  5
45C
100
AcDbEntity
  8
0
100
AcDbLine
 62
7
  6
CONTINUOUS
 10
7.2507112894
 20
6.164683187
 11
7.2507112894
 21
6.214683187
  0
LINE
  5
45D
100
AcDbEntity
  8
0
100
AcDbLine
 62
7
  6
CONTINUOUS
 10
7.2571748664
 20
6.214683187
 11
7.2571748664
 21
6.164683187
  0
LINE
  5
45E
100
AcDbEntity
  8
0
100
AcDbLine
 62
7
  6
CONTINUOUS
 10
7.2603702949
 20
5.841683187
 11
7.2603702949
 21
5.829183187
  0
LINE
  5
45F
100
AcDbEntity
  8
0
100
AcDbLine
 62
7
  6
CONTINUOUS
 10
7.2605676236
 20
6.864683187
 11
7.2605676236
 21
6.904683187
  0
LINE
  5
460
100
AcDbEntity
  8
0
100
AcDbLine
 62
7
  6
CONTINUOUS
 10
7.2636035841
 20
6.214683187
 11
7.2636035841
 21
6.164683187
  0
LINE
  5
461
100
AcDbEntity
  8
0
100
AcDbLine
 62
7
  6
CONTINUOUS
 10
7.2679332989
 20
6.904683187
 11
7.2679332989
 21
6.864683187
  0
LINE
  5
462
100
AcDbEntity
  8
0
100
AcDbLine
 62
7
  6
CONTINUOUS
 10
7.2739901545
 20
6.164683187
 11
7.2739901545
 21
6.214683187
  0
LINE
  5
463
100
AcDbEntity
  8
0
100
AcDbLine
 62
7
  6
CONTINUOUS
 10
7.2746880682
 20
6.904683187
 11
7.2746880682
 21
6.864683187
  0
LINE
  5
464
100
AcDbEntity
  8
0
100
AcDbLine
 62
7
  6
CONTINUOUS
 10
7.2810805368
 20
6.214683187
 11
7.2810805368
 21
6.164683187
  0
LINE
  5
465
100
AcDbEntity
  8
0
100
AcDbLine
 62
7
  6
CONTINUOUS
 10
7.2846589652
 20
6.864683187
 11
7.2846589652
 21
6.904683187
  0
LINE
  5
466
100
AcDbEntity
  8
0
100
AcDbLine
 62
7
  6
CONTINUOUS
 10
7.2876196436
 20
6.214683187
 11
7.2876196436
 21
6.164683187
  0
LINE
  5
467
100
AcDbEntity
  8
0
100
AcDbLine
 62
7
  6
CONTINUOUS
 10
7.2924664583
 20
6.904683187
 11
7.2924664583
 21
6.864683187
  0
LINE
  5
468
100
AcDbEntity
  8
0
100
AcDbLine
 62
7
  6
CONTINUOUS
 10
7.2976687467
 20
6.164683187
 11
7.2976687467
 21
6.214683187
  0
LINE
  5
469
100
AcDbEntity
  8
0
100
AcDbLine
 62
7
  6
CONTINUOUS
 10
7.299277491
 20
6.904683187
 11
7.299277491
 21
6.864683187
  0
LINE
  5
46A
100
AcDbEntity
  8
0
100
AcDbLine
 62
7
  6
CONTINUOUS
 10
7.3053521454
 20
6.214683187
 11
7.3053521454
 21
6.164683187
  0
LINE
  5
46B
100
AcDbEntity
  8
0
100
AcDbLine
 62
7
  6
CONTINUOUS
 10
7.308950974
 20
6.864683187
 11
7.308950974
 21
6.904683187
  0
LINE
  5
46C
100
AcDbEntity
  8
0
100
AcDbLine
 62
7
  6
CONTINUOUS
 10
7.3119704794
 20
6.214683187
 11
7.3119704794
 21
6.164683187
  0
LINE
  5
46D
100
AcDbEntity
  8
0
100
AcDbLine
 62
7
  6
CONTINUOUS
 10
7.3171788851
 20
6.904683187
 11
7.3171788851
 21
6.864683187
  0
LINE
  5
46E
100
AcDbEntity
  8
0
100
AcDbLine
 62
7
  6
CONTINUOUS
 10
7.3216342268
 20
6.164683187
 11
7.3216342268
 21
6.214683187
  0
LINE
  5
46F
100
AcDbEntity
  8
0
100
AcDbLine
 62
7
  6
CONTINUOUS
 10
7.3240275126
 20
6.904683187
 11
7.3240275126
 21
6.864683187
  0
LINE
  5
470
100
AcDbEntity
  8
0
100
AcDbLine
 62
7
  6
CONTINUOUS
 10
7.3298740268
 20
6.214683187
 11
7.3298740268
 21
6.164683187
  0
LINE
  5
471
100
AcDbEntity
  8
0
100
AcDbLine
 62
7
  6
CONTINUOUS
 10
7.3333770673
 20
6.864683187
 11
7.3333770673
 21
6.904683187
  0
LINE
  5
472
100
AcDbEntity
  8
0
100
AcDbLine
 62
7
  6
CONTINUOUS
 10
7.3365400487
 20
6.214683187
 11
7.3365400487
 21
6.164683187
  0
LINE
  5
473
100
AcDbEntity
  8
0
100
AcDbLine
 62
7
  6
CONTINUOUS
 10
7.3420028442
 20
6.904683187
 11
7.3420028442
 21
6.864683187
  0
LINE
  5
474
100
AcDbEntity
  8
0
100
AcDbLine
 62
7
  6
CONTINUOUS
 10
7.3457723881
 20
6.164683187
 11
7.3457723881
 21
6.214683187
  0
LINE
  5
475
100
AcDbEntity
  8
0
100
AcDbLine
 62
7
  6
CONTINUOUS
 10
7.3488702949
 20
6.904683187
 11
7.3488702949
 21
6.864683187
  0
LINE
  5
476
100
AcDbEntity
  8
0
100
AcDbLine
 62
7
  6
CONTINUOUS
 10
7.3545293233
 20
6.214683187
 11
7.3545293233
 21
6.164683187
  0
LINE
  5
477
100
AcDbEntity
  8
0
100
AcDbLine
 62
7
  6
CONTINUOUS
 10
7.3578702949
 20
6.864683187
 11
7.3578702949
 21
6.904683187
  0
LINE
  5
478
100
AcDbEntity
  8
0
100
AcDbLine
 62
7
  6
CONTINUOUS
 10
7.3612112664
 20
6.214683187
 11
7.3612112664
 21
6.164683187
  0
LINE
  5
479
100
AcDbEntity
  8
0
100
AcDbLine
 62
7
  6
CONTINUOUS
 10
7.3668702949
 20
6.904683187
 11
7.3668702949
 21
6.864683187
  0
LINE
  5
47A
100
AcDbEntity
  8
0
100
AcDbLine
 62
7
  6
CONTINUOUS
 10
7.3699682016
 20
6.164683187
 11
7.3699682016
 21
6.214683187
  0
LINE
  5
47B
100
AcDbEntity
  8
0
100
AcDbLine
 62
7
  6
CONTINUOUS
 10
7.3737377455
 20
6.904683187
 11
7.3737377455
 21
6.864683187
  0
LINE
  5
47C
100
AcDbEntity
  8
0
100
AcDbLine
 62
7
  6
CONTINUOUS
 10
7.379200541
 20
6.214683187
 11
7.379200541
 21
6.164683187
  0
LINE
  5
47D
100
AcDbEntity
  8
0
100
AcDbLine
 62
7
  6
CONTINUOUS
 10
7.3823635224
 20
6.864683187
 11
7.3823635224
 21
6.904683187
  0
LINE
  5
47E
100
AcDbEntity
  8
0
100
AcDbLine
 62
7
  6
CONTINUOUS
 10
7.3858665629
 20
6.214683187
 11
7.3858665629
 21
6.164683187
  0
LINE
  5
47F
100
AcDbEntity
  8
0
100
AcDbLine
 62
7
  6
CONTINUOUS
 10
7.3917130772
 20
6.904683187
 11
7.3917130772
 21
6.864683187
  0
LINE
  5
480
100
AcDbEntity
  8
0
100
AcDbLine
 62
7
  6
CONTINUOUS
 10
7.3941063629
 20
6.164683187
 11
7.3941063629
 21
6.214683187
  0
LINE
  5
481
100
AcDbEntity
  8
0
100
AcDbLine
 62
7
  6
CONTINUOUS
 10
7.3985617046
 20
6.904683187
 11
7.3985617046
 21
6.864683187
  0
LINE
  5
482
100
AcDbEntity
  8
0
100
AcDbLine
 62
7
  6
CONTINUOUS
 10
7.4037701103
 20
6.214683187
 11
7.4037701103
 21
6.164683187
  0
LINE
  5
483
100
AcDbEntity
  8
0
100
AcDbLine
 62
7
  6
CONTINUOUS
 10
7.4067896157
 20
6.864683187
 11
7.4067896157
 21
6.904683187
  0
LINE
  5
484
100
AcDbEntity
  8
0
100
AcDbLine
 62
7
  6
CONTINUOUS
 10
7.4103884443
 20
6.214683187
 11
7.4103884443
 21
6.164683187
  0
LINE
  5
485
100
AcDbEntity
  8
0
100
AcDbLine
 62
7
  6
CONTINUOUS
 10
7.4164630987
 20
6.904683187
 11
7.4164630987
 21
6.864683187
  0
LINE
  5
486
100
AcDbEntity
  8
0
100
AcDbLine
 62
7
  6
CONTINUOUS
 10
7.418071843
 20
6.164683187
 11
7.418071843
 21
6.214683187
  0
LINE
  5
487
100
AcDbEntity
  8
0
100
AcDbLine
 62
7
  6
CONTINUOUS
 10
7.4232741314
 20
6.904683187
 11
7.4232741314
 21
6.864683187
  0
LINE
  5
488
100
AcDbEntity
  8
0
100
AcDbLine
 62
7
  6
CONTINUOUS
 10
7.4281209461
 20
6.214683187
 11
7.4281209461
 21
6.164683187
  0
LINE
  5
489
100
AcDbEntity
  8
0
100
AcDbLine
 62
7
  6
CONTINUOUS
 10
7.4310816245
 20
6.864683187
 11
7.4310816245
 21
6.904683187
  0
LINE
  5
48A
100
AcDbEntity
  8
0
100
AcDbLine
 62
7
  6
CONTINUOUS
 10
7.4346600529
 20
6.214683187
 11
7.4346600529
 21
6.164683187
  0
LINE
  5
48B
100
AcDbEntity
  8
0
100
AcDbLine
 62
7
  6
CONTINUOUS
 10
7.4410525215
 20
6.904683187
 11
7.4410525215
 21
6.864683187
  0
LINE
  5
48C
100
AcDbEntity
  8
0
100
AcDbLine
 62
7
  6
CONTINUOUS
 10
7.4417504352
 20
6.164683187
 11
7.4417504352
 21
6.214683187
  0
LINE
  5
48D
100
AcDbEntity
  8
0
100
AcDbLine
 62
7
  6
CONTINUOUS
 10
7.4478072908
 20
6.904683187
 11
7.4478072908
 21
6.864683187
  0
LINE
  5
48E
100
AcDbEntity
  8
0
100
AcDbLine
 62
7
  6
CONTINUOUS
 10
7.4521370056
 20
6.214683187
 11
7.4521370056
 21
6.164683187
  0
LINE
  5
48F
100
AcDbEntity
  8
0
100
AcDbLine
 62
7
  6
CONTINUOUS
 10
7.4551729662
 20
6.864683187
 11
7.4551729662
 21
6.904683187
  0
LINE
  5
490
100
AcDbEntity
  8
0
100
AcDbLine
 62
7
  6
CONTINUOUS
 10
7.4553702949
 20
5.841683187
 11
7.4553702949
 21
5.829183187
  0
LINE
  5
491
100
AcDbEntity
  8
0
100
AcDbLine
 62
7
  6
CONTINUOUS
 10
7.4585657233
 20
6.214683187
 11
7.4585657233
 21
6.164683187
  0
LINE
  5
492
100
AcDbEntity
  8
0
100
AcDbLine
 62
7
  6
CONTINUOUS
 10
7.4650293003
 20
6.164683187
 11
7.4650293003
 21
6.214683187
  0
LINE
  5
493
100
AcDbEntity
  8
0
100
AcDbLine
 62
7
  6
CONTINUOUS
 10
7.4654139476
 20
6.904683187
 11
7.4654139476
 21
6.864683187
  0
LINE
  5
494
100
AcDbEntity
  8
0
100
AcDbLine
 62
7
  6
CONTINUOUS
 10
7.4720939391
 20
6.904683187
 11
7.4720939391
 21
6.864683187
  0
LINE
  5
495
100
AcDbEntity
  8
0
100
AcDbLine
 62
7
  6
CONTINUOUS
 10
7.4757038413
 20
6.214683187
 11
7.4757038413
 21
6.164683187
  0
LINE
  5
496
100
AcDbEntity
  8
0
100
AcDbLine
 62
7
  6
CONTINUOUS
 10
7.478997608
 20
6.864683187
 11
7.478997608
 21
6.904683187
  0
LINE
  5
497
100
AcDbEntity
  8
0
100
AcDbLine
 62
7
  6
CONTINUOUS
 10
7.4819915341
 20
6.214683187
 11
7.4819915341
 21
6.164683187
  0
LINE
  5
498
100
AcDbEntity
  8
0
100
AcDbLine
 62
7
  6
CONTINUOUS
 10
7.487797504
 20
6.164683187
 11
7.487797504
 21
6.214683187
  0
LINE
  5
499
100
AcDbEntity
  8
0
100
AcDbLine
 62
7
  6
CONTINUOUS
 10
7.489480604
 20
6.904683187
 11
7.489480604
 21
6.864683187
  0
LINE
  5
49A
100
AcDbEntity
  8
0
100
AcDbLine
 62
7
  6
CONTINUOUS
 10
7.4960675084
 20
6.904683187
 11
7.4960675084
 21
6.864683187
  0
LINE
  5
49B
100
AcDbEntity
  8
0
100
AcDbLine
 62
7
  6
CONTINUOUS
 10
7.4987091465
 20
6.214683187
 11
7.4987091465
 21
6.164683187
  0
LINE
  5
49C
100
AcDbEntity
  8
0
100
AcDbLine
 62
7
  6
CONTINUOUS
 10
7.5024902482
 20
6.864683187
 11
7.5024902482
 21
6.904683187
  0
LINE
  5
49D
100
AcDbEntity
  8
0
100
AcDbLine
 62
7
  6
CONTINUOUS
 10
7.5048258507
 20
6.214683187
 11
7.5048258507
 21
6.164683187
  0
LINE
  5
49E
100
AcDbEntity
  8
0
100
AcDbLine
 62
7
  6
CONTINUOUS
 10
7.5066202949
 20
6.027183187
 11
7.5066202949
 21
5.9213694566
  0
LINE
  5
49F
100
AcDbEntity
  8
0
100
AcDbLine
 62
7
  6
CONTINUOUS
 10
7.5099465454
 20
6.164683187
 11
7.5099465454
 21
6.214683187
  0
LINE
  5
4A0
100
AcDbEntity
  8
0
100
AcDbLine
 62
7
  6
CONTINUOUS
 10
7.5131865257
 20
6.904683187
 11
7.5131865257
 21
6.864683187
  0
LINE
  5
4A1
100
AcDbEntity
  8
0
100
AcDbLine
 62
7
  6
CONTINUOUS
 10
7.5196622887
 20
6.904683187
 11
7.5196622887
 21
6.864683187
  0
LINE
  5
4A2
100
AcDbEntity
  8
0
100
AcDbLine
 62
7
  6
CONTINUOUS
 10
7.5210432903
 20
6.214683187
 11
7.5210432903
 21
6.164683187
  0
LINE
  5
4A3
100
AcDbEntity
  8
0
100
AcDbLine
 62
7
  6
CONTINUOUS
 10
7.5255864952
 20
6.864683187
 11
7.5255864952
 21
6.904683187
  0
LINE
  5
4A4
100
AcDbEntity
  8
0
100
AcDbLine
 62
7
  6
CONTINUOUS
 10
7.5269598572
 20
6.214683187
 11
7.5269598572
 21
6.164683187
  0
LINE
  5
4A5
100
AcDbEntity
  8
0
100
AcDbLine
 62
7
  6
CONTINUOUS
 10
7.5313708742
 20
6.164683187
 11
7.5313708742
 21
6.214683187
  0
LINE
  5
4A6
100
AcDbEntity
  8
0
100
AcDbLine
 62
7
  6
CONTINUOUS
 10
7.5328702949
 20
5.751683187
 11
7.5328702949
 21
5.556683187
  0
LINE
  5
4A7
100
AcDbEntity
  8
0
100
AcDbLine
 62
7
  6
CONTINUOUS
 10
7.5364667364
 20
6.904683187
 11
7.5364667364
 21
6.864683187
  0
LINE
  5
4A8
100
AcDbEntity
  8
0
100
AcDbLine
 62
7
  6
CONTINUOUS
 10
7.5425998406
 20
6.214683187
 11
7.5425998406
 21
6.164683187
  0
LINE
  5
4A9
100
AcDbEntity
  8
0
100
AcDbLine
 62
7
  6
CONTINUOUS
 10
7.5428136084
 20
6.904683187
 11
7.5428136084
 21
6.864683187
  0
LINE
  5
4AA
100
AcDbEntity
  8
0
100
AcDbLine
 62
7
  6
CONTINUOUS
 10
7.5482230438
 20
6.864683187
 11
7.5482230438
 21
6.904683187
  0
LINE
  5
4AB
100
AcDbEntity
  8
0
100
AcDbLine
 62
7
  6
CONTINUOUS
 10
7.5482880749
 20
6.214683187
 11
7.5482880749
 21
6.164683187
  0
LINE
  5
4AC
100
AcDbEntity
  8
0
100
AcDbLine
 62
7
  6
CONTINUOUS
 10
7.5519683937
 20
6.164683187
 11
7.5519683937
 21
6.214683187
  0
LINE
  5
4AD
100
AcDbEntity
  8
0
100
AcDbLine
 62
7
  6
CONTINUOUS
 10
7.5578702949
 20
6.042183187
 11
7.5578702949
 21
6.087183187
  0
LINE
  5
4AE
100
AcDbEntity
  8
0
100
AcDbLine
 62
7
  6
CONTINUOUS
 10
7.5592574267
 20
6.904683187
 11
7.5592574267
 21
6.864683187
  0
LINE
  5
4AF
100
AcDbEntity
  8
0
100
AcDbLine
 62
7
  6
CONTINUOUS
 10
7.5632760705
 20
6.214683187
 11
7.5632760705
 21
6.164683187
  0
LINE
  5
4B0
100
AcDbEntity
  8
0
100
AcDbLine
 62
7
  6
CONTINUOUS
 10
7.5654580114
 20
6.904683187
 11
7.5654580114
 21
6.864683187
  0
LINE
  5
4B1
100
AcDbEntity
  8
0
100
AcDbLine
 62
7
  6
CONTINUOUS
 10
7.5687088651
 20
6.214683187
 11
7.5687088651
 21
6.164683187
  0
LINE
  5
4B2
100
AcDbEntity
  8
0
100
AcDbLine
 62
7
  6
CONTINUOUS
 10
7.5703378487
 20
6.864683187
 11
7.5703378487
 21
6.904683187
  0
LINE
  5
4B3
100
AcDbEntity
  8
0
100
AcDbLine
 62
7
  6
CONTINUOUS
 10
7.5716409474
 20
6.164683187
 11
7.5716409474
 21
6.214683187
  0
LINE
  5
4B4
100
AcDbEntity
  8
0
100
AcDbLine
 62
7
  6
CONTINUOUS
 10
7.5814961288
 20
6.904683187
 11
7.5814961288
 21
6.864683187
  0
LINE
  5
4B5
100
AcDbEntity
  8
0
100
AcDbLine
 62
7
  6
CONTINUOUS
 10
7.5829734483
 20
6.214683187
 11
7.5829734483
 21
6.164683187
  0
LINE
  5
4B6
100
AcDbEntity
  8
0
100
AcDbLine
 62
7
  6
CONTINUOUS
 10
7.5875334308
 20
6.904683187
 11
7.5875334308
 21
6.864683187
  0
LINE
  5
4B7
100
AcDbEntity
  8
0
100
AcDbLine
 62
7
  6
CONTINUOUS
 10
7.5881249136
 20
6.214683187
 11
7.5881249136
 21
6.164683187
  0
LINE
  5
4B8
100
AcDbEntity
  8
0
100
AcDbLine
 62
7
  6
CONTINUOUS
 10
7.5902947866
 20
6.164683187
 11
7.5902947866
 21
6.214683187
  0
LINE
  5
4B9
100
AcDbEntity
  8
0
100
AcDbLine
 62
7
  6
CONTINUOUS
 10
7.5918702949
 20
6.864683187
 11
7.5918702949
 21
6.904683187
  0
LINE
  5
4BA
100
AcDbEntity
  8
0
100
AcDbLine
 62
7
  6
CONTINUOUS
 10
7.601598107
 20
6.214683187
 11
7.601598107
 21
6.164683187
  0
LINE
  5
4BB
100
AcDbEntity
  8
0
100
AcDbLine
 62
7
  6
CONTINUOUS
 10
7.6031218881
 20
6.904683187
 11
7.6031218881
 21
6.864683187
  0
LINE
  5
4BC
100
AcDbEntity
  8
0
100
AcDbLine
 62
7
  6
CONTINUOUS
 10
7.6064436939
 20
6.214683187
 11
7.6064436939
 21
6.164683187
  0
LINE
  5
4BD
100
AcDbEntity
  8
0
100
AcDbLine
 62
7
  6
CONTINUOUS
 10
7.6078410172
 20
6.164683187
 11
7.6078410172
 21
6.214683187
  0
LINE
  5
4BE
100
AcDbEntity
  8
0
100
AcDbLine
 62
7
  6
CONTINUOUS
 10
7.6089793596
 20
6.904683187
 11
7.6089793596
 21
6.864683187
  0
LINE
  5
4BF
100
AcDbEntity
  8
0
100
AcDbLine
 62
7
  6
CONTINUOUS
 10
7.6127613632
 20
6.864683187
 11
7.6127613632
 21
6.904683187
  0
LINE
  5
4C0
100
AcDbEntity
  8
0
100
AcDbLine
 62
7
  6
CONTINUOUS
 10
7.6190612918
 20
6.214683187
 11
7.6190612918
 21
6.164683187
  0
LINE
  5
4C1
100
AcDbEntity
  8
0
100
AcDbLine
 62
7
  6
CONTINUOUS
 10
7.6235779088
 20
6.214683187
 11
7.6235779088
 21
6.164683187
  0
LINE
  5
4C2
100
AcDbEntity
  8
0
100
AcDbLine
 62
7
  6
CONTINUOUS
 10
7.6240754298
 20
6.904683187
 11
7.6240754298
 21
6.864683187
  0
LINE
  5
4C3
100
AcDbEntity
  8
0
100
AcDbLine
 62
7
  6
CONTINUOUS
 10
7.6241960235
 20
6.164683187
 11
7.6241960235
 21
6.214683187
  0
LINE
  5
4C4
100
AcDbEntity
  8
0
100
AcDbLine
 62
7
  6
CONTINUOUS
 10
7.6297370158
 20
6.904683187
 11
7.6297370158
 21
6.864683187
  0
LINE
  5
4C5
100
AcDbEntity
  8
0
100
AcDbLine
 62
7
  6
CONTINUOUS
 10
7.6329537929
 20
6.864683187
 11
7.6329537929
 21
6.904683187
  0
LINE
  5
4C6
100
AcDbEntity
  8
0
100
AcDbLine
 62
7
  6
CONTINUOUS
 10
7.6352797824
 20
6.214683187
 11
7.6352797824
 21
6.164683187
  0
LINE
  5
4C7
100
AcDbEntity
  8
0
100
AcDbLine
 62
7
  6
CONTINUOUS
 10
7.6394459059
 20
6.214683187
 11
7.6394459059
 21
6.164683187
  0
LINE
  5
4C8
100
AcDbEntity
  8
0
100
AcDbLine
 62
7
  6
CONTINUOUS
 10
7.6442993217
 20
6.904683187
 11
7.6442993217
 21
6.864683187
  0
LINE
  5
4C9
100
AcDbEntity
  8
0
100
AcDbLine
 62
7
  6
CONTINUOUS
 10
7.6497495043
 20
6.904683187
 11
7.6497495043
 21
6.864683187
  0
LINE
  5
4CA
100
AcDbEntity
  8
0
100
AcDbLine
 62
7
  6
CONTINUOUS
 10
7.6501762906
 20
6.214683187
 11
7.6501762906
 21
6.164683187
  0
LINE
  5
4CB
100
AcDbEntity
  8
0
100
AcDbLine
 62
7
  6
CONTINUOUS
 10
7.6523922379
 20
6.864683187
 11
7.6523922379
 21
6.904683187
  0
LINE
  5
4CC
100
AcDbEntity
  8
0
100
AcDbLine
 62
7
  6
CONTINUOUS
 10
7.6539720669
 20
6.214683187
 11
7.6539720669
 21
6.164683187
  0
LINE
  5
4CD
100
AcDbEntity
  8
0
100
AcDbLine
 62
7
  6
CONTINUOUS
 10
7.6578702949
 20
6.824683187
 11
7.6578702949
 21
6.829683187
  0
LINE
  5
4CE
100
AcDbEntity
  8
0
100
AcDbLine
 62
7
  6
CONTINUOUS
 10
7.6636798276
 20
6.214683187
 11
7.6636798276
 21
6.164683187
  0
LINE
  5
4CF
100
AcDbEntity
  8
0
100
AcDbLine
 62
7
  6
CONTINUOUS
 10
7.6637381316
 20
6.904683187
 11
7.6637381316
 21
6.864683187
  0
LINE
  5
4D0
100
AcDbEntity
  8
0
100
AcDbLine
 62
7
  6
CONTINUOUS
 10
7.6670871682
 20
6.214683187
 11
7.6670871682
 21
6.164683187
  0
LINE
  5
4D1
100
AcDbEntity
  8
0
100
AcDbLine
 62
7
  6
CONTINUOUS
 10
7.6689619721
 20
6.904683187
 11
7.6689619721
 21
6.864683187
  0
LINE
  5
4D2
100
AcDbEntity
  8
0
100
AcDbLine
 62
7
  6
CONTINUOUS
 10
7.6703702949
 20
6.214683187
 11
7.6703702949
 21
6.824683187
  0
LINE
  5
4D3
100
AcDbEntity
  8
0
100
AcDbLine
 62
7
  6
CONTINUOUS
 10
7.6710234186
 20
6.864683187
 11
7.6710234186
 21
6.904683187
  0
LINE
  5
4D4
100
AcDbEntity
  8
0
100
AcDbLine
 62
7
  6
CONTINUOUS
 10
7.6757260428
 20
6.214683187
 11
7.6757260428
 21
6.164683187
  0
LINE
  5
4D5
100
AcDbEntity
  8
0
100
AcDbLine
 62
7
  6
CONTINUOUS
 10
7.6787287103
 20
6.214683187
 11
7.6787287103
 21
6.164683187
  0
LINE
  5
4D6
100
AcDbEntity
  8
0
100
AcDbLine
 62
7
  6
CONTINUOUS
 10
7.682338579
 20
6.904683187
 11
7.682338579
 21
6.864683187
  0
LINE
  5
4D7
100
AcDbEntity
  8
0
100
AcDbLine
 62
7
  6
CONTINUOUS
 10
7.6862575307
 20
6.214683187
 11
7.6862575307
 21
6.164683187
  0
LINE
  5
4D8
100
AcDbEntity
  8
0
100
AcDbLine
 62
7
  6
CONTINUOUS
 10
7.6873217593
 20
6.904683187
 11
7.6873217593
 21
6.864683187
  0
LINE
  5
4D9
100
AcDbEntity
  8
0
100
AcDbLine
 62
7
  6
CONTINUOUS
 10
7.6887962685
 20
6.864683187
 11
7.6887962685
 21
6.904683187
  0
LINE
  5
4DA
100
AcDbEntity
  8
0
100
AcDbLine
 62
7
  6
CONTINUOUS
 10
7.6888412159
 20
6.214683187
 11
7.6888412159
 21
6.164683187
  0
LINE
  5
4DB
100
AcDbEntity
  8
0
100
AcDbLine
 62
7
  6
CONTINUOUS
 10
7.6952241039
 20
6.214683187
 11
7.6952241039
 21
6.164683187
  0
LINE
  5
4DC
100
AcDbEntity
  8
0
100
AcDbLine
 62
7
  6
CONTINUOUS
 10
7.6973764944
 20
6.214683187
 11
7.6973764944
 21
6.164683187
  0
LINE
  5
4DD
100
AcDbEntity
  8
0
100
AcDbLine
 62
7
  6
CONTINUOUS
 10
7.7000496814
 20
6.904683187
 11
7.7000496814
 21
6.864683187
  0
LINE
  5
4DE
100
AcDbEntity
  8
0
100
AcDbLine
 62
7
  6
CONTINUOUS
 10
7.7025830325
 20
6.214683187
 11
7.7025830325
 21
6.164683187
  0
LINE
  5
4DF
100
AcDbEntity
  8
0
100
AcDbLine
 62
7
  6
CONTINUOUS
 10
7.7042938712
 20
6.214683187
 11
7.7042938712
 21
6.164683187
  0
LINE
  5
4E0
100
AcDbEntity
  8
0
100
AcDbLine
 62
7
  6
CONTINUOUS
 10
7.7047785429
 20
6.904683187
 11
7.7047785429
 21
6.864683187
  0
LINE
  5
4E1
100
AcDbEntity
  8
0
100
AcDbLine
 62
7
  6
CONTINUOUS
 10
7.7056620732
 20
6.864683187
 11
7.7056620732
 21
6.904683187
  0
LINE
  5
4E2
100
AcDbEntity
  8
0
100
AcDbLine
 62
7
  6
CONTINUOUS
 10
7.708299248
 20
6.214683187
 11
7.708299248
 21
6.164683187
  0
LINE
  5
4E3
100
AcDbEntity
  8
0
100
AcDbLine
 62
7
  6
CONTINUOUS
 10
7.7095603819
 20
6.214683187
 11
7.7095603819
 21
6.164683187
  0
LINE
  5
4E4
100
AcDbEntity
  8
0
100
AcDbLine
 62
7
  6
CONTINUOUS
 10
7.7103702949
 20
5.537183187
 11
7.7103702949
 21
5.771183187
  0
LINE
  5
4E5
100
AcDbEntity
  8
0
100
AcDbLine
 62
7
  6
CONTINUOUS
 10
7.7123455099
 20
6.214683187
 11
7.7123455099
 21
6.164683187
  0
LINE
  5
4E6
100
AcDbEntity
  8
0
100
AcDbLine
 62
7
  6
CONTINUOUS
 10
7.7131509291
 20
6.214683187
 11
7.7131509291
 21
6.164683187
  0
LINE
  5
4E7
100
AcDbEntity
  8
0
100
AcDbLine
 62
7
  6
CONTINUOUS
 10
7.714702536
 20
6.214683187
 11
7.714702536
 21
6.164683187
  0
LINE
  5
4E8
100
AcDbEntity
  8
0
100
AcDbLine
 62
7
  6
CONTINUOUS
 10
7.7150484024
 20
6.214683187
 11
7.7150484024
 21
6.164683187
  0
LINE
  5
4E9
100
AcDbEntity
  8
0
100
AcDbLine
 62
7
  6
CONTINUOUS
 10
7.7153590939
 20
6.214683187
 11
7.7153590939
 21
6.164683187
  0
LINE
  5
4EA
100
AcDbEntity
  8
0
100
AcDbLine
 62
7
  6
CONTINUOUS
 10
7.7168228939
 20
6.904683187
 11
7.7168228939
 21
6.864683187
  0
LINE
  5
4EB
100
AcDbEntity
  8
0
100
AcDbLine
 62
7
  6
CONTINUOUS
 10
7.7212844752
 20
6.904683187
 11
7.7212844752
 21
6.864683187
  0
LINE
  5
4EC
100
AcDbEntity
  8
0
100
AcDbLine
 62
7
  6
CONTINUOUS
 10
7.7215746048
 20
6.864683187
 11
7.7215746048
 21
6.904683187
  0
LINE
  5
4ED
100
AcDbEntity
  8
0
100
AcDbLine
 62
7
  6
CONTINUOUS
 10
7.7326122422
 20
6.904683187
 11
7.7326122422
 21
6.864683187
  0
LINE
  5
4EE
100
AcDbEntity
  8
0
100
AcDbLine
 62
7
  6
CONTINUOUS
 10
7.7367943144
 20
6.904683187
 11
7.7367943144
 21
6.864683187
  0
LINE
  5
4EF
100
AcDbEntity
  8
0
100
AcDbLine
 62
7
  6
CONTINUOUS
 10
7.7473744489
 20
6.904683187
 11
7.7473744489
 21
6.864683187
  0
LINE
  5
4F0
100
AcDbEntity
  8
0
100
AcDbLine
 62
7
  6
CONTINUOUS
 10
7.7478702949
 20
5.504183187
 11
7.7478702949
 21
5.804183187
  0
LINE
  5
4F1
100
AcDbEntity
  8
0
100
AcDbLine
 62
7
  6
CONTINUOUS
 10
7.7512655492
 20
6.904683187
 11
7.7512655492
 21
6.864683187
  0
LINE
  5
4F2
100
AcDbEntity
  8
0
100
AcDbLine
 62
7
  6
CONTINUOUS
 10
7.7610690518
 20
6.904683187
 11
7.7610690518
 21
6.864683187
  0
LINE
  5
4F3
100
AcDbEntity
  8
0
100
AcDbLine
 62
7
  6
CONTINUOUS
 10
7.764658515
 20
6.904683187
 11
7.764658515
 21
6.864683187
  0
LINE
  5
4F4
100
AcDbEntity
  8
0
100
AcDbLine
 62
7
  6
CONTINUOUS
 10
7.773658515
 20
6.904683187
 11
7.773658515
 21
6.864683187
  0
LINE
  5
4F5
100
AcDbEntity
  8
0
100
AcDbLine
 62
7
  6
CONTINUOUS
 10
7.7769365025
 20
6.904683187
 11
7.7769365025
 21
6.864683187
  0
LINE
  5
4F6
100
AcDbEntity
  8
0
100
AcDbLine
 62
7
  6
CONTINUOUS
 10
7.7851083315
 20
6.904683187
 11
7.7851083315
 21
6.864683187
  0
LINE
  5
4F7
100
AcDbEntity
  8
0
100
AcDbLine
 62
7
  6
CONTINUOUS
 10
7.7880658587
 20
6.904683187
 11
7.7880658587
 21
6.864683187
  0
LINE
  5
4F8
100
AcDbEntity
  8
0
100
AcDbLine
 62
7
  6
CONTINUOUS
 10
7.7953871183
 20
6.904683187
 11
7.7953871183
 21
6.864683187
  0
LINE
  5
4F9
100
AcDbEntity
  8
0
100
AcDbLine
 62
7
  6
CONTINUOUS
 10
7.7980160787
 20
6.904683187
 11
7.7980160787
 21
6.864683187
  0
LINE
  5
4FA
100
AcDbEntity
  8
0
100
AcDbLine
 62
7
  6
CONTINUOUS
 10
7.8044667018
 20
6.904683187
 11
7.8044667018
 21
6.864683187
  0
LINE
  5
4FB
100
AcDbEntity
  8
0
100
AcDbLine
 62
7
  6
CONTINUOUS
 10
7.8067598898
 20
6.904683187
 11
7.8067598898
 21
6.864683187
  0
LINE
  5
4FC
100
AcDbEntity
  8
0
100
AcDbLine
 62
7
  6
CONTINUOUS
 10
7.8078702949
 20
6.904683187
 11
7.8078702949
 21
6.954683187
  0
LINE
  5
4FD
100
AcDbEntity
  8
0
100
AcDbLine
 62
7
  6
CONTINUOUS
 10
7.8103702949
 20
5.804183187
 11
7.8103702949
 21
5.504183187
  0
LINE
  5
4FE
100
AcDbEntity
  8
0
100
AcDbLine
 62
7
  6
CONTINUOUS
 10
7.8123221957
 20
6.904683187
 11
7.8123221957
 21
6.864683187
  0
LINE
  5
4FF
100
AcDbEntity
  8
0
100
AcDbLine
 62
7
  6
CONTINUOUS
 10
7.8142733257
 20
6.904683187
 11
7.8142733257
 21
6.864683187
  0
LINE
  5
500
100
AcDbEntity
  8
0
100
AcDbLine
 62
7
  6
CONTINUOUS
 10
7.8189320685
 20
6.904683187
 11
7.8189320685
 21
6.864683187
  0
LINE
  5
501
100
AcDbEntity
  8
0
100
AcDbLine
 62
7
  6
CONTINUOUS
 10
7.8205357925
 20
6.904683187
 11
7.8205357925
 21
6.864683187
  0
LINE
  5
502
100
AcDbEntity
  8
0
100
AcDbLine
 62
7
  6
CONTINUOUS
 10
7.824278203
 20
6.904683187
 11
7.824278203
 21
6.864683187
  0
LINE
  5
503
100
AcDbEntity
  8
0
100
AcDbLine
 62
7
  6
CONTINUOUS
 10
7.8255301255
 20
6.904683187
 11
7.8255301255
 21
6.864683187
  0
LINE
  5
504
100
AcDbEntity
  8
0
100
AcDbLine
 62
7
  6
CONTINUOUS
 10
7.8283459458
 20
6.904683187
 11
7.8283459458
 21
6.864683187
  0
LINE
  5
505
100
AcDbEntity
  8
0
100
AcDbLine
 62
7
  6
CONTINUOUS
 10
7.8292426353
 20
6.904683187
 11
7.8292426353
 21
6.864683187
  0
LINE
  5
506
100
AcDbEntity
  8
0
100
AcDbLine
 62
7
  6
CONTINUOUS
 10
7.8311241476
 20
6.904683187
 11
7.8311241476
 21
6.864683187
  0
LINE
  5
507
100
AcDbEntity
  8
0
100
AcDbLine
 62
7
  6
CONTINUOUS
 10
7.8316631463
 20
6.904683187
 11
7.8316631463
 21
6.864683187
  0
LINE
  5
508
100
AcDbEntity
  8
0
100
AcDbLine
 62
7
  6
CONTINUOUS
 10
7.8326051935
 20
6.904683187
 11
7.8326051935
 21
6.864683187
  0
LINE
  5
509
100
AcDbEntity
  8
0
100
AcDbLine
 62
7
  6
CONTINUOUS
 10
7.832785024
 20
6.904683187
 11
7.832785024
 21
6.864683187
  0
LINE
  5
50A
100
AcDbEntity
  8
0
100
AcDbLine
 62
7
  6
CONTINUOUS
 10
7.8328702949
 20
6.979683187
 11
7.8328702949
 21
7.019683187
  0
LINE
  5
50B
100
AcDbEntity
  8
0
100
AcDbLine
 62
7
  6
CONTINUOUS
 10
7.6703702949
 20
6.824683187
 11
7.0453702949
 21
6.824683187
  0
LINE
  5
50C
100
AcDbEntity
  8
0
100
AcDbLine
 62
7
  6
CONTINUOUS
 10
3.7333702949
 20
6.824683187
 11
3.1083702949
 21
6.824683187
  0
LINE
  5
50D
100
AcDbEntity
  8
0
100
AcDbLine
 62
7
  6
CONTINUOUS
 10
5.848154442
 20
6.829683187
 11
4.9305861478
 21
6.829683187
  0
LINE
  5
50E
100
AcDbEntity
  8
0
100
AcDbLine
 62
7
  6
CONTINUOUS
 10
3.0523172549
 20
6.829683187
 11
3.7894233348
 21
6.829683187
  0
LINE
  5
50F
100
AcDbEntity
  8
0
100
AcDbLine
 62
7
  6
CONTINUOUS
 10
6.9893172549
 20
6.829683187
 11
7.7264233348
 21
6.829683187
  0
LINE
  5
510
100
AcDbEntity
  8
0
100
AcDbLine
 62
7
  6
CONTINUOUS
 10
5.8614612449
 20
6.83776011
 11
4.9172793448
 21
6.83776011
  0
LINE
  5
511
100
AcDbEntity
  8
0
100
AcDbLine
 62
7
  6
CONTINUOUS
 10
3.0380081669
 20
6.840183187
 11
3.8037324228
 21
6.840183187
  0
LINE
  5
512
100
AcDbEntity
  8
0
100
AcDbLine
 62
7
  6
CONTINUOUS
 10
6.9750081669
 20
6.840183187
 11
7.7407324228
 21
6.840183187
  0
LINE
  5
513
100
AcDbEntity
  8
0
100
AcDbLine
 62
7
  6
CONTINUOUS
 10
2.9459555657
 20
6.864683187
 11
3.895785024
 21
6.864683187
  0
LINE
  5
514
100
AcDbEntity
  8
0
100
AcDbLine
 62
7
  6
CONTINUOUS
 10
4.8268702949
 20
6.864683187
 11
5.9518702949
 21
6.864683187
  0
LINE
  5
515
100
AcDbEntity
  8
0
100
AcDbLine
 62
7
  6
CONTINUOUS
 10
6.8829555657
 20
6.864683187
 11
7.832785024
 21
6.864683187
  0
LINE
  5
516
100
AcDbEntity
  8
0
100
AcDbLine
 62
7
  6
CONTINUOUS
 10
2.9459555657
 20
6.904683187
 11
3.895785024
 21
6.904683187
  0
LINE
  5
517
100
AcDbEntity
  8
0
100
AcDbLine
 62
7
  6
CONTINUOUS
 10
4.8268702949
 20
6.904683187
 11
5.9518702949
 21
6.904683187
  0
LINE
  5
518
100
AcDbEntity
  8
0
100
AcDbLine
 62
7
  6
CONTINUOUS
 10
6.8829555657
 20
6.904683187
 11
7.832785024
 21
6.904683187
  0
LINE
  5
519
100
AcDbEntity
  8
0
100
AcDbLine
 62
7
  6
CONTINUOUS
 10
7.8078702949
 20
6.954683187
 11
6.9078702949
 21
6.954683187
  0
LINE
  5
51A
100
AcDbEntity
  8
0
100
AcDbLine
 62
7
  6
CONTINUOUS
 10
2.9708702949
 20
6.954683187
 11
3.8708702949
 21
6.954683187
  0
LINE
  5
51B
100
AcDbEntity
  8
0
100
AcDbLine
 62
7
  6
CONTINUOUS
 10
4.8518702949
 20
6.954683187
 11
5.9268702949
 21
6.954683187
  0
LINE
  5
51C
100
AcDbEntity
  8
0
100
AcDbLine
 62
7
  6
CONTINUOUS
 10
7.8328702949
 20
6.979683187
 11
6.8828702949
 21
6.979683187
  0
LINE
  5
51D
100
AcDbEntity
  8
0
100
AcDbLine
 62
7
  6
CONTINUOUS
 10
2.9458702949
 20
6.979683187
 11
3.8958702949
 21
6.979683187
  0
LINE
  5
51E
100
AcDbEntity
  8
0
100
AcDbLine
 62
7
  6
CONTINUOUS
 10
4.8268702949
 20
6.979683187
 11
5.9518702949
 21
6.979683187
  0
LINE
  5
51F
100
AcDbEntity
  8
0
100
AcDbLine
 62
7
  6
CONTINUOUS
 10
7.8328702949
 20
7.019683187
 11
6.8828702949
 21
7.019683187
  0
LINE
  5
520
100
AcDbEntity
  8
0
100
AcDbLine
 62
7
  6
CONTINUOUS
 10
2.9458702949
 20
7.019683187
 11
3.8958702949
 21
7.019683187
  0
LINE
  5
521
100
AcDbEntity
  8
0
100
AcDbLine
 62
7
  6
CONTINUOUS
 10
4.8268702949
 20
7.019683187
 11
5.9518702949
 21
7.019683187
  0
LINE
  5
522
100
AcDbEntity
  8
0
100
AcDbLine
 62
7
  6
CONTINUOUS
 10
6.9078702949
 20
6.954683187
 11
6.8828702949
 21
6.979683187
  0
LINE
  5
523
100
AcDbEntity
  8
0
100
AcDbLine
 62
7
  6
CONTINUOUS
 10
9.1003702949
 20
5.492933187
 11
9.1003702949
 21
5.815433187
  0
LINE
  5
524
100
AcDbEntity
  8
0
100
AcDbLine
 62
7
  6
CONTINUOUS
 10
9.1603702949
 20
5.492933187
 11
9.1603702949
 21
5.815433187
  0
ARC
  5
525
100
AcDbEntity
  8
0
100
AcDbCircle
 62
7
  6
CONTINUOUS
 10
3.2458702949
 20
5.829183187
 40
0.2725
100
AcDbArc
 50
270.0
 51
360.0
  0
ARC
  5
526
100
AcDbEntity
  8
0
100
AcDbCircle
 62
7
  6
CONTINUOUS
 10
3.0751171194
 20
6.039683187
 40
0.125
100
AcDbArc
 50
33.6123745985
 51
87.9309900315
  0
ARC
  5
527
100
AcDbEntity
  8
0
100
AcDbCircle
 62
7
  6
CONTINUOUS
 10
3.2458702949
 20
5.829183187
 40
0.0775
100
AcDbArc
 50
270.0
 51
360.0
  0
ARC
  5
528
100
AcDbEntity
  8
0
100
AcDbCircle
 62
7
  6
CONTINUOUS
 10
3.0683702949
 20
5.4993763688
 40
0.0378068182
100
AcDbArc
 50
90.0
 51
172.6955544394
  0
ARC
  5
529
100
AcDbEntity
  8
0
100
AcDbCircle
 62
7
  6
CONTINUOUS
 10
3.0683702949
 20
5.8089900051
 40
0.0378068182
100
AcDbArc
 50
187.3044455606
 51
270.0
  0
ARC
  5
52A
100
AcDbEntity
  8
0
100
AcDbCircle
 62
7
  6
CONTINUOUS
 10
2.9996202949
 20
5.504183187
 40
0.03125
100
AcDbArc
 50
180.0
 51
360.0
  0
ARC
  5
52B
100
AcDbEntity
  8
0
100
AcDbCircle
 62
7
  6
CONTINUOUS
 10
2.9996202949
 20
5.804183187
 40
0.03125
100
AcDbArc
 50
0.0
 51
180.0
  0
ARC
  5
52C
100
AcDbEntity
  8
0
100
AcDbCircle
 62
7
  6
CONTINUOUS
 10
3.2671202949
 20
5.881683187
 40
0.03
100
AcDbArc
 50
97.1807557815
 51
270.0
  0
ARC
  5
52D
100
AcDbEntity
  8
0
100
AcDbCircle
 62
7
  6
CONTINUOUS
 10
1.6483702949
 20
5.492933187
 40
0.03
100
AcDbArc
 50
180.0
 51
360.0
  0
ARC
  5
52E
100
AcDbEntity
  8
0
100
AcDbCircle
 62
7
  6
CONTINUOUS
 10
1.6483702949
 20
5.815433187
 40
0.03
100
AcDbArc
 50
0.0
 51
180.0
  0
ARC
  5
52F
100
AcDbEntity
  8
0
100
AcDbCircle
 62
7
  6
CONTINUOUS
 10
3.2358702949
 20
6.042183187
 40
0.015
100
AcDbArc
 50
180.0
 51
270.0
  0
ARC
  5
530
100
AcDbEntity
  8
0
100
AcDbCircle
 62
7
  6
CONTINUOUS
 10
3.2058702949
 20
6.087183187
 40
0.015
100
AcDbArc
 50
0.0
 51
90.0
  0
ARC
  5
531
100
AcDbEntity
  8
0
100
AcDbCircle
 62
7
  6
CONTINUOUS
 10
3.1917093575
 20
6.117183187
 40
0.015
100
AcDbArc
 50
213.6123745985
 51
270.0
  0
ARC
  5
532
100
AcDbEntity
  8
0
100
AcDbCircle
 62
7
  6
CONTINUOUS
 10
3.2621202949
 20
5.9213694566
 40
0.01
100
AcDbArc
 50
277.1807557814
 51
360.0
  0
ARC
  5
533
100
AcDbEntity
  8
0
100
AcDbCircle
 62
7
  6
CONTINUOUS
 10
3.3133702949
 20
5.841683187
 40
0.01
100
AcDbArc
 50
0.0
 51
90.0
  0
ARC
  5
534
100
AcDbEntity
  8
0
100
AcDbCircle
 62
7
  6
CONTINUOUS
 10
3.0046202949
 20
6.829683187
 40
0.035
100
AcDbArc
 50
17.4576031237
 51
87.5819201041
  0
ARC
  5
535
100
AcDbEntity
  8
0
100
AcDbCircle
 62
7
  6
CONTINUOUS
 10
3.0523172549
 20
6.844683187
 40
0.015
100
AcDbArc
 50
197.4576031237
 51
270.0
  0
ARC
  5
536
100
AcDbEntity
  8
0
100
AcDbCircle
 62
7
  6
CONTINUOUS
 10
3.7666234703
 20
6.039683187
 40
0.125
100
AcDbArc
 50
92.0690099685
 51
146.3876254015
  0
ARC
  5
537
100
AcDbEntity
  8
0
100
AcDbCircle
 62
7
  6
CONTINUOUS
 10
5.0341692976
 20
5.832183187
 40
0.075
100
AcDbArc
 50
17.791590573
 51
87.6341619941
  0
ARC
  5
538
100
AcDbEntity
  8
0
100
AcDbCircle
 62
7
  6
CONTINUOUS
 10
3.5746202949
 20
5.881683187
 40
0.03
100
AcDbArc
 50
270.0
 51
82.8192442185
  0
ARC
  5
539
100
AcDbEntity
  8
0
100
AcDbCircle
 62
7
  6
CONTINUOUS
 10
5.1543702949
 20
5.784683187
 40
0.015
100
AcDbArc
 50
180.0
 51
270.0
  0
ARC
  5
53A
100
AcDbEntity
  8
0
100
AcDbCircle
 62
7
  6
CONTINUOUS
 10
5.1243702949
 20
5.829683187
 40
0.015
100
AcDbArc
 50
0.0
 51
90.0
  0
ARC
  5
53B
100
AcDbEntity
  8
0
100
AcDbCircle
 62
7
  6
CONTINUOUS
 10
5.1198649801
 20
5.859683187
 40
0.015
100
AcDbArc
 50
197.791590573
 51
270.0
  0
ARC
  5
53C
100
AcDbEntity
  8
0
100
AcDbCircle
 62
7
  6
CONTINUOUS
 10
3.6058702949
 20
6.042183187
 40
0.015
100
AcDbArc
 50
270.0
 51
360.0
  0
ARC
  5
53D
100
AcDbEntity
  8
0
100
AcDbCircle
 62
7
  6
CONTINUOUS
 10
3.6358702949
 20
6.087183187
 40
0.015
100
AcDbArc
 50
90.0
 51
180.0
  0
ARC
  5
53E
100
AcDbEntity
  8
0
100
AcDbCircle
 62
7
  6
CONTINUOUS
 10
3.6500312322
 20
6.117183187
 40
0.015
100
AcDbArc
 50
270.0
 51
326.3876254015
  0
ARC
  5
53F
100
AcDbEntity
  8
0
100
AcDbCircle
 62
7
  6
CONTINUOUS
 10
3.5796202949
 20
5.9213694566
 40
0.01
100
AcDbArc
 50
180.0
 51
262.8192442186
  0
ARC
  5
540
100
AcDbEntity
  8
0
100
AcDbCircle
 62
7
  6
CONTINUOUS
 10
3.5283702949
 20
5.841683187
 40
0.01
100
AcDbArc
 50
90.0
 51
180.0
  0
ARC
  5
541
100
AcDbEntity
  8
0
100
AcDbCircle
 62
7
  6
CONTINUOUS
 10
4.8729233348
 20
6.814683187
 40
0.05
100
AcDbArc
 50
27.4864262504
 51
90.0
  0
ARC
  5
542
100
AcDbEntity
  8
0
100
AcDbCircle
 62
7
  6
CONTINUOUS
 10
3.8371202949
 20
6.829683187
 40
0.035
100
AcDbArc
 50
92.4180798959
 51
162.5423968763
  0
ARC
  5
543
100
AcDbEntity
  8
0
100
AcDbCircle
 62
7
  6
CONTINUOUS
 10
4.9305861478
 20
6.844683187
 40
0.015
100
AcDbArc
 50
207.4864262505
 51
270.0
  0
ARC
  5
544
100
AcDbEntity
  8
0
100
AcDbCircle
 62
7
  6
CONTINUOUS
 10
3.7894233348
 20
6.844683187
 40
0.015
100
AcDbArc
 50
270.0
 51
342.5423968763
  0
ARC
  5
545
100
AcDbEntity
  8
0
100
AcDbCircle
 62
7
  6
CONTINUOUS
 10
5.3893702949
 20
2.269683187
 40
0.21875
100
AcDbArc
 50
180.0
 51
360.0
  0
ARC
  5
546
100
AcDbEntity
  8
0
100
AcDbCircle
 62
7
  6
CONTINUOUS
 10
7.0121171194
 20
6.039683187
 40
0.125
100
AcDbArc
 50
33.6123745985
 51
88.1487931069
  0
ARC
  5
547
100
AcDbEntity
  8
0
100
AcDbCircle
 62
7
  6
CONTINUOUS
 10
5.7445712921
 20
5.832183187
 40
0.075
100
AcDbArc
 50
92.3658380059
 51
162.208409427
  0
ARC
  5
548
100
AcDbEntity
  8
0
100
AcDbCircle
 62
7
  6
CONTINUOUS
 10
7.2041202949
 20
5.881683187
 40
0.03
100
AcDbArc
 50
97.1807557815
 51
270.0
  0
ARC
  5
549
100
AcDbEntity
  8
0
100
AcDbCircle
 62
7
  6
CONTINUOUS
 10
5.6243702949
 20
5.784683187
 40
0.015
100
AcDbArc
 50
270.0
 51
360.0
  0
ARC
  5
54A
100
AcDbEntity
  8
0
100
AcDbCircle
 62
7
  6
CONTINUOUS
 10
5.6543702949
 20
5.829683187
 40
0.015
100
AcDbArc
 50
90.0
 51
180.0
  0
ARC
  5
54B
100
AcDbEntity
  8
0
100
AcDbCircle
 62
7
  6
CONTINUOUS
 10
5.6588756096
 20
5.859683187
 40
0.015
100
AcDbArc
 50
270.0
 51
342.208409427
  0
ARC
  5
54C
100
AcDbEntity
  8
0
100
AcDbCircle
 62
7
  6
CONTINUOUS
 10
7.1287093575
 20
6.117183187
 40
0.015
100
AcDbArc
 50
213.6123745985
 51
270.0
  0
ARC
  5
54D
100
AcDbEntity
  8
0
100
AcDbCircle
 62
7
  6
CONTINUOUS
 10
7.1428702949
 20
6.087183187
 40
0.015
100
AcDbArc
 50
0.0
 51
90.0
  0
ARC
  5
54E
100
AcDbEntity
  8
0
100
AcDbCircle
 62
7
  6
CONTINUOUS
 10
7.1728702949
 20
6.042183187
 40
0.015
100
AcDbArc
 50
180.0
 51
270.0
  0
ARC
  5
54F
100
AcDbEntity
  8
0
100
AcDbCircle
 62
7
  6
CONTINUOUS
 10
7.2503702949
 20
5.841683187
 40
0.01
100
AcDbArc
 50
0.0
 51
90.0
  0
ARC
  5
550
100
AcDbEntity
  8
0
100
AcDbCircle
 62
7
  6
CONTINUOUS
 10
7.1991202949
 20
5.9213694566
 40
0.01
100
AcDbArc
 50
277.1807557814
 51
360.0
  0
ARC
  5
551
100
AcDbEntity
  8
0
100
AcDbCircle
 62
7
  6
CONTINUOUS
 10
5.9058172549
 20
6.814683187
 40
0.05
100
AcDbArc
 50
90.0
 51
152.5135737496
  0
ARC
  5
552
100
AcDbEntity
  8
0
100
AcDbCircle
 62
7
  6
CONTINUOUS
 10
6.9416202949
 20
6.829683187
 40
0.035
100
AcDbArc
 50
17.4576031237
 51
87.8017455492
  0
ARC
  5
553
100
AcDbEntity
  8
0
100
AcDbCircle
 62
7
  6
CONTINUOUS
 10
5.848154442
 20
6.844683187
 40
0.015
100
AcDbArc
 50
270.0
 51
332.5135737495
  0
ARC
  5
554
100
AcDbEntity
  8
0
100
AcDbCircle
 62
7
  6
CONTINUOUS
 10
6.9893172549
 20
6.844683187
 40
0.015
100
AcDbArc
 50
197.4576031237
 51
270.0
  0
ARC
  5
555
100
AcDbEntity
  8
0
100
AcDbCircle
 62
7
  6
CONTINUOUS
 10
7.5328702949
 20
5.829183187
 40
0.2725
100
AcDbArc
 50
180.0
 51
270.0
  0
ARC
  5
556
100
AcDbEntity
  8
0
100
AcDbCircle
 62
7
  6
CONTINUOUS
 10
7.7036234703
 20
6.039683187
 40
0.125
100
AcDbArc
 50
91.8512068931
 51
146.3876254015
  0
ARC
  5
557
100
AcDbEntity
  8
0
100
AcDbCircle
 62
7
  6
CONTINUOUS
 10
7.5328702949
 20
5.829183187
 40
0.0775
100
AcDbArc
 50
180.0
 51
270.0
  0
ARC
  5
558
100
AcDbEntity
  8
0
100
AcDbCircle
 62
7
  6
CONTINUOUS
 10
7.7103702949
 20
5.8089900051
 40
0.0378068182
100
AcDbArc
 50
270.0
 51
352.6955544394
  0
ARC
  5
559
100
AcDbEntity
  8
0
100
AcDbCircle
 62
7
  6
CONTINUOUS
 10
7.7103702949
 20
5.4993763688
 40
0.0378068182
100
AcDbArc
 50
7.3044455606
 51
90.0
  0
ARC
  5
55A
100
AcDbEntity
  8
0
100
AcDbCircle
 62
7
  6
CONTINUOUS
 10
7.7791202949
 20
5.804183187
 40
0.03125
100
AcDbArc
 50
0.0
 51
180.0
  0
ARC
  5
55B
100
AcDbEntity
  8
0
100
AcDbCircle
 62
7
  6
CONTINUOUS
 10
7.7791202949
 20
5.504183187
 40
0.03125
100
AcDbArc
 50
180.0
 51
360.0
  0
ARC
  5
55C
100
AcDbEntity
  8
0
100
AcDbCircle
 62
7
  6
CONTINUOUS
 10
9.1303702949
 20
5.815433187
 40
0.03
100
AcDbArc
 50
0.0
 51
180.0
  0
ARC
  5
55D
100
AcDbEntity
  8
0
100
AcDbCircle
 62
7
  6
CONTINUOUS
 10
9.1303702949
 20
5.492933187
 40
0.03
100
AcDbArc
 50
180.0
 51
360.0
  0
ARC
  5
55E
100
AcDbEntity
  8
0
100
AcDbCircle
 62
7
  6
CONTINUOUS
 10
7.5116202949
 20
5.881683187
 40
0.03
100
AcDbArc
 50
270.0
 51
82.8192442185
  0
ARC
  5
55F
100
AcDbEntity
  8
0
100
AcDbCircle
 62
7
  6
CONTINUOUS
 10
7.5870312322
 20
6.117183187
 40
0.015
100
AcDbArc
 50
270.0
 51
326.3876254015
  0
ARC
  5
560
100
AcDbEntity
  8
0
100
AcDbCircle
 62
7
  6
CONTINUOUS
 10
7.5728702949
 20
6.087183187
 40
0.015
100
AcDbArc
 50
90.0
 51
180.0
  0
ARC
  5
561
100
AcDbEntity
  8
0
100
AcDbCircle
 62
7
  6
CONTINUOUS
 10
7.5428702949
 20
6.042183187
 40
0.015
100
AcDbArc
 50
270.0
 51
360.0
  0
ARC
  5
562
100
AcDbEntity
  8
0
100
AcDbCircle
 62
7
  6
CONTINUOUS
 10
7.4653702949
 20
5.841683187
 40
0.01
100
AcDbArc
 50
90.0
 51
180.0
  0
ARC
  5
563
100
AcDbEntity
  8
0
100
AcDbCircle
 62
7
  6
CONTINUOUS
 10
7.5166202949
 20
5.9213694566
 40
0.01
100
AcDbArc
 50
180.0
 51
262.8192442186
  0
ARC
  5
564
100
AcDbEntity
  8
0
100
AcDbCircle
 62
7
  6
CONTINUOUS
 10
7.7741202949
 20
6.829683187
 40
0.035
100
AcDbArc
 50
92.1982544508
 51
162.5423968763
  0
ARC
  5
565
100
AcDbEntity
  8
0
100
AcDbCircle
 62
7
  6
CONTINUOUS
 10
7.7264233348
 20
6.844683187
 40
0.015
100
AcDbArc
 50
270.0
 51
342.5423968763
  0
ENDSEC
  0
SECTION
  2
OBJECTS
  0
DICTIONARY
  5
C
100
AcDbDictionary
280
0
281
1
  3
ACAD_GROUP
350
D
  3
ACAD_MLINESTYLE
350
17
  3
ACAD_LAYOUT
350
1A
  3
ACAD_PLOTSETTINGS
350
19
  3
ACAD_PLOTSTYLENAME
350
E
  0
DICTIONARY
  5
D
102
{ACAD_REACTORS
330
C
102
}
100
AcDbDictionary
280
0
281
1
  0
ACDBDICTIONARYWDFLT
  5
E
102
{ACAD_REACTORS
330
C
102
}
100
AcDbDictionary
281
1
  3
Normal
350
F
100
AcDbDictionaryWithDefault
340
F
  0
DICTIONARY
  5
17
102
{ACAD_REACTORS
330
C
102
}
100
AcDbDictionary
280
0
281
1
  3
Standard
350
18
  0
DICTIONARY
  5
19
102
{ACAD_REACTORS
330
C
102
}
100
AcDbDictionary
281
1
  0
DICTIONARY
  5
1A
102
{ACAD_REACTORS
330
C
102
}
100
AcDbDictionary
281
1
  3
Model
350
566
  3
Layout1
350
567
  0
ACDBPLACEHOLDER
  5
F
102
{ACAD_REACTORS
330
E
102
}
  0
MLINESTYLE
  5
18
102
{ACAD_REACTORS
330
17
102
}
100
AcDbMlineStyle
  2
STANDARD
 70
0
  3

 62
256
 51
90.0
 52
90.0
 71
2
 49
0.5
 62
256
  6
BYLAYER
 49
-0.5
 62
256
  6
BYLAYER
  0
LAYOUT
  5
566
102
{ACAD_REACTORS
330
1A
102
}
100
AcDbPlotSettings
  1

  2
none_device
  4
ANSI_A_(11.00_x_8.50_Inches)
  6

 40
0.0
 41
0.0
 42
0.0
 43
0.0
 44
279.4
 45
215.9
 46
0.0
 47
0.0
 48
0.0
 49
0.0
140
0.0
141
0.0
142
1.0
143
1.0
 70
1024
 72
0
 73
0
 74
0
  7

 75
0
147
1.0
148
0.0
149
0.0
100
AcDbLayout
  1
Model
 70
0
 71
0
 10
0.0
 20
0.0
 11
11.0
 21
8.5
 12
0.0
 22
0.0
 32
0.0
 14
0.0
 24
0.0
 34
0.0
 15
0.0
 25
0.0
 35
0.0
146
0.0
 13
0.0
 23
0.0
 33
0.0
 16
1.0
 26
0.0
 36
0.0
 17
0.0
 27
1.0
 37
0.0
 76
0
330
202
345
0
346
0
  0
LAYOUT
  5
567
102
{ACAD_REACTORS
330
1A
102
}
100
AcDbPlotSettings
  1

  2
none_device
  4
ANSI_A_(11.00_x_8.50_Inches)
  6

 40
0.0
 41
0.0
 42
0.0
 43
0.0
 44
279.4
 45
215.9
 46
0.0
 47
0.0
 48
0.0
 49
0.0
140
0.0
141
0.0
142
1.0
143
1.0
 70
0
 72
0
 73
0
 74
0
  7

 75
0
147
1.0
148
0.0
149
0.0
100
AcDbLayout
  1
Layout1
 70
0
 71
1
 10
0.0
 20
0.0
 11
11.0
 21
8.5
 12
0.0
 22
0.0
 32
0.0
 14
0.0
 24
0.0
 34
0.0
 15
0.0
 25
0.0
 35
0.0
146
0.0
 13
0.0
 23
0.0
 33
0.0
 16
1.0
 26
0.0
 36
0.0
 17
0.0
 27
1.0
 37
0.0
 76
0
330
203
345
0
346
0
  0
ENDSEC
  0
EOF
