999
DXF file: 3-2943tr_right.dxf
999
Pro/ENGINEER 2019352 by Parametric Technology Corporation
  0
SECTION
  2
HEADER
  9
$ACADVER
  1
AC1032
  9
$DWGCODEPAGE
  3
ANSI_1252
  9
$EXTMAX
 10
11.0
 20
8.5
 30
0.0
  9
$EXTMIN
 10
0.0
 20
0.0
 30
0.0
  9
$LIMMIN
 10
0.0
 20
0.0
  9
$LIMMAX
 10
11.0
 20
8.5
  9
$VIEWCTR
 10
5.5
 20
4.25
  9
$VIEWSIZE
 40
8.5
  9
$CLAYER
  8
0
  9
$LTSCALE
 40
0.605
  9
$CELTYPE
  6
BYLAYER
  9
$DIMSCALE
 40
1.0
  9
$DIMASZ
 40
0.1
  9
$DIMEXO
 40
0.0625
  9
$DIMDLI
 40
0.418
  9
$DIMEXE
 40
0.125
  9
$DIMCEN
 40
0.099
  9
$DIMLFAC
 40
1.0
  9
$DIMBLK
  1
_FILLED
  9
$DIMALT
 70
1
  9
$DIMALTD
 70
2
  9
$DIMALTTD
 70
2
  9
$DIMALTF
 40
25.4
  9
$DIMTXT
 40
0.08
  9
$DIMTOL
 70
1
  9
$DIMLIM
 70
0
  9
$DIMTFAC
 40
1.0
  9
$DIMTP
 40
0.001
  9
$DIMTM
 40
0.001
  9
$DIMGAP
 40
0.09
  9
$DIMDSEP
 70
46
  9
$AUNITS
 70
0
  9
$PDMODE
 70
3
  9
$PDSIZE
 40
0.3125
  9
$HANDSEED
  5
3CC
  9
$TILEMODE
 70
1
  9
$MEASUREMENT
 70
0
  9
$INSUNITS
 70
1
  0
ENDSEC
  0
SECTION
  2
CLASSES
  0
CLASS
  1
ACDBDICTIONARYWDFLT
  2
AcDbDictionaryWithDefault
  3
AutoCAD 2000
 90
0
 91
1
280
0
281
0
  0
CLASS
  1
ACDBPLACEHOLDER
  2
AcDbPlaceHolder
  3
AutoCAD 2000
 90
0
 91
1
280
0
281
0
  0
CLASS
  1
LAYOUT
  2
AcDbLayout
  3
AutoCAD 2000
 90
0
 91
0
280
0
281
0
  0
ENDSEC
  0
SECTION
  2
TABLES
  0
TABLE
  2
VPORT
  5
8
100
AcDbSymbolTable
 70
2
  0
VPORT
  5
1F4
100
AcDbSymbolTableRecord
100
AcDbViewportTableRecord
  2
*ACTIVE
 70
0
 10
0.0
 20
0.0
 11
1.0
 21
1.0
 12
5.5
 22
4.25
 13
0.0
 23
0.0
 14
1.0
 24
1.0
 15
0.0
 25
0.0
 16
0.0
 26
0.0
 36
1.0
 17
0.0
 27
0.0
 37
0.0
 40
8.5
 41
1.2941176471
 42
50.0
 43
0.0
 44
0.0
 50
0.0
 51
0.0
 71
0
 72
100
 73
1
 74
1
 75
0
 76
0
 77
0
 78
0
  0
ENDTAB
  0
TABLE
  2
LTYPE
  5
5
100
AcDbSymbolTable
 70
6
  0
LTYPE
  5
14
100
AcDbSymbolTableRecord
100
AcDbLinetypeTableRecord
  2
BYBLOCK
 70
0
  3

 72
65
 73
0
 40
0.0
  0
LTYPE
  5
15
100
AcDbSymbolTableRecord
100
AcDbLinetypeTableRecord
  2
BYLAYER
 70
0
  3

 72
65
 73
0
 40
0.0
  0
LTYPE
  5
16
100
AcDbSymbolTableRecord
100
AcDbLinetypeTableRecord
  2
CONTINUOUS
 70
64
  3
Solid line
 72
65
 73
0
 40
0.0
  0
LTYPE
  5
1F5
100
AcDbSymbolTableRecord
100
AcDbLinetypeTableRecord
  2
CENTER
 70
64
  3
____ _ ____ _ ____ _ ____ _ ____ _ ____ _ ____
 72
65
 73
4
 40
0.6
 49
0.375
 74
0
 49
-0.075
 74
0
 49
0.075
 74
0
 49
-0.075
 74
0
  0
LTYPE
  5
1F6
100
AcDbSymbolTableRecord
100
AcDbLinetypeTableRecord
  2
HIDDEN
 70
64
  3
- - - - - - - - - - - - - - - - - - - -
 72
65
 73
2
 40
0.2
 49
0.1
 74
0
 49
-0.1
 74
0
  0
LTYPE
  5
1F7
100
AcDbSymbolTableRecord
100
AcDbLinetypeTableRecord
  2
PHANTOM
 70
64
  3
_____ _ _ _____ _ _ _____ _ _ _____
 72
65
 73
6
 40
0.8
 49
0.45
 74
0
 49
-0.05
 74
0
 49
0.1
 74
0
 49
-0.05
 74
0
 49
0.1
 74
0
 49
-0.05
 74
0
  0
LTYPE
  5
1F8
100
AcDbSymbolTableRecord
100
AcDbLinetypeTableRecord
  2
DOT
 70
64
  3
. . . . . . . . . . . . . . . . . . . .
 72
65
 73
2
 40
0.2
 49
0.1
 74
0
 49
-0.1
 74
0
  0
LTYPE
  5
1F9
100
AcDbSymbolTableRecord
100
AcDbLinetypeTableRecord
  2
DASHED
 70
64
  3
- - - - - - - - - - - - - - - - - - - -
 72
65
 73
2
 40
0.2
 49
0.1
 74
0
 49
-0.1
 74
0
  0
ENDTAB
  0
TABLE
  2
LAYER
  5
2
100
AcDbSymbolTable
 70
36
  0
LAYER
  5
10
100
AcDbSymbolTableRecord
100
AcDbLayerTableRecord
  2
0
 70
0
 62
7
  6
CONTINUOUS
370
-3
390
F
  0
LAYER
  5
1FA
100
AcDbSymbolTableRecord
100
AcDbLayerTableRecord
  2
DEFAULT_1
 70
0
 62
7
  6
CENTER
370
-3
390
F
  0
LAYER
  5
1FB
100
AcDbSymbolTableRecord
100
AcDbLayerTableRecord
  2
DEFAULT_2
 70
0
 62
8
  6
HIDDEN
370
-3
390
F
  0
LAYER
  5
1FC
100
AcDbSymbolTableRecord
100
AcDbLayerTableRecord
  2
DEFAULT_3
 70
0
 62
7
  6
PHANTOM
370
-3
390
F
  0
LAYER
  5
1FD
100
AcDbSymbolTableRecord
100
AcDbLayerTableRecord
  2
DEFAULT_COORDINATE_SYSTEM
 70
0
 62
7
  6
CONTINUOUS
370
-3
390
F
  0
LAYER
  5
1FE
100
AcDbSymbolTableRecord
100
AcDbLayerTableRecord
  2
DEFAULT_DATUM_AXES
 70
0
 62
7
  6
CONTINUOUS
370
-3
390
F
  0
LAYER
  5
1FF
100
AcDbSymbolTableRecord
100
AcDbLayerTableRecord
  2
DEFAULT_DATUM_PLANES
 70
0
 62
7
  6
CONTINUOUS
370
-3
390
F
  0
ENDTAB
  0
TABLE
  2
STYLE
  5
3
100
AcDbSymbolTable
 70
1
  0
STYLE
  5
11
100
AcDbSymbolTableRecord
100
AcDbTextStyleTableRecord
  2
STANDARD
 70
0
 40
0.0
 41
0.8
 50
0.0
 71
0
 42
0.2
  3
txt
  4

  0
STYLE
  5
200
100
AcDbSymbolTableRecord
100
AcDbTextStyleTableRecord
  2
TEXTSTYLE_1
 70
0
 40
0.0
 41
0.8
 50
0.0
 71
0
 42
0.2
  3
gdt
  4

  0
ENDTAB
  0
TABLE
  2
VIEW
  5
6
100
AcDbSymbolTable
 70
0
  0
ENDTAB
  0
TABLE
  2
UCS
  5
7
100
AcDbSymbolTable
 70
0
  0
ENDTAB
  0
TABLE
  2
APPID
  5
9
100
AcDbSymbolTable
 70
1
  0
APPID
  5
201
100
AcDbSymbolTableRecord
100
AcDbRegAppTableRecord
  2
ACAD
 70
0
  0
ENDTAB
  0
TABLE
  2
BLOCK_RECORD
  5
1
100
AcDbSymbolTable
 70
0
  0
BLOCK_RECORD
  5
202
100
AcDbSymbolTableRecord
100
AcDbBlockTableRecord
  2
*Model_Space
  0
BLOCK_RECORD
  5
203
100
AcDbSymbolTableRecord
100
AcDbBlockTableRecord
  2
*Paper_Space
  0
BLOCK_RECORD
  5
204
100
AcDbSymbolTableRecord
100
AcDbBlockTableRecord
  2
_FILLED
  0
ENDTAB
  0
TABLE
  2
DIMSTYLE
  5
A
100
AcDbSymbolTable
 70
1
100
AcDbDimStyleTable
 71
0
  0
DIMSTYLE
105
205
100
AcDbSymbolTableRecord
100
AcDbDimStyleTableRecord
  2
STANDARD
 70
0
  3

  4

 40
1.0
 41
0.1
 42
0.0625
 43
0.38
 44
0.125
 45
0.0
 46
0.0
 47
0.001
 48
0.001
140
0.08
141
0.09
142
0.0
143
25.4
144
1.0
145
0.0
146
1.0
147
0.09
 71
1.0
 72
0.0
 73
1
 74
1
 75
0
 76
0
 77
0
 78
4
 79
1
170
1
171
2
172
0
173
0
174
0
175
0
176
0
177
0
178
0
270
2
179
3
271
3
272
3
273
2
274
2
275
0
280
0
281
0
282
0
283
1
284
4
285
0
286
0
287
3
288
0
340
11
278
46
341
204
342
204
343
204
344
204
  0
ENDTAB
  0
ENDSEC
  0
SECTION
  2
BLOCKS
  0
BLOCK
  5
20
100
AcDbEntity
  8
0
100
AcDbBlockBegin
  2
*Model_Space
 70
0
 10
0.0
 20
0.0
 30
0.0
  3
*Model_Space
  1

  0
ENDBLK
  5
21
100
AcDbEntity
  8
0
100
AcDbBlockEnd
  0
BLOCK
  5
1C
100
AcDbEntity
  8
0
100
AcDbBlockBegin
  2
*Paper_Space
 70
0
 10
0.0
 20
0.0
 30
0.0
  3
*Paper_Space
  1

  0
ENDBLK
  5
1D
100
AcDbEntity
  8
0
100
AcDbBlockEnd
  0
BLOCK
  5
206
100
AcDbEntity
  8
0
100
AcDbBlockBegin
  2
_FILLED
 70
64
 10
0.0
 20
0.0
  3
_FILLED
  1

  0
SOLID
  5
207
100
AcDbEntity
  8
0
  6
BYBLOCK
 62
0
100
AcDbTrace
 10
0.0
 20
0.0
 11
-1.0
 21
0.2
 12
-1.0
 22
-0.2
 13
-1.0
 23
-0.2
  0
ENDBLK
  5
208
100
AcDbEntity
  8
0
  6
BYBLOCK
 62
0
100
AcDbBlockEnd
  0
ENDSEC
  0
SECTION
  2
ENTITIES
  0
MTEXT
  5
209
100
AcDbEntity
  8
0
100
AcDbMText
 62
2
  6
CONTINUOUS
  7
STANDARD
 71
3
 72
1
 10
5.6726949131
 20
1.5041349749
 30
0.0
 11
1.0
 21
0.0
 31
0.0
 73
2
 44
0.9
  1
SCALE 0.500
 40
0.08
 41
0.704
  0
LINE
  5
20A
100
AcDbEntity
  8
0
100
AcDbLine
 62
7
  6
CONTINUOUS
 10
0.0
 20
0.0
 11
0.0
 21
8.5
  0
LINE
  5
20B
100
AcDbEntity
  8
0
100
AcDbLine
 62
7
  6
CONTINUOUS
 10
0.0
 20
0.0
 11
11.0
 21
0.0
  0
LINE
  5
20C
100
AcDbEntity
  8
0
100
AcDbLine
 62
7
  6
CONTINUOUS
 10
0.0
 20
8.5
 11
11.0
 21
8.5
  0
LINE
  5
20D
100
AcDbEntity
  8
0
100
AcDbLine
 62
7
  6
CONTINUOUS
 10
11.0
 20
0.0
 11
11.0
 21
8.5
  0
LINE
  5
20E
100
AcDbEntity
  8
0
100
AcDbLine
 62
7
  6
CONTINUOUS
 10
6.3141696174
 20
2.4375916876
 11
6.3516696174
 21
2.4375916876
  0
LINE
  5
20F
100
AcDbEntity
  8
0
100
AcDbLine
 62
7
  6
CONTINUOUS
 10
6.3516696174
 20
2.4401405818
 11
6.4016696174
 21
2.4401405818
  0
LINE
  5
210
100
AcDbEntity
  8
0
100
AcDbLine
 62
7
  6
CONTINUOUS
 10
4.7761519008
 20
2.4717416876
 11
4.4536519008
 21
2.4717416876
  0
LINE
  5
211
100
AcDbEntity
  8
0
100
AcDbLine
 62
7
  6
CONTINUOUS
 10
4.7761519008
 20
2.5317416876
 11
4.4536519008
 21
2.5317416876
  0
LINE
  5
212
100
AcDbEntity
  8
0
100
AcDbLine
 62
7
  6
CONTINUOUS
 10
6.1924078479
 20
2.7472650495
 11
6.2179313868
 21
2.7465966921
  0
LINE
  5
213
100
AcDbEntity
  8
0
100
AcDbLine
 62
7
  6
CONTINUOUS
 10
5.2599019008
 20
2.9643302207
 11
5.3224019008
 21
2.9643302207
  0
LINE
  5
214
100
AcDbEntity
  8
0
100
AcDbLine
 62
7
  6
CONTINUOUS
 10
5.2599019008
 20
2.9645065489
 11
5.3224019008
 21
2.9645065489
  0
LINE
  5
215
100
AcDbEntity
  8
0
100
AcDbLine
 62
7
  6
CONTINUOUS
 10
5.2599019008
 20
2.9654727282
 11
5.3224019008
 21
2.9654727282
  0
LINE
  5
216
100
AcDbEntity
  8
0
100
AcDbLine
 62
7
  6
CONTINUOUS
 10
5.2599019008
 20
2.9660012043
 11
5.3224019008
 21
2.9660012043
  0
LINE
  5
217
100
AcDbEntity
  8
0
100
AcDbLine
 62
7
  6
CONTINUOUS
 10
5.2599019008
 20
2.9679307773
 11
5.3224019008
 21
2.9679307773
  0
LINE
  5
218
100
AcDbEntity
  8
0
100
AcDbLine
 62
7
  6
CONTINUOUS
 10
5.2599019008
 20
2.9688098776
 11
5.3224019008
 21
2.9688098776
  0
LINE
  5
219
100
AcDbEntity
  8
0
100
AcDbLine
 62
7
  6
CONTINUOUS
 10
5.2599019008
 20
2.9716972806
 11
5.3224019008
 21
2.9716972806
  0
LINE
  5
21A
100
AcDbEntity
  8
0
100
AcDbLine
 62
7
  6
CONTINUOUS
 10
4.7649019008
 20
2.9717416876
 11
4.4649019008
 21
2.9717416876
  0
LINE
  5
21B
100
AcDbEntity
  8
0
100
AcDbLine
 62
7
  6
CONTINUOUS
 10
5.2599019008
 20
2.9729244705
 11
5.3224019008
 21
2.9729244705
  0
LINE
  5
21C
100
AcDbEntity
  8
0
100
AcDbLine
 62
7
  6
CONTINUOUS
 10
5.2599019008
 20
2.9767613785
 11
5.3224019008
 21
2.9767613785
  0
LINE
  5
21D
100
AcDbEntity
  8
0
100
AcDbLine
 62
7
  6
CONTINUOUS
 10
5.2599019008
 20
2.9783331196
 11
5.3224019008
 21
2.9783331196
  0
LINE
  5
21E
100
AcDbEntity
  8
0
100
AcDbLine
 62
7
  6
CONTINUOUS
 10
5.2599019008
 20
2.9831084698
 11
5.3224019008
 21
2.9831084698
  0
LINE
  5
21F
100
AcDbEntity
  8
0
100
AcDbLine
 62
7
  6
CONTINUOUS
 10
5.2599019008
 20
2.9850202304
 11
5.3224019008
 21
2.9850202304
  0
LINE
  5
220
100
AcDbEntity
  8
0
100
AcDbLine
 62
7
  6
CONTINUOUS
 10
5.2599019008
 20
2.9907202543
 11
5.3224019008
 21
2.9907202543
  0
LINE
  5
221
100
AcDbEntity
  8
0
100
AcDbLine
 62
7
  6
CONTINUOUS
 10
5.2599019008
 20
2.9929665222
 11
5.3224019008
 21
2.9929665222
  0
LINE
  5
222
100
AcDbEntity
  8
0
100
AcDbLine
 62
7
  6
CONTINUOUS
 10
5.2599019008
 20
2.9995747851
 11
5.3224019008
 21
2.9995747851
  0
LINE
  5
223
100
AcDbEntity
  8
0
100
AcDbLine
 62
7
  6
CONTINUOUS
 10
5.2599019008
 20
3.0021490838
 11
5.3224019008
 21
3.0021490838
  0
LINE
  5
224
100
AcDbEntity
  8
0
100
AcDbLine
 62
7
  6
CONTINUOUS
 10
6.1129019008
 20
3.0082416876
 11
5.3224019008
 21
3.0082416876
  0
LINE
  5
225
100
AcDbEntity
  8
0
100
AcDbLine
 62
7
  6
CONTINUOUS
 10
6.1129019008
 20
3.0083558608
 11
6.1826696174
 21
3.0083558608
  0
LINE
  5
226
100
AcDbEntity
  8
0
100
AcDbLine
 62
7
  6
CONTINUOUS
 10
5.2599019008
 20
3.0096465323
 11
5.3224019008
 21
3.0096465323
  0
LINE
  5
227
100
AcDbEntity
  8
0
100
AcDbLine
 62
7
  6
CONTINUOUS
 10
5.2599019008
 20
3.0125414395
 11
5.3224019008
 21
3.0125414395
  0
LINE
  5
228
100
AcDbEntity
  8
0
100
AcDbLine
 62
7
  6
CONTINUOUS
 10
5.2599019008
 20
3.0209064566
 11
5.3224019008
 21
3.0209064566
  0
LINE
  5
229
100
AcDbEntity
  8
0
100
AcDbLine
 62
7
  6
CONTINUOUS
 10
5.2599019008
 20
3.0241136255
 11
5.3224019008
 21
3.0241136255
  0
LINE
  5
22A
100
AcDbEntity
  8
0
100
AcDbLine
 62
7
  6
CONTINUOUS
 10
5.2599019008
 20
3.0333220926
 11
5.3224019008
 21
3.0333220926
  0
LINE
  5
22B
100
AcDbEntity
  8
0
100
AcDbLine
 62
7
  6
CONTINUOUS
 10
4.7649019008
 20
3.0342416876
 11
4.4649019008
 21
3.0342416876
  0
LINE
  5
22C
100
AcDbEntity
  8
0
100
AcDbLine
 62
7
  6
CONTINUOUS
 10
5.2599019008
 20
3.0368322761
 11
5.3224019008
 21
3.0368322761
  0
LINE
  5
22D
100
AcDbEntity
  8
0
100
AcDbLine
 62
7
  6
CONTINUOUS
 10
5.2599019008
 20
3.0468576429
 11
5.3224019008
 21
3.0468576429
  0
LINE
  5
22E
100
AcDbEntity
  8
0
100
AcDbLine
 62
7
  6
CONTINUOUS
 10
5.2599019008
 20
3.0506607201
 11
5.3224019008
 21
3.0506607201
  0
LINE
  5
22F
100
AcDbEntity
  8
0
100
AcDbLine
 62
7
  6
CONTINUOUS
 10
5.2599019008
 20
3.0614740809
 11
5.3224019008
 21
3.0614740809
  0
LINE
  5
230
100
AcDbEntity
  8
0
100
AcDbLine
 62
7
  6
CONTINUOUS
 10
5.2599019008
 20
3.0655590867
 11
5.3224019008
 21
3.0655590867
  0
LINE
  5
231
100
AcDbEntity
  8
0
100
AcDbLine
 62
7
  6
CONTINUOUS
 10
4.7319019008
 20
3.0717416876
 11
4.4979019008
 21
3.0717416876
  0
LINE
  5
232
100
AcDbEntity
  8
0
100
AcDbLine
 62
7
  6
CONTINUOUS
 10
5.2599019008
 20
3.0765196245
 11
5.3224019008
 21
3.0765196245
  0
LINE
  5
233
100
AcDbEntity
  8
0
100
AcDbLine
 62
7
  6
CONTINUOUS
 10
5.2599019008
 20
3.0771292637
 11
5.3224019008
 21
3.0771292637
  0
LINE
  5
234
100
AcDbEntity
  8
0
100
AcDbLine
 62
7
  6
CONTINUOUS
 10
5.2599019008
 20
3.0814844199
 11
5.3224019008
 21
3.0814844199
  0
LINE
  5
235
100
AcDbEntity
  8
0
100
AcDbLine
 62
7
  6
CONTINUOUS
 10
5.2599019008
 20
3.0925531458
 11
5.3224019008
 21
3.0925531458
  0
LINE
  5
236
100
AcDbEntity
  8
0
100
AcDbLine
 62
7
  6
CONTINUOUS
 10
5.2599019008
 20
3.0937780533
 11
5.3224019008
 21
3.0937780533
  0
LINE
  5
237
100
AcDbEntity
  8
0
100
AcDbLine
 62
7
  6
CONTINUOUS
 10
5.2599019008
 20
3.0983908029
 11
5.3224019008
 21
3.0983908029
  0
LINE
  5
238
100
AcDbEntity
  8
0
100
AcDbLine
 62
7
  6
CONTINUOUS
 10
5.2599019008
 20
3.1095358028
 11
5.3224019008
 21
3.1095358028
  0
LINE
  5
239
100
AcDbEntity
  8
0
100
AcDbLine
 62
7
  6
CONTINUOUS
 10
5.2599019008
 20
3.1113724469
 11
5.3224019008
 21
3.1113724469
  0
LINE
  5
23A
100
AcDbEntity
  8
0
100
AcDbLine
 62
7
  6
CONTINUOUS
 10
5.2599019008
 20
3.1162294902
 11
5.3224019008
 21
3.1162294902
  0
LINE
  5
23B
100
AcDbEntity
  8
0
100
AcDbLine
 62
7
  6
CONTINUOUS
 10
5.2599019008
 20
3.1274186302
 11
5.3224019008
 21
3.1274186302
  0
LINE
  5
23C
100
AcDbEntity
  8
0
100
AcDbLine
 62
7
  6
CONTINUOUS
 10
5.2599019008
 20
3.1298617155
 11
5.3224019008
 21
3.1298617155
  0
LINE
  5
23D
100
AcDbEntity
  8
0
100
AcDbLine
 62
7
  6
CONTINUOUS
 10
5.2599019008
 20
3.1349490482
 11
5.3224019008
 21
3.1349490482
  0
LINE
  5
23E
100
AcDbEntity
  8
0
100
AcDbLine
 62
7
  6
CONTINUOUS
 10
4.4649019008
 20
2.5317416876
 11
4.4649019008
 21
2.9717416876
  0
LINE
  5
23F
100
AcDbEntity
  8
0
100
AcDbLine
 62
7
  6
CONTINUOUS
 10
5.2599019008
 20
3.1461500672
 11
5.3224019008
 21
3.1461500672
  0
LINE
  5
240
100
AcDbEntity
  8
0
100
AcDbLine
 62
7
  6
CONTINUOUS
 10
5.2599019008
 20
3.1491925495
 11
5.3224019008
 21
3.1491925495
  0
LINE
  5
241
100
AcDbEntity
  8
0
100
AcDbLine
 62
7
  6
CONTINUOUS
 10
5.2599019008
 20
3.1544955037
 11
5.3224019008
 21
3.1544955037
  0
LINE
  5
242
100
AcDbEntity
  8
0
100
AcDbLine
 62
7
  6
CONTINUOUS
 10
5.2599019008
 20
3.1656761062
 11
5.3224019008
 21
3.1656761062
  0
LINE
  5
243
100
AcDbEntity
  8
0
100
AcDbLine
 62
7
  6
CONTINUOUS
 10
5.2599019008
 20
3.1693092133
 11
5.3224019008
 21
3.1693092133
  0
LINE
  5
244
100
AcDbEntity
  8
0
100
AcDbLine
 62
7
  6
CONTINUOUS
 10
5.2599019008
 20
3.1748124991
 11
5.3224019008
 21
3.1748124991
  0
LINE
  5
245
100
AcDbEntity
  8
0
100
AcDbLine
 62
7
  6
CONTINUOUS
 10
5.2599019008
 20
3.1859404485
 11
5.3224019008
 21
3.1859404485
  0
LINE
  5
246
100
AcDbEntity
  8
0
100
AcDbLine
 62
7
  6
CONTINUOUS
 10
5.2599019008
 20
3.1901537053
 11
5.3224019008
 21
3.1901537053
  0
LINE
  5
247
100
AcDbEntity
  8
0
100
AcDbLine
 62
7
  6
CONTINUOUS
 10
5.2599019008
 20
3.1958414553
 11
5.3224019008
 21
3.1958414553
  0
LINE
  5
248
100
AcDbEntity
  8
0
100
AcDbLine
 62
7
  6
CONTINUOUS
 10
5.2599019008
 20
3.2068846669
 11
5.3224019008
 21
3.2068846669
  0
LINE
  5
249
100
AcDbEntity
  8
0
100
AcDbLine
 62
7
  6
CONTINUOUS
 10
5.2599019008
 20
3.2116659253
 11
5.3224019008
 21
3.2116659253
  0
LINE
  5
24A
100
AcDbEntity
  8
0
100
AcDbLine
 62
7
  6
CONTINUOUS
 10
5.2599019008
 20
3.2175217403
 11
5.3224019008
 21
3.2175217403
  0
LINE
  5
24B
100
AcDbEntity
  8
0
100
AcDbLine
 62
7
  6
CONTINUOUS
 10
5.2599019008
 20
3.2284483736
 11
5.3224019008
 21
3.2284483736
  0
LINE
  5
24C
100
AcDbEntity
  8
0
100
AcDbLine
 62
7
  6
CONTINUOUS
 10
5.2599019008
 20
3.2337838482
 11
5.3224019008
 21
3.2337838482
  0
LINE
  5
24D
100
AcDbEntity
  8
0
100
AcDbLine
 62
7
  6
CONTINUOUS
 10
5.2599019008
 20
3.2397908443
 11
5.3224019008
 21
3.2397908443
  0
LINE
  5
24E
100
AcDbEntity
  8
0
100
AcDbLine
 62
7
  6
CONTINUOUS
 10
4.7124019008
 20
3.2467416876
 11
4.5174019008
 21
3.2467416876
  0
LINE
  5
24F
100
AcDbEntity
  8
0
100
AcDbLine
 62
7
  6
CONTINUOUS
 10
5.2599019008
 20
3.250569395
 11
5.3224019008
 21
3.250569395
  0
LINE
  5
250
100
AcDbEntity
  8
0
100
AcDbLine
 62
7
  6
CONTINUOUS
 10
5.2599019008
 20
3.2564437021
 11
5.3224019008
 21
3.2564437021
  0
LINE
  5
251
100
AcDbEntity
  8
0
100
AcDbLine
 62
7
  6
CONTINUOUS
 10
5.2599019008
 20
3.2625845597
 11
5.3224019008
 21
3.2625845597
  0
LINE
  5
252
100
AcDbEntity
  8
0
100
AcDbLine
 62
7
  6
CONTINUOUS
 10
5.1199019008
 20
3.2729916876
 11
4.8820881705
 21
3.2729916876
  0
LINE
  5
253
100
AcDbEntity
  8
0
100
AcDbLine
 62
7
  6
CONTINUOUS
 10
5.2599019008
 20
3.2731839505
 11
5.3224019008
 21
3.2731839505
  0
LINE
  5
254
100
AcDbEntity
  8
0
100
AcDbLine
 62
7
  6
CONTINUOUS
 10
5.2599019008
 20
3.279580153
 11
5.3224019008
 21
3.279580153
  0
LINE
  5
255
100
AcDbEntity
  8
0
100
AcDbLine
 62
7
  6
CONTINUOUS
 10
4.5174019008
 20
3.2467416876
 11
4.5174019008
 21
3.0717416876
  0
LINE
  5
256
100
AcDbEntity
  8
0
100
AcDbLine
 62
7
  6
CONTINUOUS
 10
4.5931263103
 20
4.1067416876
 11
4.5931263103
 21
4.5467416876
  0
LINE
  5
257
100
AcDbEntity
  8
0
100
AcDbLine
 62
7
  6
CONTINUOUS
 10
5.2599019008
 20
3.2858371663
 11
5.3224019008
 21
3.2858371663
  0
LINE
  5
258
100
AcDbEntity
  8
0
100
AcDbLine
 62
7
  6
CONTINUOUS
 10
5.2599019008
 20
3.2962268364
 11
5.3224019008
 21
3.2962268364
  0
LINE
  5
259
100
AcDbEntity
  8
0
100
AcDbLine
 62
7
  6
CONTINUOUS
 10
5.2599019008
 20
3.3031264923
 11
5.3224019008
 21
3.3031264923
  0
LINE
  5
25A
100
AcDbEntity
  8
0
100
AcDbLine
 62
7
  6
CONTINUOUS
 10
5.2599019008
 20
3.3094816208
 11
5.3224019008
 21
3.3094816208
  0
LINE
  5
25B
100
AcDbEntity
  8
0
100
AcDbLine
 62
7
  6
CONTINUOUS
 10
5.2599019008
 20
3.319631614
 11
5.3224019008
 21
3.319631614
  0
LINE
  5
25C
100
AcDbEntity
  8
0
100
AcDbLine
 62
7
  6
CONTINUOUS
 10
4.8024019008
 20
3.3242416876
 11
4.7899019008
 21
3.3242416876
  0
LINE
  5
25D
100
AcDbEntity
  8
0
100
AcDbLine
 62
7
  6
CONTINUOUS
 10
5.2599019008
 20
3.32701483
 11
5.3224019008
 21
3.32701483
  0
LINE
  5
25E
100
AcDbEntity
  8
0
100
AcDbLine
 62
7
  6
CONTINUOUS
 10
5.1349019008
 20
3.3292416876
 11
5.1199019008
 21
3.3292416876
  0
LINE
  5
25F
100
AcDbEntity
  8
0
100
AcDbLine
 62
7
  6
CONTINUOUS
 10
5.2599019008
 20
3.3334497501
 11
5.3224019008
 21
3.3334497501
  0
LINE
  5
260
100
AcDbEntity
  8
0
100
AcDbLine
 62
7
  6
CONTINUOUS
 10
5.2599019008
 20
3.3433308015
 11
5.3224019008
 21
3.3433308015
  0
LINE
  5
261
100
AcDbEntity
  8
0
100
AcDbLine
 62
7
  6
CONTINUOUS
 10
5.2599019008
 20
3.3511762897
 11
5.3224019008
 21
3.3511762897
  0
LINE
  5
262
100
AcDbEntity
  8
0
100
AcDbLine
 62
7
  6
CONTINUOUS
 10
5.2599019008
 20
3.357672448
 11
5.3224019008
 21
3.357672448
  0
LINE
  5
263
100
AcDbEntity
  8
0
100
AcDbLine
 62
7
  6
CONTINUOUS
 10
5.2599019008
 20
3.3672560678
 11
5.3224019008
 21
3.3672560678
  0
LINE
  5
264
100
AcDbEntity
  8
0
100
AcDbLine
 62
7
  6
CONTINUOUS
 10
5.2599019008
 20
3.3755412077
 11
5.3224019008
 21
3.3755412077
  0
LINE
  5
265
100
AcDbEntity
  8
0
100
AcDbLine
 62
7
  6
CONTINUOUS
 10
5.2599019008
 20
3.382079874
 11
5.3224019008
 21
3.382079874
  0
LINE
  5
266
100
AcDbEntity
  8
0
100
AcDbLine
 62
7
  6
CONTINUOUS
 10
5.2599019008
 20
3.3913384303
 11
5.3224019008
 21
3.3913384303
  0
LINE
  5
267
100
AcDbEntity
  8
0
100
AcDbLine
 62
7
  6
CONTINUOUS
 10
5.2599019008
 20
3.4000393337
 11
5.3224019008
 21
3.4000393337
  0
LINE
  5
268
100
AcDbEntity
  8
0
100
AcDbLine
 62
7
  6
CONTINUOUS
 10
5.2599019008
 20
3.4066016554
 11
5.3224019008
 21
3.4066016554
  0
LINE
  5
269
100
AcDbEntity
  8
0
100
AcDbLine
 62
7
  6
CONTINUOUS
 10
5.2599019008
 20
3.4155084532
 11
5.3224019008
 21
3.4155084532
  0
LINE
  5
26A
100
AcDbEntity
  8
0
100
AcDbLine
 62
7
  6
CONTINUOUS
 10
4.6456263103
 20
4.8217416876
 11
4.6456263103
 21
4.6467416876
  0
LINE
  5
26B
100
AcDbEntity
  8
0
100
AcDbLine
 62
7
  6
CONTINUOUS
 10
4.7124019008
 20
3.2467416876
 11
4.7124019008
 21
3.0717416876
  0
LINE
  5
26C
100
AcDbEntity
  8
0
100
AcDbLine
 62
7
  6
CONTINUOUS
 10
5.2599019008
 20
3.4246000332
 11
5.3224019008
 21
3.4246000332
  0
LINE
  5
26D
100
AcDbEntity
  8
0
100
AcDbLine
 62
7
  6
CONTINUOUS
 10
5.2599019008
 20
3.4311670893
 11
5.3224019008
 21
3.4311670893
  0
LINE
  5
26E
100
AcDbEntity
  8
0
100
AcDbLine
 62
7
  6
CONTINUOUS
 10
5.2599019008
 20
3.4396964482
 11
5.3224019008
 21
3.4396964482
  0
LINE
  5
26F
100
AcDbEntity
  8
0
100
AcDbLine
 62
7
  6
CONTINUOUS
 10
5.2599019008
 20
3.4491524913
 11
5.3224019008
 21
3.4491524913
  0
LINE
  5
270
100
AcDbEntity
  8
0
100
AcDbLine
 62
7
  6
CONTINUOUS
 10
5.2599019008
 20
3.4557053474
 11
5.3224019008
 21
3.4557053474
  0
LINE
  5
271
100
AcDbEntity
  8
0
100
AcDbLine
 62
7
  6
CONTINUOUS
 10
5.2599019008
 20
3.4638326749
 11
5.3224019008
 21
3.4638326749
  0
LINE
  5
272
100
AcDbEntity
  8
0
100
AcDbLine
 62
7
  6
CONTINUOUS
 10
5.2599019008
 20
3.473625917
 11
5.3224019008
 21
3.473625917
  0
LINE
  5
273
100
AcDbEntity
  8
0
100
AcDbLine
 62
7
  6
CONTINUOUS
 10
5.2599019008
 20
3.4801456795
 11
5.3224019008
 21
3.4801456795
  0
LINE
  5
274
100
AcDbEntity
  8
0
100
AcDbLine
 62
7
  6
CONTINUOUS
 10
5.2599019008
 20
3.4878475425
 11
5.3224019008
 21
3.4878475425
  0
LINE
  5
275
100
AcDbEntity
  8
0
100
AcDbLine
 62
7
  6
CONTINUOUS
 10
5.2599019008
 20
3.497949747
 11
5.3224019008
 21
3.497949747
  0
LINE
  5
276
100
AcDbEntity
  8
0
100
AcDbLine
 62
7
  6
CONTINUOUS
 10
5.2599019008
 20
3.5044176177
 11
5.3224019008
 21
3.5044176177
  0
LINE
  5
277
100
AcDbEntity
  8
0
100
AcDbLine
 62
7
  6
CONTINUOUS
 10
5.2599019008
 20
3.5116718097
 11
5.3224019008
 21
3.5116718097
  0
LINE
  5
278
100
AcDbEntity
  8
0
100
AcDbLine
 62
7
  6
CONTINUOUS
 10
5.1349019008
 20
3.5142416876
 11
5.1199019008
 21
3.5142416876
  0
LINE
  5
279
100
AcDbEntity
  8
0
100
AcDbLine
 62
7
  6
CONTINUOUS
 10
4.8024019008
 20
3.5192416876
 11
4.7899019008
 21
3.5192416876
  0
LINE
  5
27A
100
AcDbEntity
  8
0
100
AcDbLine
 62
7
  6
CONTINUOUS
 10
5.2599019008
 20
3.5220538494
 11
5.3224019008
 21
3.5220538494
  0
LINE
  5
27B
100
AcDbEntity
  8
0
100
AcDbLine
 62
7
  6
CONTINUOUS
 10
5.2599019008
 20
3.5284511798
 11
5.3224019008
 21
3.5284511798
  0
LINE
  5
27C
100
AcDbEntity
  8
0
100
AcDbLine
 62
7
  6
CONTINUOUS
 10
5.2599019008
 20
3.5352367851
 11
5.3224019008
 21
3.5352367851
  0
LINE
  5
27D
100
AcDbEntity
  8
0
100
AcDbLine
 62
7
  6
CONTINUOUS
 10
5.2599019008
 20
3.545868726
 11
5.3224019008
 21
3.545868726
  0
LINE
  5
27E
100
AcDbEntity
  8
0
100
AcDbLine
 62
7
  6
CONTINUOUS
 10
4.7649019008
 20
2.5317416876
 11
4.7649019008
 21
2.9717416876
  0
LINE
  5
27F
100
AcDbEntity
  8
0
100
AcDbLine
 62
7
  6
CONTINUOUS
 10
4.7899019008
 20
3.3242416876
 11
4.7899019008
 21
3.5192416876
  0
LINE
  5
280
100
AcDbEntity
  8
0
100
AcDbLine
 62
7
  6
CONTINUOUS
 10
4.8024019008
 20
3.3242416876
 11
4.8024019008
 21
3.5192416876
  0
LINE
  5
281
100
AcDbEntity
  8
0
100
AcDbLine
 62
7
  6
CONTINUOUS
 10
4.8124019008
 20
3.5754916876
 11
4.8124019008
 21
3.2679916876
  0
LINE
  5
282
100
AcDbEntity
  8
0
100
AcDbLine
 62
7
  6
CONTINUOUS
 10
4.8406263103
 20
4.8217416876
 11
4.8406263103
 21
4.6467416876
  0
LINE
  5
283
100
AcDbEntity
  8
0
100
AcDbLine
 62
7
  6
CONTINUOUS
 10
4.8721666031
 20
3.5792416876
 11
4.8721666031
 21
3.2642416876
  0
LINE
  5
284
100
AcDbEntity
  8
0
100
AcDbLine
 62
7
  6
CONTINUOUS
 10
4.8820881705
 20
3.5704916876
 11
4.8820881705
 21
3.2729916876
  0
LINE
  5
285
100
AcDbEntity
  8
0
100
AcDbLine
 62
7
  6
CONTINUOUS
 10
5.2599019008
 20
3.5521770709
 11
5.3224019008
 21
3.5521770709
  0
LINE
  5
286
100
AcDbEntity
  8
0
100
AcDbLine
 62
7
  6
CONTINUOUS
 10
5.2599019008
 20
3.5584745248
 11
5.3224019008
 21
3.5584745248
  0
LINE
  5
287
100
AcDbEntity
  8
0
100
AcDbLine
 62
7
  6
CONTINUOUS
 10
5.2599019008
 20
3.5693257121
 11
5.3224019008
 21
3.5693257121
  0
LINE
  5
288
100
AcDbEntity
  8
0
100
AcDbLine
 62
7
  6
CONTINUOUS
 10
5.1199019008
 20
3.5704916876
 11
4.8820881705
 21
3.5704916876
  0
LINE
  5
289
100
AcDbEntity
  8
0
100
AcDbLine
 62
7
  6
CONTINUOUS
 10
5.2599019008
 20
3.5755268829
 11
5.3224019008
 21
3.5755268829
  0
LINE
  5
28A
100
AcDbEntity
  8
0
100
AcDbLine
 62
7
  6
CONTINUOUS
 10
5.2599019008
 20
3.5813180283
 11
5.3224019008
 21
3.5813180283
  0
LINE
  5
28B
100
AcDbEntity
  8
0
100
AcDbLine
 62
7
  6
CONTINUOUS
 10
5.2599019008
 20
3.5923571753
 11
5.3224019008
 21
3.5923571753
  0
LINE
  5
28C
100
AcDbEntity
  8
0
100
AcDbLine
 62
7
  6
CONTINUOUS
 10
5.2599019008
 20
3.5984332925
 11
5.3224019008
 21
3.5984332925
  0
LINE
  5
28D
100
AcDbEntity
  8
0
100
AcDbLine
 62
7
  6
CONTINUOUS
 10
5.2599019008
 20
3.6037014319
 11
5.3224019008
 21
3.6037014319
  0
LINE
  5
28E
100
AcDbEntity
  8
0
100
AcDbLine
 62
7
  6
CONTINUOUS
 10
5.2599019008
 20
3.6148967099
 11
5.3224019008
 21
3.6148967099
  0
LINE
  5
28F
100
AcDbEntity
  8
0
100
AcDbLine
 62
7
  6
CONTINUOUS
 10
5.2599019008
 20
3.6208302543
 11
5.3224019008
 21
3.6208302543
  0
LINE
  5
290
100
AcDbEntity
  8
0
100
AcDbLine
 62
7
  6
CONTINUOUS
 10
5.2599019008
 20
3.6255601985
 11
5.3224019008
 21
3.6255601985
  0
LINE
  5
291
100
AcDbEntity
  8
0
100
AcDbLine
 62
7
  6
CONTINUOUS
 10
5.2599019008
 20
3.6368793285
 11
5.3224019008
 21
3.6368793285
  0
LINE
  5
292
100
AcDbEntity
  8
0
100
AcDbLine
 62
7
  6
CONTINUOUS
 10
5.2599019008
 20
3.6426531924
 11
5.3224019008
 21
3.6426531924
  0
LINE
  5
293
100
AcDbEntity
  8
0
100
AcDbLine
 62
7
  6
CONTINUOUS
 10
5.2599019008
 20
3.6468313035
 11
5.3224019008
 21
3.6468313035
  0
LINE
  5
294
100
AcDbEntity
  8
0
100
AcDbLine
 62
7
  6
CONTINUOUS
 10
5.2599019008
 20
3.6582416496
 11
5.3224019008
 21
3.6582416496
  0
LINE
  5
295
100
AcDbEntity
  8
0
100
AcDbLine
 62
7
  6
CONTINUOUS
 10
5.2599019008
 20
3.6638391853
 11
5.3224019008
 21
3.6638391853
  0
LINE
  5
296
100
AcDbEntity
  8
0
100
AcDbLine
 62
7
  6
CONTINUOUS
 10
5.2599019008
 20
3.6674534169
 11
5.3224019008
 21
3.6674534169
  0
LINE
  5
297
100
AcDbEntity
  8
0
100
AcDbLine
 62
7
  6
CONTINUOUS
 10
5.2599019008
 20
3.6789220801
 11
5.3224019008
 21
3.6789220801
  0
LINE
  5
298
100
AcDbEntity
  8
0
100
AcDbLine
 62
7
  6
CONTINUOUS
 10
5.2599019008
 20
3.6843271485
 11
5.3224019008
 21
3.6843271485
  0
LINE
  5
299
100
AcDbEntity
  8
0
100
AcDbLine
 62
7
  6
CONTINUOUS
 10
4.8931263103
 20
4.1067416876
 11
4.8931263103
 21
4.5467416876
  0
LINE
  5
29A
100
AcDbEntity
  8
0
100
AcDbLine
 62
7
  6
CONTINUOUS
 10
4.9181263103
 20
4.8992416876
 11
4.9181263103
 21
5.0942416876
  0
LINE
  5
29B
100
AcDbEntity
  8
0
100
AcDbLine
 62
7
  6
CONTINUOUS
 10
4.9306263103
 20
4.8992416876
 11
4.9306263103
 21
5.0942416876
  0
LINE
  5
29C
100
AcDbEntity
  8
0
100
AcDbLine
 62
7
  6
CONTINUOUS
 10
4.9406263103
 20
5.1504916876
 11
4.9406263103
 21
4.8429916876
  0
LINE
  5
29D
100
AcDbEntity
  8
0
100
AcDbLine
 62
7
  6
CONTINUOUS
 10
5.0003910125
 20
5.1542416876
 11
5.0003910125
 21
4.8392416876
  0
LINE
  5
29E
100
AcDbEntity
  8
0
100
AcDbLine
 62
7
  6
CONTINUOUS
 10
5.0103125799
 20
5.1454916876
 11
5.0103125799
 21
4.8479916876
  0
LINE
  5
29F
100
AcDbEntity
  8
0
100
AcDbLine
 62
7
  6
CONTINUOUS
 10
5.2599019008
 20
3.6873670798
 11
5.3224019008
 21
3.6873670798
  0
LINE
  5
2A0
100
AcDbEntity
  8
0
100
AcDbLine
 62
7
  6
CONTINUOUS
 10
5.2599019008
 20
3.698860993
 11
5.3224019008
 21
3.698860993
  0
LINE
  5
2A1
100
AcDbEntity
  8
0
100
AcDbLine
 62
7
  6
CONTINUOUS
 10
5.2599019008
 20
3.7040580099
 11
5.3224019008
 21
3.7040580099
  0
LINE
  5
2A2
100
AcDbEntity
  8
0
100
AcDbLine
 62
7
  6
CONTINUOUS
 10
5.2599019008
 20
3.7065148759
 11
5.3224019008
 21
3.7065148759
  0
LINE
  5
2A3
100
AcDbEntity
  8
0
100
AcDbLine
 62
7
  6
CONTINUOUS
 10
5.2599019008
 20
3.7180008992
 11
5.3224019008
 21
3.7180008992
  0
LINE
  5
2A4
100
AcDbEntity
  8
0
100
AcDbLine
 62
7
  6
CONTINUOUS
 10
5.2599019008
 20
3.7229748802
 11
5.3224019008
 21
3.7229748802
  0
LINE
  5
2A5
100
AcDbEntity
  8
0
100
AcDbLine
 62
7
  6
CONTINUOUS
 10
5.2599019008
 20
3.7248415971
 11
5.3224019008
 21
3.7248415971
  0
LINE
  5
2A6
100
AcDbEntity
  8
0
100
AcDbLine
 62
7
  6
CONTINUOUS
 10
5.2599019008
 20
3.7362866134
 11
5.3224019008
 21
3.7362866134
  0
LINE
  5
2A7
100
AcDbEntity
  8
0
100
AcDbLine
 62
7
  6
CONTINUOUS
 10
5.2599019008
 20
3.7410232172
 11
5.3224019008
 21
3.7410232172
  0
LINE
  5
2A8
100
AcDbEntity
  8
0
100
AcDbLine
 62
7
  6
CONTINUOUS
 10
5.2599019008
 20
3.7422944029
 11
5.3224019008
 21
3.7422944029
  0
LINE
  5
2A9
100
AcDbEntity
  8
0
100
AcDbLine
 62
7
  6
CONTINUOUS
 10
5.2599019008
 20
3.7536654131
 11
5.3224019008
 21
3.7536654131
  0
LINE
  5
2AA
100
AcDbEntity
  8
0
100
AcDbLine
 62
7
  6
CONTINUOUS
 10
5.2599019008
 20
3.7581509829
 11
5.3224019008
 21
3.7581509829
  0
LINE
  5
2AB
100
AcDbEntity
  8
0
100
AcDbLine
 62
7
  6
CONTINUOUS
 10
5.2599019008
 20
3.7588229722
 11
5.3224019008
 21
3.7588229722
  0
LINE
  5
2AC
100
AcDbEntity
  8
0
100
AcDbLine
 62
7
  6
CONTINUOUS
 10
5.2599019008
 20
3.7700871908
 11
5.3224019008
 21
3.7700871908
  0
LINE
  5
2AD
100
AcDbEntity
  8
0
100
AcDbLine
 62
7
  6
CONTINUOUS
 10
5.2599019008
 20
3.7743087936
 11
5.3224019008
 21
3.7743087936
  0
LINE
  5
2AE
100
AcDbEntity
  8
0
100
AcDbLine
 62
7
  6
CONTINUOUS
 10
5.2599019008
 20
3.7743796489
 11
5.3224019008
 21
3.7743796489
  0
LINE
  5
2AF
100
AcDbEntity
  8
0
100
AcDbLine
 62
7
  6
CONTINUOUS
 10
5.2599019008
 20
3.7855045982
 11
5.3224019008
 21
3.7855045982
  0
LINE
  5
2B0
100
AcDbEntity
  8
0
100
AcDbLine
 62
7
  6
CONTINUOUS
 10
5.2599019008
 20
3.789450062
 11
5.3224019008
 21
3.789450062
  0
LINE
  5
2B1
100
AcDbEntity
  8
0
100
AcDbLine
 62
7
  6
CONTINUOUS
 10
5.2599019008
 20
3.799873183
 11
5.3224019008
 21
3.799873183
  0
LINE
  5
2B2
100
AcDbEntity
  8
0
100
AcDbLine
 62
7
  6
CONTINUOUS
 10
5.2599019008
 20
3.8035311319
 11
5.3224019008
 21
3.8035311319
  0
LINE
  5
2B3
100
AcDbEntity
  8
0
100
AcDbLine
 62
7
  6
CONTINUOUS
 10
5.2599019008
 20
3.8131515168
 11
5.3224019008
 21
3.8131515168
  0
LINE
  5
2B4
100
AcDbEntity
  8
0
100
AcDbLine
 62
7
  6
CONTINUOUS
 10
5.2599019008
 20
3.8165114041
 11
5.3224019008
 21
3.8165114041
  0
LINE
  5
2B5
100
AcDbEntity
  8
0
100
AcDbLine
 62
7
  6
CONTINUOUS
 10
5.1199019008
 20
3.5704916876
 11
5.1199019008
 21
3.2729916876
  0
LINE
  5
2B6
100
AcDbEntity
  8
0
100
AcDbLine
 62
7
  6
CONTINUOUS
 10
5.1349019008
 20
3.5967416876
 11
5.1349019008
 21
3.2467416876
  0
LINE
  5
2B7
100
AcDbEntity
  8
0
100
AcDbLine
 62
7
  6
CONTINUOUS
 10
5.1513574578
 20
3.6279916876
 11
5.1513574578
 21
3.2154916876
  0
LINE
  5
2B8
100
AcDbEntity
  8
0
100
AcDbLine
 62
7
  6
CONTINUOUS
 10
5.2599019008
 20
3.8253013147
 11
5.3224019008
 21
3.8253013147
  0
LINE
  5
2B9
100
AcDbEntity
  8
0
100
AcDbLine
 62
7
  6
CONTINUOUS
 10
5.2599019008
 20
3.828353453
 11
5.3224019008
 21
3.828353453
  0
LINE
  5
2BA
100
AcDbEntity
  8
0
100
AcDbLine
 62
7
  6
CONTINUOUS
 10
6.1826696174
 20
3.8348637913
 11
6.1280791785
 21
3.8348637913
  0
LINE
  5
2BB
100
AcDbEntity
  8
0
100
AcDbLine
 62
7
  6
CONTINUOUS
 10
6.1129019008
 20
3.8351275144
 11
6.1130869402
 21
3.8351275144
  0
LINE
  5
2BC
100
AcDbEntity
  8
0
100
AcDbLine
 62
7
  6
CONTINUOUS
 10
5.4741519008
 20
3.8352416876
 11
5.3224019008
 21
3.8352416876
  0
LINE
  5
2BD
100
AcDbEntity
  8
0
100
AcDbLine
 62
7
  6
CONTINUOUS
 10
5.7116519008
 20
3.8352416876
 11
6.1129019008
 21
3.8352416876
  0
LINE
  5
2BE
100
AcDbEntity
  8
0
100
AcDbLine
 62
7
  6
CONTINUOUS
 10
5.2599019008
 20
3.8362875458
 11
5.3224019008
 21
3.8362875458
  0
LINE
  5
2BF
100
AcDbEntity
  8
0
100
AcDbLine
 62
7
  6
CONTINUOUS
 10
5.2599019008
 20
3.8390231349
 11
5.3224019008
 21
3.8390231349
  0
LINE
  5
2C0
100
AcDbEntity
  8
0
100
AcDbLine
 62
7
  6
CONTINUOUS
 10
5.2599019008
 20
3.8460785339
 11
5.3224019008
 21
3.8460785339
  0
LINE
  5
2C1
100
AcDbEntity
  8
0
100
AcDbLine
 62
7
  6
CONTINUOUS
 10
5.2599019008
 20
3.8484896863
 11
5.3224019008
 21
3.8484896863
  0
LINE
  5
2C2
100
AcDbEntity
  8
0
100
AcDbLine
 62
7
  6
CONTINUOUS
 10
5.2599019008
 20
3.8546460489
 11
5.3224019008
 21
3.8546460489
  0
LINE
  5
2C3
100
AcDbEntity
  8
0
100
AcDbLine
 62
7
  6
CONTINUOUS
 10
5.2599019008
 20
3.8567258129
 11
5.3224019008
 21
3.8567258129
  0
LINE
  5
2C4
100
AcDbEntity
  8
0
100
AcDbLine
 62
7
  6
CONTINUOUS
 10
5.2599019008
 20
3.8619653887
 11
5.3224019008
 21
3.8619653887
  0
LINE
  5
2C5
100
AcDbEntity
  8
0
100
AcDbLine
 62
7
  6
CONTINUOUS
 10
5.2599019008
 20
3.8637077675
 11
5.3224019008
 21
3.8637077675
  0
LINE
  5
2C6
100
AcDbEntity
  8
0
100
AcDbLine
 62
7
  6
CONTINUOUS
 10
5.2599019008
 20
3.8680154495
 11
5.3224019008
 21
3.8680154495
  0
LINE
  5
2C7
100
AcDbEntity
  8
0
100
AcDbLine
 62
7
  6
CONTINUOUS
 10
5.2599019008
 20
3.8694154196
 11
5.3224019008
 21
3.8694154196
  0
LINE
  5
2C8
100
AcDbEntity
  8
0
100
AcDbLine
 62
7
  6
CONTINUOUS
 10
5.2599019008
 20
3.8727787875
 11
5.3224019008
 21
3.8727787875
  0
LINE
  5
2C9
100
AcDbEntity
  8
0
100
AcDbLine
 62
7
  6
CONTINUOUS
 10
5.2599019008
 20
3.8738323124
 11
5.3224019008
 21
3.8738323124
  0
LINE
  5
2CA
100
AcDbEntity
  8
0
100
AcDbLine
 62
7
  6
CONTINUOUS
 10
5.2599019008
 20
3.8762416689
 11
5.3224019008
 21
3.8762416689
  0
LINE
  5
2CB
100
AcDbEntity
  8
0
100
AcDbLine
 62
7
  6
CONTINUOUS
 10
5.2599019008
 20
3.8769457109
 11
5.3224019008
 21
3.8769457109
  0
LINE
  5
2CC
100
AcDbEntity
  8
0
100
AcDbLine
 62
7
  6
CONTINUOUS
 10
5.2599019008
 20
3.8783941091
 11
5.3224019008
 21
3.8783941091
  0
LINE
  5
2CD
100
AcDbEntity
  8
0
100
AcDbLine
 62
7
  6
CONTINUOUS
 10
5.2599019008
 20
3.8787466383
 11
5.3224019008
 21
3.8787466383
  0
LINE
  5
2CE
100
AcDbEntity
  8
0
100
AcDbLine
 62
7
  6
CONTINUOUS
 10
5.2599019008
 20
3.8792299022
 11
5.3224019008
 21
3.8792299022
  0
LINE
  5
2CF
100
AcDbEntity
  8
0
100
AcDbLine
 62
7
  6
CONTINUOUS
 10
5.4954019008
 20
3.9002416876
 11
5.6904019008
 21
3.9002416876
  0
LINE
  5
2D0
100
AcDbEntity
  8
0
100
AcDbLine
 62
7
  6
CONTINUOUS
 10
5.5004019924
 20
3.9052416876
 11
5.6854018093
 21
3.9052416876
  0
LINE
  5
2D1
100
AcDbEntity
  8
0
100
AcDbLine
 62
7
  6
CONTINUOUS
 10
6.1130869516
 20
3.8351275129
 11
6.1131181573
 21
3.8351264172
  0
LINE
  5
2D2
100
AcDbEntity
  8
0
100
AcDbLine
 62
7
  6
CONTINUOUS
 10
5.2481263103
 20
5.1454916876
 11
5.2481263103
 21
4.8479916876
  0
LINE
  5
2D3
100
AcDbEntity
  8
0
100
AcDbLine
 62
7
  6
CONTINUOUS
 10
5.2599019008
 20
2.9643302207
 11
5.2599019008
 21
3.8792299022
  0
LINE
  5
2D4
100
AcDbEntity
  8
0
100
AcDbLine
 62
7
  6
CONTINUOUS
 10
5.2731263103
 20
4.8351695854
 11
5.2731263103
 21
5.1583137897
  0
LINE
  5
2D5
100
AcDbEntity
  8
0
100
AcDbLine
 62
7
  6
CONTINUOUS
 10
5.2852375619
 20
4.8167911294
 11
5.2852375619
 21
5.1766922458
  0
LINE
  5
2D6
100
AcDbEntity
  8
0
100
AcDbLine
 62
7
  6
CONTINUOUS
 10
6.1924078479
 20
4.0954183256
 11
6.2179313868
 21
4.096086683
  0
LINE
  5
2D7
100
AcDbEntity
  8
0
100
AcDbLine
 62
7
  6
CONTINUOUS
 10
4.9043763103
 20
4.0467416876
 11
4.5818763103
 21
4.0467416876
  0
LINE
  5
2D8
100
AcDbEntity
  8
0
100
AcDbLine
 62
7
  6
CONTINUOUS
 10
5.3224019008
 20
3.8792299022
 11
5.3224019008
 21
2.9643302207
  0
LINE
  5
2D9
100
AcDbEntity
  8
0
100
AcDbLine
 62
7
  6
CONTINUOUS
 10
4.9043763103
 20
4.1067416876
 11
4.5818763103
 21
4.1067416876
  0
LINE
  5
2DA
100
AcDbEntity
  8
0
100
AcDbLine
 62
7
  6
CONTINUOUS
 10
5.4401700274
 20
5.3000164903
 11
5.4401700274
 21
4.6934668848
  0
LINE
  5
2DB
100
AcDbEntity
  8
0
100
AcDbLine
 62
7
  6
CONTINUOUS
 10
5.4805220537
 20
5.3204916876
 11
5.4805220537
 21
4.6729916876
  0
LINE
  5
2DC
100
AcDbEntity
  8
0
100
AcDbLine
 62
7
  6
CONTINUOUS
 10
5.4954019008
 20
3.8308897022
 11
5.4954019008
 21
3.9002416876
  0
LINE
  5
2DD
100
AcDbEntity
  8
0
100
AcDbLine
 62
7
  6
CONTINUOUS
 10
5.5091696174
 20
4.6241936863
 11
5.5091696174
 21
5.3692896888
  0
LINE
  5
2DE
100
AcDbEntity
  8
0
100
AcDbLine
 62
7
  6
CONTINUOUS
 10
5.5235926943
 20
4.6092046916
 11
5.5235926943
 21
5.3842786835
  0
LINE
  5
2DF
100
AcDbEntity
  8
0
100
AcDbLine
 62
7
  6
CONTINUOUS
 10
5.5716696174
 20
4.539253473
 11
5.5716696174
 21
5.4541531544
  0
LINE
  5
2E0
100
AcDbEntity
  8
0
100
AcDbLine
 62
7
  6
CONTINUOUS
 10
5.6341696174
 20
5.4541531544
 11
5.6341696174
 21
4.539253473
  0
LINE
  5
2E1
100
AcDbEntity
  8
0
100
AcDbLine
 62
7
  6
CONTINUOUS
 10
5.6904019008
 20
3.8308897028
 11
5.6904019008
 21
3.9002416876
  0
LINE
  5
2E2
100
AcDbEntity
  8
0
100
AcDbLine
 62
7
  6
CONTINUOUS
 10
5.5716696174
 20
4.539253473
 11
5.6341696174
 21
4.539253473
  0
LINE
  5
2E3
100
AcDbEntity
  8
0
100
AcDbLine
 62
7
  6
CONTINUOUS
 10
5.5716696174
 20
4.5397367368
 11
5.6341696174
 21
4.5397367368
  0
LINE
  5
2E4
100
AcDbEntity
  8
0
100
AcDbLine
 62
7
  6
CONTINUOUS
 10
5.5716696174
 20
4.5400892661
 11
5.6341696174
 21
4.5400892661
  0
LINE
  5
2E5
100
AcDbEntity
  8
0
100
AcDbLine
 62
7
  6
CONTINUOUS
 10
5.5716696174
 20
4.5415376643
 11
5.6341696174
 21
4.5415376643
  0
LINE
  5
2E6
100
AcDbEntity
  8
0
100
AcDbLine
 62
7
  6
CONTINUOUS
 10
5.5716696174
 20
4.5422417063
 11
5.6341696174
 21
4.5422417063
  0
LINE
  5
2E7
100
AcDbEntity
  8
0
100
AcDbLine
 62
7
  6
CONTINUOUS
 10
5.5716696174
 20
4.5446510628
 11
5.6341696174
 21
4.5446510628
  0
LINE
  5
2E8
100
AcDbEntity
  8
0
100
AcDbLine
 62
7
  6
CONTINUOUS
 10
5.5716696174
 20
4.5457045876
 11
5.6341696174
 21
4.5457045876
  0
LINE
  5
2E9
100
AcDbEntity
  8
0
100
AcDbLine
 62
7
  6
CONTINUOUS
 10
4.8931263103
 20
4.5467416876
 11
4.5931263103
 21
4.5467416876
  0
LINE
  5
2EA
100
AcDbEntity
  8
0
100
AcDbLine
 62
7
  6
CONTINUOUS
 10
5.5716696174
 20
4.5490679556
 11
5.6341696174
 21
4.5490679556
  0
LINE
  5
2EB
100
AcDbEntity
  8
0
100
AcDbLine
 62
7
  6
CONTINUOUS
 10
5.5716696174
 20
4.5504679257
 11
5.6341696174
 21
4.5504679257
  0
LINE
  5
2EC
100
AcDbEntity
  8
0
100
AcDbLine
 62
7
  6
CONTINUOUS
 10
5.5716696174
 20
4.5547756076
 11
5.6341696174
 21
4.5547756076
  0
LINE
  5
2ED
100
AcDbEntity
  8
0
100
AcDbLine
 62
7
  6
CONTINUOUS
 10
5.5716696174
 20
4.5565179865
 11
5.6341696174
 21
4.5565179865
  0
LINE
  5
2EE
100
AcDbEntity
  8
0
100
AcDbLine
 62
7
  6
CONTINUOUS
 10
5.5716696174
 20
4.5617575623
 11
5.6341696174
 21
4.5617575623
  0
LINE
  5
2EF
100
AcDbEntity
  8
0
100
AcDbLine
 62
7
  6
CONTINUOUS
 10
5.5716696174
 20
4.5638373262
 11
5.6341696174
 21
4.5638373262
  0
LINE
  5
2F0
100
AcDbEntity
  8
0
100
AcDbLine
 62
7
  6
CONTINUOUS
 10
5.5716696174
 20
4.5699936888
 11
5.6341696174
 21
4.5699936888
  0
LINE
  5
2F1
100
AcDbEntity
  8
0
100
AcDbLine
 62
7
  6
CONTINUOUS
 10
5.5716696174
 20
4.5724048413
 11
5.6341696174
 21
4.5724048413
  0
LINE
  5
2F2
100
AcDbEntity
  8
0
100
AcDbLine
 62
7
  6
CONTINUOUS
 10
5.5716696174
 20
4.5794602403
 11
5.6341696174
 21
4.5794602403
  0
LINE
  5
2F3
100
AcDbEntity
  8
0
100
AcDbLine
 62
7
  6
CONTINUOUS
 10
5.5716696174
 20
4.5821958293
 11
5.6341696174
 21
4.5821958293
  0
LINE
  5
2F4
100
AcDbEntity
  8
0
100
AcDbLine
 62
7
  6
CONTINUOUS
 10
6.2276696174
 20
4.5842416876
 11
5.6341696174
 21
4.5842416876
  0
LINE
  5
2F5
100
AcDbEntity
  8
0
100
AcDbLine
 62
7
  6
CONTINUOUS
 10
5.5716696174
 20
4.5901299222
 11
5.6341696174
 21
4.5901299222
  0
LINE
  5
2F6
100
AcDbEntity
  8
0
100
AcDbLine
 62
7
  6
CONTINUOUS
 10
5.5716696174
 20
4.5931820604
 11
5.6341696174
 21
4.5931820604
  0
LINE
  5
2F7
100
AcDbEntity
  8
0
100
AcDbLine
 62
7
  6
CONTINUOUS
 10
5.5716696174
 20
4.6019719711
 11
5.6341696174
 21
4.6019719711
  0
LINE
  5
2F8
100
AcDbEntity
  8
0
100
AcDbLine
 62
7
  6
CONTINUOUS
 10
5.5716696174
 20
4.6053318584
 11
5.6341696174
 21
4.6053318584
  0
LINE
  5
2F9
100
AcDbEntity
  8
0
100
AcDbLine
 62
7
  6
CONTINUOUS
 10
4.8931263103
 20
4.6092416876
 11
4.5931263103
 21
4.6092416876
  0
LINE
  5
2FA
100
AcDbEntity
  8
0
100
AcDbLine
 62
7
  6
CONTINUOUS
 10
5.5716696174
 20
4.6149522432
 11
5.6341696174
 21
4.6149522432
  0
LINE
  5
2FB
100
AcDbEntity
  8
0
100
AcDbLine
 62
7
  6
CONTINUOUS
 10
5.5716696174
 20
4.6186101922
 11
5.6341696174
 21
4.6186101922
  0
LINE
  5
2FC
100
AcDbEntity
  8
0
100
AcDbLine
 62
7
  6
CONTINUOUS
 10
5.5716696174
 20
4.6290333132
 11
5.6341696174
 21
4.6290333132
  0
LINE
  5
2FD
100
AcDbEntity
  8
0
100
AcDbLine
 62
7
  6
CONTINUOUS
 10
5.5716696174
 20
4.632978777
 11
5.6341696174
 21
4.632978777
  0
LINE
  5
2FE
100
AcDbEntity
  8
0
100
AcDbLine
 62
7
  6
CONTINUOUS
 10
5.5716696174
 20
4.6438746887
 11
5.6341696174
 21
4.6438746887
  0
LINE
  5
2FF
100
AcDbEntity
  8
0
100
AcDbLine
 62
7
  6
CONTINUOUS
 10
5.5716696174
 20
4.6441745816
 11
5.6341696174
 21
4.6441745816
  0
LINE
  5
300
100
AcDbEntity
  8
0
100
AcDbLine
 62
7
  6
CONTINUOUS
 10
4.8601263103
 20
4.6467416876
 11
4.6261263103
 21
4.6467416876
  0
LINE
  5
301
100
AcDbEntity
  8
0
100
AcDbLine
 62
7
  6
CONTINUOUS
 10
5.5716696174
 20
4.6483961844
 11
5.6341696174
 21
4.6483961844
  0
LINE
  5
302
100
AcDbEntity
  8
0
100
AcDbLine
 62
7
  6
CONTINUOUS
 10
5.5716696174
 20
4.6594162186
 11
5.6341696174
 21
4.6594162186
  0
LINE
  5
303
100
AcDbEntity
  8
0
100
AcDbLine
 62
7
  6
CONTINUOUS
 10
5.5716696174
 20
4.6603323922
 11
5.6341696174
 21
4.6603323922
  0
LINE
  5
304
100
AcDbEntity
  8
0
100
AcDbLine
 62
7
  6
CONTINUOUS
 10
5.5716696174
 20
4.6648179621
 11
5.6341696174
 21
4.6648179621
  0
LINE
  5
305
100
AcDbEntity
  8
0
100
AcDbLine
 62
7
  6
CONTINUOUS
 10
5.4805220537
 20
4.6729916876
 11
5.5091696174
 21
4.6729916876
  0
LINE
  5
306
100
AcDbEntity
  8
0
100
AcDbLine
 62
7
  6
CONTINUOUS
 10
5.5716696174
 20
4.6759303452
 11
5.6341696174
 21
4.6759303452
  0
LINE
  5
307
100
AcDbEntity
  8
0
100
AcDbLine
 62
7
  6
CONTINUOUS
 10
5.5716696174
 20
4.677460158
 11
5.6341696174
 21
4.677460158
  0
LINE
  5
308
100
AcDbEntity
  8
0
100
AcDbLine
 62
7
  6
CONTINUOUS
 10
5.5716696174
 20
4.6821967618
 11
5.6341696174
 21
4.6821967618
  0
LINE
  5
309
100
AcDbEntity
  8
0
100
AcDbLine
 62
7
  6
CONTINUOUS
 10
5.5716696174
 20
4.693369454
 11
5.6341696174
 21
4.693369454
  0
LINE
  5
30A
100
AcDbEntity
  8
0
100
AcDbLine
 62
7
  6
CONTINUOUS
 10
5.5716696174
 20
4.695508495
 11
5.6341696174
 21
4.695508495
  0
LINE
  5
30B
100
AcDbEntity
  8
0
100
AcDbLine
 62
7
  6
CONTINUOUS
 10
5.5716696174
 20
4.700482476
 11
5.6341696174
 21
4.700482476
  0
LINE
  5
30C
100
AcDbEntity
  8
0
100
AcDbLine
 62
7
  6
CONTINUOUS
 10
5.5716696174
 20
4.7116832634
 11
5.6341696174
 21
4.7116832634
  0
LINE
  5
30D
100
AcDbEntity
  8
0
100
AcDbLine
 62
7
  6
CONTINUOUS
 10
5.5716696174
 20
4.7144253653
 11
5.6341696174
 21
4.7144253653
  0
LINE
  5
30E
100
AcDbEntity
  8
0
100
AcDbLine
 62
7
  6
CONTINUOUS
 10
5.5716696174
 20
4.7196223821
 11
5.6341696174
 21
4.7196223821
  0
LINE
  5
30F
100
AcDbEntity
  8
0
100
AcDbLine
 62
7
  6
CONTINUOUS
 10
5.5716696174
 20
4.7308189701
 11
5.6341696174
 21
4.7308189701
  0
LINE
  5
310
100
AcDbEntity
  8
0
100
AcDbLine
 62
7
  6
CONTINUOUS
 10
5.5716696174
 20
4.7341562266
 11
5.6341696174
 21
4.7341562266
  0
LINE
  5
311
100
AcDbEntity
  8
0
100
AcDbLine
 62
7
  6
CONTINUOUS
 10
5.5716696174
 20
4.739561295
 11
5.6341696174
 21
4.739561295
  0
LINE
  5
312
100
AcDbEntity
  8
0
100
AcDbLine
 62
7
  6
CONTINUOUS
 10
5.5716696174
 20
4.7507214008
 11
5.6341696174
 21
4.7507214008
  0
LINE
  5
313
100
AcDbEntity
  8
0
100
AcDbLine
 62
7
  6
CONTINUOUS
 10
5.5716696174
 20
4.7546441898
 11
5.6341696174
 21
4.7546441898
  0
LINE
  5
314
100
AcDbEntity
  8
0
100
AcDbLine
 62
7
  6
CONTINUOUS
 10
5.5716696174
 20
4.7602417255
 11
5.6341696174
 21
4.7602417255
  0
LINE
  5
315
100
AcDbEntity
  8
0
100
AcDbLine
 62
7
  6
CONTINUOUS
 10
5.5716696174
 20
4.7713331717
 11
5.6341696174
 21
4.7713331717
  0
LINE
  5
316
100
AcDbEntity
  8
0
100
AcDbLine
 62
7
  6
CONTINUOUS
 10
5.5716696174
 20
4.7758301828
 11
5.6341696174
 21
4.7758301828
  0
LINE
  5
317
100
AcDbEntity
  8
0
100
AcDbLine
 62
7
  6
CONTINUOUS
 10
5.5716696174
 20
4.7816040467
 11
5.6341696174
 21
4.7816040467
  0
LINE
  5
318
100
AcDbEntity
  8
0
100
AcDbLine
 62
7
  6
CONTINUOUS
 10
5.5716696174
 20
4.7925948536
 11
5.6341696174
 21
4.7925948536
  0
LINE
  5
319
100
AcDbEntity
  8
0
100
AcDbLine
 62
7
  6
CONTINUOUS
 10
5.5716696174
 20
4.7976531208
 11
5.6341696174
 21
4.7976531208
  0
LINE
  5
31A
100
AcDbEntity
  8
0
100
AcDbLine
 62
7
  6
CONTINUOUS
 10
5.5716696174
 20
4.8035866653
 11
5.6341696174
 21
4.8035866653
  0
LINE
  5
31B
100
AcDbEntity
  8
0
100
AcDbLine
 62
7
  6
CONTINUOUS
 10
5.5716696174
 20
4.8144451438
 11
5.6341696174
 21
4.8144451438
  0
LINE
  5
31C
100
AcDbEntity
  8
0
100
AcDbLine
 62
7
  6
CONTINUOUS
 10
5.5716696174
 20
4.8200500827
 11
5.6341696174
 21
4.8200500827
  0
LINE
  5
31D
100
AcDbEntity
  8
0
100
AcDbLine
 62
7
  6
CONTINUOUS
 10
4.8406263103
 20
4.8217416876
 11
4.6456263103
 21
4.8217416876
  0
LINE
  5
31E
100
AcDbEntity
  8
0
100
AcDbLine
 62
7
  6
CONTINUOUS
 10
5.5716696174
 20
4.8261261999
 11
5.6341696174
 21
4.8261261999
  0
LINE
  5
31F
100
AcDbEntity
  8
0
100
AcDbLine
 62
7
  6
CONTINUOUS
 10
5.5716696174
 20
4.8368210421
 11
5.6341696174
 21
4.8368210421
  0
LINE
  5
320
100
AcDbEntity
  8
0
100
AcDbLine
 62
7
  6
CONTINUOUS
 10
5.5716696174
 20
4.8429564922
 11
5.6341696174
 21
4.8429564922
  0
LINE
  5
321
100
AcDbEntity
  8
0
100
AcDbLine
 62
7
  6
CONTINUOUS
 10
5.2481263103
 20
4.8479916876
 11
5.0103125799
 21
4.8479916876
  0
LINE
  5
322
100
AcDbEntity
  8
0
100
AcDbLine
 62
7
  6
CONTINUOUS
 10
5.5716696174
 20
4.8491576631
 11
5.6341696174
 21
4.8491576631
  0
LINE
  5
323
100
AcDbEntity
  8
0
100
AcDbLine
 62
7
  6
CONTINUOUS
 10
5.5716696174
 20
4.859658033
 11
5.6341696174
 21
4.859658033
  0
LINE
  5
324
100
AcDbEntity
  8
0
100
AcDbLine
 62
7
  6
CONTINUOUS
 10
5.5716696174
 20
4.8663063043
 11
5.6341696174
 21
4.8663063043
  0
LINE
  5
325
100
AcDbEntity
  8
0
100
AcDbLine
 62
7
  6
CONTINUOUS
 10
5.5716696174
 20
4.8726146492
 11
5.6341696174
 21
4.8726146492
  0
LINE
  5
326
100
AcDbEntity
  8
0
100
AcDbLine
 62
7
  6
CONTINUOUS
 10
5.5716696174
 20
4.8828902715
 11
5.6341696174
 21
4.8828902715
  0
LINE
  5
327
100
AcDbEntity
  8
0
100
AcDbLine
 62
7
  6
CONTINUOUS
 10
5.5716696174
 20
4.8900321953
 11
5.6341696174
 21
4.8900321953
  0
LINE
  5
328
100
AcDbEntity
  8
0
100
AcDbLine
 62
7
  6
CONTINUOUS
 10
5.5716696174
 20
4.8964295257
 11
5.6341696174
 21
4.8964295257
  0
LINE
  5
329
100
AcDbEntity
  8
0
100
AcDbLine
 62
7
  6
CONTINUOUS
 10
4.9306263103
 20
4.8992416876
 11
4.9181263103
 21
4.8992416876
  0
LINE
  5
32A
100
AcDbEntity
  8
0
100
AcDbLine
 62
7
  6
CONTINUOUS
 10
6.1129019008
 20
3.8352416876
 11
6.1129019008
 21
3.0082416876
  0
LINE
  5
32B
100
AcDbEntity
  8
0
100
AcDbLine
 62
7
  6
CONTINUOUS
 10
6.1826696174
 20
2.7572616228
 11
6.1826696174
 21
4.0854216562
  0
LINE
  5
32C
100
AcDbEntity
  8
0
100
AcDbLine
 62
7
  6
CONTINUOUS
 10
6.1924078479
 20
2.7472650495
 11
6.1924078479
 21
4.0954183256
  0
LINE
  5
32D
100
AcDbEntity
  8
0
100
AcDbLine
 62
7
  6
CONTINUOUS
 10
6.2179313868
 20
2.7465966921
 11
6.2179313868
 21
4.096086683
  0
LINE
  5
32E
100
AcDbEntity
  8
0
100
AcDbLine
 62
7
  6
CONTINUOUS
 10
6.2276696174
 20
5.8257416876
 11
6.2276696174
 21
2.5927416876
  0
LINE
  5
32F
100
AcDbEntity
  8
0
100
AcDbLine
 62
7
  6
CONTINUOUS
 10
6.2353430453
 20
2.5691834037
 11
6.2353430453
 21
5.8492999714
  0
LINE
  5
330
100
AcDbEntity
  8
0
100
AcDbLine
 62
7
  6
CONTINUOUS
 10
5.2481263103
 20
4.9042416876
 11
5.2731263103
 21
4.9042416876
  0
LINE
  5
331
100
AcDbEntity
  8
0
100
AcDbLine
 62
7
  6
CONTINUOUS
 10
5.5716696174
 20
4.9064507732
 11
5.6341696174
 21
4.9064507732
  0
LINE
  5
332
100
AcDbEntity
  8
0
100
AcDbLine
 62
7
  6
CONTINUOUS
 10
5.5716696174
 20
4.9140657575
 11
5.6341696174
 21
4.9140657575
  0
LINE
  5
333
100
AcDbEntity
  8
0
100
AcDbLine
 62
7
  6
CONTINUOUS
 10
5.5716696174
 20
4.9205336282
 11
5.6341696174
 21
4.9205336282
  0
LINE
  5
334
100
AcDbEntity
  8
0
100
AcDbLine
 62
7
  6
CONTINUOUS
 10
5.5716696174
 20
4.930271607
 11
5.6341696174
 21
4.930271607
  0
LINE
  5
335
100
AcDbEntity
  8
0
100
AcDbLine
 62
7
  6
CONTINUOUS
 10
5.5716696174
 20
4.9383376957
 11
5.6341696174
 21
4.9383376957
  0
LINE
  5
336
100
AcDbEntity
  8
0
100
AcDbLine
 62
7
  6
CONTINUOUS
 10
5.5716696174
 20
4.9448574582
 11
5.6341696174
 21
4.9448574582
  0
LINE
  5
337
100
AcDbEntity
  8
0
100
AcDbLine
 62
7
  6
CONTINUOUS
 10
5.5716696174
 20
4.9542840912
 11
5.6341696174
 21
4.9542840912
  0
LINE
  5
338
100
AcDbEntity
  8
0
100
AcDbLine
 62
7
  6
CONTINUOUS
 10
5.5716696174
 20
4.9627780277
 11
5.6341696174
 21
4.9627780277
  0
LINE
  5
339
100
AcDbEntity
  8
0
100
AcDbLine
 62
7
  6
CONTINUOUS
 10
5.5716696174
 20
4.9693308839
 11
5.6341696174
 21
4.9693308839
  0
LINE
  5
33A
100
AcDbEntity
  8
0
100
AcDbLine
 62
7
  6
CONTINUOUS
 10
5.5716696174
 20
4.9784189916
 11
5.6341696174
 21
4.9784189916
  0
LINE
  5
33B
100
AcDbEntity
  8
0
100
AcDbLine
 62
7
  6
CONTINUOUS
 10
5.5716696174
 20
4.9873162858
 11
5.6341696174
 21
4.9873162858
  0
LINE
  5
33C
100
AcDbEntity
  8
0
100
AcDbLine
 62
7
  6
CONTINUOUS
 10
5.5716696174
 20
4.993883342
 11
5.6341696174
 21
4.993883342
  0
LINE
  5
33D
100
AcDbEntity
  8
0
100
AcDbLine
 62
7
  6
CONTINUOUS
 10
5.5716696174
 20
5.0026067211
 11
5.6341696174
 21
5.0026067211
  0
LINE
  5
33E
100
AcDbEntity
  8
0
100
AcDbLine
 62
7
  6
CONTINUOUS
 10
5.5716696174
 20
5.0118817198
 11
5.6341696174
 21
5.0118817198
  0
LINE
  5
33F
100
AcDbEntity
  8
0
100
AcDbLine
 62
7
  6
CONTINUOUS
 10
5.5716696174
 20
5.0184440415
 11
5.6341696174
 21
5.0184440415
  0
LINE
  5
340
100
AcDbEntity
  8
0
100
AcDbLine
 62
7
  6
CONTINUOUS
 10
5.5716696174
 20
5.0267775402
 11
5.6341696174
 21
5.0267775402
  0
LINE
  5
341
100
AcDbEntity
  8
0
100
AcDbLine
 62
7
  6
CONTINUOUS
 10
5.5716696174
 20
5.0364035011
 11
5.6341696174
 21
5.0364035011
  0
LINE
  5
342
100
AcDbEntity
  8
0
100
AcDbLine
 62
7
  6
CONTINUOUS
 10
6.2745489276
 20
2.4720961488
 11
6.2745489276
 21
5.9463872263
  0
LINE
  5
343
100
AcDbEntity
  8
0
100
AcDbLine
 62
7
  6
CONTINUOUS
 10
6.3141696174
 20
2.4375916876
 11
6.3141696174
 21
5.9808916876
  0
LINE
  5
344
100
AcDbEntity
  8
0
100
AcDbLine
 62
7
  6
CONTINUOUS
 10
6.3516696174
 20
2.4401405818
 11
6.3516696174
 21
2.4375917555
  0
LINE
  5
345
100
AcDbEntity
  8
0
100
AcDbLine
 62
7
  6
CONTINUOUS
 10
5.5716696174
 20
5.0429421674
 11
5.6341696174
 21
5.0429421674
  0
LINE
  5
346
100
AcDbEntity
  8
0
100
AcDbLine
 62
7
  6
CONTINUOUS
 10
5.5716696174
 20
5.0508617582
 11
5.6341696174
 21
5.0508617582
  0
LINE
  5
347
100
AcDbEntity
  8
0
100
AcDbLine
 62
7
  6
CONTINUOUS
 10
5.5716696174
 20
5.0608109272
 11
5.6341696174
 21
5.0608109272
  0
LINE
  5
348
100
AcDbEntity
  8
0
100
AcDbLine
 62
7
  6
CONTINUOUS
 10
5.5716696174
 20
5.0673070855
 11
5.6341696174
 21
5.0673070855
  0
LINE
  5
349
100
AcDbEntity
  8
0
100
AcDbLine
 62
7
  6
CONTINUOUS
 10
5.5716696174
 20
5.074789934
 11
5.6341696174
 21
5.074789934
  0
LINE
  5
34A
100
AcDbEntity
  8
0
100
AcDbLine
 62
7
  6
CONTINUOUS
 10
5.5716696174
 20
5.085033625
 11
5.6341696174
 21
5.085033625
  0
LINE
  5
34B
100
AcDbEntity
  8
0
100
AcDbLine
 62
7
  6
CONTINUOUS
 10
5.2481263103
 20
5.0892416876
 11
5.2731263103
 21
5.0892416876
  0
LINE
  5
34C
100
AcDbEntity
  8
0
100
AcDbLine
 62
7
  6
CONTINUOUS
 10
5.5716696174
 20
5.0914685452
 11
5.6341696174
 21
5.0914685452
  0
LINE
  5
34D
100
AcDbEntity
  8
0
100
AcDbLine
 62
7
  6
CONTINUOUS
 10
4.9306263103
 20
5.0942416876
 11
4.9181263103
 21
5.0942416876
  0
LINE
  5
34E
100
AcDbEntity
  8
0
100
AcDbLine
 62
7
  6
CONTINUOUS
 10
5.5716696174
 20
5.0984930765
 11
5.6341696174
 21
5.0984930765
  0
LINE
  5
34F
100
AcDbEntity
  8
0
100
AcDbLine
 62
7
  6
CONTINUOUS
 10
5.5716696174
 20
5.1090017544
 11
5.6341696174
 21
5.1090017544
  0
LINE
  5
350
100
AcDbEntity
  8
0
100
AcDbLine
 62
7
  6
CONTINUOUS
 10
5.5716696174
 20
5.1153568828
 11
5.6341696174
 21
5.1153568828
  0
LINE
  5
351
100
AcDbEntity
  8
0
100
AcDbLine
 62
7
  6
CONTINUOUS
 10
5.5716696174
 20
5.1219028434
 11
5.6341696174
 21
5.1219028434
  0
LINE
  5
352
100
AcDbEntity
  8
0
100
AcDbLine
 62
7
  6
CONTINUOUS
 10
5.5716696174
 20
5.1326462089
 11
5.6341696174
 21
5.1326462089
  0
LINE
  5
353
100
AcDbEntity
  8
0
100
AcDbLine
 62
7
  6
CONTINUOUS
 10
5.5716696174
 20
5.1389032222
 11
5.6341696174
 21
5.1389032222
  0
LINE
  5
354
100
AcDbEntity
  8
0
100
AcDbLine
 62
7
  6
CONTINUOUS
 10
5.5716696174
 20
5.1449517382
 11
5.6341696174
 21
5.1449517382
  0
LINE
  5
355
100
AcDbEntity
  8
0
100
AcDbLine
 62
7
  6
CONTINUOUS
 10
5.2481263103
 20
5.1454916876
 11
5.0103125799
 21
5.1454916876
  0
LINE
  5
356
100
AcDbEntity
  8
0
100
AcDbLine
 62
7
  6
CONTINUOUS
 10
5.5716696174
 20
5.1558988154
 11
5.6341696174
 21
5.1558988154
  0
LINE
  5
357
100
AcDbEntity
  8
0
100
AcDbLine
 62
7
  6
CONTINUOUS
 10
5.5716696174
 20
5.162039673
 11
5.6341696174
 21
5.162039673
  0
LINE
  5
358
100
AcDbEntity
  8
0
100
AcDbLine
 62
7
  6
CONTINUOUS
 10
5.5716696174
 20
5.1675733052
 11
5.6341696174
 21
5.1675733052
  0
LINE
  5
359
100
AcDbEntity
  8
0
100
AcDbLine
 62
7
  6
CONTINUOUS
 10
6.4016696174
 20
2.4401405818
 11
6.4016696174
 21
5.9808916876
  0
LINE
  5
35A
100
AcDbEntity
  8
0
100
AcDbLine
 62
7
  6
CONTINUOUS
 10
5.5716696174
 20
5.1786925308
 11
5.6341696174
 21
5.1786925308
  0
LINE
  5
35B
100
AcDbEntity
  8
0
100
AcDbLine
 62
7
  6
CONTINUOUS
 10
5.5716696174
 20
5.184699527
 11
5.6341696174
 21
5.184699527
  0
LINE
  5
35C
100
AcDbEntity
  8
0
100
AcDbLine
 62
7
  6
CONTINUOUS
 10
5.5716696174
 20
5.1897023204
 11
5.6341696174
 21
5.1897023204
  0
LINE
  5
35D
100
AcDbEntity
  8
0
100
AcDbLine
 62
7
  6
CONTINUOUS
 10
5.5716696174
 20
5.2009616348
 11
5.6341696174
 21
5.2009616348
  0
LINE
  5
35E
100
AcDbEntity
  8
0
100
AcDbLine
 62
7
  6
CONTINUOUS
 10
5.5716696174
 20
5.2068174499
 11
5.6341696174
 21
5.2068174499
  0
LINE
  5
35F
100
AcDbEntity
  8
0
100
AcDbLine
 62
7
  6
CONTINUOUS
 10
5.5716696174
 20
5.2112749801
 11
5.6341696174
 21
5.2112749801
  0
LINE
  5
360
100
AcDbEntity
  8
0
100
AcDbLine
 62
7
  6
CONTINUOUS
 10
5.5716696174
 20
5.2226419199
 11
5.6341696174
 21
5.2226419199
  0
LINE
  5
361
100
AcDbEntity
  8
0
100
AcDbLine
 62
7
  6
CONTINUOUS
 10
5.5716696174
 20
5.2283296699
 11
5.6341696174
 21
5.2283296699
  0
LINE
  5
362
100
AcDbEntity
  8
0
100
AcDbLine
 62
7
  6
CONTINUOUS
 10
5.5716696174
 20
5.2322290848
 11
5.6341696174
 21
5.2322290848
  0
LINE
  5
363
100
AcDbEntity
  8
0
100
AcDbLine
 62
7
  6
CONTINUOUS
 10
5.5716696174
 20
5.243670876
 11
5.6341696174
 21
5.243670876
  0
LINE
  5
364
100
AcDbEntity
  8
0
100
AcDbLine
 62
7
  6
CONTINUOUS
 10
5.5716696174
 20
5.2491741618
 11
5.6341696174
 21
5.2491741618
  0
LINE
  5
365
100
AcDbEntity
  8
0
100
AcDbLine
 62
7
  6
CONTINUOUS
 10
5.5716696174
 20
5.2525042183
 11
5.6341696174
 21
5.2525042183
  0
LINE
  5
366
100
AcDbEntity
  8
0
100
AcDbLine
 62
7
  6
CONTINUOUS
 10
5.5716696174
 20
5.2639878714
 11
5.6341696174
 21
5.2639878714
  0
LINE
  5
367
100
AcDbEntity
  8
0
100
AcDbLine
 62
7
  6
CONTINUOUS
 10
5.5716696174
 20
5.2692908256
 11
5.6341696174
 21
5.2692908256
  0
LINE
  5
368
100
AcDbEntity
  8
0
100
AcDbLine
 62
7
  6
CONTINUOUS
 10
5.5716696174
 20
5.2720419223
 11
5.6341696174
 21
5.2720419223
  0
LINE
  5
369
100
AcDbEntity
  8
0
100
AcDbLine
 62
7
  6
CONTINUOUS
 10
5.5716696174
 20
5.2835343269
 11
5.6341696174
 21
5.2835343269
  0
LINE
  5
36A
100
AcDbEntity
  8
0
100
AcDbLine
 62
7
  6
CONTINUOUS
 10
5.5716696174
 20
5.2886216597
 11
5.6341696174
 21
5.2886216597
  0
LINE
  5
36B
100
AcDbEntity
  8
0
100
AcDbLine
 62
7
  6
CONTINUOUS
 10
5.5716696174
 20
5.2907858644
 11
5.6341696174
 21
5.2907858644
  0
LINE
  5
36C
100
AcDbEntity
  8
0
100
AcDbLine
 62
7
  6
CONTINUOUS
 10
5.5716696174
 20
5.302253885
 11
5.6341696174
 21
5.302253885
  0
LINE
  5
36D
100
AcDbEntity
  8
0
100
AcDbLine
 62
7
  6
CONTINUOUS
 10
5.5716696174
 20
5.3071109282
 11
5.6341696174
 21
5.3071109282
  0
LINE
  5
36E
100
AcDbEntity
  8
0
100
AcDbLine
 62
7
  6
CONTINUOUS
 10
5.5716696174
 20
5.3086820011
 11
5.6341696174
 21
5.3086820011
  0
LINE
  5
36F
100
AcDbEntity
  8
0
100
AcDbLine
 62
7
  6
CONTINUOUS
 10
5.5716696174
 20
5.3200925723
 11
5.6341696174
 21
5.3200925723
  0
LINE
  5
370
100
AcDbEntity
  8
0
100
AcDbLine
 62
7
  6
CONTINUOUS
 10
5.4805220537
 20
5.3204916876
 11
5.5091696174
 21
5.3204916876
  0
LINE
  5
371
100
AcDbEntity
  8
0
100
AcDbLine
 62
7
  6
CONTINUOUS
 10
5.5716696174
 20
5.3247053219
 11
5.6341696174
 21
5.3247053219
  0
LINE
  5
372
100
AcDbEntity
  8
0
100
AcDbLine
 62
7
  6
CONTINUOUS
 10
5.5716696174
 20
5.3256787331
 11
5.6341696174
 21
5.3256787331
  0
LINE
  5
373
100
AcDbEntity
  8
0
100
AcDbLine
 62
7
  6
CONTINUOUS
 10
5.5716696174
 20
5.3369989553
 11
5.6341696174
 21
5.3369989553
  0
LINE
  5
374
100
AcDbEntity
  8
0
100
AcDbLine
 62
7
  6
CONTINUOUS
 10
5.5716696174
 20
5.3413541115
 11
5.6341696174
 21
5.3413541115
  0
LINE
  5
375
100
AcDbEntity
  8
0
100
AcDbLine
 62
7
  6
CONTINUOUS
 10
5.5716696174
 20
5.3417270544
 11
5.6341696174
 21
5.3417270544
  0
LINE
  5
376
100
AcDbEntity
  8
0
100
AcDbLine
 62
7
  6
CONTINUOUS
 10
5.5716696174
 20
5.3529242885
 11
5.6341696174
 21
5.3529242885
  0
LINE
  5
377
100
AcDbEntity
  8
0
100
AcDbLine
 62
7
  6
CONTINUOUS
 10
5.5716696174
 20
5.3570092943
 11
5.6341696174
 21
5.3570092943
  0
LINE
  5
378
100
AcDbEntity
  8
0
100
AcDbLine
 62
7
  6
CONTINUOUS
 10
5.5716696174
 20
5.367822655
 11
5.6341696174
 21
5.367822655
  0
LINE
  5
379
100
AcDbEntity
  8
0
100
AcDbLine
 62
7
  6
CONTINUOUS
 10
5.5716696174
 20
5.3716257323
 11
5.6341696174
 21
5.3716257323
  0
LINE
  5
37A
100
AcDbEntity
  8
0
100
AcDbLine
 62
7
  6
CONTINUOUS
 10
5.5716696174
 20
5.3816510991
 11
5.6341696174
 21
5.3816510991
  0
LINE
  5
37B
100
AcDbEntity
  8
0
100
AcDbLine
 62
7
  6
CONTINUOUS
 10
5.5716696174
 20
5.3851612825
 11
5.6341696174
 21
5.3851612825
  0
LINE
  5
37C
100
AcDbEntity
  8
0
100
AcDbLine
 62
7
  6
CONTINUOUS
 10
5.5716696174
 20
5.3943697497
 11
5.6341696174
 21
5.3943697497
  0
LINE
  5
37D
100
AcDbEntity
  8
0
100
AcDbLine
 62
7
  6
CONTINUOUS
 10
5.5716696174
 20
5.3975769185
 11
5.6341696174
 21
5.3975769185
  0
LINE
  5
37E
100
AcDbEntity
  8
0
100
AcDbLine
 62
7
  6
CONTINUOUS
 10
5.5716696174
 20
5.4059419356
 11
5.6341696174
 21
5.4059419356
  0
LINE
  5
37F
100
AcDbEntity
  8
0
100
AcDbLine
 62
7
  6
CONTINUOUS
 10
5.5716696174
 20
5.4088368428
 11
5.6341696174
 21
5.4088368428
  0
LINE
  5
380
100
AcDbEntity
  8
0
100
AcDbLine
 62
7
  6
CONTINUOUS
 10
6.2276696174
 20
5.4092416876
 11
5.6341696174
 21
5.4092416876
  0
LINE
  5
381
100
AcDbEntity
  8
0
100
AcDbLine
 62
7
  6
CONTINUOUS
 10
5.5716696174
 20
5.4163342914
 11
5.6341696174
 21
5.4163342914
  0
LINE
  5
382
100
AcDbEntity
  8
0
100
AcDbLine
 62
7
  6
CONTINUOUS
 10
5.5716696174
 20
5.4189085901
 11
5.6341696174
 21
5.4189085901
  0
LINE
  5
383
100
AcDbEntity
  8
0
100
AcDbLine
 62
7
  6
CONTINUOUS
 10
5.5716696174
 20
5.425516853
 11
5.6341696174
 21
5.425516853
  0
LINE
  5
384
100
AcDbEntity
  8
0
100
AcDbLine
 62
7
  6
CONTINUOUS
 10
5.5716696174
 20
5.4277631209
 11
5.6341696174
 21
5.4277631209
  0
LINE
  5
385
100
AcDbEntity
  8
0
100
AcDbLine
 62
7
  6
CONTINUOUS
 10
5.5716696174
 20
5.4334631448
 11
5.6341696174
 21
5.4334631448
  0
LINE
  5
386
100
AcDbEntity
  8
0
100
AcDbLine
 62
7
  6
CONTINUOUS
 10
5.5716696174
 20
5.4353749053
 11
5.6341696174
 21
5.4353749053
  0
LINE
  5
387
100
AcDbEntity
  8
0
100
AcDbLine
 62
7
  6
CONTINUOUS
 10
5.5716696174
 20
5.4401502556
 11
5.6341696174
 21
5.4401502556
  0
LINE
  5
388
100
AcDbEntity
  8
0
100
AcDbLine
 62
7
  6
CONTINUOUS
 10
5.5716696174
 20
5.4417219966
 11
5.6341696174
 21
5.4417219966
  0
LINE
  5
389
100
AcDbEntity
  8
0
100
AcDbLine
 62
7
  6
CONTINUOUS
 10
5.5716696174
 20
5.4455589047
 11
5.6341696174
 21
5.4455589047
  0
LINE
  5
38A
100
AcDbEntity
  8
0
100
AcDbLine
 62
7
  6
CONTINUOUS
 10
5.5716696174
 20
5.4467860945
 11
5.6341696174
 21
5.4467860945
  0
LINE
  5
38B
100
AcDbEntity
  8
0
100
AcDbLine
 62
7
  6
CONTINUOUS
 10
5.5716696174
 20
5.4496734976
 11
5.6341696174
 21
5.4496734976
  0
LINE
  5
38C
100
AcDbEntity
  8
0
100
AcDbLine
 62
7
  6
CONTINUOUS
 10
5.5716696174
 20
5.4505525979
 11
5.6341696174
 21
5.4505525979
  0
LINE
  5
38D
100
AcDbEntity
  8
0
100
AcDbLine
 62
7
  6
CONTINUOUS
 10
5.5716696174
 20
5.4524821708
 11
5.6341696174
 21
5.4524821708
  0
LINE
  5
38E
100
AcDbEntity
  8
0
100
AcDbLine
 62
7
  6
CONTINUOUS
 10
5.5716696174
 20
5.4530106469
 11
5.6341696174
 21
5.4530106469
  0
LINE
  5
38F
100
AcDbEntity
  8
0
100
AcDbLine
 62
7
  6
CONTINUOUS
 10
5.5716696174
 20
5.4539768263
 11
5.6341696174
 21
5.4539768263
  0
LINE
  5
390
100
AcDbEntity
  8
0
100
AcDbLine
 62
7
  6
CONTINUOUS
 10
5.5716696174
 20
5.4541531544
 11
5.6341696174
 21
5.4541531544
  0
LINE
  5
391
100
AcDbEntity
  8
0
100
AcDbLine
 62
7
  6
CONTINUOUS
 10
6.3141696174
 20
5.9808916876
 11
6.4016696174
 21
5.9808916876
  0
ARC
  5
392
100
AcDbEntity
  8
0
100
AcDbCircle
 62
7
  6
CONTINUOUS
 10
4.7899019008
 20
3.2467416876
 40
0.2725
100
AcDbArc
 50
90.0
 51
180.0
  0
ARC
  5
393
100
AcDbEntity
  8
0
100
AcDbCircle
 62
7
  6
CONTINUOUS
 10
5.0099019008
 20
3.8341235031
 40
0.25
100
AcDbArc
 50
304.4594077917
 51
360.0
  0
ARC
  5
394
100
AcDbEntity
  8
0
100
AcDbCircle
 62
7
  6
CONTINUOUS
 10
5.0099019008
 20
3.009359872
 40
0.25
100
AcDbArc
 50
0.7291367782
 51
55.5405922083
  0
ARC
  5
395
100
AcDbEntity
  8
0
100
AcDbCircle
 62
7
  6
CONTINUOUS
 10
4.7899019008
 20
3.2467416876
 40
0.0775
100
AcDbArc
 50
90.0
 51
180.0
  0
ARC
  5
396
100
AcDbEntity
  8
0
100
AcDbCircle
 62
7
  6
CONTINUOUS
 10
5.1728024063
 20
3.5967416876
 40
0.0379005055
100
AcDbArc
 50
124.4594077917
 51
180.0
  0
ARC
  5
397
100
AcDbEntity
  8
0
100
AcDbCircle
 62
7
  6
CONTINUOUS
 10
5.1728024063
 20
3.2467416876
 40
0.0379005055
100
AcDbArc
 50
180.0
 51
235.5405922083
  0
ARC
  5
398
100
AcDbEntity
  8
0
100
AcDbCircle
 62
7
  6
CONTINUOUS
 10
4.4600950826
 20
3.0717416876
 40
0.0378068182
100
AcDbArc
 50
277.3044455606
 51
360.0
  0
ARC
  5
399
100
AcDbEntity
  8
0
100
AcDbCircle
 62
7
  6
CONTINUOUS
 10
4.769708719
 20
3.0717416876
 40
0.0378068182
100
AcDbArc
 50
180.0
 51
262.6955544394
  0
ARC
  5
39A
100
AcDbEntity
  8
0
100
AcDbCircle
 62
7
  6
CONTINUOUS
 10
4.4649019008
 20
3.0029916876
 40
0.03125
100
AcDbArc
 50
90.0
 51
270.0
  0
ARC
  5
39B
100
AcDbEntity
  8
0
100
AcDbCircle
 62
7
  6
CONTINUOUS
 10
4.7649019008
 20
3.0029916876
 40
0.03125
100
AcDbArc
 50
270.0
 51
90.0
  0
ARC
  5
39C
100
AcDbEntity
  8
0
100
AcDbCircle
 62
7
  6
CONTINUOUS
 10
4.4536519008
 20
2.5017416876
 40
0.03
100
AcDbArc
 50
90.0
 51
270.0
  0
ARC
  5
39D
100
AcDbEntity
  8
0
100
AcDbCircle
 62
7
  6
CONTINUOUS
 10
4.7761519008
 20
2.5017416876
 40
0.03
100
AcDbArc
 50
270.0
 51
90.0
  0
ARC
  5
39E
100
AcDbEntity
  8
0
100
AcDbCircle
 62
7
  6
CONTINUOUS
 10
4.8424019008
 20
3.2679916876
 40
0.03
100
AcDbArc
 50
180.0
 51
352.8192442185
  0
ARC
  5
39F
100
AcDbEntity
  8
0
100
AcDbCircle
 62
7
  6
CONTINUOUS
 10
4.8424019008
 20
3.5754916876
 40
0.03
100
AcDbArc
 50
7.1807557815
 51
180.0
  0
ARC
  5
3A0
100
AcDbEntity
  8
0
100
AcDbCircle
 62
7
  6
CONTINUOUS
 10
4.5818763103
 20
4.0767416876
 40
0.03
100
AcDbArc
 50
90.0
 51
270.0
  0
ARC
  5
3A1
100
AcDbEntity
  8
0
100
AcDbCircle
 62
7
  6
CONTINUOUS
 10
4.9043763103
 20
4.0767416876
 40
0.03
100
AcDbArc
 50
270.0
 51
90.0
  0
ARC
  5
3A2
100
AcDbEntity
  8
0
100
AcDbCircle
 62
7
  6
CONTINUOUS
 10
4.8024019008
 20
3.5292416876
 40
0.01
100
AcDbArc
 50
270.0
 51
360.0
  0
ARC
  5
3A3
100
AcDbEntity
  8
0
100
AcDbCircle
 62
7
  6
CONTINUOUS
 10
4.8024019008
 20
3.3142416876
 40
0.01
100
AcDbArc
 50
0.0
 51
90.0
  0
ARC
  5
3A4
100
AcDbEntity
  8
0
100
AcDbCircle
 62
7
  6
CONTINUOUS
 10
4.8820881705
 20
3.2629916876
 40
0.01
100
AcDbArc
 50
90.0
 51
172.8192442186
  0
ARC
  5
3A5
100
AcDbEntity
  8
0
100
AcDbCircle
 62
7
  6
CONTINUOUS
 10
4.8820881705
 20
3.5804916876
 40
0.01
100
AcDbArc
 50
187.1807557814
 51
270.0
  0
ARC
  5
3A6
100
AcDbEntity
  8
0
100
AcDbCircle
 62
7
  6
CONTINUOUS
 10
5.1371263103
 20
4.4717356162
 40
0.3755
100
AcDbArc
 50
36.1922176694
 51
66.7691079294
  0
ARC
  5
3A7
100
AcDbEntity
  8
0
100
AcDbCircle
 62
7
  6
CONTINUOUS
 10
5.1371263103
 20
5.521747759
 40
0.3755
100
AcDbArc
 50
293.2308920706
 51
323.8077823306
  0
ARC
  5
3A8
100
AcDbEntity
  8
0
100
AcDbCircle
 62
7
  6
CONTINUOUS
 10
4.9181263103
 20
4.8217416876
 40
0.2725
100
AcDbArc
 50
90.0
 51
180.0
  0
ARC
  5
3A9
100
AcDbEntity
  8
0
100
AcDbCircle
 62
7
  6
CONTINUOUS
 10
4.9181263103
 20
4.8217416876
 40
0.0775
100
AcDbArc
 50
90.0
 51
180.0
  0
ARC
  5
3AA
100
AcDbEntity
  8
0
100
AcDbCircle
 62
7
  6
CONTINUOUS
 10
4.5883194921
 20
4.6467416876
 40
0.0378068182
100
AcDbArc
 50
277.3044455606
 51
360.0
  0
ARC
  5
3AB
100
AcDbEntity
  8
0
100
AcDbCircle
 62
7
  6
CONTINUOUS
 10
4.8979331285
 20
4.6467416876
 40
0.0378068182
100
AcDbArc
 50
180.0
 51
262.6955544394
  0
ARC
  5
3AC
100
AcDbEntity
  8
0
100
AcDbCircle
 62
7
  6
CONTINUOUS
 10
4.5931263103
 20
4.5779916876
 40
0.03125
100
AcDbArc
 50
90.0
 51
270.0
  0
ARC
  5
3AD
100
AcDbEntity
  8
0
100
AcDbCircle
 62
7
  6
CONTINUOUS
 10
4.8931263103
 20
4.5779916876
 40
0.03125
100
AcDbArc
 50
270.0
 51
90.0
  0
ARC
  5
3AE
100
AcDbEntity
  8
0
100
AcDbCircle
 62
7
  6
CONTINUOUS
 10
4.9706263103
 20
4.8429916876
 40
0.03
100
AcDbArc
 50
180.0
 51
352.8192442185
  0
ARC
  5
3AF
100
AcDbEntity
  8
0
100
AcDbCircle
 62
7
  6
CONTINUOUS
 10
4.9706263103
 20
5.1504916876
 40
0.03
100
AcDbArc
 50
7.1807557815
 51
180.0
  0
ARC
  5
3B0
100
AcDbEntity
  8
0
100
AcDbCircle
 62
7
  6
CONTINUOUS
 10
5.2931263103
 20
4.8351695854
 40
0.02
100
AcDbArc
 50
180.0
 51
246.7691079294
  0
ARC
  5
3B1
100
AcDbEntity
  8
0
100
AcDbCircle
 62
7
  6
CONTINUOUS
 10
5.2931263103
 20
5.1583137897
 40
0.02
100
AcDbArc
 50
113.2308920706
 51
180.0
  0
ARC
  5
3B2
100
AcDbEntity
  8
0
100
AcDbCircle
 62
7
  6
CONTINUOUS
 10
4.9306263103
 20
5.1042416876
 40
0.01
100
AcDbArc
 50
270.0
 51
360.0
  0
ARC
  5
3B3
100
AcDbEntity
  8
0
100
AcDbCircle
 62
7
  6
CONTINUOUS
 10
4.9306263103
 20
4.8892416876
 40
0.01
100
AcDbArc
 50
0.0
 51
90.0
  0
ARC
  5
3B4
100
AcDbEntity
  8
0
100
AcDbCircle
 62
7
  6
CONTINUOUS
 10
5.0103125799
 20
4.8379916876
 40
0.01
100
AcDbArc
 50
90.0
 51
172.8192442186
  0
ARC
  5
3B5
100
AcDbEntity
  8
0
100
AcDbCircle
 62
7
  6
CONTINUOUS
 10
5.0103125799
 20
5.1554916876
 40
0.01
100
AcDbArc
 50
187.1807557814
 51
270.0
  0
ARC
  5
3B6
100
AcDbEntity
  8
0
100
AcDbCircle
 62
7
  6
CONTINUOUS
 10
6.0615877204
 20
2.442557628
 40
0.215
100
AcDbArc
 50
7.8967562426
 51
36.083035471
  0
ARC
  5
3B7
100
AcDbEntity
  8
0
100
AcDbCircle
 62
7
  6
CONTINUOUS
 10
6.2676696174
 20
2.5927416876
 40
0.04
100
AcDbArc
 50
180.0
 51
216.083035471
  0
ARC
  5
3B8
100
AcDbEntity
  8
0
100
AcDbCircle
 62
7
  6
CONTINUOUS
 10
6.3141696174
 20
2.4775916876
 40
0.04
100
AcDbArc
 50
187.8967562426
 51
270.0
  0
ARC
  5
3B9
100
AcDbEntity
  8
0
100
AcDbCircle
 62
7
  6
CONTINUOUS
 10
6.1926696174
 20
2.7572616228
 40
0.01
100
AcDbArc
 50
180.0
 51
268.5
  0
ARC
  5
3BA
100
AcDbEntity
  8
0
100
AcDbCircle
 62
7
  6
CONTINUOUS
 10
6.1926696174
 20
4.0854217524
 40
0.01
100
AcDbArc
 50
91.5
 51
180.0
  0
ARC
  5
3BB
100
AcDbEntity
  8
0
100
AcDbCircle
 62
7
  6
CONTINUOUS
 10
6.2176696174
 20
4.1060832563
 40
0.01
100
AcDbArc
 50
271.5
 51
360.0
  0
ARC
  5
3BC
100
AcDbEntity
  8
0
100
AcDbCircle
 62
7
  6
CONTINUOUS
 10
6.2176696174
 20
2.7366001189
 40
0.01
100
AcDbArc
 50
0.0
 51
88.5
  0
ARC
  5
3BD
100
AcDbEntity
  8
0
100
AcDbCircle
 62
7
  6
CONTINUOUS
 10
5.6854019008
 20
3.9002416876
 40
0.005
100
AcDbArc
 50
0.0
 51
90.0
  0
ARC
  5
3BE
100
AcDbEntity
  8
0
100
AcDbCircle
 62
7
  6
CONTINUOUS
 10
5.5004019008
 20
3.9002416876
 40
0.005
100
AcDbArc
 50
90.0
 51
180.0
  0
ARC
  5
3BF
100
AcDbEntity
  8
0
100
AcDbCircle
 62
7
  6
CONTINUOUS
 10
6.0615877204
 20
5.9759257471
 40
0.215
100
AcDbArc
 50
323.916964529
 51
352.1032437574
  0
ARC
  5
3C0
100
AcDbEntity
  8
0
100
AcDbCircle
 62
7
  6
CONTINUOUS
 10
5.4805220537
 20
4.7229916876
 40
0.05
100
AcDbArc
 50
216.1922176694
 51
270.0
  0
ARC
  5
3C1
100
AcDbEntity
  8
0
100
AcDbCircle
 62
7
  6
CONTINUOUS
 10
5.5216696174
 20
4.5592416876
 40
0.05
100
AcDbArc
 50
2.8809379669
 51
87.795772496
  0
ARC
  5
3C2
100
AcDbEntity
  8
0
100
AcDbCircle
 62
7
  6
CONTINUOUS
 10
5.5216696174
 20
5.4342416876
 40
0.05
100
AcDbArc
 50
272.204227504
 51
358.2785142648
  0
ARC
  5
3C3
100
AcDbEntity
  8
0
100
AcDbCircle
 62
7
  6
CONTINUOUS
 10
5.4805220537
 20
5.2704916876
 40
0.05
100
AcDbArc
 50
90.0
 51
143.8077823307
  0
ARC
  5
3C4
100
AcDbEntity
  8
0
100
AcDbCircle
 62
7
  6
CONTINUOUS
 10
6.2676696174
 20
5.8257416876
 40
0.04
100
AcDbArc
 50
143.916964529
 51
180.0
  0
ARC
  5
3C5
100
AcDbEntity
  8
0
100
AcDbCircle
 62
7
  6
CONTINUOUS
 10
6.3141696174
 20
5.9408916876
 40
0.04
100
AcDbArc
 50
90.0
 51
172.1032437574
  0
ARC
  5
3C6
100
AcDbEntity
  8
0
100
AcDbCircle
 62
7
  6
CONTINUOUS
 10
5.5241696174
 20
5.3692897823
 40
0.015
100
AcDbArc
 50
92.204227504
 51
180.0
  0
ARC
  5
3C7
100
AcDbEntity
  8
0
100
AcDbCircle
 62
7
  6
CONTINUOUS
 10
5.5241696174
 20
4.6241935929
 40
0.015
100
AcDbArc
 50
180.0
 51
267.795772496
  0
LINE
  5
3C8
100
AcDbEntity
  8
0
100
AcDbLine
 62
7
  6
CONTINUOUS
 10
6.1280791784
 20
3.8348637913
 11
6.1130869516
 21
3.8351275129
  0
SPLINE
  5
3C9
100
AcDbEntity
  8
0
100
AcDbSpline
 62
7
  6
CONTINUOUS
 70
0
 71
3
 72
21
 73
17
 74
0
 42
0.0000001
 43
0.0000001
 44
0.0000000001
 40
0.0
 40
0.0
 40
0.0
 40
0.0
 40
0.043538411
 40
0.0940572126
 40
0.1590903161
 40
0.2351479516
 40
0.3191397779
 40
0.4082932672
 40
0.4999999995
 40
0.5917067319
 40
0.6808602212
 40
0.7648520476
 40
0.8409096833
 40
0.9059427869
 40
0.9564615886
 40
1.0
 40
1.0
 40
1.0
 40
1.0
 10
5.7116519008
 20
3.8352416876
 30
0.0
 10
5.7082591074
 20
3.8344847053
 30
0.0
 10
5.7009160601
 20
3.8329095403
 30
0.0
 10
5.6884488839
 20
3.8304736537
 30
0.0
 10
5.673367823
 20
3.827892434
 30
0.0
 10
5.6555683681
 20
3.8253914109
 30
0.0
 10
5.6357745495
 20
3.8233224313
 30
0.0
 10
5.6146659179
 20
3.821961921
 30
0.0
 10
5.5929019009
 20
3.8214878585
 30
0.0
 10
5.571137884
 20
3.821961921
 30
0.0
 10
5.5500292523
 20
3.8233224313
 30
0.0
 10
5.5302354337
 20
3.8253914109
 30
0.0
 10
5.5124359788
 20
3.827892434
 30
0.0
 10
5.4973549179
 20
3.8304736537
 30
0.0
 10
5.4848877416
 20
3.8329095403
 30
0.0
 10
5.4775446942
 20
3.8344847052
 30
0.0
 10
5.4741519008
 20
3.8352416876
 30
0.0
  0
ENDSEC
  0
SECTION
  2
OBJECTS
  0
DICTIONARY
  5
C
100
AcDbDictionary
280
0
281
1
  3
ACAD_GROUP
350
D
  3
ACAD_MLINESTYLE
350
17
  3
ACAD_LAYOUT
350
1A
  3
ACAD_PLOTSETTINGS
350
19
  3
ACAD_PLOTSTYLENAME
350
E
  0
DICTIONARY
  5
D
102
{ACAD_REACTORS
330
C
102
}
100
AcDbDictionary
280
0
281
1
  0
ACDBDICTIONARYWDFLT
  5
E
102
{ACAD_REACTORS
330
C
102
}
100
AcDbDictionary
281
1
  3
Normal
350
F
100
AcDbDictionaryWithDefault
340
F
  0
DICTIONARY
  5
17
102
{ACAD_REACTORS
330
C
102
}
100
AcDbDictionary
280
0
281
1
  3
Standard
350
18
  0
DICTIONARY
  5
19
102
{ACAD_REACTORS
330
C
102
}
100
AcDbDictionary
281
1
  0
DICTIONARY
  5
1A
102
{ACAD_REACTORS
330
C
102
}
100
AcDbDictionary
281
1
  3
Model
350
3CA
  3
Layout1
350
3CB
  0
ACDBPLACEHOLDER
  5
F
102
{ACAD_REACTORS
330
E
102
}
  0
MLINESTYLE
  5
18
102
{ACAD_REACTORS
330
17
102
}
100
AcDbMlineStyle
  2
STANDARD
 70
0
  3

 62
256
 51
90.0
 52
90.0
 71
2
 49
0.5
 62
256
  6
BYLAYER
 49
-0.5
 62
256
  6
BYLAYER
  0
LAYOUT
  5
3CA
102
{ACAD_REACTORS
330
1A
102
}
100
AcDbPlotSettings
  1

  2
none_device
  4
ANSI_A_(11.00_x_8.50_Inches)
  6

 40
0.0
 41
0.0
 42
0.0
 43
0.0
 44
279.4
 45
215.9
 46
0.0
 47
0.0
 48
0.0
 49
0.0
140
0.0
141
0.0
142
1.0
143
1.0
 70
1024
 72
0
 73
0
 74
0
  7

 75
0
147
1.0
148
0.0
149
0.0
100
AcDbLayout
  1
Model
 70
0
 71
0
 10
0.0
 20
0.0
 11
11.0
 21
8.5
 12
0.0
 22
0.0
 32
0.0
 14
0.0
 24
0.0
 34
0.0
 15
0.0
 25
0.0
 35
0.0
146
0.0
 13
0.0
 23
0.0
 33
0.0
 16
1.0
 26
0.0
 36
0.0
 17
0.0
 27
1.0
 37
0.0
 76
0
330
202
345
0
346
0
  0
LAYOUT
  5
3CB
102
{ACAD_REACTORS
330
1A
102
}
100
AcDbPlotSettings
  1

  2
none_device
  4
ANSI_A_(11.00_x_8.50_Inches)
  6

 40
0.0
 41
0.0
 42
0.0
 43
0.0
 44
279.4
 45
215.9
 46
0.0
 47
0.0
 48
0.0
 49
0.0
140
0.0
141
0.0
142
1.0
143
1.0
 70
0
 72
0
 73
0
 74
0
  7

 75
0
147
1.0
148
0.0
149
0.0
100
AcDbLayout
  1
Layout1
 70
0
 71
1
 10
0.0
 20
0.0
 11
11.0
 21
8.5
 12
0.0
 22
0.0
 32
0.0
 14
0.0
 24
0.0
 34
0.0
 15
0.0
 25
0.0
 35
0.0
146
0.0
 13
0.0
 23
0.0
 33
0.0
 16
1.0
 26
0.0
 36
0.0
 17
0.0
 27
1.0
 37
0.0
 76
0
330
203
345
0
346
0
  0
ENDSEC
  0
EOF
