999
DXF file: 3-2943tr_top.dxf
999
Pro/ENGINEER 2019352 by Parametric Technology Corporation
  0
SECTION
  2
HEADER
  9
$ACADVER
  1
AC1032
  9
$DWGCODEPAGE
  3
ANSI_1252
  9
$EXTMAX
 10
11.0
 20
8.5
 30
0.0
  9
$EXTMIN
 10
0.0
 20
0.0
 30
0.0
  9
$LIMMIN
 10
0.0
 20
0.0
  9
$LIMMAX
 10
11.0
 20
8.5
  9
$VIEWCTR
 10
5.5
 20
4.25
  9
$VIEWSIZE
 40
8.5
  9
$CLAYER
  8
0
  9
$LTSCALE
 40
0.605
  9
$CELTYPE
  6
BYLAYER
  9
$DIMSCALE
 40
1.0
  9
$DIMASZ
 40
0.1
  9
$DIMEXO
 40
0.0625
  9
$DIMDLI
 40
0.418
  9
$DIMEXE
 40
0.125
  9
$DIMCEN
 40
0.099
  9
$DIMLFAC
 40
1.0
  9
$DIMBLK
  1
_FILLED
  9
$DIMALT
 70
1
  9
$DIMALTD
 70
2
  9
$DIMALTTD
 70
2
  9
$DIMALTF
 40
25.4
  9
$DIMTXT
 40
0.08
  9
$DIMTOL
 70
1
  9
$DIMLIM
 70
0
  9
$DIMTFAC
 40
1.0
  9
$DIMTP
 40
0.001
  9
$DIMTM
 40
0.001
  9
$DIMGAP
 40
0.09
  9
$DIMDSEP
 70
46
  9
$AUNITS
 70
0
  9
$PDMODE
 70
3
  9
$PDSIZE
 40
0.3125
  9
$HANDSEED
  5
395
  9
$TILEMODE
 70
1
  9
$MEASUREMENT
 70
0
  9
$INSUNITS
 70
1
  0
ENDSEC
  0
SECTION
  2
CLASSES
  0
CLASS
  1
ACDBDICTIONARYWDFLT
  2
AcDbDictionaryWithDefault
  3
AutoCAD 2000
 90
0
 91
1
280
0
281
0
  0
CLASS
  1
ACDBPLACEHOLDER
  2
AcDbPlaceHolder
  3
AutoCAD 2000
 90
0
 91
1
280
0
281
0
  0
CLASS
  1
LAYOUT
  2
AcDbLayout
  3
AutoCAD 2000
 90
0
 91
0
280
0
281
0
  0
ENDSEC
  0
SECTION
  2
TABLES
  0
TABLE
  2
VPORT
  5
8
100
AcDbSymbolTable
 70
2
  0
VPORT
  5
1F4
100
AcDbSymbolTableRecord
100
AcDbViewportTableRecord
  2
*ACTIVE
 70
0
 10
0.0
 20
0.0
 11
1.0
 21
1.0
 12
5.5
 22
4.25
 13
0.0
 23
0.0
 14
1.0
 24
1.0
 15
0.0
 25
0.0
 16
0.0
 26
0.0
 36
1.0
 17
0.0
 27
0.0
 37
0.0
 40
8.5
 41
1.2941176471
 42
50.0
 43
0.0
 44
0.0
 50
0.0
 51
0.0
 71
0
 72
100
 73
1
 74
1
 75
0
 76
0
 77
0
 78
0
  0
ENDTAB
  0
TABLE
  2
LTYPE
  5
5
100
AcDbSymbolTable
 70
6
  0
LTYPE
  5
14
100
AcDbSymbolTableRecord
100
AcDbLinetypeTableRecord
  2
BYBLOCK
 70
0
  3

 72
65
 73
0
 40
0.0
  0
LTYPE
  5
15
100
AcDbSymbolTableRecord
100
AcDbLinetypeTableRecord
  2
BYLAYER
 70
0
  3

 72
65
 73
0
 40
0.0
  0
LTYPE
  5
16
100
AcDbSymbolTableRecord
100
AcDbLinetypeTableRecord
  2
CONTINUOUS
 70
64
  3
Solid line
 72
65
 73
0
 40
0.0
  0
LTYPE
  5
1F5
100
AcDbSymbolTableRecord
100
AcDbLinetypeTableRecord
  2
CENTER
 70
64
  3
____ _ ____ _ ____ _ ____ _ ____ _ ____ _ ____
 72
65
 73
4
 40
0.6
 49
0.375
 74
0
 49
-0.075
 74
0
 49
0.075
 74
0
 49
-0.075
 74
0
  0
LTYPE
  5
1F6
100
AcDbSymbolTableRecord
100
AcDbLinetypeTableRecord
  2
HIDDEN
 70
64
  3
- - - - - - - - - - - - - - - - - - - -
 72
65
 73
2
 40
0.2
 49
0.1
 74
0
 49
-0.1
 74
0
  0
LTYPE
  5
1F7
100
AcDbSymbolTableRecord
100
AcDbLinetypeTableRecord
  2
PHANTOM
 70
64
  3
_____ _ _ _____ _ _ _____ _ _ _____
 72
65
 73
6
 40
0.8
 49
0.45
 74
0
 49
-0.05
 74
0
 49
0.1
 74
0
 49
-0.05
 74
0
 49
0.1
 74
0
 49
-0.05
 74
0
  0
LTYPE
  5
1F8
100
AcDbSymbolTableRecord
100
AcDbLinetypeTableRecord
  2
DOT
 70
64
  3
. . . . . . . . . . . . . . . . . . . .
 72
65
 73
2
 40
0.2
 49
0.1
 74
0
 49
-0.1
 74
0
  0
LTYPE
  5
1F9
100
AcDbSymbolTableRecord
100
AcDbLinetypeTableRecord
  2
DASHED
 70
64
  3
- - - - - - - - - - - - - - - - - - - -
 72
65
 73
2
 40
0.2
 49
0.1
 74
0
 49
-0.1
 74
0
  0
ENDTAB
  0
TABLE
  2
LAYER
  5
2
100
AcDbSymbolTable
 70
36
  0
LAYER
  5
10
100
AcDbSymbolTableRecord
100
AcDbLayerTableRecord
  2
0
 70
0
 62
7
  6
CONTINUOUS
370
-3
390
F
  0
LAYER
  5
1FA
100
AcDbSymbolTableRecord
100
AcDbLayerTableRecord
  2
DEFAULT_1
 70
0
 62
7
  6
CENTER
370
-3
390
F
  0
LAYER
  5
1FB
100
AcDbSymbolTableRecord
100
AcDbLayerTableRecord
  2
DEFAULT_2
 70
0
 62
8
  6
HIDDEN
370
-3
390
F
  0
LAYER
  5
1FC
100
AcDbSymbolTableRecord
100
AcDbLayerTableRecord
  2
DEFAULT_3
 70
0
 62
7
  6
PHANTOM
370
-3
390
F
  0
LAYER
  5
1FD
100
AcDbSymbolTableRecord
100
AcDbLayerTableRecord
  2
DEFAULT_COORDINATE_SYSTEM
 70
0
 62
7
  6
CONTINUOUS
370
-3
390
F
  0
LAYER
  5
1FE
100
AcDbSymbolTableRecord
100
AcDbLayerTableRecord
  2
DEFAULT_DATUM_AXES
 70
0
 62
7
  6
CONTINUOUS
370
-3
390
F
  0
LAYER
  5
1FF
100
AcDbSymbolTableRecord
100
AcDbLayerTableRecord
  2
DEFAULT_DATUM_PLANES
 70
0
 62
7
  6
CONTINUOUS
370
-3
390
F
  0
ENDTAB
  0
TABLE
  2
STYLE
  5
3
100
AcDbSymbolTable
 70
1
  0
STYLE
  5
11
100
AcDbSymbolTableRecord
100
AcDbTextStyleTableRecord
  2
STANDARD
 70
0
 40
0.0
 41
0.8
 50
0.0
 71
0
 42
0.2
  3
txt
  4

  0
STYLE
  5
200
100
AcDbSymbolTableRecord
100
AcDbTextStyleTableRecord
  2
TEXTSTYLE_1
 70
0
 40
0.0
 41
0.8
 50
0.0
 71
0
 42
0.2
  3
gdt
  4

  0
ENDTAB
  0
TABLE
  2
VIEW
  5
6
100
AcDbSymbolTable
 70
0
  0
ENDTAB
  0
TABLE
  2
UCS
  5
7
100
AcDbSymbolTable
 70
0
  0
ENDTAB
  0
TABLE
  2
APPID
  5
9
100
AcDbSymbolTable
 70
1
  0
APPID
  5
201
100
AcDbSymbolTableRecord
100
AcDbRegAppTableRecord
  2
ACAD
 70
0
  0
ENDTAB
  0
TABLE
  2
BLOCK_RECORD
  5
1
100
AcDbSymbolTable
 70
0
  0
BLOCK_RECORD
  5
202
100
AcDbSymbolTableRecord
100
AcDbBlockTableRecord
  2
*Model_Space
  0
BLOCK_RECORD
  5
203
100
AcDbSymbolTableRecord
100
AcDbBlockTableRecord
  2
*Paper_Space
  0
BLOCK_RECORD
  5
204
100
AcDbSymbolTableRecord
100
AcDbBlockTableRecord
  2
_FILLED
  0
ENDTAB
  0
TABLE
  2
DIMSTYLE
  5
A
100
AcDbSymbolTable
 70
1
100
AcDbDimStyleTable
 71
0
  0
DIMSTYLE
105
205
100
AcDbSymbolTableRecord
100
AcDbDimStyleTableRecord
  2
STANDARD
 70
0
  3

  4

 40
1.0
 41
0.1
 42
0.0625
 43
0.38
 44
0.125
 45
0.0
 46
0.0
 47
0.001
 48
0.001
140
0.08
141
0.09
142
0.0
143
25.4
144
1.0
145
0.0
146
1.0
147
0.09
 71
1.0
 72
0.0
 73
1
 74
1
 75
0
 76
0
 77
0
 78
4
 79
1
170
1
171
2
172
0
173
0
174
0
175
0
176
0
177
0
178
0
270
2
179
3
271
3
272
3
273
2
274
2
275
0
280
0
281
0
282
0
283
1
284
4
285
0
286
0
287
3
288
0
340
11
278
46
341
204
342
204
343
204
344
204
  0
ENDTAB
  0
ENDSEC
  0
SECTION
  2
BLOCKS
  0
BLOCK
  5
20
100
AcDbEntity
  8
0
100
AcDbBlockBegin
  2
*Model_Space
 70
0
 10
0.0
 20
0.0
 30
0.0
  3
*Model_Space
  1

  0
ENDBLK
  5
21
100
AcDbEntity
  8
0
100
AcDbBlockEnd
  0
BLOCK
  5
1C
100
AcDbEntity
  8
0
100
AcDbBlockBegin
  2
*Paper_Space
 70
0
 10
0.0
 20
0.0
 30
0.0
  3
*Paper_Space
  1

  0
ENDBLK
  5
1D
100
AcDbEntity
  8
0
100
AcDbBlockEnd
  0
BLOCK
  5
206
100
AcDbEntity
  8
0
100
AcDbBlockBegin
  2
_FILLED
 70
64
 10
0.0
 20
0.0
  3
_FILLED
  1

  0
SOLID
  5
207
100
AcDbEntity
  8
0
  6
BYBLOCK
 62
0
100
AcDbTrace
 10
0.0
 20
0.0
 11
-1.0
 21
0.2
 12
-1.0
 22
-0.2
 13
-1.0
 23
-0.2
  0
ENDBLK
  5
208
100
AcDbEntity
  8
0
  6
BYBLOCK
 62
0
100
AcDbBlockEnd
  0
ENDSEC
  0
SECTION
  2
ENTITIES
  0
MTEXT
  5
209
100
AcDbEntity
  8
0
100
AcDbMText
 62
2
  6
CONTINUOUS
  7
STANDARD
 71
3
 72
1
 10
5.8784700439
 20
2.2867761166
 30
0.0
 11
1.0
 21
0.0
 31
0.0
 73
2
 44
0.9
  1
SCALE 0.500
 40
0.08
 41
0.704
  0
LINE
  5
20A
100
AcDbEntity
  8
0
100
AcDbLine
 62
7
  6
CONTINUOUS
 10
0.0
 20
0.0
 11
0.0
 21
8.5
  0
LINE
  5
20B
100
AcDbEntity
  8
0
100
AcDbLine
 62
7
  6
CONTINUOUS
 10
0.0
 20
0.0
 11
11.0
 21
0.0
  0
LINE
  5
20C
100
AcDbEntity
  8
0
100
AcDbLine
 62
7
  6
CONTINUOUS
 10
0.0
 20
8.5
 11
11.0
 21
8.5
  0
LINE
  5
20D
100
AcDbEntity
  8
0
100
AcDbLine
 62
7
  6
CONTINUOUS
 10
11.0
 20
0.0
 11
11.0
 21
8.5
  0
LINE
  5
20E
100
AcDbEntity
  8
0
100
AcDbLine
 62
7
  6
CONTINUOUS
 10
3.6410107591
 20
5.1982505458
 11
3.6410107591
 21
5.1107505458
  0
LINE
  5
20F
100
AcDbEntity
  8
0
100
AcDbLine
 62
7
  6
CONTINUOUS
 10
4.7379157636
 20
5.0145123153
 11
4.738584121
 21
4.9889887764
  0
LINE
  5
210
100
AcDbEntity
  8
0
100
AcDbLine
 62
7
  6
CONTINUOUS
 10
5.2551607591
 20
3.6687475316
 11
5.2715165845
 21
3.6687475316
  0
LINE
  5
211
100
AcDbEntity
  8
0
100
AcDbLine
 62
7
  6
CONTINUOUS
 10
5.5538049337
 20
3.6687475316
 11
5.5701607591
 21
3.6687475316
  0
LINE
  5
212
100
AcDbEntity
  8
0
100
AcDbLine
 62
7
  6
CONTINUOUS
 10
5.2639107591
 20
3.678669099
 11
5.281260321
 21
3.678669099
  0
LINE
  5
213
100
AcDbEntity
  8
0
100
AcDbLine
 62
7
  6
CONTINUOUS
 10
5.5440611972
 20
3.678669099
 11
5.5614107591
 21
3.678669099
  0
LINE
  5
214
100
AcDbEntity
  8
0
100
AcDbLine
 62
7
  6
CONTINUOUS
 10
4.9551696883
 20
4.0564828293
 11
4.9551696883
 21
4.1189828293
  0
LINE
  5
215
100
AcDbEntity
  8
0
100
AcDbLine
 62
7
  6
CONTINUOUS
 10
4.9551696883
 20
4.3682505458
 11
4.9551696883
 21
4.4307505458
  0
LINE
  5
216
100
AcDbEntity
  8
0
100
AcDbLine
 62
7
  6
CONTINUOUS
 10
4.9552578603
 20
4.0564828293
 11
4.9552578603
 21
4.1189828293
  0
LINE
  5
217
100
AcDbEntity
  8
0
100
AcDbLine
 62
7
  6
CONTINUOUS
 10
4.955411342
 20
4.3682505458
 11
4.955411342
 21
4.4307505458
  0
LINE
  5
218
100
AcDbEntity
  8
0
100
AcDbLine
 62
7
  6
CONTINUOUS
 10
4.9556757945
 20
4.3682505458
 11
4.9556757945
 21
4.4307505458
  0
LINE
  5
219
100
AcDbEntity
  8
0
100
AcDbLine
 62
7
  6
CONTINUOUS
 10
4.9559826472
 20
4.0564828293
 11
4.9559826472
 21
4.1189828293
  0
LINE
  5
21A
100
AcDbEntity
  8
0
100
AcDbLine
 62
7
  6
CONTINUOUS
 10
4.9564231896
 20
4.0564828293
 11
4.9564231896
 21
4.1189828293
  0
LINE
  5
21B
100
AcDbEntity
  8
0
100
AcDbLine
 62
7
  6
CONTINUOUS
 10
4.9568831921
 20
4.3682505458
 11
4.9568831921
 21
4.4307505458
  0
LINE
  5
21C
100
AcDbEntity
  8
0
100
AcDbLine
 62
7
  6
CONTINUOUS
 10
4.9574995067
 20
4.3682505458
 11
4.9574995067
 21
4.4307505458
  0
LINE
  5
21D
100
AcDbEntity
  8
0
100
AcDbLine
 62
7
  6
CONTINUOUS
 10
4.9581123274
 20
4.0564828293
 11
4.9581123274
 21
4.1189828293
  0
LINE
  5
21E
100
AcDbEntity
  8
0
100
AcDbLine
 62
7
  6
CONTINUOUS
 10
4.9589039699
 20
4.0564828293
 11
4.9589039699
 21
4.1189828293
  0
LINE
  5
21F
100
AcDbEntity
  8
0
100
AcDbLine
 62
7
  6
CONTINUOUS
 10
4.959669167
 20
4.3682505458
 11
4.959669167
 21
4.4307505458
  0
LINE
  5
220
100
AcDbEntity
  8
0
100
AcDbLine
 62
7
  6
CONTINUOUS
 10
4.9606355666
 20
4.3682505458
 11
4.9606355666
 21
4.4307505458
  0
LINE
  5
221
100
AcDbEntity
  8
0
100
AcDbLine
 62
7
  6
CONTINUOUS
 10
4.9615525884
 20
4.0564828293
 11
4.9615525884
 21
4.1189828293
  0
LINE
  5
222
100
AcDbEntity
  8
0
100
AcDbLine
 62
7
  6
CONTINUOUS
 10
4.9626930485
 20
4.0564828293
 11
4.9626930485
 21
4.1189828293
  0
LINE
  5
223
100
AcDbEntity
  8
0
100
AcDbLine
 62
7
  6
CONTINUOUS
 10
4.9637612338
 20
4.3682505458
 11
4.9637612338
 21
4.4307505458
  0
LINE
  5
224
100
AcDbEntity
  8
0
100
AcDbLine
 62
7
  6
CONTINUOUS
 10
4.9650749322
 20
4.3682505458
 11
4.9650749322
 21
4.4307505458
  0
LINE
  5
225
100
AcDbEntity
  8
0
100
AcDbLine
 62
7
  6
CONTINUOUS
 10
4.966293511
 20
4.0564828293
 11
4.966293511
 21
4.1189828293
  0
LINE
  5
226
100
AcDbEntity
  8
0
100
AcDbLine
 62
7
  6
CONTINUOUS
 10
4.9677795005
 20
4.0564828293
 11
4.9677795005
 21
4.1189828293
  0
LINE
  5
227
100
AcDbEntity
  8
0
100
AcDbLine
 62
7
  6
CONTINUOUS
 10
4.9691475942
 20
4.3682505458
 11
4.9691475942
 21
4.4307505458
  0
LINE
  5
228
100
AcDbEntity
  8
0
100
AcDbLine
 62
7
  6
CONTINUOUS
 10
4.9708048036
 20
4.3682505458
 11
4.9708048036
 21
4.4307505458
  0
LINE
  5
229
100
AcDbEntity
  8
0
100
AcDbLine
 62
7
  6
CONTINUOUS
 10
4.9723214259
 20
4.0564828293
 11
4.9723214259
 21
4.1189828293
  0
LINE
  5
22A
100
AcDbEntity
  8
0
100
AcDbLine
 62
7
  6
CONTINUOUS
 10
4.9741486603
 20
4.0564828293
 11
4.9741486603
 21
4.1189828293
  0
LINE
  5
22B
100
AcDbEntity
  8
0
100
AcDbLine
 62
7
  6
CONTINUOUS
 10
4.9758127179
 20
4.3682505458
 11
4.9758127179
 21
4.4307505458
  0
LINE
  5
22C
100
AcDbEntity
  8
0
100
AcDbLine
 62
7
  6
CONTINUOUS
 10
4.97780866
 20
4.3682505458
 11
4.97780866
 21
4.4307505458
  0
LINE
  5
22D
100
AcDbEntity
  8
0
100
AcDbLine
 62
7
  6
CONTINUOUS
 10
4.9796189531
 20
4.0564828293
 11
4.9796189531
 21
4.1189828293
  0
LINE
  5
22E
100
AcDbEntity
  8
0
100
AcDbLine
 62
7
  6
CONTINUOUS
 10
4.981782164
 20
4.0564828293
 11
4.981782164
 21
4.1189828293
  0
LINE
  5
22F
100
AcDbEntity
  8
0
100
AcDbLine
 62
7
  6
CONTINUOUS
 10
4.9837373876
 20
4.3682505458
 11
4.9837373876
 21
4.4307505458
  0
LINE
  5
230
100
AcDbEntity
  8
0
100
AcDbLine
 62
7
  6
CONTINUOUS
 10
4.9860663077
 20
4.3682505458
 11
4.9860663077
 21
4.4307505458
  0
LINE
  5
231
100
AcDbEntity
  8
0
100
AcDbLine
 62
7
  6
CONTINUOUS
 10
4.988165052
 20
4.0564828293
 11
4.988165052
 21
4.1189828293
  0
LINE
  5
232
100
AcDbEntity
  8
0
100
AcDbLine
 62
7
  6
CONTINUOUS
 10
4.9906580023
 20
4.0564828293
 11
4.9906580023
 21
4.1189828293
  0
LINE
  5
233
100
AcDbEntity
  8
0
100
AcDbLine
 62
7
  6
CONTINUOUS
 10
4.9928987543
 20
4.3682505458
 11
4.9928987543
 21
4.4307505458
  0
LINE
  5
234
100
AcDbEntity
  8
0
100
AcDbLine
 62
7
  6
CONTINUOUS
 10
4.9955539375
 20
4.3682505458
 11
4.9955539375
 21
4.4307505458
  0
LINE
  5
235
100
AcDbEntity
  8
0
100
AcDbLine
 62
7
  6
CONTINUOUS
 10
4.9979350819
 20
4.0564828293
 11
4.9979350819
 21
4.1189828293
  0
LINE
  5
236
100
AcDbEntity
  8
0
100
AcDbLine
 62
7
  6
CONTINUOUS
 10
4.9991607591
 20
4.1189828293
 11
4.9991607591
 21
4.3621077022
  0
LINE
  5
237
100
AcDbEntity
  8
0
100
AcDbLine
 62
7
  6
CONTINUOUS
 10
4.9991607591
 20
4.4307505458
 11
4.9991607591
 21
4.9094828293
  0
LINE
  5
238
100
AcDbEntity
  8
0
100
AcDbLine
 62
7
  6
CONTINUOUS
 10
4.9992749323
 20
4.9094828293
 11
4.9992749323
 21
4.9792505458
  0
LINE
  5
239
100
AcDbEntity
  8
0
100
AcDbLine
 62
7
  6
CONTINUOUS
 10
5.0001607591
 20
5.0242505458
 11
5.0001607591
 21
4.4307505458
  0
LINE
  5
23A
100
AcDbEntity
  8
0
100
AcDbLine
 62
7
  6
CONTINUOUS
 10
5.0007505837
 20
4.0564828293
 11
5.0007505837
 21
4.1189828293
  0
LINE
  5
23B
100
AcDbEntity
  8
0
100
AcDbLine
 62
7
  6
CONTINUOUS
 10
5.0032704036
 20
4.3682505458
 11
5.0032704036
 21
4.4307505458
  0
LINE
  5
23C
100
AcDbEntity
  8
0
100
AcDbLine
 62
7
  6
CONTINUOUS
 10
5.0062441943
 20
4.3682505458
 11
5.0062441943
 21
4.4307505458
  0
LINE
  5
23D
100
AcDbEntity
  8
0
100
AcDbLine
 62
7
  6
CONTINUOUS
 10
5.0089008732
 20
4.0564828293
 11
5.0089008732
 21
4.1189828293
  0
LINE
  5
23E
100
AcDbEntity
  8
0
100
AcDbLine
 62
7
  6
CONTINUOUS
 10
5.0120308088
 20
4.0564828293
 11
5.0120308088
 21
4.1189828293
  0
LINE
  5
23F
100
AcDbEntity
  8
0
100
AcDbLine
 62
7
  6
CONTINUOUS
 10
5.0148224313
 20
4.3682505458
 11
5.0148224313
 21
4.4307505458
  0
LINE
  5
240
100
AcDbEntity
  8
0
100
AcDbLine
 62
7
  6
CONTINUOUS
 10
5.0181062553
 20
4.3682505458
 11
5.0181062553
 21
4.4307505458
  0
LINE
  5
241
100
AcDbEntity
  8
0
100
AcDbLine
 62
7
  6
CONTINUOUS
 10
5.0210308088
 20
4.0564828293
 11
5.0210308088
 21
4.1189828293
  0
LINE
  5
242
100
AcDbEntity
  8
0
100
AcDbLine
 62
7
  6
CONTINUOUS
 10
5.0244661538
 20
4.0564828293
 11
5.0244661538
 21
4.1189828293
  0
LINE
  5
243
100
AcDbEntity
  8
0
100
AcDbLine
 62
7
  6
CONTINUOUS
 10
5.5101607591
 20
3.7147072388
 11
5.3151607591
 21
3.7147072388
  0
LINE
  5
244
100
AcDbEntity
  8
0
100
AcDbLine
 62
7
  6
CONTINUOUS
 10
5.5101607591
 20
3.7272072388
 11
5.3151607591
 21
3.7272072388
  0
LINE
  5
245
100
AcDbEntity
  8
0
100
AcDbLine
 62
7
  6
CONTINUOUS
 10
5.2589107591
 20
3.7372072388
 11
5.5664107591
 21
3.7372072388
  0
LINE
  5
246
100
AcDbEntity
  8
0
100
AcDbLine
 62
7
  6
CONTINUOUS
 10
5.2551607591
 20
3.796971941
 11
5.5701607591
 21
3.796971941
  0
LINE
  5
247
100
AcDbEntity
  8
0
100
AcDbLine
 62
7
  6
CONTINUOUS
 10
5.2639107591
 20
3.8068935084
 11
5.5614107591
 21
3.8068935084
  0
LINE
  5
248
100
AcDbEntity
  8
0
100
AcDbLine
 62
7
  6
CONTINUOUS
 10
5.0275215299
 20
4.3682505458
 11
5.0275215299
 21
4.4307505458
  0
LINE
  5
249
100
AcDbEntity
  8
0
100
AcDbLine
 62
7
  6
CONTINUOUS
 10
5.0311059191
 20
4.3682505458
 11
5.0311059191
 21
4.4307505458
  0
LINE
  5
24A
100
AcDbEntity
  8
0
100
AcDbLine
 62
7
  6
CONTINUOUS
 10
5.034289915
 20
4.0564828293
 11
5.034289915
 21
4.1189828293
  0
LINE
  5
24B
100
AcDbEntity
  8
0
100
AcDbLine
 62
7
  6
CONTINUOUS
 10
5.0380207643
 20
4.0564828293
 11
5.0380207643
 21
4.1189828293
  0
LINE
  5
24C
100
AcDbEntity
  8
0
100
AcDbLine
 62
7
  6
CONTINUOUS
 10
5.0413310845
 20
4.3682505458
 11
5.0413310845
 21
4.4307505458
  0
LINE
  5
24D
100
AcDbEntity
  8
0
100
AcDbLine
 62
7
  6
CONTINUOUS
 10
5.0452057042
 20
4.3682505458
 11
5.0452057042
 21
4.4307505458
  0
LINE
  5
24E
100
AcDbEntity
  8
0
100
AcDbLine
 62
7
  6
CONTINUOUS
 10
5.0486399622
 20
4.0564828293
 11
5.0486399622
 21
4.1189828293
  0
LINE
  5
24F
100
AcDbEntity
  8
0
100
AcDbLine
 62
7
  6
CONTINUOUS
 10
5.0526555589
 20
4.0564828293
 11
5.0526555589
 21
4.1189828293
  0
LINE
  5
250
100
AcDbEntity
  8
0
100
AcDbLine
 62
7
  6
CONTINUOUS
 10
5.0562112788
 20
4.3682505458
 11
5.0562112788
 21
4.4307505458
  0
LINE
  5
251
100
AcDbEntity
  8
0
100
AcDbLine
 62
7
  6
CONTINUOUS
 10
5.0603649574
 20
4.3682505458
 11
5.0603649574
 21
4.4307505458
  0
LINE
  5
252
100
AcDbEntity
  8
0
100
AcDbLine
 62
7
  6
CONTINUOUS
 10
5.0638183499
 20
4.0564828293
 11
5.0638183499
 21
4.1189828293
  0
LINE
  5
253
100
AcDbEntity
  8
0
100
AcDbLine
 62
7
  6
CONTINUOUS
 10
5.0640395757
 20
4.0564828293
 11
5.0640395757
 21
4.1189828293
  0
LINE
  5
254
100
AcDbEntity
  8
0
100
AcDbLine
 62
7
  6
CONTINUOUS
 10
5.0683283417
 20
4.0564828293
 11
5.0683283417
 21
4.1189828293
  0
LINE
  5
255
100
AcDbEntity
  8
0
100
AcDbLine
 62
7
  6
CONTINUOUS
 10
5.0715959806
 20
4.3682505458
 11
5.0715959806
 21
4.4307505458
  0
LINE
  5
256
100
AcDbEntity
  8
0
100
AcDbLine
 62
7
  6
CONTINUOUS
 10
5.0721192091
 20
4.3682505458
 11
5.0721192091
 21
4.4307505458
  0
LINE
  5
257
100
AcDbEntity
  8
0
100
AcDbLine
 62
7
  6
CONTINUOUS
 10
5.0765399706
 20
4.3682505458
 11
5.0765399706
 21
4.4307505458
  0
LINE
  5
258
100
AcDbEntity
  8
0
100
AcDbLine
 62
7
  6
CONTINUOUS
 10
5.0796223165
 20
4.0564828293
 11
5.0796223165
 21
4.1189828293
  0
LINE
  5
259
100
AcDbEntity
  8
0
100
AcDbLine
 62
7
  6
CONTINUOUS
 10
5.0804443542
 20
4.0564828293
 11
5.0804443542
 21
4.1189828293
  0
LINE
  5
25A
100
AcDbEntity
  8
0
100
AcDbLine
 62
7
  6
CONTINUOUS
 10
5.084993924
 20
4.0564828293
 11
5.084993924
 21
4.1189828293
  0
LINE
  5
25B
100
AcDbEntity
  8
0
100
AcDbLine
 62
7
  6
CONTINUOUS
 10
5.0878858517
 20
4.3682505458
 11
5.0878858517
 21
4.4307505458
  0
LINE
  5
25C
100
AcDbEntity
  8
0
100
AcDbLine
 62
7
  6
CONTINUOUS
 10
5.0889107591
 20
4.3057505458
 11
5.0889107591
 21
4.2771029822
  0
LINE
  5
25D
100
AcDbEntity
  8
0
100
AcDbLine
 62
7
  6
CONTINUOUS
 10
5.0890090089
 20
4.3682505458
 11
5.0890090089
 21
4.4307505458
  0
LINE
  5
25E
100
AcDbEntity
  8
0
100
AcDbLine
 62
7
  6
CONTINUOUS
 10
5.093684107
 20
4.3682505458
 11
5.093684107
 21
4.4307505458
  0
LINE
  5
25F
100
AcDbEntity
  8
0
100
AcDbLine
 62
7
  6
CONTINUOUS
 10
5.0963865192
 20
4.0564828293
 11
5.0963865192
 21
4.1189828293
  0
LINE
  5
260
100
AcDbEntity
  8
0
100
AcDbLine
 62
7
  6
CONTINUOUS
 10
5.0978069987
 20
4.0564828293
 11
5.0978069987
 21
4.1189828293
  0
LINE
  5
261
100
AcDbEntity
  8
0
100
AcDbLine
 62
7
  6
CONTINUOUS
 10
5.1026042546
 20
4.0564828293
 11
5.1026042546
 21
4.1189828293
  0
LINE
  5
262
100
AcDbEntity
  8
0
100
AcDbLine
 62
7
  6
CONTINUOUS
 10
5.105112133
 20
4.3682505458
 11
5.105112133
 21
4.4307505458
  0
LINE
  5
263
100
AcDbEntity
  8
0
100
AcDbLine
 62
7
  6
CONTINUOUS
 10
5.1068319805
 20
4.3682505458
 11
5.1068319805
 21
4.4307505458
  0
LINE
  5
264
100
AcDbEntity
  8
0
100
AcDbLine
 62
7
  6
CONTINUOUS
 10
5.1117479357
 20
4.3682505458
 11
5.1117479357
 21
4.4307505458
  0
LINE
  5
265
100
AcDbEntity
  8
0
100
AcDbLine
 62
7
  6
CONTINUOUS
 10
5.1140626225
 20
4.0564828293
 11
5.1140626225
 21
4.1189828293
  0
LINE
  5
266
100
AcDbEntity
  8
0
100
AcDbLine
 62
7
  6
CONTINUOUS
 10
5.116077448
 20
4.0564828293
 11
5.116077448
 21
4.1189828293
  0
LINE
  5
267
100
AcDbEntity
  8
0
100
AcDbLine
 62
7
  6
CONTINUOUS
 10
5.1211085583
 20
4.0564828293
 11
5.1211085583
 21
4.1189828293
  0
LINE
  5
268
100
AcDbEntity
  8
0
100
AcDbLine
 62
7
  6
CONTINUOUS
 10
5.1232251565
 20
4.3682505458
 11
5.1232251565
 21
4.4307505458
  0
LINE
  5
269
100
AcDbEntity
  8
0
100
AcDbLine
 62
7
  6
CONTINUOUS
 10
5.1255367357
 20
4.3682505458
 11
5.1255367357
 21
4.4307505458
  0
LINE
  5
26A
100
AcDbEntity
  8
0
100
AcDbLine
 62
7
  6
CONTINUOUS
 10
5.1306793739
 20
4.3682505458
 11
5.1306793739
 21
4.4307505458
  0
LINE
  5
26B
100
AcDbEntity
  8
0
100
AcDbLine
 62
7
  6
CONTINUOUS
 10
5.1325996614
 20
4.0564828293
 11
5.1325996614
 21
4.1189828293
  0
LINE
  5
26C
100
AcDbEntity
  8
0
100
AcDbLine
 62
7
  6
CONTINUOUS
 10
5.1352030238
 20
4.0564828293
 11
5.1352030238
 21
4.1189828293
  0
LINE
  5
26D
100
AcDbEntity
  8
0
100
AcDbLine
 62
7
  6
CONTINUOUS
 10
5.1404534825
 20
4.0564828293
 11
5.1404534825
 21
4.1189828293
  0
LINE
  5
26E
100
AcDbEntity
  8
0
100
AcDbLine
 62
7
  6
CONTINUOUS
 10
5.1421726978
 20
4.3682505458
 11
5.1421726978
 21
4.4307505458
  0
LINE
  5
26F
100
AcDbEntity
  8
0
100
AcDbLine
 62
7
  6
CONTINUOUS
 10
5.1450693437
 20
4.3682505458
 11
5.1450693437
 21
4.4307505458
  0
LINE
  5
270
100
AcDbEntity
  8
0
100
AcDbLine
 62
7
  6
CONTINUOUS
 10
5.1504238375
 20
4.3682505458
 11
5.1504238375
 21
4.4307505458
  0
LINE
  5
271
100
AcDbEntity
  8
0
100
AcDbLine
 62
7
  6
CONTINUOUS
 10
5.151944189
 20
4.0564828293
 11
5.151944189
 21
4.1189828293
  0
LINE
  5
272
100
AcDbEntity
  8
0
100
AcDbLine
 62
7
  6
CONTINUOUS
 10
5.1551285821
 20
4.0564828293
 11
5.1551285821
 21
4.1189828293
  0
LINE
  5
273
100
AcDbEntity
  8
0
100
AcDbLine
 62
7
  6
CONTINUOUS
 10
5.2639107591
 20
3.9314828293
 11
5.2376607591
 21
3.9314828293
  0
LINE
  5
274
100
AcDbEntity
  8
0
100
AcDbLine
 62
7
  6
CONTINUOUS
 10
5.5614107591
 20
3.9314828293
 11
5.5876607591
 21
3.9314828293
  0
LINE
  5
275
100
AcDbEntity
  8
0
100
AcDbLine
 62
7
  6
CONTINUOUS
 10
5.2639107591
 20
3.9479383863
 11
5.2064107591
 21
3.9479383863
  0
LINE
  5
276
100
AcDbEntity
  8
0
100
AcDbLine
 62
7
  6
CONTINUOUS
 10
5.5614107591
 20
3.9479383863
 11
5.6189107591
 21
3.9479383863
  0
LINE
  5
277
100
AcDbEntity
  8
0
100
AcDbLine
 62
7
  6
CONTINUOUS
 10
5.1605832508
 20
4.0564828293
 11
5.1605832508
 21
4.1189828293
  0
LINE
  5
278
100
AcDbEntity
  8
0
100
AcDbLine
 62
7
  6
CONTINUOUS
 10
5.1619001262
 20
4.3682505458
 11
5.1619001262
 21
4.4307505458
  0
LINE
  5
279
100
AcDbEntity
  8
0
100
AcDbLine
 62
7
  6
CONTINUOUS
 10
5.165373487
 20
4.3682505458
 11
5.165373487
 21
4.4307505458
  0
LINE
  5
27A
100
AcDbEntity
  8
0
100
AcDbLine
 62
7
  6
CONTINUOUS
 10
5.170924398
 20
4.3682505458
 11
5.170924398
 21
4.4307505458
  0
LINE
  5
27B
100
AcDbEntity
  8
0
100
AcDbLine
 62
7
  6
CONTINUOUS
 10
5.1720404299
 20
4.0564828293
 11
5.1720404299
 21
4.1189828293
  0
LINE
  5
27C
100
AcDbEntity
  8
0
100
AcDbLine
 62
7
  6
CONTINUOUS
 10
5.1757966724
 20
4.0564828293
 11
5.1757966724
 21
4.1189828293
  0
LINE
  5
27D
100
AcDbEntity
  8
0
100
AcDbLine
 62
7
  6
CONTINUOUS
 10
5.1814398238
 20
4.0564828293
 11
5.1814398238
 21
4.1189828293
  0
LINE
  5
27E
100
AcDbEntity
  8
0
100
AcDbLine
 62
7
  6
CONTINUOUS
 10
5.1823505624
 20
4.3682505458
 11
5.1823505624
 21
4.4307505458
  0
LINE
  5
27F
100
AcDbEntity
  8
0
100
AcDbLine
 62
7
  6
CONTINUOUS
 10
5.1863906236
 20
4.3682505458
 11
5.1863906236
 21
4.4307505458
  0
LINE
  5
280
100
AcDbEntity
  8
0
100
AcDbLine
 62
7
  6
CONTINUOUS
 10
5.1921219471
 20
4.3682505458
 11
5.1921219471
 21
4.4307505458
  0
LINE
  5
281
100
AcDbEntity
  8
0
100
AcDbLine
 62
7
  6
CONTINUOUS
 10
5.1928304416
 20
4.0564828293
 11
5.1928304416
 21
4.1189828293
  0
LINE
  5
282
100
AcDbEntity
  8
0
100
AcDbLine
 62
7
  6
CONTINUOUS
 10
5.1971477031
 20
4.0564828293
 11
5.1971477031
 21
4.1189828293
  0
LINE
  5
283
100
AcDbEntity
  8
0
100
AcDbLine
 62
7
  6
CONTINUOUS
 10
5.2029630666
 20
4.0564828293
 11
5.2029630666
 21
4.1189828293
  0
LINE
  5
284
100
AcDbEntity
  8
0
100
AcDbLine
 62
7
  6
CONTINUOUS
 10
5.2034650426
 20
4.3682505458
 11
5.2034650426
 21
4.4307505458
  0
LINE
  5
285
100
AcDbEntity
  8
0
100
AcDbLine
 62
7
  6
CONTINUOUS
 10
5.2080601555
 20
4.3682505458
 11
5.2080601555
 21
4.4307505458
  0
LINE
  5
286
100
AcDbEntity
  8
0
100
AcDbLine
 62
7
  6
CONTINUOUS
 10
5.2139553666
 20
4.3682505458
 11
5.2139553666
 21
4.4307505458
  0
LINE
  5
287
100
AcDbEntity
  8
0
100
AcDbLine
 62
7
  6
CONTINUOUS
 10
5.2142542809
 20
4.0564828293
 11
5.2142542809
 21
4.1189828293
  0
LINE
  5
288
100
AcDbEntity
  8
0
100
AcDbLine
 62
7
  6
CONTINUOUS
 10
5.2191201137
 20
4.0564828293
 11
5.2191201137
 21
4.110120333
  0
LINE
  5
289
100
AcDbEntity
  8
0
100
AcDbLine
 62
7
  6
CONTINUOUS
 10
5.2250909221
 20
4.0564828293
 11
5.2250909221
 21
4.0984140343
  0
LINE
  5
28A
100
AcDbEntity
  8
0
100
AcDbLine
 62
7
  6
CONTINUOUS
 10
5.2251826881
 20
4.3682505458
 11
5.2251826881
 21
4.4307505458
  0
LINE
  5
28B
100
AcDbEntity
  8
0
100
AcDbLine
 62
7
  6
CONTINUOUS
 10
5.230319604
 20
4.3682505458
 11
5.230319604
 21
4.4307505458
  0
LINE
  5
28C
100
AcDbEntity
  8
0
100
AcDbLine
 62
7
  6
CONTINUOUS
 10
5.2362501775
 20
4.0564828293
 11
5.2362501775
 21
4.0763031707
  0
LINE
  5
28D
100
AcDbEntity
  8
0
100
AcDbLine
 62
7
  6
CONTINUOUS
 10
5.2363617052
 20
4.3682505458
 11
5.2363617052
 21
4.4307505458
  0
LINE
  5
28E
100
AcDbEntity
  8
0
100
AcDbLine
 62
7
  6
CONTINUOUS
 10
5.2416505521
 20
4.0564828293
 11
5.2416505521
 21
4.0720781259
  0
LINE
  5
28F
100
AcDbEntity
  8
0
100
AcDbLine
 62
7
  6
CONTINUOUS
 10
5.2474408815
 20
4.3682505458
 11
5.2474408815
 21
4.4307505458
  0
LINE
  5
290
100
AcDbEntity
  8
0
100
AcDbLine
 62
7
  6
CONTINUOUS
 10
5.2477595901
 20
4.0564828293
 11
5.2477595901
 21
4.0699895008
  0
LINE
  5
291
100
AcDbEntity
  8
0
100
AcDbLine
 62
7
  6
CONTINUOUS
 10
5.2531047892
 20
4.3682505458
 11
5.2531047892
 21
4.4307505458
  0
LINE
  5
292
100
AcDbEntity
  8
0
100
AcDbLine
 62
7
  6
CONTINUOUS
 10
5.2587547115
 20
4.0564828293
 11
5.2587547115
 21
4.0697072388
  0
LINE
  5
293
100
AcDbEntity
  8
0
100
AcDbLine
 62
7
  6
CONTINUOUS
 10
5.2592763596
 20
4.3682505458
 11
5.2592763596
 21
4.4307505458
  0
LINE
  5
294
100
AcDbEntity
  8
0
100
AcDbLine
 62
7
  6
CONTINUOUS
 10
5.2639107591
 20
3.678669099
 11
5.2639107591
 21
3.7372072388
  0
LINE
  5
295
100
AcDbEntity
  8
0
100
AcDbLine
 62
7
  6
CONTINUOUS
 10
5.2639107591
 20
3.8068935084
 11
5.2639107591
 21
4.0447072388
  0
LINE
  5
296
100
AcDbEntity
  8
0
100
AcDbLine
 62
7
  6
CONTINUOUS
 10
5.2646740572
 20
4.0564828293
 11
5.2646740572
 21
4.0697072388
  0
LINE
  5
297
100
AcDbEntity
  8
0
100
AcDbLine
 62
7
  6
CONTINUOUS
 10
5.2701754465
 20
4.3682505458
 11
5.2701754465
 21
4.4307505458
  0
LINE
  5
298
100
AcDbEntity
  8
0
100
AcDbLine
 62
7
  6
CONTINUOUS
 10
5.2709037107
 20
4.0564828293
 11
5.2709037107
 21
4.0697072388
  0
LINE
  5
299
100
AcDbEntity
  8
0
100
AcDbLine
 62
7
  6
CONTINUOUS
 10
5.2763500155
 20
4.3682505458
 11
5.2763500155
 21
4.4307505458
  0
LINE
  5
29A
100
AcDbEntity
  8
0
100
AcDbLine
 62
7
  6
CONTINUOUS
 10
5.2817029964
 20
4.0564828293
 11
5.2817029964
 21
4.0697072388
  0
LINE
  5
29B
100
AcDbEntity
  8
0
100
AcDbLine
 62
7
  6
CONTINUOUS
 10
5.2826332609
 20
4.3682505458
 11
5.2826332609
 21
4.4307505458
  0
LINE
  5
29C
100
AcDbEntity
  8
0
100
AcDbLine
 62
7
  6
CONTINUOUS
 10
5.2881242463
 20
4.0564828293
 11
5.2881242463
 21
4.0697072388
  0
LINE
  5
29D
100
AcDbEntity
  8
0
100
AcDbLine
 62
7
  6
CONTINUOUS
 10
5.2933208336
 20
4.3682505458
 11
5.2933208336
 21
4.4307505458
  0
LINE
  5
29E
100
AcDbEntity
  8
0
100
AcDbLine
 62
7
  6
CONTINUOUS
 10
5.2944565537
 20
4.0564828293
 11
5.2944565537
 21
4.0697072388
  0
LINE
  5
29F
100
AcDbEntity
  8
0
100
AcDbLine
 62
7
  6
CONTINUOUS
 10
5.2639107591
 20
4.0447072388
 11
5.5614107591
 21
4.0447072388
  0
LINE
  5
2A0
100
AcDbEntity
  8
0
100
AcDbLine
 62
7
  6
CONTINUOUS
 10
4.9551696883
 20
4.0564828293
 11
5.3201607591
 21
4.0564828293
  0
LINE
  5
2A1
100
AcDbEntity
  8
0
100
AcDbLine
 62
7
  6
CONTINUOUS
 10
5.5051607591
 20
4.0564828293
 11
5.8701518299
 21
4.0564828293
  0
LINE
  5
2A2
100
AcDbEntity
  8
0
100
AcDbLine
 62
7
  6
CONTINUOUS
 10
5.5742327716
 20
4.0697072388
 11
5.2510887466
 21
4.0697072388
  0
LINE
  5
2A3
100
AcDbEntity
  8
0
100
AcDbLine
 62
7
  6
CONTINUOUS
 10
5.5926113173
 20
4.0818184903
 11
5.2327102009
 21
4.0818184903
  0
LINE
  5
2A4
100
AcDbEntity
  8
0
100
AcDbLine
 62
7
  6
CONTINUOUS
 10
5.299988261
 20
4.3682505458
 11
5.299988261
 21
4.4307505458
  0
LINE
  5
2A5
100
AcDbEntity
  8
0
100
AcDbLine
 62
7
  6
CONTINUOUS
 10
5.3050288665
 20
4.0564828293
 11
5.3050288665
 21
4.0697072388
  0
LINE
  5
2A6
100
AcDbEntity
  8
0
100
AcDbLine
 62
7
  6
CONTINUOUS
 10
5.3063650652
 20
4.3682505458
 11
5.3063650652
 21
4.4307505458
  0
LINE
  5
2A7
100
AcDbEntity
  8
0
100
AcDbLine
 62
7
  6
CONTINUOUS
 10
5.3119335064
 20
4.0564828293
 11
5.3119335064
 21
4.0697072388
  0
LINE
  5
2A8
100
AcDbEntity
  8
0
100
AcDbLine
 62
7
  6
CONTINUOUS
 10
5.3151607591
 20
3.7272072388
 11
5.3151607591
 21
3.5397072388
  0
LINE
  5
2A9
100
AcDbEntity
  8
0
100
AcDbLine
 62
7
  6
CONTINUOUS
 10
5.3168103085
 20
4.3682505458
 11
5.3168103085
 21
4.4307505458
  0
LINE
  5
2AA
100
AcDbEntity
  8
0
100
AcDbLine
 62
7
  6
CONTINUOUS
 10
5.31835021
 20
4.0564828293
 11
5.31835021
 21
4.0697072388
  0
LINE
  5
2AB
100
AcDbEntity
  8
0
100
AcDbLine
 62
7
  6
CONTINUOUS
 10
5.3201607591
 20
4.0697072388
 11
5.3201607591
 21
4.0447072388
  0
LINE
  5
2AC
100
AcDbEntity
  8
0
100
AcDbLine
 62
7
  6
CONTINUOUS
 10
5.3239513706
 20
4.3682505458
 11
5.3239513706
 21
4.4307505458
  0
LINE
  5
2AD
100
AcDbEntity
  8
0
100
AcDbLine
 62
7
  6
CONTINUOUS
 10
5.3304033475
 20
4.3682505458
 11
5.3304033475
 21
4.4307505458
  0
LINE
  5
2AE
100
AcDbEntity
  8
0
100
AcDbLine
 62
7
  6
CONTINUOUS
 10
5.3405761452
 20
4.3682505458
 11
5.3405761452
 21
4.4307505458
  0
LINE
  5
2AF
100
AcDbEntity
  8
0
100
AcDbLine
 62
7
  6
CONTINUOUS
 10
5.3481702522
 20
4.3682505458
 11
5.3481702522
 21
4.4307505458
  0
LINE
  5
2B0
100
AcDbEntity
  8
0
100
AcDbLine
 62
7
  6
CONTINUOUS
 10
5.3546787991
 20
4.3682505458
 11
5.3546787991
 21
4.4307505458
  0
LINE
  5
2B1
100
AcDbEntity
  8
0
100
AcDbLine
 62
7
  6
CONTINUOUS
 10
5.3645498204
 20
4.3682505458
 11
5.3645498204
 21
4.4307505458
  0
LINE
  5
2B2
100
AcDbEntity
  8
0
100
AcDbLine
 62
7
  6
CONTINUOUS
 10
5.3725750766
 20
4.3682505458
 11
5.3725750766
 21
4.4307505458
  0
LINE
  5
2B3
100
AcDbEntity
  8
0
100
AcDbLine
 62
7
  6
CONTINUOUS
 10
5.3791214278
 20
4.3682505458
 11
5.3791214278
 21
4.4307505458
  0
LINE
  5
2B4
100
AcDbEntity
  8
0
100
AcDbLine
 62
7
  6
CONTINUOUS
 10
5.388662212
 20
4.3682505458
 11
5.388662212
 21
4.4307505458
  0
LINE
  5
2B5
100
AcDbEntity
  8
0
100
AcDbLine
 62
7
  6
CONTINUOUS
 10
5.3970954785
 20
4.3682505458
 11
5.3970954785
 21
4.4307505458
  0
LINE
  5
2B6
100
AcDbEntity
  8
0
100
AcDbLine
 62
7
  6
CONTINUOUS
 10
5.4036607591
 20
4.3682505458
 11
5.4036607591
 21
4.4307505458
  0
LINE
  5
2B7
100
AcDbEntity
  8
0
100
AcDbLine
 62
7
  6
CONTINUOUS
 10
5.4128437975
 20
4.3682505458
 11
5.4128437975
 21
4.4307505458
  0
LINE
  5
2B8
100
AcDbEntity
  8
0
100
AcDbLine
 62
7
  6
CONTINUOUS
 10
5.4216607591
 20
4.3682505458
 11
5.4216607591
 21
4.4307505458
  0
LINE
  5
2B9
100
AcDbEntity
  8
0
100
AcDbLine
 62
7
  6
CONTINUOUS
 10
5.4282260397
 20
4.3682505458
 11
5.4282260397
 21
4.4307505458
  0
LINE
  5
2BA
100
AcDbEntity
  8
0
100
AcDbLine
 62
7
  6
CONTINUOUS
 10
4.9551696883
 20
4.1189828293
 11
5.2142542809
 21
4.1189828293
  0
LINE
  5
2BB
100
AcDbEntity
  8
0
100
AcDbLine
 62
7
  6
CONTINUOUS
 10
5.6110697332
 20
4.1189828293
 11
5.8701518299
 21
4.1189828293
  0
LINE
  5
2BC
100
AcDbEntity
  8
0
100
AcDbLine
 62
7
  6
CONTINUOUS
 10
5.4370248553
 20
4.3682505458
 11
5.4370248553
 21
4.4307505458
  0
LINE
  5
2BD
100
AcDbEntity
  8
0
100
AcDbLine
 62
7
  6
CONTINUOUS
 10
5.4462000904
 20
4.3682505458
 11
5.4462000904
 21
4.4307505458
  0
LINE
  5
2BE
100
AcDbEntity
  8
0
100
AcDbLine
 62
7
  6
CONTINUOUS
 10
5.4527464415
 20
4.3682505458
 11
5.4527464415
 21
4.4307505458
  0
LINE
  5
2BF
100
AcDbEntity
  8
0
100
AcDbLine
 62
7
  6
CONTINUOUS
 10
5.4611356651
 20
4.3682505458
 11
5.4611356651
 21
4.4307505458
  0
LINE
  5
2C0
100
AcDbEntity
  8
0
100
AcDbLine
 62
7
  6
CONTINUOUS
 10
5.470642719
 20
4.3682505458
 11
5.470642719
 21
4.4307505458
  0
LINE
  5
2C1
100
AcDbEntity
  8
0
100
AcDbLine
 62
7
  6
CONTINUOUS
 10
5.477151266
 20
4.3682505458
 11
5.477151266
 21
4.4307505458
  0
LINE
  5
2C2
100
AcDbEntity
  8
0
100
AcDbLine
 62
7
  6
CONTINUOUS
 10
5.4851067092
 20
4.3682505458
 11
5.4851067092
 21
4.4307505458
  0
LINE
  5
2C3
100
AcDbEntity
  8
0
100
AcDbLine
 62
7
  6
CONTINUOUS
 10
5.4949181707
 20
4.3682505458
 11
5.4949181707
 21
4.4307505458
  0
LINE
  5
2C4
100
AcDbEntity
  8
0
100
AcDbLine
 62
7
  6
CONTINUOUS
 10
5.5013701476
 20
4.3682505458
 11
5.5013701476
 21
4.4307505458
  0
LINE
  5
2C5
100
AcDbEntity
  8
0
100
AcDbLine
 62
7
  6
CONTINUOUS
 10
5.5051607591
 20
4.0697072388
 11
5.5051607591
 21
4.0447072388
  0
LINE
  5
2C6
100
AcDbEntity
  8
0
100
AcDbLine
 62
7
  6
CONTINUOUS
 10
5.5069713082
 20
4.0564828293
 11
5.5069713082
 21
4.0697072388
  0
LINE
  5
2C7
100
AcDbEntity
  8
0
100
AcDbLine
 62
7
  6
CONTINUOUS
 10
5.5088688729
 20
4.3682505458
 11
5.5088688729
 21
4.4307505458
  0
LINE
  5
2C8
100
AcDbEntity
  8
0
100
AcDbLine
 62
7
  6
CONTINUOUS
 10
5.5101607591
 20
3.7272072388
 11
5.5101607591
 21
3.5397072388
  0
LINE
  5
2C9
100
AcDbEntity
  8
0
100
AcDbLine
 62
7
  6
CONTINUOUS
 10
5.5133880118
 20
4.0564828293
 11
5.5133880118
 21
4.0697072388
  0
LINE
  5
2CA
100
AcDbEntity
  8
0
100
AcDbLine
 62
7
  6
CONTINUOUS
 10
5.518956453
 20
4.3682505458
 11
5.518956453
 21
4.4307505458
  0
LINE
  5
2CB
100
AcDbEntity
  8
0
100
AcDbLine
 62
7
  6
CONTINUOUS
 10
5.52065228
 20
4.0564828293
 11
5.52065228
 21
4.0697072388
  0
LINE
  5
2CC
100
AcDbEntity
  8
0
100
AcDbLine
 62
7
  6
CONTINUOUS
 10
5.5253332571
 20
4.3682505458
 11
5.5253332571
 21
4.4307505458
  0
LINE
  5
2CD
100
AcDbEntity
  8
0
100
AcDbLine
 62
7
  6
CONTINUOUS
 10
5.5308649645
 20
4.0564828293
 11
5.5308649645
 21
4.0697072388
  0
LINE
  5
2CE
100
AcDbEntity
  8
0
100
AcDbLine
 62
7
  6
CONTINUOUS
 10
5.5323536437
 20
4.3682505458
 11
5.5323536437
 21
4.4307505458
  0
LINE
  5
2CF
100
AcDbEntity
  8
0
100
AcDbLine
 62
7
  6
CONTINUOUS
 10
5.5371972719
 20
4.0564828293
 11
5.5371972719
 21
4.0697072388
  0
LINE
  5
2D0
100
AcDbEntity
  8
0
100
AcDbLine
 62
7
  6
CONTINUOUS
 10
5.5426882573
 20
4.3682505458
 11
5.5426882573
 21
4.4307505458
  0
LINE
  5
2D1
100
AcDbEntity
  8
0
100
AcDbLine
 62
7
  6
CONTINUOUS
 10
5.5439728737
 20
4.0564828293
 11
5.5439728737
 21
4.0697072388
  0
LINE
  5
2D2
100
AcDbEntity
  8
0
100
AcDbLine
 62
7
  6
CONTINUOUS
 10
5.5489715027
 20
4.3682505458
 11
5.5489715027
 21
4.4307505458
  0
LINE
  5
2D3
100
AcDbEntity
  8
0
100
AcDbLine
 62
7
  6
CONTINUOUS
 10
5.5544178074
 20
4.0564828293
 11
5.5544178074
 21
4.0697072388
  0
LINE
  5
2D4
100
AcDbEntity
  8
0
100
AcDbLine
 62
7
  6
CONTINUOUS
 10
5.5554933089
 20
4.3682505458
 11
5.5554933089
 21
4.4307505458
  0
LINE
  5
2D5
100
AcDbEntity
  8
0
100
AcDbLine
 62
7
  6
CONTINUOUS
 10
5.560647461
 20
4.0564828293
 11
5.560647461
 21
4.0697072388
  0
LINE
  5
2D6
100
AcDbEntity
  8
0
100
AcDbLine
 62
7
  6
CONTINUOUS
 10
5.5614107591
 20
3.678669099
 11
5.5614107591
 21
3.7372072388
  0
LINE
  5
2D7
100
AcDbEntity
  8
0
100
AcDbLine
 62
7
  6
CONTINUOUS
 10
5.5614107591
 20
3.8068935084
 11
5.5614107591
 21
4.0447072388
  0
LINE
  5
2D8
100
AcDbEntity
  8
0
100
AcDbLine
 62
7
  6
CONTINUOUS
 10
5.5660451586
 20
4.3682505458
 11
5.5660451586
 21
4.4307505458
  0
LINE
  5
2D9
100
AcDbEntity
  8
0
100
AcDbLine
 62
7
  6
CONTINUOUS
 10
5.1093859563
 20
4.2367509559
 11
5.7159355618
 21
4.2367509559
  0
LINE
  5
2DA
100
AcDbEntity
  8
0
100
AcDbLine
 62
7
  6
CONTINUOUS
 10
5.0889107591
 20
4.2771029822
 11
5.7364107591
 21
4.2771029822
  0
LINE
  5
2DB
100
AcDbEntity
  8
0
100
AcDbLine
 62
7
  6
CONTINUOUS
 10
5.7852088538
 20
4.3057505458
 11
5.0401126644
 21
4.3057505458
  0
LINE
  5
2DC
100
AcDbEntity
  8
0
100
AcDbLine
 62
7
  6
CONTINUOUS
 10
5.800197755
 20
4.3201736228
 11
5.0251237632
 21
4.3201736228
  0
LINE
  5
2DD
100
AcDbEntity
  8
0
100
AcDbLine
 62
7
  6
CONTINUOUS
 10
5.5669148606
 20
4.0564828293
 11
5.5669148606
 21
4.0697072388
  0
LINE
  5
2DE
100
AcDbEntity
  8
0
100
AcDbLine
 62
7
  6
CONTINUOUS
 10
5.572216729
 20
4.3682505458
 11
5.572216729
 21
4.4307505458
  0
LINE
  5
2DF
100
AcDbEntity
  8
0
100
AcDbLine
 62
7
  6
CONTINUOUS
 10
5.5775619281
 20
4.0564828293
 11
5.5775619281
 21
4.0699895008
  0
LINE
  5
2E0
100
AcDbEntity
  8
0
100
AcDbLine
 62
7
  6
CONTINUOUS
 10
5.5782211509
 20
4.3682505458
 11
5.5782211509
 21
4.4307505458
  0
LINE
  5
2E1
100
AcDbEntity
  8
0
100
AcDbLine
 62
7
  6
CONTINUOUS
 10
5.5836709661
 20
4.0564828293
 11
5.5836709661
 21
4.0720781259
  0
LINE
  5
2E2
100
AcDbEntity
  8
0
100
AcDbLine
 62
7
  6
CONTINUOUS
 10
5.588959813
 20
4.3682505458
 11
5.588959813
 21
4.4307505458
  0
LINE
  5
2E3
100
AcDbEntity
  8
0
100
AcDbLine
 62
7
  6
CONTINUOUS
 10
5.589412093
 20
4.0564828293
 11
5.589412093
 21
4.0766880555
  0
LINE
  5
2E4
100
AcDbEntity
  8
0
100
AcDbLine
 62
7
  6
CONTINUOUS
 10
5.5950019142
 20
4.3682505458
 11
5.5950019142
 21
4.4307505458
  0
LINE
  5
2E5
100
AcDbEntity
  8
0
100
AcDbLine
 62
7
  6
CONTINUOUS
 10
5.6002305961
 20
4.0564828293
 11
5.6002305961
 21
4.0984140343
  0
LINE
  5
2E6
100
AcDbEntity
  8
0
100
AcDbLine
 62
7
  6
CONTINUOUS
 10
5.6004716394
 20
4.3682505458
 11
5.6004716394
 21
4.4307505458
  0
LINE
  5
2E7
100
AcDbEntity
  8
0
100
AcDbLine
 62
7
  6
CONTINUOUS
 10
5.6062014045
 20
4.0564828293
 11
5.6062014045
 21
4.110120333
  0
LINE
  5
2E8
100
AcDbEntity
  8
0
100
AcDbLine
 62
7
  6
CONTINUOUS
 10
5.6113661516
 20
4.3682505458
 11
5.6113661516
 21
4.4307505458
  0
LINE
  5
2E9
100
AcDbEntity
  8
0
100
AcDbLine
 62
7
  6
CONTINUOUS
 10
5.6113997055
 20
4.0564828293
 11
5.6113997055
 21
4.1189828293
  0
LINE
  5
2EA
100
AcDbEntity
  8
0
100
AcDbLine
 62
7
  6
CONTINUOUS
 10
5.6172613627
 20
4.3682505458
 11
5.6172613627
 21
4.4307505458
  0
LINE
  5
2EB
100
AcDbEntity
  8
0
100
AcDbLine
 62
7
  6
CONTINUOUS
 10
5.6221806206
 20
4.3682505458
 11
5.6221806206
 21
4.4307505458
  0
LINE
  5
2EC
100
AcDbEntity
  8
0
100
AcDbLine
 62
7
  6
CONTINUOUS
 10
5.6223584516
 20
4.0564828293
 11
5.6223584516
 21
4.1189828293
  0
LINE
  5
2ED
100
AcDbEntity
  8
0
100
AcDbLine
 62
7
  6
CONTINUOUS
 10
5.6281738151
 20
4.0564828293
 11
5.6281738151
 21
4.1189828293
  0
LINE
  5
2EE
100
AcDbEntity
  8
0
100
AcDbLine
 62
7
  6
CONTINUOUS
 10
5.6328143022
 20
4.0564828293
 11
5.6328143022
 21
4.1189828293
  0
LINE
  5
2EF
100
AcDbEntity
  8
0
100
AcDbLine
 62
7
  6
CONTINUOUS
 10
5.6331995711
 20
4.3682505458
 11
5.6331995711
 21
4.4307505458
  0
LINE
  5
2F0
100
AcDbEntity
  8
0
100
AcDbLine
 62
7
  6
CONTINUOUS
 10
5.6389308946
 20
4.3682505458
 11
5.6389308946
 21
4.4307505458
  0
LINE
  5
2F1
100
AcDbEntity
  8
0
100
AcDbLine
 62
7
  6
CONTINUOUS
 10
5.6432855017
 20
4.3682505458
 11
5.6432855017
 21
4.4307505458
  0
LINE
  5
2F2
100
AcDbEntity
  8
0
100
AcDbLine
 62
7
  6
CONTINUOUS
 10
5.6438816944
 20
4.0564828293
 11
5.6438816944
 21
4.1189828293
  0
LINE
  5
2F3
100
AcDbEntity
  8
0
100
AcDbLine
 62
7
  6
CONTINUOUS
 10
5.6495248458
 20
4.0564828293
 11
5.6495248458
 21
4.1189828293
  0
LINE
  5
2F4
100
AcDbEntity
  8
0
100
AcDbLine
 62
7
  6
CONTINUOUS
 10
5.6535941393
 20
4.0564828293
 11
5.6535941393
 21
4.1189828293
  0
LINE
  5
2F5
100
AcDbEntity
  8
0
100
AcDbLine
 62
7
  6
CONTINUOUS
 10
5.6543971201
 20
4.3682505458
 11
5.6543971201
 21
4.4307505458
  0
LINE
  5
2F6
100
AcDbEntity
  8
0
100
AcDbLine
 62
7
  6
CONTINUOUS
 10
5.6599480312
 20
4.3682505458
 11
5.6599480312
 21
4.4307505458
  0
LINE
  5
2F7
100
AcDbEntity
  8
0
100
AcDbLine
 62
7
  6
CONTINUOUS
 10
5.663725432
 20
4.3682505458
 11
5.663725432
 21
4.4307505458
  0
LINE
  5
2F8
100
AcDbEntity
  8
0
100
AcDbLine
 62
7
  6
CONTINUOUS
 10
5.6647382674
 20
4.0564828293
 11
5.6647382674
 21
4.1189828293
  0
LINE
  5
2F9
100
AcDbEntity
  8
0
100
AcDbLine
 62
7
  6
CONTINUOUS
 10
5.6701929361
 20
4.0564828293
 11
5.6701929361
 21
4.1189828293
  0
LINE
  5
2FA
100
AcDbEntity
  8
0
100
AcDbLine
 62
7
  6
CONTINUOUS
 10
5.673679303
 20
4.0564828293
 11
5.673679303
 21
4.1189828293
  0
LINE
  5
2FB
100
AcDbEntity
  8
0
100
AcDbLine
 62
7
  6
CONTINUOUS
 10
5.6748976807
 20
4.3682505458
 11
5.6748976807
 21
4.4307505458
  0
LINE
  5
2FC
100
AcDbEntity
  8
0
100
AcDbLine
 62
7
  6
CONTINUOUS
 10
5.6802521745
 20
4.3682505458
 11
5.6802521745
 21
4.4307505458
  0
LINE
  5
2FD
100
AcDbEntity
  8
0
100
AcDbLine
 62
7
  6
CONTINUOUS
 10
5.6834414779
 20
4.3682505458
 11
5.6834414779
 21
4.4307505458
  0
LINE
  5
2FE
100
AcDbEntity
  8
0
100
AcDbLine
 62
7
  6
CONTINUOUS
 10
5.6848680356
 20
4.0564828293
 11
5.6848680356
 21
4.1189828293
  0
LINE
  5
2FF
100
AcDbEntity
  8
0
100
AcDbLine
 62
7
  6
CONTINUOUS
 10
5.6901184944
 20
4.0564828293
 11
5.6901184944
 21
4.1189828293
  0
LINE
  5
300
100
AcDbEntity
  8
0
100
AcDbLine
 62
7
  6
CONTINUOUS
 10
5.6930118827
 20
4.0564828293
 11
5.6930118827
 21
4.1189828293
  0
LINE
  5
301
100
AcDbEntity
  8
0
100
AcDbLine
 62
7
  6
CONTINUOUS
 10
5.6946421442
 20
4.3682505458
 11
5.6946421442
 21
4.4307505458
  0
LINE
  5
302
100
AcDbEntity
  8
0
100
AcDbLine
 62
7
  6
CONTINUOUS
 10
5.6997847825
 20
4.3682505458
 11
5.6997847825
 21
4.4307505458
  0
LINE
  5
303
100
AcDbEntity
  8
0
100
AcDbLine
 62
7
  6
CONTINUOUS
 10
4.9551696883
 20
4.3682505458
 11
5.8701518299
 21
4.3682505458
  0
LINE
  5
304
100
AcDbEntity
  8
0
100
AcDbLine
 62
7
  6
CONTINUOUS
 10
4.9551696883
 20
4.4307505458
 11
5.8701518299
 21
4.4307505458
  0
LINE
  5
305
100
AcDbEntity
  8
0
100
AcDbLine
 62
7
  6
CONTINUOUS
 10
5.7023767928
 20
4.3682505458
 11
5.7023767928
 21
4.4307505458
  0
LINE
  5
306
100
AcDbEntity
  8
0
100
AcDbLine
 62
7
  6
CONTINUOUS
 10
5.7042129599
 20
4.0564828293
 11
5.7042129599
 21
4.1189828293
  0
LINE
  5
307
100
AcDbEntity
  8
0
100
AcDbLine
 62
7
  6
CONTINUOUS
 10
5.7092440702
 20
4.0564828293
 11
5.7092440702
 21
4.1189828293
  0
LINE
  5
308
100
AcDbEntity
  8
0
100
AcDbLine
 62
7
  6
CONTINUOUS
 10
5.7115361375
 20
4.0564828293
 11
5.7115361375
 21
4.1189828293
  0
LINE
  5
309
100
AcDbEntity
  8
0
100
AcDbLine
 62
7
  6
CONTINUOUS
 10
5.7135735825
 20
4.3682505458
 11
5.7135735825
 21
4.4307505458
  0
LINE
  5
30A
100
AcDbEntity
  8
0
100
AcDbLine
 62
7
  6
CONTINUOUS
 10
5.7184895377
 20
4.3682505458
 11
5.7184895377
 21
4.4307505458
  0
LINE
  5
30B
100
AcDbEntity
  8
0
100
AcDbLine
 62
7
  6
CONTINUOUS
 10
5.7204767814
 20
4.3682505458
 11
5.7204767814
 21
4.4307505458
  0
LINE
  5
30C
100
AcDbEntity
  8
0
100
AcDbLine
 62
7
  6
CONTINUOUS
 10
5.7227172636
 20
4.0564828293
 11
5.7227172636
 21
4.1189828293
  0
LINE
  5
30D
100
AcDbEntity
  8
0
100
AcDbLine
 62
7
  6
CONTINUOUS
 10
5.7275145195
 20
4.0564828293
 11
5.7275145195
 21
4.1189828293
  0
LINE
  5
30E
100
AcDbEntity
  8
0
100
AcDbLine
 62
7
  6
CONTINUOUS
 10
5.7291986573
 20
4.0564828293
 11
5.7291986573
 21
4.1189828293
  0
LINE
  5
30F
100
AcDbEntity
  8
0
100
AcDbLine
 62
7
  6
CONTINUOUS
 10
5.7316374112
 20
4.3682505458
 11
5.7316374112
 21
4.4307505458
  0
LINE
  5
310
100
AcDbEntity
  8
0
100
AcDbLine
 62
7
  6
CONTINUOUS
 10
5.7363125092
 20
4.3682505458
 11
5.7363125092
 21
4.4307505458
  0
LINE
  5
311
100
AcDbEntity
  8
0
100
AcDbLine
 62
7
  6
CONTINUOUS
 10
5.7364107591
 20
4.3057505458
 11
5.7364107591
 21
4.2771029822
  0
LINE
  5
312
100
AcDbEntity
  8
0
100
AcDbLine
 62
7
  6
CONTINUOUS
 10
5.7376892568
 20
4.3682505458
 11
5.7376892568
 21
4.4307505458
  0
LINE
  5
313
100
AcDbEntity
  8
0
100
AcDbLine
 62
7
  6
CONTINUOUS
 10
5.7403275942
 20
4.0564828293
 11
5.7403275942
 21
4.1189828293
  0
LINE
  5
314
100
AcDbEntity
  8
0
100
AcDbLine
 62
7
  6
CONTINUOUS
 10
5.744877164
 20
4.0564828293
 11
5.744877164
 21
4.1189828293
  0
LINE
  5
315
100
AcDbEntity
  8
0
100
AcDbLine
 62
7
  6
CONTINUOUS
 10
5.7459485163
 20
4.0564828293
 11
5.7459485163
 21
4.1189828293
  0
LINE
  5
316
100
AcDbEntity
  8
0
100
AcDbLine
 62
7
  6
CONTINUOUS
 10
5.7487815476
 20
4.3682505458
 11
5.7487815476
 21
4.4307505458
  0
LINE
  5
317
100
AcDbEntity
  8
0
100
AcDbLine
 62
7
  6
CONTINUOUS
 10
5.7532023091
 20
4.3682505458
 11
5.7532023091
 21
4.4307505458
  0
LINE
  5
318
100
AcDbEntity
  8
0
100
AcDbLine
 62
7
  6
CONTINUOUS
 10
5.7539645908
 20
4.3682505458
 11
5.7539645908
 21
4.4307505458
  0
LINE
  5
319
100
AcDbEntity
  8
0
100
AcDbLine
 62
7
  6
CONTINUOUS
 10
5.7569931765
 20
4.0564828293
 11
5.7569931765
 21
4.1189828293
  0
LINE
  5
31A
100
AcDbEntity
  8
0
100
AcDbLine
 62
7
  6
CONTINUOUS
 10
5.7612819425
 20
4.0564828293
 11
5.7612819425
 21
4.1189828293
  0
LINE
  5
31B
100
AcDbEntity
  8
0
100
AcDbLine
 62
7
  6
CONTINUOUS
 10
5.7617374205
 20
4.0564828293
 11
5.7617374205
 21
4.1189828293
  0
LINE
  5
31C
100
AcDbEntity
  8
0
100
AcDbLine
 62
7
  6
CONTINUOUS
 10
5.7649565608
 20
4.3682505458
 11
5.7649565608
 21
4.4307505458
  0
LINE
  5
31D
100
AcDbEntity
  8
0
100
AcDbLine
 62
7
  6
CONTINUOUS
 10
5.7691102394
 20
4.3682505458
 11
5.7691102394
 21
4.4307505458
  0
LINE
  5
31E
100
AcDbEntity
  8
0
100
AcDbLine
 62
7
  6
CONTINUOUS
 10
5.7692558576
 20
4.3682505458
 11
5.7692558576
 21
4.4307505458
  0
LINE
  5
31F
100
AcDbEntity
  8
0
100
AcDbLine
 62
7
  6
CONTINUOUS
 10
5.7726659593
 20
4.0564828293
 11
5.7726659593
 21
4.1189828293
  0
LINE
  5
320
100
AcDbEntity
  8
0
100
AcDbLine
 62
7
  6
CONTINUOUS
 10
5.776681556
 20
4.0564828293
 11
5.776681556
 21
4.1189828293
  0
LINE
  5
321
100
AcDbEntity
  8
0
100
AcDbLine
 62
7
  6
CONTINUOUS
 10
5.780115814
 20
4.3682505458
 11
5.780115814
 21
4.4307505458
  0
LINE
  5
322
100
AcDbEntity
  8
0
100
AcDbLine
 62
7
  6
CONTINUOUS
 10
5.7839904337
 20
4.3682505458
 11
5.7839904337
 21
4.4307505458
  0
LINE
  5
323
100
AcDbEntity
  8
0
100
AcDbLine
 62
7
  6
CONTINUOUS
 10
5.7873007539
 20
4.0564828293
 11
5.7873007539
 21
4.1189828293
  0
LINE
  5
324
100
AcDbEntity
  8
0
100
AcDbLine
 62
7
  6
CONTINUOUS
 10
5.7910316032
 20
4.0564828293
 11
5.7910316032
 21
4.1189828293
  0
LINE
  5
325
100
AcDbEntity
  8
0
100
AcDbLine
 62
7
  6
CONTINUOUS
 10
5.7942155991
 20
4.3682505458
 11
5.7942155991
 21
4.4307505458
  0
LINE
  5
326
100
AcDbEntity
  8
0
100
AcDbLine
 62
7
  6
CONTINUOUS
 10
5.7977999883
 20
4.3682505458
 11
5.7977999883
 21
4.4307505458
  0
LINE
  5
327
100
AcDbEntity
  8
0
100
AcDbLine
 62
7
  6
CONTINUOUS
 10
5.8008553644
 20
4.0564828293
 11
5.8008553644
 21
4.1189828293
  0
LINE
  5
328
100
AcDbEntity
  8
0
100
AcDbLine
 62
7
  6
CONTINUOUS
 10
5.8042907094
 20
4.0564828293
 11
5.8042907094
 21
4.1189828293
  0
LINE
  5
329
100
AcDbEntity
  8
0
100
AcDbLine
 62
7
  6
CONTINUOUS
 10
5.8072152629
 20
4.3682505458
 11
5.8072152629
 21
4.4307505458
  0
LINE
  5
32A
100
AcDbEntity
  8
0
100
AcDbLine
 62
7
  6
CONTINUOUS
 10
5.8104990869
 20
4.3682505458
 11
5.8104990869
 21
4.4307505458
  0
LINE
  5
32B
100
AcDbEntity
  8
0
100
AcDbLine
 62
7
  6
CONTINUOUS
 10
5.8132907094
 20
4.0564828293
 11
5.8132907094
 21
4.1189828293
  0
LINE
  5
32C
100
AcDbEntity
  8
0
100
AcDbLine
 62
7
  6
CONTINUOUS
 10
5.816420645
 20
4.0564828293
 11
5.816420645
 21
4.1189828293
  0
LINE
  5
32D
100
AcDbEntity
  8
0
100
AcDbLine
 62
7
  6
CONTINUOUS
 10
5.8190773238
 20
4.3682505458
 11
5.8190773238
 21
4.4307505458
  0
LINE
  5
32E
100
AcDbEntity
  8
0
100
AcDbLine
 62
7
  6
CONTINUOUS
 10
5.8220511146
 20
4.3682505458
 11
5.8220511146
 21
4.4307505458
  0
LINE
  5
32F
100
AcDbEntity
  8
0
100
AcDbLine
 62
7
  6
CONTINUOUS
 10
5.8245709345
 20
4.0564828293
 11
5.8245709345
 21
4.1189828293
  0
LINE
  5
330
100
AcDbEntity
  8
0
100
AcDbLine
 62
7
  6
CONTINUOUS
 10
5.8251607591
 20
5.0242505458
 11
5.8251607591
 21
4.4307505458
  0
LINE
  5
331
100
AcDbEntity
  8
0
100
AcDbLine
 62
7
  6
CONTINUOUS
 10
5.8260465859
 20
4.9792505458
 11
5.8260465859
 21
4.9094828293
  0
LINE
  5
332
100
AcDbEntity
  8
0
100
AcDbLine
 62
7
  6
CONTINUOUS
 10
5.8261607591
 20
4.1189828293
 11
5.8261607591
 21
4.3621077022
  0
LINE
  5
333
100
AcDbEntity
  8
0
100
AcDbLine
 62
7
  6
CONTINUOUS
 10
5.8261607591
 20
4.4307505458
 11
5.8261607591
 21
4.9094828293
  0
LINE
  5
334
100
AcDbEntity
  8
0
100
AcDbLine
 62
7
  6
CONTINUOUS
 10
5.8273864363
 20
4.0564828293
 11
5.8273864363
 21
4.1189828293
  0
LINE
  5
335
100
AcDbEntity
  8
0
100
AcDbLine
 62
7
  6
CONTINUOUS
 10
5.8297675807
 20
4.3682505458
 11
5.8297675807
 21
4.4307505458
  0
LINE
  5
336
100
AcDbEntity
  8
0
100
AcDbLine
 62
7
  6
CONTINUOUS
 10
5.8324227639
 20
4.3682505458
 11
5.8324227639
 21
4.4307505458
  0
LINE
  5
337
100
AcDbEntity
  8
0
100
AcDbLine
 62
7
  6
CONTINUOUS
 10
5.8346635159
 20
4.0564828293
 11
5.8346635159
 21
4.1189828293
  0
LINE
  5
338
100
AcDbEntity
  8
0
100
AcDbLine
 62
7
  6
CONTINUOUS
 10
5.8371564662
 20
4.0564828293
 11
5.8371564662
 21
4.1189828293
  0
LINE
  5
339
100
AcDbEntity
  8
0
100
AcDbLine
 62
7
  6
CONTINUOUS
 10
5.8392552105
 20
4.3682505458
 11
5.8392552105
 21
4.4307505458
  0
LINE
  5
33A
100
AcDbEntity
  8
0
100
AcDbLine
 62
7
  6
CONTINUOUS
 10
5.8415841306
 20
4.3682505458
 11
5.8415841306
 21
4.4307505458
  0
LINE
  5
33B
100
AcDbEntity
  8
0
100
AcDbLine
 62
7
  6
CONTINUOUS
 10
5.8435393542
 20
4.0564828293
 11
5.8435393542
 21
4.1189828293
  0
LINE
  5
33C
100
AcDbEntity
  8
0
100
AcDbLine
 62
7
  6
CONTINUOUS
 10
5.8457025651
 20
4.0564828293
 11
5.8457025651
 21
4.1189828293
  0
LINE
  5
33D
100
AcDbEntity
  8
0
100
AcDbLine
 62
7
  6
CONTINUOUS
 10
5.8475128582
 20
4.3682505458
 11
5.8475128582
 21
4.4307505458
  0
LINE
  5
33E
100
AcDbEntity
  8
0
100
AcDbLine
 62
7
  6
CONTINUOUS
 10
5.8495088003
 20
4.3682505458
 11
5.8495088003
 21
4.4307505458
  0
LINE
  5
33F
100
AcDbEntity
  8
0
100
AcDbLine
 62
7
  6
CONTINUOUS
 10
5.8511728579
 20
4.0564828293
 11
5.8511728579
 21
4.1189828293
  0
LINE
  5
340
100
AcDbEntity
  8
0
100
AcDbLine
 62
7
  6
CONTINUOUS
 10
5.8530000923
 20
4.0564828293
 11
5.8530000923
 21
4.1189828293
  0
LINE
  5
341
100
AcDbEntity
  8
0
100
AcDbLine
 62
7
  6
CONTINUOUS
 10
5.8545167146
 20
4.3682505458
 11
5.8545167146
 21
4.4307505458
  0
LINE
  5
342
100
AcDbEntity
  8
0
100
AcDbLine
 62
7
  6
CONTINUOUS
 10
5.856173924
 20
4.3682505458
 11
5.856173924
 21
4.4307505458
  0
LINE
  5
343
100
AcDbEntity
  8
0
100
AcDbLine
 62
7
  6
CONTINUOUS
 10
5.8575420177
 20
4.0564828293
 11
5.8575420177
 21
4.1189828293
  0
LINE
  5
344
100
AcDbEntity
  8
0
100
AcDbLine
 62
7
  6
CONTINUOUS
 10
5.8590280072
 20
4.0564828293
 11
5.8590280072
 21
4.1189828293
  0
LINE
  5
345
100
AcDbEntity
  8
0
100
AcDbLine
 62
7
  6
CONTINUOUS
 10
5.860246586
 20
4.3682505458
 11
5.860246586
 21
4.4307505458
  0
LINE
  5
346
100
AcDbEntity
  8
0
100
AcDbLine
 62
7
  6
CONTINUOUS
 10
5.8615602844
 20
4.3682505458
 11
5.8615602844
 21
4.4307505458
  0
LINE
  5
347
100
AcDbEntity
  8
0
100
AcDbLine
 62
7
  6
CONTINUOUS
 10
5.8626284697
 20
4.0564828293
 11
5.8626284697
 21
4.1189828293
  0
LINE
  5
348
100
AcDbEntity
  8
0
100
AcDbLine
 62
7
  6
CONTINUOUS
 10
5.8637689298
 20
4.0564828293
 11
5.8637689298
 21
4.1189828293
  0
LINE
  5
349
100
AcDbEntity
  8
0
100
AcDbLine
 62
7
  6
CONTINUOUS
 10
5.8646859516
 20
4.3682505458
 11
5.8646859516
 21
4.4307505458
  0
LINE
  5
34A
100
AcDbEntity
  8
0
100
AcDbLine
 62
7
  6
CONTINUOUS
 10
5.8656523512
 20
4.3682505458
 11
5.8656523512
 21
4.4307505458
  0
LINE
  5
34B
100
AcDbEntity
  8
0
100
AcDbLine
 62
7
  6
CONTINUOUS
 10
5.8664175483
 20
4.0564828293
 11
5.8664175483
 21
4.1189828293
  0
LINE
  5
34C
100
AcDbEntity
  8
0
100
AcDbLine
 62
7
  6
CONTINUOUS
 10
5.8672091908
 20
4.0564828293
 11
5.8672091908
 21
4.1189828293
  0
LINE
  5
34D
100
AcDbEntity
  8
0
100
AcDbLine
 62
7
  6
CONTINUOUS
 10
5.8678220115
 20
4.3682505458
 11
5.8678220115
 21
4.4307505458
  0
LINE
  5
34E
100
AcDbEntity
  8
0
100
AcDbLine
 62
7
  6
CONTINUOUS
 10
5.8684383261
 20
4.3682505458
 11
5.8684383261
 21
4.4307505458
  0
LINE
  5
34F
100
AcDbEntity
  8
0
100
AcDbLine
 62
7
  6
CONTINUOUS
 10
5.8688983286
 20
4.0564828293
 11
5.8688983286
 21
4.1189828293
  0
LINE
  5
350
100
AcDbEntity
  8
0
100
AcDbLine
 62
7
  6
CONTINUOUS
 10
5.8693388709
 20
4.0564828293
 11
5.8693388709
 21
4.1189828293
  0
LINE
  5
351
100
AcDbEntity
  8
0
100
AcDbLine
 62
7
  6
CONTINUOUS
 10
5.8696457237
 20
4.3682505458
 11
5.8696457237
 21
4.4307505458
  0
LINE
  5
352
100
AcDbEntity
  8
0
100
AcDbLine
 62
7
  6
CONTINUOUS
 10
5.8699101762
 20
4.3682505458
 11
5.8699101762
 21
4.4307505458
  0
LINE
  5
353
100
AcDbEntity
  8
0
100
AcDbLine
 62
7
  6
CONTINUOUS
 10
5.8700636579
 20
4.0564828293
 11
5.8700636579
 21
4.1189828293
  0
LINE
  5
354
100
AcDbEntity
  8
0
100
AcDbLine
 62
7
  6
CONTINUOUS
 10
5.8701518299
 20
4.0564828293
 11
5.8701518299
 21
4.1189828293
  0
LINE
  5
355
100
AcDbEntity
  8
0
100
AcDbLine
 62
7
  6
CONTINUOUS
 10
5.8701518299
 20
4.3682505458
 11
5.8701518299
 21
4.4307505458
  0
LINE
  5
356
100
AcDbEntity
  8
0
100
AcDbLine
 62
7
  6
CONTINUOUS
 10
6.0874057546
 20
5.0145123153
 11
6.0867373972
 21
4.9889887764
  0
LINE
  5
357
100
AcDbEntity
  8
0
100
AcDbLine
 62
7
  6
CONTINUOUS
 10
4.9991607591
 20
4.9094828293
 11
5.0001607591
 21
4.9094828293
  0
LINE
  5
358
100
AcDbEntity
  8
0
100
AcDbLine
 62
7
  6
CONTINUOUS
 10
5.8251607591
 20
4.9094828293
 11
5.8261607591
 21
4.9094828293
  0
LINE
  5
359
100
AcDbEntity
  8
0
100
AcDbLine
 62
7
  6
CONTINUOUS
 10
6.0767408239
 20
4.9792505458
 11
5.8251607591
 21
4.9792505458
  0
LINE
  5
35A
100
AcDbEntity
  8
0
100
AcDbLine
 62
7
  6
CONTINUOUS
 10
5.0001607591
 20
4.9792505458
 11
4.7485806943
 21
4.9792505458
  0
LINE
  5
35B
100
AcDbEntity
  8
0
100
AcDbLine
 62
7
  6
CONTINUOUS
 10
6.0867373972
 20
4.9889887764
 11
5.8251607591
 21
4.9889887764
  0
LINE
  5
35C
100
AcDbEntity
  8
0
100
AcDbLine
 62
7
  6
CONTINUOUS
 10
5.0001607591
 20
4.9889887764
 11
4.738584121
 21
4.9889887764
  0
LINE
  5
35D
100
AcDbEntity
  8
0
100
AcDbLine
 62
7
  6
CONTINUOUS
 10
6.0874057546
 20
5.0145123153
 11
5.8251607591
 21
5.0145123153
  0
LINE
  5
35E
100
AcDbEntity
  8
0
100
AcDbLine
 62
7
  6
CONTINUOUS
 10
5.0001607591
 20
5.0145123153
 11
4.7379157636
 21
5.0145123153
  0
LINE
  5
35F
100
AcDbEntity
  8
0
100
AcDbLine
 62
7
  6
CONTINUOUS
 10
3.7961607591
 20
5.0242505458
 11
7.0291607591
 21
5.0242505458
  0
LINE
  5
360
100
AcDbEntity
  8
0
100
AcDbLine
 62
7
  6
CONTINUOUS
 10
3.7726024752
 20
5.0319239738
 11
7.0527190429
 21
5.0319239738
  0
LINE
  5
361
100
AcDbEntity
  8
0
100
AcDbLine
 62
7
  6
CONTINUOUS
 10
3.6755152203
 20
5.0711298561
 11
7.1498062979
 21
5.0711298561
  0
LINE
  5
362
100
AcDbEntity
  8
0
100
AcDbLine
 62
7
  6
CONTINUOUS
 10
3.6410107591
 20
5.1107505458
 11
7.1843107591
 21
5.1107505458
  0
LINE
  5
363
100
AcDbEntity
  8
0
100
AcDbLine
 62
7
  6
CONTINUOUS
 10
3.6410107591
 20
5.1982505458
 11
7.1843107591
 21
5.1982505458
  0
LINE
  5
364
100
AcDbEntity
  8
0
100
AcDbLine
 62
7
  6
CONTINUOUS
 10
7.1843107591
 20
5.1982505458
 11
7.1843107591
 21
5.1107505458
  0
ARC
  5
365
100
AcDbEntity
  8
0
100
AcDbCircle
 62
7
  6
CONTINUOUS
 10
4.8876546877
 20
3.9337072388
 40
0.3755
100
AcDbArc
 50
23.2308920706
 51
53.8077823306
  0
ARC
  5
366
100
AcDbEntity
  8
0
100
AcDbCircle
 62
7
  6
CONTINUOUS
 10
5.0002789435
 20
3.8064828293
 40
0.25
100
AcDbArc
 50
34.4594077917
 51
89.8919117043
  0
ARC
  5
367
100
AcDbEntity
  8
0
100
AcDbCircle
 62
7
  6
CONTINUOUS
 10
5.2376607591
 20
3.9693833348
 40
0.0379005055
100
AcDbArc
 50
214.4594077917
 51
270.0
  0
ARC
  5
368
100
AcDbEntity
  8
0
100
AcDbCircle
 62
7
  6
CONTINUOUS
 10
5.2589107591
 20
3.6389828293
 40
0.03
100
AcDbArc
 50
97.1807557815
 51
225.7070245388
  0
ARC
  5
369
100
AcDbEntity
  8
0
100
AcDbCircle
 62
7
  6
CONTINUOUS
 10
5.2589107591
 20
3.7672072388
 40
0.03
100
AcDbArc
 50
97.1807557815
 51
270.0
  0
ARC
  5
36A
100
AcDbEntity
  8
0
100
AcDbCircle
 62
7
  6
CONTINUOUS
 10
5.251088657
 20
4.0897072388
 40
0.02
100
AcDbArc
 50
203.2308920706
 51
270.0
  0
ARC
  5
36B
100
AcDbEntity
  8
0
100
AcDbCircle
 62
7
  6
CONTINUOUS
 10
5.2539107591
 20
3.678669099
 40
0.01
100
AcDbArc
 50
277.1807557815
 51
360.0
  0
ARC
  5
36C
100
AcDbEntity
  8
0
100
AcDbCircle
 62
7
  6
CONTINUOUS
 10
5.3051607591
 20
3.7272072388
 40
0.01
100
AcDbArc
 50
0.0
 51
90.0
  0
ARC
  5
36D
100
AcDbEntity
  8
0
100
AcDbCircle
 62
7
  6
CONTINUOUS
 10
5.2539107591
 20
3.8068935084
 40
0.01
100
AcDbArc
 50
277.1807557815
 51
360.0
  0
ARC
  5
36E
100
AcDbEntity
  8
0
100
AcDbCircle
 62
7
  6
CONTINUOUS
 10
3.6459766995
 20
4.8581686489
 40
0.215
100
AcDbArc
 50
53.916964529
 51
82.1032437574
  0
ARC
  5
36F
100
AcDbEntity
  8
0
100
AcDbCircle
 62
7
  6
CONTINUOUS
 10
5.1389107591
 20
4.2771029822
 40
0.05
100
AcDbArc
 50
180.0
 51
233.8077823306
  0
ARC
  5
370
100
AcDbEntity
  8
0
100
AcDbCircle
 62
7
  6
CONTINUOUS
 10
4.9751607591
 20
4.3182505458
 40
0.05
100
AcDbArc
 50
2.204227504
 51
86.9681465326
  0
ARC
  5
371
100
AcDbEntity
  8
0
100
AcDbCircle
 62
7
  6
CONTINUOUS
 10
3.6810107591
 20
5.1107505458
 40
0.04
100
AcDbArc
 50
180.0
 51
262.1032437574
  0
ARC
  5
372
100
AcDbEntity
  8
0
100
AcDbCircle
 62
7
  6
CONTINUOUS
 10
3.7961607591
 20
5.0642505458
 40
0.04
100
AcDbArc
 50
233.916964529
 51
270.0
  0
ARC
  5
373
100
AcDbEntity
  8
0
100
AcDbCircle
 62
7
  6
CONTINUOUS
 10
5.0401126644
 20
4.3207505458
 40
0.015
100
AcDbArc
 50
182.204227504
 51
270.0
  0
ARC
  5
374
100
AcDbEntity
  8
0
100
AcDbCircle
 62
7
  6
CONTINUOUS
 10
4.7279191904
 20
5.0142505458
 40
0.01
100
AcDbArc
 50
1.5
 51
90.0
  0
ARC
  5
375
100
AcDbEntity
  8
0
100
AcDbCircle
 62
7
  6
CONTINUOUS
 10
4.7485806943
 20
4.9892505458
 40
0.01
100
AcDbArc
 50
181.5
 51
270.0
  0
ARC
  5
376
100
AcDbEntity
  8
0
100
AcDbCircle
 62
7
  6
CONTINUOUS
 10
5.4126607591
 20
3.4114828293
 40
0.19125
100
AcDbArc
 50
160.4129850875
 51
19.5870149125
  0
ARC
  5
377
100
AcDbEntity
  8
0
100
AcDbCircle
 62
7
  6
CONTINUOUS
 10
5.4126607591
 20
3.5397072388
 40
0.19125
100
AcDbArc
 50
120.6508530161
 51
59.3491469839
  0
ARC
  5
378
100
AcDbEntity
  8
0
100
AcDbCircle
 62
7
  6
CONTINUOUS
 10
5.4126607591
 20
3.4114828293
 40
0.18125
100
AcDbArc
 50
164.1191447906
 51
15.8808552094
  0
ARC
  5
379
100
AcDbEntity
  8
0
100
AcDbCircle
 62
7
  6
CONTINUOUS
 10
5.4126607591
 20
3.5397072388
 40
0.18125
100
AcDbArc
 50
122.5433521704
 51
57.4566478296
  0
ARC
  5
37A
100
AcDbEntity
  8
0
100
AcDbCircle
 62
7
  6
CONTINUOUS
 10
5.4126607591
 20
3.4114828293
 40
0.15
100
AcDbArc
 50
176.4734041886
 51
3.5265958114
  0
ARC
  5
37B
100
AcDbEntity
  8
0
100
AcDbCircle
 62
7
  6
CONTINUOUS
 10
5.4126607591
 20
3.5397072388
 40
0.15
100
AcDbArc
 50
130.5442265155
 51
49.4557734845
  0
ARC
  5
37C
100
AcDbEntity
  8
0
100
AcDbCircle
 62
7
  6
CONTINUOUS
 10
5.4126607591
 20
3.4114828293
 40
0.117
100
AcDbArc
 50
192.3997322116
 51
347.6002677884
  0
ARC
  5
37D
100
AcDbEntity
  8
0
100
AcDbCircle
 62
7
  6
CONTINUOUS
 10
5.4126607591
 20
3.5397072388
 40
0.117
100
AcDbArc
 50
146.4500037207
 51
33.5499962793
  0
ARC
  5
37E
100
AcDbEntity
  8
0
100
AcDbCircle
 62
7
  6
CONTINUOUS
 10
5.4126607591
 20
3.4114828293
 40
0.1025
100
AcDbArc
 50
201.4832225945
 51
338.5167774055
  0
ARC
  5
37F
100
AcDbEntity
  8
0
100
AcDbCircle
 62
7
  6
CONTINUOUS
 10
5.4126607591
 20
3.5397072388
 40
0.1025
100
AcDbArc
 50
162.0315124957
 51
17.9684875043
  0
ARC
  5
380
100
AcDbEntity
  8
0
100
AcDbCircle
 62
7
  6
CONTINUOUS
 10
5.4126607591
 20
3.4114828293
 40
0.0975
100
AcDbArc
 50
205.14940477
 51
334.85059523
  0
ARC
  5
381
100
AcDbEntity
  8
0
100
AcDbCircle
 62
7
  6
CONTINUOUS
 10
5.4126607591
 20
3.5397072388
 40
0.0975
100
AcDbArc
 50
180.0
 51
360.0
  0
ARC
  5
382
100
AcDbEntity
  8
0
100
AcDbCircle
 62
7
  6
CONTINUOUS
 10
5.5664107591
 20
3.6389828293
 40
0.03
100
AcDbArc
 50
314.2929754612
 51
82.8192442185
  0
ARC
  5
383
100
AcDbEntity
  8
0
100
AcDbCircle
 62
7
  6
CONTINUOUS
 10
5.5714107591
 20
3.678669099
 40
0.01
100
AcDbArc
 50
180.0
 51
262.8192442185
  0
ARC
  5
384
100
AcDbEntity
  8
0
100
AcDbCircle
 62
7
  6
CONTINUOUS
 10
5.5201607591
 20
3.7272072388
 40
0.01
100
AcDbArc
 50
90.0
 51
180.0
  0
ARC
  5
385
100
AcDbEntity
  8
0
100
AcDbCircle
 62
7
  6
CONTINUOUS
 10
5.5876607591
 20
3.9693833348
 40
0.0379005055
100
AcDbArc
 50
270.0
 51
325.5405922083
  0
ARC
  5
386
100
AcDbEntity
  8
0
100
AcDbCircle
 62
7
  6
CONTINUOUS
 10
5.5664107591
 20
3.7672072388
 40
0.03
100
AcDbArc
 50
270.0
 51
82.8192442185
  0
ARC
  5
387
100
AcDbEntity
  8
0
100
AcDbCircle
 62
7
  6
CONTINUOUS
 10
5.5742328612
 20
4.0897072388
 40
0.02
100
AcDbArc
 50
270.0
 51
336.7691079294
  0
ARC
  5
388
100
AcDbEntity
  8
0
100
AcDbCircle
 62
7
  6
CONTINUOUS
 10
5.5714107591
 20
3.8068935084
 40
0.01
100
AcDbArc
 50
180.0
 51
262.8192442185
  0
ARC
  5
389
100
AcDbEntity
  8
0
100
AcDbCircle
 62
7
  6
CONTINUOUS
 10
5.9376668305
 20
3.9337072388
 40
0.3755
100
AcDbArc
 50
126.1922176694
 51
156.7691079294
  0
ARC
  5
38A
100
AcDbEntity
  8
0
100
AcDbCircle
 62
7
  6
CONTINUOUS
 10
5.8250425747
 20
3.8064828293
 40
0.25
100
AcDbArc
 50
90.1080882957
 51
145.5405922083
  0
ARC
  5
38B
100
AcDbEntity
  8
0
100
AcDbCircle
 62
7
  6
CONTINUOUS
 10
7.1793448187
 20
4.8581686489
 40
0.215
100
AcDbArc
 50
97.8967562426
 51
126.083035471
  0
ARC
  5
38C
100
AcDbEntity
  8
0
100
AcDbCircle
 62
7
  6
CONTINUOUS
 10
5.8501607591
 20
4.3182505458
 40
0.05
100
AcDbArc
 50
93.0318534674
 51
177.795772496
  0
ARC
  5
38D
100
AcDbEntity
  8
0
100
AcDbCircle
 62
7
  6
CONTINUOUS
 10
5.6864107591
 20
4.2771029822
 40
0.05
100
AcDbArc
 50
306.1922176694
 51
360.0
  0
ARC
  5
38E
100
AcDbEntity
  8
0
100
AcDbCircle
 62
7
  6
CONTINUOUS
 10
7.1443107591
 20
5.1107505458
 40
0.04
100
AcDbArc
 50
277.8967562426
 51
360.0
  0
ARC
  5
38F
100
AcDbEntity
  8
0
100
AcDbCircle
 62
7
  6
CONTINUOUS
 10
7.0291607591
 20
5.0642505458
 40
0.04
100
AcDbArc
 50
270.0
 51
306.083035471
  0
ARC
  5
390
100
AcDbEntity
  8
0
100
AcDbCircle
 62
7
  6
CONTINUOUS
 10
5.7852088538
 20
4.3207505458
 40
0.015
100
AcDbArc
 50
270.0
 51
357.795772496
  0
ARC
  5
391
100
AcDbEntity
  8
0
100
AcDbCircle
 62
7
  6
CONTINUOUS
 10
6.0974023278
 20
5.0142505458
 40
0.01
100
AcDbArc
 50
90.0
 51
178.5
  0
ARC
  5
392
100
AcDbEntity
  8
0
100
AcDbCircle
 62
7
  6
CONTINUOUS
 10
6.0767408239
 20
4.9892505458
 40
0.01
100
AcDbArc
 50
270.0
 51
358.5
  0
ENDSEC
  0
SECTION
  2
OBJECTS
  0
DICTIONARY
  5
C
100
AcDbDictionary
280
0
281
1
  3
ACAD_GROUP
350
D
  3
ACAD_MLINESTYLE
350
17
  3
ACAD_LAYOUT
350
1A
  3
ACAD_PLOTSETTINGS
350
19
  3
ACAD_PLOTSTYLENAME
350
E
  0
DICTIONARY
  5
D
102
{ACAD_REACTORS
330
C
102
}
100
AcDbDictionary
280
0
281
1
  0
ACDBDICTIONARYWDFLT
  5
E
102
{ACAD_REACTORS
330
C
102
}
100
AcDbDictionary
281
1
  3
Normal
350
F
100
AcDbDictionaryWithDefault
340
F
  0
DICTIONARY
  5
17
102
{ACAD_REACTORS
330
C
102
}
100
AcDbDictionary
280
0
281
1
  3
Standard
350
18
  0
DICTIONARY
  5
19
102
{ACAD_REACTORS
330
C
102
}
100
AcDbDictionary
281
1
  0
DICTIONARY
  5
1A
102
{ACAD_REACTORS
330
C
102
}
100
AcDbDictionary
281
1
  3
Model
350
393
  3
Layout1
350
394
  0
ACDBPLACEHOLDER
  5
F
102
{ACAD_REACTORS
330
E
102
}
  0
MLINESTYLE
  5
18
102
{ACAD_REACTORS
330
17
102
}
100
AcDbMlineStyle
  2
STANDARD
 70
0
  3

 62
256
 51
90.0
 52
90.0
 71
2
 49
0.5
 62
256
  6
BYLAYER
 49
-0.5
 62
256
  6
BYLAYER
  0
LAYOUT
  5
393
102
{ACAD_REACTORS
330
1A
102
}
100
AcDbPlotSettings
  1

  2
none_device
  4
ANSI_A_(11.00_x_8.50_Inches)
  6

 40
0.0
 41
0.0
 42
0.0
 43
0.0
 44
279.4
 45
215.9
 46
0.0
 47
0.0
 48
0.0
 49
0.0
140
0.0
141
0.0
142
1.0
143
1.0
 70
1024
 72
0
 73
0
 74
0
  7

 75
0
147
1.0
148
0.0
149
0.0
100
AcDbLayout
  1
Model
 70
0
 71
0
 10
0.0
 20
0.0
 11
11.0
 21
8.5
 12
0.0
 22
0.0
 32
0.0
 14
0.0
 24
0.0
 34
0.0
 15
0.0
 25
0.0
 35
0.0
146
0.0
 13
0.0
 23
0.0
 33
0.0
 16
1.0
 26
0.0
 36
0.0
 17
0.0
 27
1.0
 37
0.0
 76
0
330
202
345
0
346
0
  0
LAYOUT
  5
394
102
{ACAD_REACTORS
330
1A
102
}
100
AcDbPlotSettings
  1

  2
none_device
  4
ANSI_A_(11.00_x_8.50_Inches)
  6

 40
0.0
 41
0.0
 42
0.0
 43
0.0
 44
279.4
 45
215.9
 46
0.0
 47
0.0
 48
0.0
 49
0.0
140
0.0
141
0.0
142
1.0
143
1.0
 70
0
 72
0
 73
0
 74
0
  7

 75
0
147
1.0
148
0.0
149
0.0
100
AcDbLayout
  1
Layout1
 70
0
 71
1
 10
0.0
 20
0.0
 11
11.0
 21
8.5
 12
0.0
 22
0.0
 32
0.0
 14
0.0
 24
0.0
 34
0.0
 15
0.0
 25
0.0
 35
0.0
146
0.0
 13
0.0
 23
0.0
 33
0.0
 16
1.0
 26
0.0
 36
0.0
 17
0.0
 27
1.0
 37
0.0
 76
0
330
203
345
0
346
0
  0
ENDSEC
  0
EOF
