999
DXF file: 3-2946_front.dxf
999
Pro/ENGINEER 2019352 by Parametric Technology Corporation
  0
SECTION
  2
HEADER
  9
$ACADVER
  1
AC1032
  9
$DWGCODEPAGE
  3
ANSI_1252
  9
$EXTMAX
 10
11.0
 20
8.5
 30
0.0
  9
$EXTMIN
 10
0.0
 20
0.0
 30
0.0
  9
$LIMMIN
 10
0.0
 20
0.0
  9
$LIMMAX
 10
11.0
 20
8.5
  9
$VIEWCTR
 10
5.5
 20
4.25
  9
$VIEWSIZE
 40
8.5
  9
$CLAYER
  8
0
  9
$LTSCALE
 40
0.605
  9
$CELTYPE
  6
BYLAYER
  9
$DIMSCALE
 40
1.0
  9
$DIMASZ
 40
0.1
  9
$DIMEXO
 40
0.0625
  9
$DIMDLI
 40
0.418
  9
$DIMEXE
 40
0.125
  9
$DIMCEN
 40
0.099
  9
$DIMLFAC
 40
1.0
  9
$DIMBLK
  1
_FILLED
  9
$DIMALT
 70
1
  9
$DIMALTD
 70
2
  9
$DIMALTTD
 70
2
  9
$DIMALTF
 40
25.4
  9
$DIMTXT
 40
0.08
  9
$DIMTOL
 70
1
  9
$DIMLIM
 70
0
  9
$DIMTFAC
 40
1.0
  9
$DIMTP
 40
0.001
  9
$DIMTM
 40
0.001
  9
$DIMGAP
 40
0.09
  9
$DIMDSEP
 70
46
  9
$AUNITS
 70
0
  9
$PDMODE
 70
3
  9
$PDSIZE
 40
0.3125
  9
$HANDSEED
  5
620
  9
$TILEMODE
 70
1
  9
$MEASUREMENT
 70
0
  9
$INSUNITS
 70
1
  0
ENDSEC
  0
SECTION
  2
CLASSES
  0
CLASS
  1
ACDBDICTIONARYWDFLT
  2
AcDbDictionaryWithDefault
  3
AutoCAD 2000
 90
0
 91
1
280
0
281
0
  0
CLASS
  1
ACDBPLACEHOLDER
  2
AcDbPlaceHolder
  3
AutoCAD 2000
 90
0
 91
1
280
0
281
0
  0
CLASS
  1
LAYOUT
  2
AcDbLayout
  3
AutoCAD 2000
 90
0
 91
0
280
0
281
0
  0
ENDSEC
  0
SECTION
  2
TABLES
  0
TABLE
  2
VPORT
  5
8
100
AcDbSymbolTable
 70
2
  0
VPORT
  5
1F4
100
AcDbSymbolTableRecord
100
AcDbViewportTableRecord
  2
*ACTIVE
 70
0
 10
0.0
 20
0.0
 11
1.0
 21
1.0
 12
5.5
 22
4.25
 13
0.0
 23
0.0
 14
1.0
 24
1.0
 15
0.0
 25
0.0
 16
0.0
 26
0.0
 36
1.0
 17
0.0
 27
0.0
 37
0.0
 40
8.5
 41
1.2941176471
 42
50.0
 43
0.0
 44
0.0
 50
0.0
 51
0.0
 71
0
 72
100
 73
1
 74
1
 75
0
 76
0
 77
0
 78
0
  0
ENDTAB
  0
TABLE
  2
LTYPE
  5
5
100
AcDbSymbolTable
 70
6
  0
LTYPE
  5
14
100
AcDbSymbolTableRecord
100
AcDbLinetypeTableRecord
  2
BYBLOCK
 70
0
  3

 72
65
 73
0
 40
0.0
  0
LTYPE
  5
15
100
AcDbSymbolTableRecord
100
AcDbLinetypeTableRecord
  2
BYLAYER
 70
0
  3

 72
65
 73
0
 40
0.0
  0
LTYPE
  5
16
100
AcDbSymbolTableRecord
100
AcDbLinetypeTableRecord
  2
CONTINUOUS
 70
64
  3
Solid line
 72
65
 73
0
 40
0.0
  0
LTYPE
  5
1F5
100
AcDbSymbolTableRecord
100
AcDbLinetypeTableRecord
  2
CENTER
 70
64
  3
____ _ ____ _ ____ _ ____ _ ____ _ ____ _ ____
 72
65
 73
4
 40
0.6
 49
0.375
 74
0
 49
-0.075
 74
0
 49
0.075
 74
0
 49
-0.075
 74
0
  0
LTYPE
  5
1F6
100
AcDbSymbolTableRecord
100
AcDbLinetypeTableRecord
  2
HIDDEN
 70
64
  3
- - - - - - - - - - - - - - - - - - - -
 72
65
 73
2
 40
0.2
 49
0.1
 74
0
 49
-0.1
 74
0
  0
LTYPE
  5
1F7
100
AcDbSymbolTableRecord
100
AcDbLinetypeTableRecord
  2
PHANTOM
 70
64
  3
_____ _ _ _____ _ _ _____ _ _ _____
 72
65
 73
6
 40
0.8
 49
0.45
 74
0
 49
-0.05
 74
0
 49
0.1
 74
0
 49
-0.05
 74
0
 49
0.1
 74
0
 49
-0.05
 74
0
  0
LTYPE
  5
1F8
100
AcDbSymbolTableRecord
100
AcDbLinetypeTableRecord
  2
DOT
 70
64
  3
. . . . . . . . . . . . . . . . . . . .
 72
65
 73
2
 40
0.2
 49
0.1
 74
0
 49
-0.1
 74
0
  0
LTYPE
  5
1F9
100
AcDbSymbolTableRecord
100
AcDbLinetypeTableRecord
  2
DASHED
 70
64
  3
- - - - - - - - - - - - - - - - - - - -
 72
65
 73
2
 40
0.2
 49
0.1
 74
0
 49
-0.1
 74
0
  0
ENDTAB
  0
TABLE
  2
LAYER
  5
2
100
AcDbSymbolTable
 70
36
  0
LAYER
  5
10
100
AcDbSymbolTableRecord
100
AcDbLayerTableRecord
  2
0
 70
0
 62
7
  6
CONTINUOUS
370
-3
390
F
  0
LAYER
  5
1FA
100
AcDbSymbolTableRecord
100
AcDbLayerTableRecord
  2
DEFAULT_1
 70
0
 62
7
  6
CENTER
370
-3
390
F
  0
LAYER
  5
1FB
100
AcDbSymbolTableRecord
100
AcDbLayerTableRecord
  2
DEFAULT_2
 70
0
 62
8
  6
HIDDEN
370
-3
390
F
  0
LAYER
  5
1FC
100
AcDbSymbolTableRecord
100
AcDbLayerTableRecord
  2
DEFAULT_3
 70
0
 62
7
  6
PHANTOM
370
-3
390
F
  0
LAYER
  5
1FD
100
AcDbSymbolTableRecord
100
AcDbLayerTableRecord
  2
DEFAULT_COORDINATE_SYSTEM
 70
0
 62
7
  6
CONTINUOUS
370
-3
390
F
  0
LAYER
  5
1FE
100
AcDbSymbolTableRecord
100
AcDbLayerTableRecord
  2
DEFAULT_DATUM_AXES
 70
0
 62
7
  6
CONTINUOUS
370
-3
390
F
  0
LAYER
  5
1FF
100
AcDbSymbolTableRecord
100
AcDbLayerTableRecord
  2
DEFAULT_DATUM_PLANES
 70
0
 62
7
  6
CONTINUOUS
370
-3
390
F
  0
ENDTAB
  0
TABLE
  2
STYLE
  5
3
100
AcDbSymbolTable
 70
1
  0
STYLE
  5
11
100
AcDbSymbolTableRecord
100
AcDbTextStyleTableRecord
  2
STANDARD
 70
0
 40
0.0
 41
0.8
 50
0.0
 71
0
 42
0.2
  3
txt
  4

  0
STYLE
  5
200
100
AcDbSymbolTableRecord
100
AcDbTextStyleTableRecord
  2
TEXTSTYLE_1
 70
0
 40
0.0
 41
0.8
 50
0.0
 71
0
 42
0.2
  3
gdt
  4

  0
ENDTAB
  0
TABLE
  2
VIEW
  5
6
100
AcDbSymbolTable
 70
0
  0
ENDTAB
  0
TABLE
  2
UCS
  5
7
100
AcDbSymbolTable
 70
0
  0
ENDTAB
  0
TABLE
  2
APPID
  5
9
100
AcDbSymbolTable
 70
1
  0
APPID
  5
201
100
AcDbSymbolTableRecord
100
AcDbRegAppTableRecord
  2
ACAD
 70
0
  0
ENDTAB
  0
TABLE
  2
BLOCK_RECORD
  5
1
100
AcDbSymbolTable
 70
0
  0
BLOCK_RECORD
  5
202
100
AcDbSymbolTableRecord
100
AcDbBlockTableRecord
  2
*Model_Space
  0
BLOCK_RECORD
  5
203
100
AcDbSymbolTableRecord
100
AcDbBlockTableRecord
  2
*Paper_Space
  0
BLOCK_RECORD
  5
204
100
AcDbSymbolTableRecord
100
AcDbBlockTableRecord
  2
_FILLED
  0
ENDTAB
  0
TABLE
  2
DIMSTYLE
  5
A
100
AcDbSymbolTable
 70
1
100
AcDbDimStyleTable
 71
0
  0
DIMSTYLE
105
205
100
AcDbSymbolTableRecord
100
AcDbDimStyleTableRecord
  2
STANDARD
 70
0
  3

  4

 40
1.0
 41
0.1
 42
0.0625
 43
0.38
 44
0.125
 45
0.0
 46
0.0
 47
0.001
 48
0.001
140
0.08
141
0.09
142
0.0
143
25.4
144
1.0
145
0.0
146
1.0
147
0.09
 71
1.0
 72
0.0
 73
1
 74
1
 75
0
 76
0
 77
0
 78
4
 79
1
170
1
171
2
172
0
173
0
174
0
175
0
176
0
177
0
178
0
270
2
179
3
271
3
272
3
273
2
274
2
275
0
280
0
281
0
282
0
283
1
284
4
285
0
286
0
287
3
288
0
340
11
278
46
341
204
342
204
343
204
344
204
  0
ENDTAB
  0
ENDSEC
  0
SECTION
  2
BLOCKS
  0
BLOCK
  5
20
100
AcDbEntity
  8
0
100
AcDbBlockBegin
  2
*Model_Space
 70
0
 10
0.0
 20
0.0
 30
0.0
  3
*Model_Space
  1

  0
ENDBLK
  5
21
100
AcDbEntity
  8
0
100
AcDbBlockEnd
  0
BLOCK
  5
1C
100
AcDbEntity
  8
0
100
AcDbBlockBegin
  2
*Paper_Space
 70
0
 10
0.0
 20
0.0
 30
0.0
  3
*Paper_Space
  1

  0
ENDBLK
  5
1D
100
AcDbEntity
  8
0
100
AcDbBlockEnd
  0
BLOCK
  5
206
100
AcDbEntity
  8
0
100
AcDbBlockBegin
  2
_FILLED
 70
64
 10
0.0
 20
0.0
  3
_FILLED
  1

  0
SOLID
  5
207
100
AcDbEntity
  8
0
  6
BYBLOCK
 62
0
100
AcDbTrace
 10
0.0
 20
0.0
 11
-1.0
 21
0.2
 12
-1.0
 22
-0.2
 13
-1.0
 23
-0.2
  0
ENDBLK
  5
208
100
AcDbEntity
  8
0
  6
BYBLOCK
 62
0
100
AcDbBlockEnd
  0
ENDSEC
  0
SECTION
  2
ENTITIES
  0
MTEXT
  5
209
100
AcDbEntity
  8
0
100
AcDbMText
 62
2
  6
CONTINUOUS
  7
STANDARD
 71
3
 72
1
 10
5.7503724906
 20
1.2706383312
 30
0.0
 11
1.0
 21
0.0
 31
0.0
 73
2
 44
0.9
  1
SCALE 0.500
 40
0.08
 41
0.704
  0
LINE
  5
20A
100
AcDbEntity
  8
0
100
AcDbLine
 62
7
  6
CONTINUOUS
 10
0.0
 20
0.0
 11
0.0
 21
8.5
  0
LINE
  5
20B
100
AcDbEntity
  8
0
100
AcDbLine
 62
7
  6
CONTINUOUS
 10
0.0
 20
0.0
 11
11.0
 21
0.0
  0
LINE
  5
20C
100
AcDbEntity
  8
0
100
AcDbLine
 62
7
  6
CONTINUOUS
 10
0.0
 20
8.5
 11
11.0
 21
8.5
  0
LINE
  5
20D
100
AcDbEntity
  8
0
100
AcDbLine
 62
7
  6
CONTINUOUS
 10
11.0
 20
0.0
 11
11.0
 21
8.5
  0
LINE
  5
20E
100
AcDbEntity
  8
0
100
AcDbLine
 62
7
  6
CONTINUOUS
 10
1.5519345985
 20
3.7774259724
 11
1.5519345985
 21
3.4549259724
  0
LINE
  5
20F
100
AcDbEntity
  8
0
100
AcDbLine
 62
7
  6
CONTINUOUS
 10
1.6119345985
 20
3.7774259724
 11
1.6119345985
 21
3.4549259724
  0
LINE
  5
210
100
AcDbEntity
  8
0
100
AcDbLine
 62
7
  6
CONTINUOUS
 10
3.8044345985
 20
2.3156759724
 11
3.8294345985
 21
2.2906759724
  0
LINE
  5
211
100
AcDbEntity
  8
0
100
AcDbLine
 62
7
  6
CONTINUOUS
 10
2.8794345985
 20
2.2906759724
 11
2.8794345985
 21
2.2506759724
  0
LINE
  5
212
100
AcDbEntity
  8
0
100
AcDbLine
 62
7
  6
CONTINUOUS
 10
2.8795198693
 20
2.3656759724
 11
2.8795198693
 21
2.4056759724
  0
LINE
  5
213
100
AcDbEntity
  8
0
100
AcDbLine
 62
7
  6
CONTINUOUS
 10
2.8796996998
 20
2.3656759724
 11
2.8796996998
 21
2.4056759724
  0
LINE
  5
214
100
AcDbEntity
  8
0
100
AcDbLine
 62
7
  6
CONTINUOUS
 10
2.880641747
 20
2.3656759724
 11
2.880641747
 21
2.4056759724
  0
LINE
  5
215
100
AcDbEntity
  8
0
100
AcDbLine
 62
7
  6
CONTINUOUS
 10
2.8811807457
 20
2.3656759724
 11
2.8811807457
 21
2.4056759724
  0
LINE
  5
216
100
AcDbEntity
  8
0
100
AcDbLine
 62
7
  6
CONTINUOUS
 10
2.8830622581
 20
2.3656759724
 11
2.8830622581
 21
2.4056759724
  0
LINE
  5
217
100
AcDbEntity
  8
0
100
AcDbLine
 62
7
  6
CONTINUOUS
 10
2.8839589475
 20
2.3656759724
 11
2.8839589475
 21
2.4056759724
  0
LINE
  5
218
100
AcDbEntity
  8
0
100
AcDbLine
 62
7
  6
CONTINUOUS
 10
2.8867747679
 20
2.3656759724
 11
2.8867747679
 21
2.4056759724
  0
LINE
  5
219
100
AcDbEntity
  8
0
100
AcDbLine
 62
7
  6
CONTINUOUS
 10
2.8880266904
 20
2.3656759724
 11
2.8880266904
 21
2.4056759724
  0
LINE
  5
21A
100
AcDbEntity
  8
0
100
AcDbLine
 62
7
  6
CONTINUOUS
 10
2.8917691008
 20
2.3656759724
 11
2.8917691008
 21
2.4056759724
  0
LINE
  5
21B
100
AcDbEntity
  8
0
100
AcDbLine
 62
7
  6
CONTINUOUS
 10
2.8933728249
 20
2.3656759724
 11
2.8933728249
 21
2.4056759724
  0
LINE
  5
21C
100
AcDbEntity
  8
0
100
AcDbLine
 62
7
  6
CONTINUOUS
 10
2.8980315677
 20
2.3656759724
 11
2.8980315677
 21
2.4056759724
  0
LINE
  5
21D
100
AcDbEntity
  8
0
100
AcDbLine
 62
7
  6
CONTINUOUS
 10
2.8999826977
 20
2.3656759724
 11
2.8999826977
 21
2.4056759724
  0
LINE
  5
21E
100
AcDbEntity
  8
0
100
AcDbLine
 62
7
  6
CONTINUOUS
 10
2.9019345985
 20
3.4661759724
 11
2.9019345985
 21
3.7661759724
  0
LINE
  5
21F
100
AcDbEntity
  8
0
100
AcDbLine
 62
7
  6
CONTINUOUS
 10
2.9044345985
 20
2.3656759724
 11
2.9044345985
 21
2.3156759724
  0
LINE
  5
220
100
AcDbEntity
  8
0
100
AcDbLine
 62
7
  6
CONTINUOUS
 10
2.9055450036
 20
2.3656759724
 11
2.9055450036
 21
2.4056759724
  0
LINE
  5
221
100
AcDbEntity
  8
0
100
AcDbLine
 62
7
  6
CONTINUOUS
 10
2.9078381915
 20
2.3656759724
 11
2.9078381915
 21
2.4056759724
  0
LINE
  5
222
100
AcDbEntity
  8
0
100
AcDbLine
 62
7
  6
CONTINUOUS
 10
2.9142888146
 20
2.3656759724
 11
2.9142888146
 21
2.4056759724
  0
LINE
  5
223
100
AcDbEntity
  8
0
100
AcDbLine
 62
7
  6
CONTINUOUS
 10
2.9169177751
 20
2.3656759724
 11
2.9169177751
 21
2.4056759724
  0
LINE
  5
224
100
AcDbEntity
  8
0
100
AcDbLine
 62
7
  6
CONTINUOUS
 10
2.9242390347
 20
2.3656759724
 11
2.9242390347
 21
2.4056759724
  0
LINE
  5
225
100
AcDbEntity
  8
0
100
AcDbLine
 62
7
  6
CONTINUOUS
 10
2.9271965619
 20
2.3656759724
 11
2.9271965619
 21
2.4056759724
  0
LINE
  5
226
100
AcDbEntity
  8
0
100
AcDbLine
 62
7
  6
CONTINUOUS
 10
2.9353683909
 20
2.3656759724
 11
2.9353683909
 21
2.4056759724
  0
LINE
  5
227
100
AcDbEntity
  8
0
100
AcDbLine
 62
7
  6
CONTINUOUS
 10
2.9386463784
 20
2.3656759724
 11
2.9386463784
 21
2.4056759724
  0
LINE
  5
228
100
AcDbEntity
  8
0
100
AcDbLine
 62
7
  6
CONTINUOUS
 10
2.9476463784
 20
2.3656759724
 11
2.9476463784
 21
2.4056759724
  0
LINE
  5
229
100
AcDbEntity
  8
0
100
AcDbLine
 62
7
  6
CONTINUOUS
 10
2.9512358415
 20
2.3656759724
 11
2.9512358415
 21
2.4056759724
  0
LINE
  5
22A
100
AcDbEntity
  8
0
100
AcDbLine
 62
7
  6
CONTINUOUS
 10
2.9610393442
 20
2.3656759724
 11
2.9610393442
 21
2.4056759724
  0
LINE
  5
22B
100
AcDbEntity
  8
0
100
AcDbLine
 62
7
  6
CONTINUOUS
 10
2.9644345985
 20
3.7661759724
 11
2.9644345985
 21
3.4661759724
  0
LINE
  5
22C
100
AcDbEntity
  8
0
100
AcDbLine
 62
7
  6
CONTINUOUS
 10
2.9649304444
 20
2.3656759724
 11
2.9649304444
 21
2.4056759724
  0
LINE
  5
22D
100
AcDbEntity
  8
0
100
AcDbLine
 62
7
  6
CONTINUOUS
 10
2.975510579
 20
2.3656759724
 11
2.975510579
 21
2.4056759724
  0
LINE
  5
22E
100
AcDbEntity
  8
0
100
AcDbLine
 62
7
  6
CONTINUOUS
 10
2.9796926511
 20
2.3656759724
 11
2.9796926511
 21
2.4056759724
  0
LINE
  5
22F
100
AcDbEntity
  8
0
100
AcDbLine
 62
7
  6
CONTINUOUS
 10
7.8294345985
 20
2.2506759724
 11
6.8794345985
 21
2.2506759724
  0
LINE
  5
230
100
AcDbEntity
  8
0
100
AcDbLine
 62
7
  6
CONTINUOUS
 10
5.9169345985
 20
2.2506759724
 11
4.7919345985
 21
2.2506759724
  0
LINE
  5
231
100
AcDbEntity
  8
0
100
AcDbLine
 62
7
  6
CONTINUOUS
 10
2.8794345985
 20
2.2506759724
 11
3.8294345985
 21
2.2506759724
  0
LINE
  5
232
100
AcDbEntity
  8
0
100
AcDbLine
 62
7
  6
CONTINUOUS
 10
7.8294345985
 20
2.2906759724
 11
6.8794345985
 21
2.2906759724
  0
LINE
  5
233
100
AcDbEntity
  8
0
100
AcDbLine
 62
7
  6
CONTINUOUS
 10
2.8794345985
 20
2.2906759724
 11
3.8294345985
 21
2.2906759724
  0
LINE
  5
234
100
AcDbEntity
  8
0
100
AcDbLine
 62
7
  6
CONTINUOUS
 10
5.9169345985
 20
2.3006759724
 11
4.7919345985
 21
2.3006759724
  0
LINE
  5
235
100
AcDbEntity
  8
0
100
AcDbLine
 62
7
  6
CONTINUOUS
 10
2.9907302885
 20
2.4056759724
 11
2.9907302885
 21
2.3656759724
  0
LINE
  5
236
100
AcDbEntity
  8
0
100
AcDbLine
 62
7
  6
CONTINUOUS
 10
2.9910204182
 20
2.3656759724
 11
2.9910204182
 21
2.4056759724
  0
LINE
  5
237
100
AcDbEntity
  8
0
100
AcDbLine
 62
7
  6
CONTINUOUS
 10
2.9954819995
 20
2.3656759724
 11
2.9954819995
 21
2.4056759724
  0
LINE
  5
238
100
AcDbEntity
  8
0
100
AcDbLine
 62
7
  6
CONTINUOUS
 10
2.9969457994
 20
3.0556759724
 11
2.9969457994
 21
3.1056759724
  0
LINE
  5
239
100
AcDbEntity
  8
0
100
AcDbLine
 62
7
  6
CONTINUOUS
 10
2.997256491
 20
3.0556759724
 11
2.997256491
 21
3.1056759724
  0
LINE
  5
23A
100
AcDbEntity
  8
0
100
AcDbLine
 62
7
  6
CONTINUOUS
 10
2.9976023574
 20
3.0556759724
 11
2.9976023574
 21
3.1056759724
  0
LINE
  5
23B
100
AcDbEntity
  8
0
100
AcDbLine
 62
7
  6
CONTINUOUS
 10
2.9991539642
 20
3.0556759724
 11
2.9991539642
 21
3.1056759724
  0
LINE
  5
23C
100
AcDbEntity
  8
0
100
AcDbLine
 62
7
  6
CONTINUOUS
 10
2.9999593835
 20
3.0556759724
 11
2.9999593835
 21
3.1056759724
  0
LINE
  5
23D
100
AcDbEntity
  8
0
100
AcDbLine
 62
7
  6
CONTINUOUS
 10
3.0019345985
 20
3.7331759724
 11
3.0019345985
 21
3.4991759724
  0
LINE
  5
23E
100
AcDbEntity
  8
0
100
AcDbLine
 62
7
  6
CONTINUOUS
 10
3.0027445115
 20
3.0556759724
 11
3.0027445115
 21
3.1056759724
  0
LINE
  5
23F
100
AcDbEntity
  8
0
100
AcDbLine
 62
7
  6
CONTINUOUS
 10
3.0040056454
 20
3.0556759724
 11
3.0040056454
 21
3.1056759724
  0
LINE
  5
240
100
AcDbEntity
  8
0
100
AcDbLine
 62
7
  6
CONTINUOUS
 10
3.0066428202
 20
2.4056759724
 11
3.0066428202
 21
2.3656759724
  0
LINE
  5
241
100
AcDbEntity
  8
0
100
AcDbLine
 62
7
  6
CONTINUOUS
 10
3.0075263504
 20
2.3656759724
 11
3.0075263504
 21
2.4056759724
  0
LINE
  5
242
100
AcDbEntity
  8
0
100
AcDbLine
 62
7
  6
CONTINUOUS
 10
3.0080110222
 20
3.0556759724
 11
3.0080110222
 21
3.1056759724
  0
LINE
  5
243
100
AcDbEntity
  8
0
100
AcDbLine
 62
7
  6
CONTINUOUS
 10
3.0097218608
 20
3.0556759724
 11
3.0097218608
 21
3.1056759724
  0
LINE
  5
244
100
AcDbEntity
  8
0
100
AcDbLine
 62
7
  6
CONTINUOUS
 10
3.012255212
 20
2.3656759724
 11
3.012255212
 21
2.4056759724
  0
LINE
  5
245
100
AcDbEntity
  8
0
100
AcDbLine
 62
7
  6
CONTINUOUS
 10
3.014928399
 20
3.0556759724
 11
3.014928399
 21
3.1056759724
  0
LINE
  5
246
100
AcDbEntity
  8
0
100
AcDbLine
 62
7
  6
CONTINUOUS
 10
3.0170807895
 20
3.0556759724
 11
3.0170807895
 21
3.1056759724
  0
LINE
  5
247
100
AcDbEntity
  8
0
100
AcDbLine
 62
7
  6
CONTINUOUS
 10
3.0234636774
 20
3.0556759724
 11
3.0234636774
 21
3.1056759724
  0
LINE
  5
248
100
AcDbEntity
  8
0
100
AcDbLine
 62
7
  6
CONTINUOUS
 10
3.0235086249
 20
2.4056759724
 11
3.0235086249
 21
2.3656759724
  0
LINE
  5
249
100
AcDbEntity
  8
0
100
AcDbLine
 62
7
  6
CONTINUOUS
 10
3.024983134
 20
2.3656759724
 11
3.024983134
 21
2.4056759724
  0
LINE
  5
24A
100
AcDbEntity
  8
0
100
AcDbLine
 62
7
  6
CONTINUOUS
 10
3.0260473626
 20
3.0556759724
 11
3.0260473626
 21
3.1056759724
  0
LINE
  5
24B
100
AcDbEntity
  8
0
100
AcDbLine
 62
7
  6
CONTINUOUS
 10
3.0299663144
 20
2.3656759724
 11
3.0299663144
 21
2.4056759724
  0
LINE
  5
24C
100
AcDbEntity
  8
0
100
AcDbLine
 62
7
  6
CONTINUOUS
 10
3.033576183
 20
3.0556759724
 11
3.033576183
 21
3.1056759724
  0
LINE
  5
24D
100
AcDbEntity
  8
0
100
AcDbLine
 62
7
  6
CONTINUOUS
 10
3.0365788505
 20
3.0556759724
 11
3.0365788505
 21
3.1056759724
  0
LINE
  5
24E
100
AcDbEntity
  8
0
100
AcDbLine
 62
7
  6
CONTINUOUS
 10
3.0412814747
 20
2.4056759724
 11
3.0412814747
 21
2.3656759724
  0
LINE
  5
24F
100
AcDbEntity
  8
0
100
AcDbLine
 62
7
  6
CONTINUOUS
 10
3.0419345985
 20
3.0556759724
 11
3.0419345985
 21
2.4456759724
  0
LINE
  5
250
100
AcDbEntity
  8
0
100
AcDbLine
 62
7
  6
CONTINUOUS
 10
3.0433429212
 20
2.3656759724
 11
3.0433429212
 21
2.4056759724
  0
LINE
  5
251
100
AcDbEntity
  8
0
100
AcDbLine
 62
7
  6
CONTINUOUS
 10
3.0452177251
 20
3.0556759724
 11
3.0452177251
 21
3.1056759724
  0
LINE
  5
252
100
AcDbEntity
  8
0
100
AcDbLine
 62
7
  6
CONTINUOUS
 10
3.0485667618
 20
2.3656759724
 11
3.0485667618
 21
2.4056759724
  0
LINE
  5
253
100
AcDbEntity
  8
0
100
AcDbLine
 62
7
  6
CONTINUOUS
 10
3.0486250658
 20
3.0556759724
 11
3.0486250658
 21
3.1056759724
  0
LINE
  5
254
100
AcDbEntity
  8
0
100
AcDbLine
 62
7
  6
CONTINUOUS
 10
3.0544345985
 20
2.4456759724
 11
3.0544345985
 21
2.4406759724
  0
LINE
  5
255
100
AcDbEntity
  8
0
100
AcDbLine
 62
7
  6
CONTINUOUS
 10
3.0583328264
 20
3.0556759724
 11
3.0583328264
 21
3.1056759724
  0
LINE
  5
256
100
AcDbEntity
  8
0
100
AcDbLine
 62
7
  6
CONTINUOUS
 10
3.0599126555
 20
2.4056759724
 11
3.0599126555
 21
2.3656759724
  0
LINE
  5
257
100
AcDbEntity
  8
0
100
AcDbLine
 62
7
  6
CONTINUOUS
 10
3.0621286028
 20
3.0556759724
 11
3.0621286028
 21
3.1056759724
  0
LINE
  5
258
100
AcDbEntity
  8
0
100
AcDbLine
 62
7
  6
CONTINUOUS
 10
3.0625553891
 20
2.3656759724
 11
3.0625553891
 21
2.4056759724
  0
LINE
  5
259
100
AcDbEntity
  8
0
100
AcDbLine
 62
7
  6
CONTINUOUS
 10
3.0680055716
 20
2.3656759724
 11
3.0680055716
 21
2.4056759724
  0
LINE
  5
25A
100
AcDbEntity
  8
0
100
AcDbLine
 62
7
  6
CONTINUOUS
 10
3.0728589875
 20
3.0556759724
 11
3.0728589875
 21
3.1056759724
  0
LINE
  5
25B
100
AcDbEntity
  8
0
100
AcDbLine
 62
7
  6
CONTINUOUS
 10
3.0770251109
 20
3.0556759724
 11
3.0770251109
 21
3.1056759724
  0
LINE
  5
25C
100
AcDbEntity
  8
0
100
AcDbLine
 62
7
  6
CONTINUOUS
 10
3.0793511004
 20
2.4056759724
 11
3.0793511004
 21
2.3656759724
  0
LINE
  5
25D
100
AcDbEntity
  8
0
100
AcDbLine
 62
7
  6
CONTINUOUS
 10
3.0825678775
 20
2.3656759724
 11
3.0825678775
 21
2.4056759724
  0
LINE
  5
25E
100
AcDbEntity
  8
0
100
AcDbLine
 62
7
  6
CONTINUOUS
 10
3.0881088699
 20
3.1056759724
 11
3.0881088699
 21
3.0556759724
  0
LINE
  5
25F
100
AcDbEntity
  8
0
100
AcDbLine
 62
7
  6
CONTINUOUS
 10
3.0882294636
 20
2.3656759724
 11
3.0882294636
 21
2.4056759724
  0
LINE
  5
260
100
AcDbEntity
  8
0
100
AcDbLine
 62
7
  6
CONTINUOUS
 10
3.0887269846
 20
3.0556759724
 11
3.0887269846
 21
3.1056759724
  0
LINE
  5
261
100
AcDbEntity
  8
0
100
AcDbLine
 62
7
  6
CONTINUOUS
 10
3.0932436016
 20
3.0556759724
 11
3.0932436016
 21
3.1056759724
  0
LINE
  5
262
100
AcDbEntity
  8
0
100
AcDbLine
 62
7
  6
CONTINUOUS
 10
3.0995435301
 20
2.4056759724
 11
3.0995435301
 21
2.3656759724
  0
LINE
  5
263
100
AcDbEntity
  8
0
100
AcDbLine
 62
7
  6
CONTINUOUS
 10
3.1033255338
 20
2.3656759724
 11
3.1033255338
 21
2.4056759724
  0
LINE
  5
264
100
AcDbEntity
  8
0
100
AcDbLine
 62
7
  6
CONTINUOUS
 10
3.1044638762
 20
3.1056759724
 11
3.1044638762
 21
3.0556759724
  0
LINE
  5
265
100
AcDbEntity
  8
0
100
AcDbLine
 62
7
  6
CONTINUOUS
 10
3.1058611995
 20
3.0556759724
 11
3.1058611995
 21
3.1056759724
  0
LINE
  5
266
100
AcDbEntity
  8
0
100
AcDbLine
 62
7
  6
CONTINUOUS
 10
3.1091830053
 20
2.3656759724
 11
3.1091830053
 21
2.4056759724
  0
LINE
  5
267
100
AcDbEntity
  8
0
100
AcDbLine
 62
7
  6
CONTINUOUS
 10
3.1107067863
 20
3.0556759724
 11
3.1107067863
 21
3.1056759724
  0
LINE
  5
268
100
AcDbEntity
  8
0
100
AcDbLine
 62
7
  6
CONTINUOUS
 10
3.1204345985
 20
2.4056759724
 11
3.1204345985
 21
2.3656759724
  0
LINE
  5
269
100
AcDbEntity
  8
0
100
AcDbLine
 62
7
  6
CONTINUOUS
 10
3.1220101068
 20
3.1056759724
 11
3.1220101068
 21
3.0556759724
  0
LINE
  5
26A
100
AcDbEntity
  8
0
100
AcDbLine
 62
7
  6
CONTINUOUS
 10
3.1241799798
 20
3.0556759724
 11
3.1241799798
 21
3.1056759724
  0
LINE
  5
26B
100
AcDbEntity
  8
0
100
AcDbLine
 62
7
  6
CONTINUOUS
 10
3.1247714625
 20
2.3656759724
 11
3.1247714625
 21
2.4056759724
  0
LINE
  5
26C
100
AcDbEntity
  8
0
100
AcDbLine
 62
7
  6
CONTINUOUS
 10
3.1293314451
 20
3.0556759724
 11
3.1293314451
 21
3.1056759724
  0
LINE
  5
26D
100
AcDbEntity
  8
0
100
AcDbLine
 62
7
  6
CONTINUOUS
 10
3.1308087645
 20
2.3656759724
 11
3.1308087645
 21
2.4056759724
  0
LINE
  5
26E
100
AcDbEntity
  8
0
100
AcDbLine
 62
7
  6
CONTINUOUS
 10
3.140663946
 20
3.1056759724
 11
3.140663946
 21
3.0556759724
  0
LINE
  5
26F
100
AcDbEntity
  8
0
100
AcDbLine
 62
7
  6
CONTINUOUS
 10
3.1419670446
 20
2.4056759724
 11
3.1419670446
 21
2.3656759724
  0
LINE
  5
270
100
AcDbEntity
  8
0
100
AcDbLine
 62
7
  6
CONTINUOUS
 10
3.1435960282
 20
3.0556759724
 11
3.1435960282
 21
3.1056759724
  0
LINE
  5
271
100
AcDbEntity
  8
0
100
AcDbLine
 62
7
  6
CONTINUOUS
 10
3.146846882
 20
2.3656759724
 11
3.146846882
 21
2.4056759724
  0
LINE
  5
272
100
AcDbEntity
  8
0
100
AcDbLine
 62
7
  6
CONTINUOUS
 10
3.1490288229
 20
3.0556759724
 11
3.1490288229
 21
3.1056759724
  0
LINE
  5
273
100
AcDbEntity
  8
0
100
AcDbLine
 62
7
  6
CONTINUOUS
 10
3.1530474667
 20
2.3656759724
 11
3.1530474667
 21
2.4056759724
  0
LINE
  5
274
100
AcDbEntity
  8
0
100
AcDbLine
 62
7
  6
CONTINUOUS
 10
3.1544345985
 20
3.2281759724
 11
3.1544345985
 21
3.1831759724
  0
LINE
  5
275
100
AcDbEntity
  8
0
100
AcDbLine
 62
7
  6
CONTINUOUS
 10
3.1603364996
 20
3.1056759724
 11
3.1603364996
 21
3.0556759724
  0
LINE
  5
276
100
AcDbEntity
  8
0
100
AcDbLine
 62
7
  6
CONTINUOUS
 10
3.1640168185
 20
3.0556759724
 11
3.1640168185
 21
3.1056759724
  0
LINE
  5
277
100
AcDbEntity
  8
0
100
AcDbLine
 62
7
  6
CONTINUOUS
 10
3.1640818495
 20
2.4056759724
 11
3.1640818495
 21
2.3656759724
  0
LINE
  5
278
100
AcDbEntity
  8
0
100
AcDbLine
 62
7
  6
CONTINUOUS
 10
3.1694912849
 20
2.3656759724
 11
3.1694912849
 21
2.4056759724
  0
LINE
  5
279
100
AcDbEntity
  8
0
100
AcDbLine
 62
7
  6
CONTINUOUS
 10
3.1697050527
 20
3.0556759724
 11
3.1697050527
 21
3.1056759724
  0
LINE
  5
27A
100
AcDbEntity
  8
0
100
AcDbLine
 62
7
  6
CONTINUOUS
 10
3.1758381569
 20
2.3656759724
 11
3.1758381569
 21
2.4056759724
  0
LINE
  5
27B
100
AcDbEntity
  8
0
100
AcDbLine
 62
7
  6
CONTINUOUS
 10
3.1794345985
 20
3.5186759724
 11
3.1794345985
 21
3.7136759724
  0
LINE
  5
27C
100
AcDbEntity
  8
0
100
AcDbLine
 62
7
  6
CONTINUOUS
 10
3.1809340191
 20
3.1056759724
 11
3.1809340191
 21
3.0556759724
  0
LINE
  5
27D
100
AcDbEntity
  8
0
100
AcDbLine
 62
7
  6
CONTINUOUS
 10
3.1853450362
 20
3.0556759724
 11
3.1853450362
 21
3.1056759724
  0
LINE
  5
27E
100
AcDbEntity
  8
0
100
AcDbLine
 62
7
  6
CONTINUOUS
 10
3.1867183981
 20
2.4056759724
 11
3.1867183981
 21
2.3656759724
  0
LINE
  5
27F
100
AcDbEntity
  8
0
100
AcDbLine
 62
7
  6
CONTINUOUS
 10
3.191261603
 20
3.0556759724
 11
3.191261603
 21
3.1056759724
  0
LINE
  5
280
100
AcDbEntity
  8
0
100
AcDbLine
 62
7
  6
CONTINUOUS
 10
3.1926426046
 20
2.3656759724
 11
3.1926426046
 21
2.4056759724
  0
LINE
  5
281
100
AcDbEntity
  8
0
100
AcDbLine
 62
7
  6
CONTINUOUS
 10
3.1991183676
 20
2.3656759724
 11
3.1991183676
 21
2.4056759724
  0
LINE
  5
282
100
AcDbEntity
  8
0
100
AcDbLine
 62
7
  6
CONTINUOUS
 10
3.2023583479
 20
3.1056759724
 11
3.2023583479
 21
3.0556759724
  0
LINE
  5
283
100
AcDbEntity
  8
0
100
AcDbLine
 62
7
  6
CONTINUOUS
 10
3.2056845985
 20
3.2431759724
 11
3.2056845985
 21
3.3489897027
  0
LINE
  5
284
100
AcDbEntity
  8
0
100
AcDbLine
 62
7
  6
CONTINUOUS
 10
3.2074790426
 20
3.0556759724
 11
3.2074790426
 21
3.1056759724
  0
LINE
  5
285
100
AcDbEntity
  8
0
100
AcDbLine
 62
7
  6
CONTINUOUS
 10
3.2098146451
 20
2.4056759724
 11
3.2098146451
 21
2.3656759724
  0
LINE
  5
286
100
AcDbEntity
  8
0
100
AcDbLine
 62
7
  6
CONTINUOUS
 10
3.2135957469
 20
3.0556759724
 11
3.2135957469
 21
3.1056759724
  0
LINE
  5
287
100
AcDbEntity
  8
0
100
AcDbLine
 62
7
  6
CONTINUOUS
 10
3.2162373849
 20
2.3656759724
 11
3.2162373849
 21
2.4056759724
  0
LINE
  5
288
100
AcDbEntity
  8
0
100
AcDbLine
 62
7
  6
CONTINUOUS
 10
3.2228242893
 20
2.3656759724
 11
3.2228242893
 21
2.4056759724
  0
LINE
  5
289
100
AcDbEntity
  8
0
100
AcDbLine
 62
7
  6
CONTINUOUS
 10
3.2245073893
 20
3.1056759724
 11
3.2245073893
 21
3.0556759724
  0
LINE
  5
28A
100
AcDbEntity
  8
0
100
AcDbLine
 62
7
  6
CONTINUOUS
 10
3.2303133592
 20
3.0556759724
 11
3.2303133592
 21
3.1056759724
  0
LINE
  5
28B
100
AcDbEntity
  8
0
100
AcDbLine
 62
7
  6
CONTINUOUS
 10
3.2333072854
 20
2.4056759724
 11
3.2333072854
 21
2.3656759724
  0
LINE
  5
28C
100
AcDbEntity
  8
0
100
AcDbLine
 62
7
  6
CONTINUOUS
 10
3.2366010521
 20
3.0556759724
 11
3.2366010521
 21
3.1056759724
  0
LINE
  5
28D
100
AcDbEntity
  8
0
100
AcDbLine
 62
7
  6
CONTINUOUS
 10
3.2402109542
 20
2.3656759724
 11
3.2402109542
 21
2.4056759724
  0
LINE
  5
28E
100
AcDbEntity
  8
0
100
AcDbLine
 62
7
  6
CONTINUOUS
 10
3.2468909457
 20
2.3656759724
 11
3.2468909457
 21
2.4056759724
  0
LINE
  5
28F
100
AcDbEntity
  8
0
100
AcDbLine
 62
7
  6
CONTINUOUS
 10
3.247275593
 20
3.1056759724
 11
3.247275593
 21
3.0556759724
  0
LINE
  5
290
100
AcDbEntity
  8
0
100
AcDbLine
 62
7
  6
CONTINUOUS
 10
3.25373917
 20
3.0556759724
 11
3.25373917
 21
3.1056759724
  0
LINE
  5
291
100
AcDbEntity
  8
0
100
AcDbLine
 62
7
  6
CONTINUOUS
 10
3.2569345985
 20
3.4286759724
 11
3.2569345985
 21
3.4411759724
  0
LINE
  5
292
100
AcDbEntity
  8
0
100
AcDbLine
 62
7
  6
CONTINUOUS
 10
3.2571319272
 20
2.4056759724
 11
3.2571319272
 21
2.3656759724
  0
LINE
  5
293
100
AcDbEntity
  8
0
100
AcDbLine
 62
7
  6
CONTINUOUS
 10
3.2601678877
 20
3.0556759724
 11
3.2601678877
 21
3.1056759724
  0
LINE
  5
294
100
AcDbEntity
  8
0
100
AcDbLine
 62
7
  6
CONTINUOUS
 10
3.2644976026
 20
2.3656759724
 11
3.2644976026
 21
2.4056759724
  0
LINE
  5
295
100
AcDbEntity
  8
0
100
AcDbLine
 62
7
  6
CONTINUOUS
 10
3.2705544582
 20
3.1056759724
 11
3.2705544582
 21
3.0556759724
  0
LINE
  5
296
100
AcDbEntity
  8
0
100
AcDbLine
 62
7
  6
CONTINUOUS
 10
3.2712523718
 20
2.3656759724
 11
3.2712523718
 21
2.4056759724
  0
LINE
  5
297
100
AcDbEntity
  8
0
100
AcDbLine
 62
7
  6
CONTINUOUS
 10
3.2776448405
 20
3.0556759724
 11
3.2776448405
 21
3.1056759724
  0
LINE
  5
298
100
AcDbEntity
  8
0
100
AcDbLine
 62
7
  6
CONTINUOUS
 10
3.2812232689
 20
2.4056759724
 11
3.2812232689
 21
2.3656759724
  0
LINE
  5
299
100
AcDbEntity
  8
0
100
AcDbLine
 62
7
  6
CONTINUOUS
 10
3.2841839472
 20
3.0556759724
 11
3.2841839472
 21
3.1056759724
  0
LINE
  5
29A
100
AcDbEntity
  8
0
100
AcDbLine
 62
7
  6
CONTINUOUS
 10
3.289030762
 20
2.3656759724
 11
3.289030762
 21
2.4056759724
  0
LINE
  5
29B
100
AcDbEntity
  8
0
100
AcDbLine
 62
7
  6
CONTINUOUS
 10
7.8044345985
 20
2.3156759724
 11
6.9044345985
 21
2.3156759724
  0
LINE
  5
29C
100
AcDbEntity
  8
0
100
AcDbLine
 62
7
  6
CONTINUOUS
 10
2.9044345985
 20
2.3156759724
 11
3.8044345985
 21
2.3156759724
  0
LINE
  5
29D
100
AcDbEntity
  8
0
100
AcDbLine
 62
7
  6
CONTINUOUS
 10
5.8919345985
 20
2.3256759724
 11
4.8169345985
 21
2.3256759724
  0
LINE
  5
29E
100
AcDbEntity
  8
0
100
AcDbLine
 62
7
  6
CONTINUOUS
 10
7.8293493277
 20
2.3656759724
 11
6.8795198693
 21
2.3656759724
  0
LINE
  5
29F
100
AcDbEntity
  8
0
100
AcDbLine
 62
7
  6
CONTINUOUS
 10
3.8293493277
 20
2.3656759724
 11
2.8795198693
 21
2.3656759724
  0
LINE
  5
2A0
100
AcDbEntity
  8
0
100
AcDbLine
 62
7
  6
CONTINUOUS
 10
2.8795198693
 20
2.4056759724
 11
3.8293493277
 21
2.4056759724
  0
LINE
  5
2A1
100
AcDbEntity
  8
0
100
AcDbLine
 62
7
  6
CONTINUOUS
 10
6.8795198693
 20
2.4056759724
 11
7.8293493277
 21
2.4056759724
  0
LINE
  5
2A2
100
AcDbEntity
  8
0
100
AcDbLine
 62
7
  6
CONTINUOUS
 10
7.7372967264
 20
2.4301759724
 11
6.9715724705
 21
2.4301759724
  0
LINE
  5
2A3
100
AcDbEntity
  8
0
100
AcDbLine
 62
7
  6
CONTINUOUS
 10
3.7372967264
 20
2.4301759724
 11
2.9715724705
 21
2.4301759724
  0
LINE
  5
2A4
100
AcDbEntity
  8
0
100
AcDbLine
 62
7
  6
CONTINUOUS
 10
5.9168625939
 20
2.4381759724
 11
4.7920066031
 21
2.4381759724
  0
LINE
  5
2A5
100
AcDbEntity
  8
0
100
AcDbLine
 62
7
  6
CONTINUOUS
 10
7.7229876384
 20
2.4406759724
 11
6.9858815586
 21
2.4406759724
  0
LINE
  5
2A6
100
AcDbEntity
  8
0
100
AcDbLine
 62
7
  6
CONTINUOUS
 10
3.7229876384
 20
2.4406759724
 11
2.9858815586
 21
2.4406759724
  0
LINE
  5
2A7
100
AcDbEntity
  8
0
100
AcDbLine
 62
7
  6
CONTINUOUS
 10
3.0419345985
 20
2.4456759724
 11
3.6669345985
 21
2.4456759724
  0
LINE
  5
2A8
100
AcDbEntity
  8
0
100
AcDbLine
 62
7
  6
CONTINUOUS
 10
7.0419345985
 20
2.4456759724
 11
7.6669345985
 21
2.4456759724
  0
LINE
  5
2A9
100
AcDbEntity
  8
0
100
AcDbLine
 62
7
  6
CONTINUOUS
 10
4.7920066031
 20
2.4881759724
 11
5.9168625939
 21
2.4881759724
  0
LINE
  5
2AA
100
AcDbEntity
  8
0
100
AcDbLine
 62
7
  6
CONTINUOUS
 10
5.8262922019
 20
2.5170221262
 11
4.8825769951
 21
2.5170221262
  0
LINE
  5
2AB
100
AcDbEntity
  8
0
100
AcDbLine
 62
7
  6
CONTINUOUS
 10
5.8127007954
 20
2.5256759724
 11
4.8961684016
 21
2.5256759724
  0
LINE
  5
2AC
100
AcDbEntity
  8
0
100
AcDbLine
 62
7
  6
CONTINUOUS
 10
3.2942330504
 20
3.1056759724
 11
3.2942330504
 21
3.0556759724
  0
LINE
  5
2AD
100
AcDbEntity
  8
0
100
AcDbLine
 62
7
  6
CONTINUOUS
 10
3.2958417946
 20
2.3656759724
 11
3.2958417946
 21
2.4056759724
  0
LINE
  5
2AE
100
AcDbEntity
  8
0
100
AcDbLine
 62
7
  6
CONTINUOUS
 10
3.301916449
 20
3.0556759724
 11
3.301916449
 21
3.1056759724
  0
LINE
  5
2AF
100
AcDbEntity
  8
0
100
AcDbLine
 62
7
  6
CONTINUOUS
 10
3.3055152777
 20
2.4056759724
 11
3.3055152777
 21
2.3656759724
  0
LINE
  5
2B0
100
AcDbEntity
  8
0
100
AcDbLine
 62
7
  6
CONTINUOUS
 10
3.308534783
 20
3.0556759724
 11
3.308534783
 21
3.1056759724
  0
LINE
  5
2B1
100
AcDbEntity
  8
0
100
AcDbLine
 62
7
  6
CONTINUOUS
 10
3.3137431887
 20
2.3656759724
 11
3.3137431887
 21
2.4056759724
  0
LINE
  5
2B2
100
AcDbEntity
  8
0
100
AcDbLine
 62
7
  6
CONTINUOUS
 10
3.3181985304
 20
3.1056759724
 11
3.3181985304
 21
3.0556759724
  0
LINE
  5
2B3
100
AcDbEntity
  8
0
100
AcDbLine
 62
7
  6
CONTINUOUS
 10
3.3205918162
 20
2.3656759724
 11
3.3205918162
 21
2.4056759724
  0
LINE
  5
2B4
100
AcDbEntity
  8
0
100
AcDbLine
 62
7
  6
CONTINUOUS
 10
3.3264383305
 20
3.0556759724
 11
3.3264383305
 21
3.1056759724
  0
LINE
  5
2B5
100
AcDbEntity
  8
0
100
AcDbLine
 62
7
  6
CONTINUOUS
 10
3.329941371
 20
2.4056759724
 11
3.329941371
 21
2.3656759724
  0
LINE
  5
2B6
100
AcDbEntity
  8
0
100
AcDbLine
 62
7
  6
CONTINUOUS
 10
3.3331043524
 20
3.0556759724
 11
3.3331043524
 21
3.1056759724
  0
LINE
  5
2B7
100
AcDbEntity
  8
0
100
AcDbLine
 62
7
  6
CONTINUOUS
 10
3.3385671478
 20
2.3656759724
 11
3.3385671478
 21
2.4056759724
  0
LINE
  5
2B8
100
AcDbEntity
  8
0
100
AcDbLine
 62
7
  6
CONTINUOUS
 10
3.3423366918
 20
3.1056759724
 11
3.3423366918
 21
3.0556759724
  0
LINE
  5
2B9
100
AcDbEntity
  8
0
100
AcDbLine
 62
7
  6
CONTINUOUS
 10
3.3454345985
 20
2.3656759724
 11
3.3454345985
 21
2.4056759724
  0
LINE
  5
2BA
100
AcDbEntity
  8
0
100
AcDbLine
 62
7
  6
CONTINUOUS
 10
3.3510936269
 20
3.0556759724
 11
3.3510936269
 21
3.1056759724
  0
LINE
  5
2BB
100
AcDbEntity
  8
0
100
AcDbLine
 62
7
  6
CONTINUOUS
 10
3.3544345985
 20
2.4056759724
 11
3.3544345985
 21
2.3656759724
  0
LINE
  5
2BC
100
AcDbEntity
  8
0
100
AcDbLine
 62
7
  6
CONTINUOUS
 10
3.3577755701
 20
3.0556759724
 11
3.3577755701
 21
3.1056759724
  0
LINE
  5
2BD
100
AcDbEntity
  8
0
100
AcDbLine
 62
7
  6
CONTINUOUS
 10
3.3634345985
 20
2.3656759724
 11
3.3634345985
 21
2.4056759724
  0
LINE
  5
2BE
100
AcDbEntity
  8
0
100
AcDbLine
 62
7
  6
CONTINUOUS
 10
3.3665325052
 20
3.1056759724
 11
3.3665325052
 21
3.0556759724
  0
LINE
  5
2BF
100
AcDbEntity
  8
0
100
AcDbLine
 62
7
  6
CONTINUOUS
 10
3.3703020492
 20
2.3656759724
 11
3.3703020492
 21
2.4056759724
  0
LINE
  5
2C0
100
AcDbEntity
  8
0
100
AcDbLine
 62
7
  6
CONTINUOUS
 10
3.3757648446
 20
3.0556759724
 11
3.3757648446
 21
3.1056759724
  0
LINE
  5
2C1
100
AcDbEntity
  8
0
100
AcDbLine
 62
7
  6
CONTINUOUS
 10
3.378927826
 20
2.4056759724
 11
3.378927826
 21
2.3656759724
  0
LINE
  5
2C2
100
AcDbEntity
  8
0
100
AcDbLine
 62
7
  6
CONTINUOUS
 10
3.3824308665
 20
3.0556759724
 11
3.3824308665
 21
3.1056759724
  0
LINE
  5
2C3
100
AcDbEntity
  8
0
100
AcDbLine
 62
7
  6
CONTINUOUS
 10
3.3882773808
 20
2.3656759724
 11
3.3882773808
 21
2.4056759724
  0
LINE
  5
2C4
100
AcDbEntity
  8
0
100
AcDbLine
 62
7
  6
CONTINUOUS
 10
3.3906706666
 20
3.1056759724
 11
3.3906706666
 21
3.0556759724
  0
LINE
  5
2C5
100
AcDbEntity
  8
0
100
AcDbLine
 62
7
  6
CONTINUOUS
 10
3.3951260083
 20
2.3656759724
 11
3.3951260083
 21
2.4056759724
  0
LINE
  5
2C6
100
AcDbEntity
  8
0
100
AcDbLine
 62
7
  6
CONTINUOUS
 10
3.4003344139
 20
3.0556759724
 11
3.4003344139
 21
3.1056759724
  0
LINE
  5
2C7
100
AcDbEntity
  8
0
100
AcDbLine
 62
7
  6
CONTINUOUS
 10
3.4033539193
 20
2.4056759724
 11
3.4033539193
 21
2.3656759724
  0
LINE
  5
2C8
100
AcDbEntity
  8
0
100
AcDbLine
 62
7
  6
CONTINUOUS
 10
3.406952748
 20
3.0556759724
 11
3.406952748
 21
3.1056759724
  0
LINE
  5
2C9
100
AcDbEntity
  8
0
100
AcDbLine
 62
7
  6
CONTINUOUS
 10
3.4130274024
 20
2.3656759724
 11
3.4130274024
 21
2.4056759724
  0
LINE
  5
2CA
100
AcDbEntity
  8
0
100
AcDbLine
 62
7
  6
CONTINUOUS
 10
3.4146361466
 20
3.1056759724
 11
3.4146361466
 21
3.0556759724
  0
LINE
  5
2CB
100
AcDbEntity
  8
0
100
AcDbLine
 62
7
  6
CONTINUOUS
 10
3.419838435
 20
2.3656759724
 11
3.419838435
 21
2.4056759724
  0
LINE
  5
2CC
100
AcDbEntity
  8
0
100
AcDbLine
 62
7
  6
CONTINUOUS
 10
3.4246852498
 20
3.0556759724
 11
3.4246852498
 21
3.1056759724
  0
LINE
  5
2CD
100
AcDbEntity
  8
0
100
AcDbLine
 62
7
  6
CONTINUOUS
 10
3.4276459281
 20
2.4056759724
 11
3.4276459281
 21
2.3656759724
  0
LINE
  5
2CE
100
AcDbEntity
  8
0
100
AcDbLine
 62
7
  6
CONTINUOUS
 10
3.4312243565
 20
3.0556759724
 11
3.4312243565
 21
3.1056759724
  0
LINE
  5
2CF
100
AcDbEntity
  8
0
100
AcDbLine
 62
7
  6
CONTINUOUS
 10
3.4376168252
 20
2.3656759724
 11
3.4376168252
 21
2.4056759724
  0
LINE
  5
2D0
100
AcDbEntity
  8
0
100
AcDbLine
 62
7
  6
CONTINUOUS
 10
3.4383147388
 20
3.1056759724
 11
3.4383147388
 21
3.0556759724
  0
LINE
  5
2D1
100
AcDbEntity
  8
0
100
AcDbLine
 62
7
  6
CONTINUOUS
 10
3.4443715944
 20
2.3656759724
 11
3.4443715944
 21
2.4056759724
  0
LINE
  5
2D2
100
AcDbEntity
  8
0
100
AcDbLine
 62
7
  6
CONTINUOUS
 10
3.4487013093
 20
3.0556759724
 11
3.4487013093
 21
3.1056759724
  0
LINE
  5
2D3
100
AcDbEntity
  8
0
100
AcDbLine
 62
7
  6
CONTINUOUS
 10
3.4517372698
 20
2.4056759724
 11
3.4517372698
 21
2.3656759724
  0
LINE
  5
2D4
100
AcDbEntity
  8
0
100
AcDbLine
 62
7
  6
CONTINUOUS
 10
3.4519345985
 20
3.4286759724
 11
3.4519345985
 21
3.4411759724
  0
LINE
  5
2D5
100
AcDbEntity
  8
0
100
AcDbLine
 62
7
  6
CONTINUOUS
 10
3.4551300269
 20
3.0556759724
 11
3.4551300269
 21
3.1056759724
  0
LINE
  5
2D6
100
AcDbEntity
  8
0
100
AcDbLine
 62
7
  6
CONTINUOUS
 10
3.461593604
 20
3.1056759724
 11
3.461593604
 21
3.0556759724
  0
LINE
  5
2D7
100
AcDbEntity
  8
0
100
AcDbLine
 62
7
  6
CONTINUOUS
 10
3.4619782512
 20
2.3656759724
 11
3.4619782512
 21
2.4056759724
  0
LINE
  5
2D8
100
AcDbEntity
  8
0
100
AcDbLine
 62
7
  6
CONTINUOUS
 10
3.4686582428
 20
2.3656759724
 11
3.4686582428
 21
2.4056759724
  0
LINE
  5
2D9
100
AcDbEntity
  8
0
100
AcDbLine
 62
7
  6
CONTINUOUS
 10
3.4722681449
 20
3.0556759724
 11
3.4722681449
 21
3.1056759724
  0
LINE
  5
2DA
100
AcDbEntity
  8
0
100
AcDbLine
 62
7
  6
CONTINUOUS
 10
3.4755619116
 20
2.4056759724
 11
3.4755619116
 21
2.3656759724
  0
LINE
  5
2DB
100
AcDbEntity
  8
0
100
AcDbLine
 62
7
  6
CONTINUOUS
 10
3.4785558378
 20
3.0556759724
 11
3.4785558378
 21
3.1056759724
  0
LINE
  5
2DC
100
AcDbEntity
  8
0
100
AcDbLine
 62
7
  6
CONTINUOUS
 10
3.4843618077
 20
3.1056759724
 11
3.4843618077
 21
3.0556759724
  0
LINE
  5
2DD
100
AcDbEntity
  8
0
100
AcDbLine
 62
7
  6
CONTINUOUS
 10
3.4860449076
 20
2.3656759724
 11
3.4860449076
 21
2.4056759724
  0
LINE
  5
2DE
100
AcDbEntity
  8
0
100
AcDbLine
 62
7
  6
CONTINUOUS
 10
3.492631812
 20
2.3656759724
 11
3.492631812
 21
2.4056759724
  0
LINE
  5
2DF
100
AcDbEntity
  8
0
100
AcDbLine
 62
7
  6
CONTINUOUS
 10
3.4952734501
 20
3.0556759724
 11
3.4952734501
 21
3.1056759724
  0
LINE
  5
2E0
100
AcDbEntity
  8
0
100
AcDbLine
 62
7
  6
CONTINUOUS
 10
3.4990545519
 20
2.4056759724
 11
3.4990545519
 21
2.3656759724
  0
LINE
  5
2E1
100
AcDbEntity
  8
0
100
AcDbLine
 62
7
  6
CONTINUOUS
 10
3.5013901544
 20
3.0556759724
 11
3.5013901544
 21
3.1056759724
  0
LINE
  5
2E2
100
AcDbEntity
  8
0
100
AcDbLine
 62
7
  6
CONTINUOUS
 10
3.5031845985
 20
3.2431759724
 11
3.5031845985
 21
3.3489897027
  0
LINE
  5
2E3
100
AcDbEntity
  8
0
100
AcDbLine
 62
7
  6
CONTINUOUS
 10
3.5065108491
 20
3.1056759724
 11
3.5065108491
 21
3.0556759724
  0
LINE
  5
2E4
100
AcDbEntity
  8
0
100
AcDbLine
 62
7
  6
CONTINUOUS
 10
3.5097508293
 20
2.3656759724
 11
3.5097508293
 21
2.4056759724
  0
LINE
  5
2E5
100
AcDbEntity
  8
0
100
AcDbLine
 62
7
  6
CONTINUOUS
 10
3.5162265924
 20
2.3656759724
 11
3.5162265924
 21
2.4056759724
  0
LINE
  5
2E6
100
AcDbEntity
  8
0
100
AcDbLine
 62
7
  6
CONTINUOUS
 10
3.517607594
 20
3.0556759724
 11
3.517607594
 21
3.1056759724
  0
LINE
  5
2E7
100
AcDbEntity
  8
0
100
AcDbLine
 62
7
  6
CONTINUOUS
 10
3.5221507989
 20
2.4056759724
 11
3.5221507989
 21
2.3656759724
  0
LINE
  5
2E8
100
AcDbEntity
  8
0
100
AcDbLine
 62
7
  6
CONTINUOUS
 10
3.5235241608
 20
3.0556759724
 11
3.5235241608
 21
3.1056759724
  0
LINE
  5
2E9
100
AcDbEntity
  8
0
100
AcDbLine
 62
7
  6
CONTINUOUS
 10
3.5279351778
 20
3.1056759724
 11
3.5279351778
 21
3.0556759724
  0
LINE
  5
2EA
100
AcDbEntity
  8
0
100
AcDbLine
 62
7
  6
CONTINUOUS
 10
3.53303104
 20
2.3656759724
 11
3.53303104
 21
2.4056759724
  0
LINE
  5
2EB
100
AcDbEntity
  8
0
100
AcDbLine
 62
7
  6
CONTINUOUS
 10
3.5391641443
 20
3.0556759724
 11
3.5391641443
 21
3.1056759724
  0
LINE
  5
2EC
100
AcDbEntity
  8
0
100
AcDbLine
 62
7
  6
CONTINUOUS
 10
3.5393779121
 20
2.3656759724
 11
3.5393779121
 21
2.4056759724
  0
LINE
  5
2ED
100
AcDbEntity
  8
0
100
AcDbLine
 62
7
  6
CONTINUOUS
 10
3.5447873475
 20
2.4056759724
 11
3.5447873475
 21
2.3656759724
  0
LINE
  5
2EE
100
AcDbEntity
  8
0
100
AcDbLine
 62
7
  6
CONTINUOUS
 10
3.5448523785
 20
3.0556759724
 11
3.5448523785
 21
3.1056759724
  0
LINE
  5
2EF
100
AcDbEntity
  8
0
100
AcDbLine
 62
7
  6
CONTINUOUS
 10
3.5485326974
 20
3.1056759724
 11
3.5485326974
 21
3.0556759724
  0
LINE
  5
2F0
100
AcDbEntity
  8
0
100
AcDbLine
 62
7
  6
CONTINUOUS
 10
3.5544345985
 20
3.2281759724
 11
3.5544345985
 21
3.1831759724
  0
LINE
  5
2F1
100
AcDbEntity
  8
0
100
AcDbLine
 62
7
  6
CONTINUOUS
 10
3.5558217303
 20
2.3656759724
 11
3.5558217303
 21
2.4056759724
  0
LINE
  5
2F2
100
AcDbEntity
  8
0
100
AcDbLine
 62
7
  6
CONTINUOUS
 10
3.5598403741
 20
3.0556759724
 11
3.5598403741
 21
3.1056759724
  0
LINE
  5
2F3
100
AcDbEntity
  8
0
100
AcDbLine
 62
7
  6
CONTINUOUS
 10
3.562022315
 20
2.3656759724
 11
3.562022315
 21
2.4056759724
  0
LINE
  5
2F4
100
AcDbEntity
  8
0
100
AcDbLine
 62
7
  6
CONTINUOUS
 10
3.5652731687
 20
3.0556759724
 11
3.5652731687
 21
3.1056759724
  0
LINE
  5
2F5
100
AcDbEntity
  8
0
100
AcDbLine
 62
7
  6
CONTINUOUS
 10
3.5669021524
 20
2.4056759724
 11
3.5669021524
 21
2.3656759724
  0
LINE
  5
2F6
100
AcDbEntity
  8
0
100
AcDbLine
 62
7
  6
CONTINUOUS
 10
3.568205251
 20
3.1056759724
 11
3.568205251
 21
3.0556759724
  0
LINE
  5
2F7
100
AcDbEntity
  8
0
100
AcDbLine
 62
7
  6
CONTINUOUS
 10
3.5780604324
 20
2.3656759724
 11
3.5780604324
 21
2.4056759724
  0
LINE
  5
2F8
100
AcDbEntity
  8
0
100
AcDbLine
 62
7
  6
CONTINUOUS
 10
3.5795377519
 20
3.0556759724
 11
3.5795377519
 21
3.1056759724
  0
LINE
  5
2F9
100
AcDbEntity
  8
0
100
AcDbLine
 62
7
  6
CONTINUOUS
 10
3.5840977345
 20
2.3656759724
 11
3.5840977345
 21
2.4056759724
  0
LINE
  5
2FA
100
AcDbEntity
  8
0
100
AcDbLine
 62
7
  6
CONTINUOUS
 10
3.5846892172
 20
3.0556759724
 11
3.5846892172
 21
3.1056759724
  0
LINE
  5
2FB
100
AcDbEntity
  8
0
100
AcDbLine
 62
7
  6
CONTINUOUS
 10
3.5868590902
 20
3.1056759724
 11
3.5868590902
 21
3.0556759724
  0
LINE
  5
2FC
100
AcDbEntity
  8
0
100
AcDbLine
 62
7
  6
CONTINUOUS
 10
3.5884345985
 20
2.4056759724
 11
3.5884345985
 21
2.3656759724
  0
LINE
  5
2FD
100
AcDbEntity
  8
0
100
AcDbLine
 62
7
  6
CONTINUOUS
 10
3.5981624107
 20
3.0556759724
 11
3.5981624107
 21
3.1056759724
  0
LINE
  5
2FE
100
AcDbEntity
  8
0
100
AcDbLine
 62
7
  6
CONTINUOUS
 10
3.5996861917
 20
2.3656759724
 11
3.5996861917
 21
2.4056759724
  0
LINE
  5
2FF
100
AcDbEntity
  8
0
100
AcDbLine
 62
7
  6
CONTINUOUS
 10
3.6030079975
 20
3.0556759724
 11
3.6030079975
 21
3.1056759724
  0
LINE
  5
300
100
AcDbEntity
  8
0
100
AcDbLine
 62
7
  6
CONTINUOUS
 10
3.6044053208
 20
3.1056759724
 11
3.6044053208
 21
3.0556759724
  0
LINE
  5
301
100
AcDbEntity
  8
0
100
AcDbLine
 62
7
  6
CONTINUOUS
 10
3.6055436632
 20
2.3656759724
 11
3.6055436632
 21
2.4056759724
  0
LINE
  5
302
100
AcDbEntity
  8
0
100
AcDbLine
 62
7
  6
CONTINUOUS
 10
3.6093256669
 20
2.4056759724
 11
3.6093256669
 21
2.3656759724
  0
LINE
  5
303
100
AcDbEntity
  8
0
100
AcDbLine
 62
7
  6
CONTINUOUS
 10
3.6156255954
 20
3.0556759724
 11
3.6156255954
 21
3.1056759724
  0
LINE
  5
304
100
AcDbEntity
  8
0
100
AcDbLine
 62
7
  6
CONTINUOUS
 10
3.6201422124
 20
3.0556759724
 11
3.6201422124
 21
3.1056759724
  0
LINE
  5
305
100
AcDbEntity
  8
0
100
AcDbLine
 62
7
  6
CONTINUOUS
 10
3.6206397334
 20
2.3656759724
 11
3.6206397334
 21
2.4056759724
  0
LINE
  5
306
100
AcDbEntity
  8
0
100
AcDbLine
 62
7
  6
CONTINUOUS
 10
3.6207603271
 20
3.1056759724
 11
3.6207603271
 21
3.0556759724
  0
LINE
  5
307
100
AcDbEntity
  8
0
100
AcDbLine
 62
7
  6
CONTINUOUS
 10
3.6263013195
 20
2.3656759724
 11
3.6263013195
 21
2.4056759724
  0
LINE
  5
308
100
AcDbEntity
  8
0
100
AcDbLine
 62
7
  6
CONTINUOUS
 10
3.6295180966
 20
2.4056759724
 11
3.6295180966
 21
2.3656759724
  0
LINE
  5
309
100
AcDbEntity
  8
0
100
AcDbLine
 62
7
  6
CONTINUOUS
 10
3.6318440861
 20
3.0556759724
 11
3.6318440861
 21
3.1056759724
  0
LINE
  5
30A
100
AcDbEntity
  8
0
100
AcDbLine
 62
7
  6
CONTINUOUS
 10
3.6360102095
 20
3.0556759724
 11
3.6360102095
 21
3.1056759724
  0
LINE
  5
30B
100
AcDbEntity
  8
0
100
AcDbLine
 62
7
  6
CONTINUOUS
 10
3.6408636254
 20
2.3656759724
 11
3.6408636254
 21
2.4056759724
  0
LINE
  5
30C
100
AcDbEntity
  8
0
100
AcDbLine
 62
7
  6
CONTINUOUS
 10
3.6463138079
 20
2.3656759724
 11
3.6463138079
 21
2.4056759724
  0
LINE
  5
30D
100
AcDbEntity
  8
0
100
AcDbLine
 62
7
  6
CONTINUOUS
 10
3.6467405942
 20
3.0556759724
 11
3.6467405942
 21
3.1056759724
  0
LINE
  5
30E
100
AcDbEntity
  8
0
100
AcDbLine
 62
7
  6
CONTINUOUS
 10
3.6489565415
 20
2.4056759724
 11
3.6489565415
 21
2.3656759724
  0
LINE
  5
30F
100
AcDbEntity
  8
0
100
AcDbLine
 62
7
  6
CONTINUOUS
 10
3.6505363706
 20
3.0556759724
 11
3.6505363706
 21
3.1056759724
  0
LINE
  5
310
100
AcDbEntity
  8
0
100
AcDbLine
 62
7
  6
CONTINUOUS
 10
3.6544345985
 20
2.4456759724
 11
3.6544345985
 21
2.4406759724
  0
LINE
  5
311
100
AcDbEntity
  8
0
100
AcDbLine
 62
7
  6
CONTINUOUS
 10
3.6602441312
 20
3.0556759724
 11
3.6602441312
 21
3.1056759724
  0
LINE
  5
312
100
AcDbEntity
  8
0
100
AcDbLine
 62
7
  6
CONTINUOUS
 10
3.6603024352
 20
2.3656759724
 11
3.6603024352
 21
2.4056759724
  0
LINE
  5
313
100
AcDbEntity
  8
0
100
AcDbLine
 62
7
  6
CONTINUOUS
 10
3.6636514719
 20
3.0556759724
 11
3.6636514719
 21
3.1056759724
  0
LINE
  5
314
100
AcDbEntity
  8
0
100
AcDbLine
 62
7
  6
CONTINUOUS
 10
3.6655262758
 20
2.3656759724
 11
3.6655262758
 21
2.4056759724
  0
LINE
  5
315
100
AcDbEntity
  8
0
100
AcDbLine
 62
7
  6
CONTINUOUS
 10
3.6669345985
 20
3.0556759724
 11
3.6669345985
 21
2.4456759724
  0
LINE
  5
316
100
AcDbEntity
  8
0
100
AcDbLine
 62
7
  6
CONTINUOUS
 10
3.6675877223
 20
2.4056759724
 11
3.6675877223
 21
2.3656759724
  0
LINE
  5
317
100
AcDbEntity
  8
0
100
AcDbLine
 62
7
  6
CONTINUOUS
 10
3.6722903465
 20
3.0556759724
 11
3.6722903465
 21
3.1056759724
  0
LINE
  5
318
100
AcDbEntity
  8
0
100
AcDbLine
 62
7
  6
CONTINUOUS
 10
3.675293014
 20
3.0556759724
 11
3.675293014
 21
3.1056759724
  0
LINE
  5
319
100
AcDbEntity
  8
0
100
AcDbLine
 62
7
  6
CONTINUOUS
 10
3.6789028826
 20
2.3656759724
 11
3.6789028826
 21
2.4056759724
  0
LINE
  5
31A
100
AcDbEntity
  8
0
100
AcDbLine
 62
7
  6
CONTINUOUS
 10
3.6828218344
 20
3.0556759724
 11
3.6828218344
 21
3.1056759724
  0
LINE
  5
31B
100
AcDbEntity
  8
0
100
AcDbLine
 62
7
  6
CONTINUOUS
 10
3.683886063
 20
2.3656759724
 11
3.683886063
 21
2.4056759724
  0
LINE
  5
31C
100
AcDbEntity
  8
0
100
AcDbLine
 62
7
  6
CONTINUOUS
 10
3.6853605721
 20
2.4056759724
 11
3.6853605721
 21
2.3656759724
  0
LINE
  5
31D
100
AcDbEntity
  8
0
100
AcDbLine
 62
7
  6
CONTINUOUS
 10
3.6854055196
 20
3.0556759724
 11
3.6854055196
 21
3.1056759724
  0
LINE
  5
31E
100
AcDbEntity
  8
0
100
AcDbLine
 62
7
  6
CONTINUOUS
 10
3.6917884075
 20
3.0556759724
 11
3.6917884075
 21
3.1056759724
  0
LINE
  5
31F
100
AcDbEntity
  8
0
100
AcDbLine
 62
7
  6
CONTINUOUS
 10
3.693940798
 20
3.0556759724
 11
3.693940798
 21
3.1056759724
  0
LINE
  5
320
100
AcDbEntity
  8
0
100
AcDbLine
 62
7
  6
CONTINUOUS
 10
3.696613985
 20
2.3656759724
 11
3.696613985
 21
2.4056759724
  0
LINE
  5
321
100
AcDbEntity
  8
0
100
AcDbLine
 62
7
  6
CONTINUOUS
 10
3.6991473362
 20
3.0556759724
 11
3.6991473362
 21
3.1056759724
  0
LINE
  5
322
100
AcDbEntity
  8
0
100
AcDbLine
 62
7
  6
CONTINUOUS
 10
3.7008581748
 20
3.0556759724
 11
3.7008581748
 21
3.1056759724
  0
LINE
  5
323
100
AcDbEntity
  8
0
100
AcDbLine
 62
7
  6
CONTINUOUS
 10
3.7013428466
 20
2.3656759724
 11
3.7013428466
 21
2.4056759724
  0
LINE
  5
324
100
AcDbEntity
  8
0
100
AcDbLine
 62
7
  6
CONTINUOUS
 10
3.7022263768
 20
2.4056759724
 11
3.7022263768
 21
2.3656759724
  0
LINE
  5
325
100
AcDbEntity
  8
0
100
AcDbLine
 62
7
  6
CONTINUOUS
 10
3.7048635516
 20
3.0556759724
 11
3.7048635516
 21
3.1056759724
  0
LINE
  5
326
100
AcDbEntity
  8
0
100
AcDbLine
 62
7
  6
CONTINUOUS
 10
3.7061246855
 20
3.0556759724
 11
3.7061246855
 21
3.1056759724
  0
LINE
  5
327
100
AcDbEntity
  8
0
100
AcDbLine
 62
7
  6
CONTINUOUS
 10
3.7089098135
 20
3.0556759724
 11
3.7089098135
 21
3.1056759724
  0
LINE
  5
328
100
AcDbEntity
  8
0
100
AcDbLine
 62
7
  6
CONTINUOUS
 10
3.7097152328
 20
3.0556759724
 11
3.7097152328
 21
3.1056759724
  0
LINE
  5
329
100
AcDbEntity
  8
0
100
AcDbLine
 62
7
  6
CONTINUOUS
 10
3.7112668396
 20
3.0556759724
 11
3.7112668396
 21
3.1056759724
  0
LINE
  5
32A
100
AcDbEntity
  8
0
100
AcDbLine
 62
7
  6
CONTINUOUS
 10
3.711612706
 20
3.0556759724
 11
3.711612706
 21
3.1056759724
  0
LINE
  5
32B
100
AcDbEntity
  8
0
100
AcDbLine
 62
7
  6
CONTINUOUS
 10
3.7119233976
 20
3.0556759724
 11
3.7119233976
 21
3.1056759724
  0
LINE
  5
32C
100
AcDbEntity
  8
0
100
AcDbLine
 62
7
  6
CONTINUOUS
 10
3.7133871975
 20
2.3656759724
 11
3.7133871975
 21
2.4056759724
  0
LINE
  5
32D
100
AcDbEntity
  8
0
100
AcDbLine
 62
7
  6
CONTINUOUS
 10
3.7178487788
 20
2.3656759724
 11
3.7178487788
 21
2.4056759724
  0
LINE
  5
32E
100
AcDbEntity
  8
0
100
AcDbLine
 62
7
  6
CONTINUOUS
 10
3.7181389085
 20
2.4056759724
 11
3.7181389085
 21
2.3656759724
  0
LINE
  5
32F
100
AcDbEntity
  8
0
100
AcDbLine
 62
7
  6
CONTINUOUS
 10
3.7291765458
 20
2.3656759724
 11
3.7291765458
 21
2.4056759724
  0
LINE
  5
330
100
AcDbEntity
  8
0
100
AcDbLine
 62
7
  6
CONTINUOUS
 10
3.733358618
 20
2.3656759724
 11
3.733358618
 21
2.4056759724
  0
LINE
  5
331
100
AcDbEntity
  8
0
100
AcDbLine
 62
7
  6
CONTINUOUS
 10
3.7439387526
 20
2.3656759724
 11
3.7439387526
 21
2.4056759724
  0
LINE
  5
332
100
AcDbEntity
  8
0
100
AcDbLine
 62
7
  6
CONTINUOUS
 10
3.7478298528
 20
2.3656759724
 11
3.7478298528
 21
2.4056759724
  0
LINE
  5
333
100
AcDbEntity
  8
0
100
AcDbLine
 62
7
  6
CONTINUOUS
 10
3.7576333555
 20
2.3656759724
 11
3.7576333555
 21
2.4056759724
  0
LINE
  5
334
100
AcDbEntity
  8
0
100
AcDbLine
 62
7
  6
CONTINUOUS
 10
3.7612228186
 20
2.3656759724
 11
3.7612228186
 21
2.4056759724
  0
LINE
  5
335
100
AcDbEntity
  8
0
100
AcDbLine
 62
7
  6
CONTINUOUS
 10
3.7702228186
 20
2.3656759724
 11
3.7702228186
 21
2.4056759724
  0
LINE
  5
336
100
AcDbEntity
  8
0
100
AcDbLine
 62
7
  6
CONTINUOUS
 10
3.7735008061
 20
2.3656759724
 11
3.7735008061
 21
2.4056759724
  0
LINE
  5
337
100
AcDbEntity
  8
0
100
AcDbLine
 62
7
  6
CONTINUOUS
 10
3.7816726351
 20
2.3656759724
 11
3.7816726351
 21
2.4056759724
  0
LINE
  5
338
100
AcDbEntity
  8
0
100
AcDbLine
 62
7
  6
CONTINUOUS
 10
3.7846301623
 20
2.3656759724
 11
3.7846301623
 21
2.4056759724
  0
LINE
  5
339
100
AcDbEntity
  8
0
100
AcDbLine
 62
7
  6
CONTINUOUS
 10
3.7919514219
 20
2.3656759724
 11
3.7919514219
 21
2.4056759724
  0
LINE
  5
33A
100
AcDbEntity
  8
0
100
AcDbLine
 62
7
  6
CONTINUOUS
 10
3.7945803824
 20
2.3656759724
 11
3.7945803824
 21
2.4056759724
  0
LINE
  5
33B
100
AcDbEntity
  8
0
100
AcDbLine
 62
7
  6
CONTINUOUS
 10
3.8010310055
 20
2.3656759724
 11
3.8010310055
 21
2.4056759724
  0
LINE
  5
33C
100
AcDbEntity
  8
0
100
AcDbLine
 62
7
  6
CONTINUOUS
 10
3.8033241934
 20
2.3656759724
 11
3.8033241934
 21
2.4056759724
  0
LINE
  5
33D
100
AcDbEntity
  8
0
100
AcDbLine
 62
7
  6
CONTINUOUS
 10
3.8044345985
 20
2.3656759724
 11
3.8044345985
 21
2.3156759724
  0
LINE
  5
33E
100
AcDbEntity
  8
0
100
AcDbLine
 62
7
  6
CONTINUOUS
 10
3.8088864993
 20
2.3656759724
 11
3.8088864993
 21
2.4056759724
  0
LINE
  5
33F
100
AcDbEntity
  8
0
100
AcDbLine
 62
7
  6
CONTINUOUS
 10
3.8108376293
 20
2.3656759724
 11
3.8108376293
 21
2.4056759724
  0
LINE
  5
340
100
AcDbEntity
  8
0
100
AcDbLine
 62
7
  6
CONTINUOUS
 10
3.8154963721
 20
2.3656759724
 11
3.8154963721
 21
2.4056759724
  0
LINE
  5
341
100
AcDbEntity
  8
0
100
AcDbLine
 62
7
  6
CONTINUOUS
 10
3.8171000962
 20
2.3656759724
 11
3.8171000962
 21
2.4056759724
  0
LINE
  5
342
100
AcDbEntity
  8
0
100
AcDbLine
 62
7
  6
CONTINUOUS
 10
3.8208425066
 20
2.3656759724
 11
3.8208425066
 21
2.4056759724
  0
LINE
  5
343
100
AcDbEntity
  8
0
100
AcDbLine
 62
7
  6
CONTINUOUS
 10
3.8220944291
 20
2.3656759724
 11
3.8220944291
 21
2.4056759724
  0
LINE
  5
344
100
AcDbEntity
  8
0
100
AcDbLine
 62
7
  6
CONTINUOUS
 10
3.8249102495
 20
2.3656759724
 11
3.8249102495
 21
2.4056759724
  0
LINE
  5
345
100
AcDbEntity
  8
0
100
AcDbLine
 62
7
  6
CONTINUOUS
 10
3.8258069389
 20
2.3656759724
 11
3.8258069389
 21
2.4056759724
  0
LINE
  5
346
100
AcDbEntity
  8
0
100
AcDbLine
 62
7
  6
CONTINUOUS
 10
3.8276884513
 20
2.3656759724
 11
3.8276884513
 21
2.4056759724
  0
LINE
  5
347
100
AcDbEntity
  8
0
100
AcDbLine
 62
7
  6
CONTINUOUS
 10
3.8282274499
 20
2.3656759724
 11
3.8282274499
 21
2.4056759724
  0
LINE
  5
348
100
AcDbEntity
  8
0
100
AcDbLine
 62
7
  6
CONTINUOUS
 10
3.8291694972
 20
2.3656759724
 11
3.8291694972
 21
2.4056759724
  0
LINE
  5
349
100
AcDbEntity
  8
0
100
AcDbLine
 62
7
  6
CONTINUOUS
 10
3.8293493277
 20
2.3656759724
 11
3.8293493277
 21
2.4056759724
  0
LINE
  5
34A
100
AcDbEntity
  8
0
100
AcDbLine
 62
7
  6
CONTINUOUS
 10
3.8294345985
 20
2.2906759724
 11
3.8294345985
 21
2.2506759724
  0
LINE
  5
34B
100
AcDbEntity
  8
0
100
AcDbLine
 62
7
  6
CONTINUOUS
 10
7.7119233976
 20
3.0556759724
 11
6.9969457994
 21
3.0556759724
  0
LINE
  5
34C
100
AcDbEntity
  8
0
100
AcDbLine
 62
7
  6
CONTINUOUS
 10
3.7119233976
 20
3.0556759724
 11
2.9969457994
 21
3.0556759724
  0
LINE
  5
34D
100
AcDbEntity
  8
0
100
AcDbLine
 62
7
  6
CONTINUOUS
 10
2.9969457994
 20
3.1056759724
 11
3.7119233976
 21
3.1056759724
  0
LINE
  5
34E
100
AcDbEntity
  8
0
100
AcDbLine
 62
7
  6
CONTINUOUS
 10
6.9969457994
 20
3.1056759724
 11
7.7119233976
 21
3.1056759724
  0
LINE
  5
34F
100
AcDbEntity
  8
0
100
AcDbLine
 62
7
  6
CONTINUOUS
 10
7.5960875613
 20
3.1614795438
 11
7.1127816357
 21
3.1614795438
  0
LINE
  5
350
100
AcDbEntity
  8
0
100
AcDbLine
 62
7
  6
CONTINUOUS
 10
3.5960875613
 20
3.1614795438
 11
3.1127816357
 21
3.1614795438
  0
LINE
  5
351
100
AcDbEntity
  8
0
100
AcDbLine
 62
7
  6
CONTINUOUS
 10
7.5835955358
 20
3.1681759724
 11
7.1252736612
 21
3.1681759724
  0
LINE
  5
352
100
AcDbEntity
  8
0
100
AcDbLine
 62
7
  6
CONTINUOUS
 10
3.5835955358
 20
3.1681759724
 11
3.1252736612
 21
3.1681759724
  0
LINE
  5
353
100
AcDbEntity
  8
0
100
AcDbLine
 62
7
  6
CONTINUOUS
 10
3.1544345985
 20
3.1831759724
 11
3.5544345985
 21
3.1831759724
  0
LINE
  5
354
100
AcDbEntity
  8
0
100
AcDbLine
 62
7
  6
CONTINUOUS
 10
7.1544345985
 20
3.1831759724
 11
7.5544345985
 21
3.1831759724
  0
LINE
  5
355
100
AcDbEntity
  8
0
100
AcDbLine
 62
7
  6
CONTINUOUS
 10
7.5544345985
 20
3.2281759724
 11
7.1544345985
 21
3.2281759724
  0
LINE
  5
356
100
AcDbEntity
  8
0
100
AcDbLine
 62
7
  6
CONTINUOUS
 10
3.5544345985
 20
3.2281759724
 11
3.1544345985
 21
3.2281759724
  0
LINE
  5
357
100
AcDbEntity
  8
0
100
AcDbLine
 62
7
  6
CONTINUOUS
 10
7.5394345985
 20
3.2431759724
 11
7.1694345985
 21
3.2431759724
  0
LINE
  5
358
100
AcDbEntity
  8
0
100
AcDbLine
 62
7
  6
CONTINUOUS
 10
3.5394345985
 20
3.2431759724
 11
3.1694345985
 21
3.2431759724
  0
LINE
  5
359
100
AcDbEntity
  8
0
100
AcDbLine
 62
7
  6
CONTINUOUS
 10
7.5031845985
 20
3.3489897027
 11
7.2056845985
 21
3.3489897027
  0
LINE
  5
35A
100
AcDbEntity
  8
0
100
AcDbLine
 62
7
  6
CONTINUOUS
 10
3.5031845985
 20
3.3489897027
 11
3.2056845985
 21
3.3489897027
  0
LINE
  5
35B
100
AcDbEntity
  8
0
100
AcDbLine
 62
7
  6
CONTINUOUS
 10
7.5119345985
 20
3.3589112701
 11
7.1969345985
 21
3.3589112701
  0
LINE
  5
35C
100
AcDbEntity
  8
0
100
AcDbLine
 62
7
  6
CONTINUOUS
 10
3.5119345985
 20
3.3589112701
 11
3.1969345985
 21
3.3589112701
  0
LINE
  5
35D
100
AcDbEntity
  8
0
100
AcDbLine
 62
7
  6
CONTINUOUS
 10
3.5081845985
 20
3.4186759724
 11
3.2006845985
 21
3.4186759724
  0
LINE
  5
35E
100
AcDbEntity
  8
0
100
AcDbLine
 62
7
  6
CONTINUOUS
 10
7.2006845985
 20
3.4186759724
 11
7.5081845985
 21
3.4186759724
  0
LINE
  5
35F
100
AcDbEntity
  8
0
100
AcDbLine
 62
7
  6
CONTINUOUS
 10
3.2569345985
 20
3.4286759724
 11
3.4519345985
 21
3.4286759724
  0
LINE
  5
360
100
AcDbEntity
  8
0
100
AcDbLine
 62
7
  6
CONTINUOUS
 10
7.2569345985
 20
3.4286759724
 11
7.4519345985
 21
3.4286759724
  0
LINE
  5
361
100
AcDbEntity
  8
0
100
AcDbLine
 62
7
  6
CONTINUOUS
 10
3.2569345985
 20
3.4411759724
 11
3.4519345985
 21
3.4411759724
  0
LINE
  5
362
100
AcDbEntity
  8
0
100
AcDbLine
 62
7
  6
CONTINUOUS
 10
7.2569345985
 20
3.4411759724
 11
7.4519345985
 21
3.4411759724
  0
LINE
  5
363
100
AcDbEntity
  8
0
100
AcDbLine
 62
7
  6
CONTINUOUS
 10
9.0969345985
 20
3.4661759724
 11
7.8069345985
 21
3.4661759724
  0
LINE
  5
364
100
AcDbEntity
  8
0
100
AcDbLine
 62
7
  6
CONTINUOUS
 10
1.6119345985
 20
3.4661759724
 11
2.9019345985
 21
3.4661759724
  0
LINE
  5
365
100
AcDbEntity
  8
0
100
AcDbLine
 62
7
  6
CONTINUOUS
 10
5.8919345985
 20
2.3256759724
 11
5.9169345985
 21
2.3006759724
  0
LINE
  5
366
100
AcDbEntity
  8
0
100
AcDbLine
 62
7
  6
CONTINUOUS
 10
3.1794345985
 20
3.5186759724
 11
3.0019345985
 21
3.5186759724
  0
LINE
  5
367
100
AcDbEntity
  8
0
100
AcDbLine
 62
7
  6
CONTINUOUS
 10
7.5294345985
 20
3.5186759724
 11
7.7069345985
 21
3.5186759724
  0
LINE
  5
368
100
AcDbEntity
  8
0
100
AcDbLine
 62
7
  6
CONTINUOUS
 10
3.1794345985
 20
3.7136759724
 11
3.0019345985
 21
3.7136759724
  0
LINE
  5
369
100
AcDbEntity
  8
0
100
AcDbLine
 62
7
  6
CONTINUOUS
 10
7.5294345985
 20
3.7136759724
 11
7.7069345985
 21
3.7136759724
  0
LINE
  5
36A
100
AcDbEntity
  8
0
100
AcDbLine
 62
7
  6
CONTINUOUS
 10
9.0969345985
 20
3.7661759724
 11
7.8069345985
 21
3.7661759724
  0
LINE
  5
36B
100
AcDbEntity
  8
0
100
AcDbLine
 62
7
  6
CONTINUOUS
 10
1.6119345985
 20
3.7661759724
 11
2.9019345985
 21
3.7661759724
  0
LINE
  5
36C
100
AcDbEntity
  8
0
100
AcDbLine
 62
7
  6
CONTINUOUS
 10
4.9795426141
 20
3.8006759724
 11
5.7293265829
 21
3.8006759724
  0
LINE
  5
36D
100
AcDbEntity
  8
0
100
AcDbLine
 62
7
  6
CONTINUOUS
 10
4.7919345985
 20
2.3006759724
 11
4.7919345985
 21
2.2506759724
  0
LINE
  5
36E
100
AcDbEntity
  8
0
100
AcDbLine
 62
7
  6
CONTINUOUS
 10
4.7920066031
 20
2.4381759724
 11
4.7920066031
 21
2.4881759724
  0
LINE
  5
36F
100
AcDbEntity
  8
0
100
AcDbLine
 62
7
  6
CONTINUOUS
 10
4.7921493354
 20
2.4381759724
 11
4.7921493354
 21
2.4881759724
  0
LINE
  5
370
100
AcDbEntity
  8
0
100
AcDbLine
 62
7
  6
CONTINUOUS
 10
4.7929344844
 20
2.4381759724
 11
4.7929344844
 21
2.4881759724
  0
LINE
  5
371
100
AcDbEntity
  8
0
100
AcDbLine
 62
7
  6
CONTINUOUS
 10
4.7933624097
 20
2.4381759724
 11
4.7933624097
 21
2.4881759724
  0
LINE
  5
372
100
AcDbEntity
  8
0
100
AcDbLine
 62
7
  6
CONTINUOUS
 10
4.9795426141
 20
3.8506759724
 11
5.7293265829
 21
3.8506759724
  0
LINE
  5
373
100
AcDbEntity
  8
0
100
AcDbLine
 62
7
  6
CONTINUOUS
 10
5.07064667
 20
3.9027593057
 11
5.638222527
 21
3.9027593057
  0
LINE
  5
374
100
AcDbEntity
  8
0
100
AcDbLine
 62
7
  6
CONTINUOUS
 10
5.0849292837
 20
3.9131759724
 11
5.6239399133
 21
3.9131759724
  0
LINE
  5
375
100
AcDbEntity
  8
0
100
AcDbLine
 62
7
  6
CONTINUOUS
 10
5.6044345985
 20
3.9281759724
 11
5.1044345985
 21
3.9281759724
  0
LINE
  5
376
100
AcDbEntity
  8
0
100
AcDbLine
 62
7
  6
CONTINUOUS
 10
5.1044345985
 20
3.9731759724
 11
5.6044345985
 21
3.9731759724
  0
LINE
  5
377
100
AcDbEntity
  8
0
100
AcDbLine
 62
7
  6
CONTINUOUS
 10
5.1194345985
 20
3.9881759724
 11
5.5894345985
 21
3.9881759724
  0
LINE
  5
378
100
AcDbEntity
  8
0
100
AcDbLine
 62
7
  6
CONTINUOUS
 10
4.7949312131
 20
2.4381759724
 11
4.7949312131
 21
2.4881759724
  0
LINE
  5
379
100
AcDbEntity
  8
0
100
AcDbLine
 62
7
  6
CONTINUOUS
 10
4.7956435168
 20
2.4381759724
 11
4.7956435168
 21
2.4881759724
  0
LINE
  5
37A
100
AcDbEntity
  8
0
100
AcDbLine
 62
7
  6
CONTINUOUS
 10
4.7979929883
 20
2.4381759724
 11
4.7979929883
 21
2.4881759724
  0
LINE
  5
37B
100
AcDbEntity
  8
0
100
AcDbLine
 62
7
  6
CONTINUOUS
 10
4.7989883145
 20
2.4381759724
 11
4.7989883145
 21
2.4881759724
  0
LINE
  5
37C
100
AcDbEntity
  8
0
100
AcDbLine
 62
7
  6
CONTINUOUS
 10
4.8021139817
 20
2.4381759724
 11
4.8021139817
 21
2.4881759724
  0
LINE
  5
37D
100
AcDbEntity
  8
0
100
AcDbLine
 62
7
  6
CONTINUOUS
 10
4.8033904358
 20
2.4381759724
 11
4.8033904358
 21
2.4881759724
  0
LINE
  5
37E
100
AcDbEntity
  8
0
100
AcDbLine
 62
7
  6
CONTINUOUS
 10
4.8072863488
 20
2.4381759724
 11
4.8072863488
 21
2.4881759724
  0
LINE
  5
37F
100
AcDbEntity
  8
0
100
AcDbLine
 62
7
  6
CONTINUOUS
 10
4.8088415009
 20
2.4381759724
 11
4.8088415009
 21
2.4881759724
  0
LINE
  5
380
100
AcDbEntity
  8
0
100
AcDbLine
 62
7
  6
CONTINUOUS
 10
4.8135002437
 20
2.4381759724
 11
4.8135002437
 21
2.4881759724
  0
LINE
  5
381
100
AcDbEntity
  8
0
100
AcDbLine
 62
7
  6
CONTINUOUS
 10
4.8153311335
 20
2.4381759724
 11
4.8153311335
 21
2.4881759724
  0
LINE
  5
382
100
AcDbEntity
  8
0
100
AcDbLine
 62
7
  6
CONTINUOUS
 10
4.8169345985
 20
2.4381759724
 11
4.8169345985
 21
2.3256759724
  0
LINE
  5
383
100
AcDbEntity
  8
0
100
AcDbLine
 62
7
  6
CONTINUOUS
 10
4.8207438379
 20
2.4381759724
 11
4.8207438379
 21
2.4881759724
  0
LINE
  5
384
100
AcDbEntity
  8
0
100
AcDbLine
 62
7
  6
CONTINUOUS
 10
4.8228469802
 20
2.4381759724
 11
4.8228469802
 21
2.4881759724
  0
LINE
  5
385
100
AcDbEntity
  8
0
100
AcDbLine
 62
7
  6
CONTINUOUS
 10
4.8290033428
 20
2.4381759724
 11
4.8290033428
 21
2.4881759724
  0
LINE
  5
386
100
AcDbEntity
  8
0
100
AcDbLine
 62
7
  6
CONTINUOUS
 10
4.8313747341
 20
2.4381759724
 11
4.8313747341
 21
2.4881759724
  0
LINE
  5
387
100
AcDbEntity
  8
0
100
AcDbLine
 62
7
  6
CONTINUOUS
 10
4.8382630359
 20
2.4381759724
 11
4.8382630359
 21
2.4881759724
  0
LINE
  5
388
100
AcDbEntity
  8
0
100
AcDbLine
 62
7
  6
CONTINUOUS
 10
4.8408981623
 20
2.4381759724
 11
4.8408981623
 21
2.4881759724
  0
LINE
  5
389
100
AcDbEntity
  8
0
100
AcDbLine
 62
7
  6
CONTINUOUS
 10
4.848505291
 20
2.4381759724
 11
4.848505291
 21
2.4881759724
  0
LINE
  5
38A
100
AcDbEntity
  8
0
100
AcDbLine
 62
7
  6
CONTINUOUS
 10
4.8513991362
 20
2.4381759724
 11
4.8513991362
 21
2.4881759724
  0
LINE
  5
38B
100
AcDbEntity
  8
0
100
AcDbLine
 62
7
  6
CONTINUOUS
 10
4.8597106112
 20
2.4381759724
 11
4.8597106112
 21
2.4881759724
  0
LINE
  5
38C
100
AcDbEntity
  8
0
100
AcDbLine
 62
7
  6
CONTINUOUS
 10
4.8628576667
 20
2.4381759724
 11
4.8628576667
 21
2.4881759724
  0
LINE
  5
38D
100
AcDbEntity
  8
0
100
AcDbLine
 62
7
  6
CONTINUOUS
 10
4.8718576667
 20
2.4381759724
 11
4.8718576667
 21
2.4881759724
  0
LINE
  5
38E
100
AcDbEntity
  8
0
100
AcDbLine
 62
7
  6
CONTINUOUS
 10
4.8752519418
 20
2.4381759724
 11
4.8752519418
 21
2.4881759724
  0
LINE
  5
38F
100
AcDbEntity
  8
0
100
AcDbLine
 62
7
  6
CONTINUOUS
 10
4.8849233348
 20
2.4381759724
 11
4.8849233348
 21
2.4881759724
  0
LINE
  5
390
100
AcDbEntity
  8
0
100
AcDbLine
 62
7
  6
CONTINUOUS
 10
4.8885583684
 20
2.4381759724
 11
4.8885583684
 21
2.4881759724
  0
LINE
  5
391
100
AcDbEntity
  8
0
100
AcDbLine
 62
7
  6
CONTINUOUS
 10
4.8988827442
 20
2.4381759724
 11
4.8988827442
 21
2.4881759724
  0
LINE
  5
392
100
AcDbEntity
  8
0
100
AcDbLine
 62
7
  6
CONTINUOUS
 10
4.9027516168
 20
2.4381759724
 11
4.9027516168
 21
2.4881759724
  0
LINE
  5
393
100
AcDbEntity
  8
0
100
AcDbLine
 62
7
  6
CONTINUOUS
 10
4.9137093225
 20
2.4381759724
 11
4.9137093225
 21
2.4881759724
  0
LINE
  5
394
100
AcDbEntity
  8
0
100
AcDbLine
 62
7
  6
CONTINUOUS
 10
4.9178046695
 20
2.4381759724
 11
4.9178046695
 21
2.4881759724
  0
LINE
  5
395
100
AcDbEntity
  8
0
100
AcDbLine
 62
7
  6
CONTINUOUS
 10
4.9288969103
 20
2.4881759724
 11
4.9288969103
 21
2.4381759724
  0
LINE
  5
396
100
AcDbEntity
  8
0
100
AcDbLine
 62
7
  6
CONTINUOUS
 10
4.9293748465
 20
2.4381759724
 11
4.9293748465
 21
2.4881759724
  0
LINE
  5
397
100
AcDbEntity
  8
0
100
AcDbLine
 62
7
  6
CONTINUOUS
 10
4.933688872
 20
2.4381759724
 11
4.933688872
 21
2.4881759724
  0
LINE
  5
398
100
AcDbEntity
  8
0
100
AcDbLine
 62
7
  6
CONTINUOUS
 10
4.9448770379
 20
2.4881759724
 11
4.9448770379
 21
2.4381759724
  0
LINE
  5
399
100
AcDbEntity
  8
0
100
AcDbLine
 62
7
  6
CONTINUOUS
 10
4.9458494958
 20
2.4381759724
 11
4.9458494958
 21
2.4881759724
  0
LINE
  5
39A
100
AcDbEntity
  8
0
100
AcDbLine
 62
7
  6
CONTINUOUS
 10
4.950373988
 20
2.4381759724
 11
4.950373988
 21
2.4881759724
  0
LINE
  5
39B
100
AcDbEntity
  8
0
100
AcDbLine
 62
7
  6
CONTINUOUS
 10
4.9616367815
 20
2.4881759724
 11
4.9616367815
 21
2.4381759724
  0
LINE
  5
39C
100
AcDbEntity
  8
0
100
AcDbLine
 62
7
  6
CONTINUOUS
 10
4.9631019101
 20
2.4381759724
 11
4.9631019101
 21
2.4881759724
  0
LINE
  5
39D
100
AcDbEntity
  8
0
100
AcDbLine
 62
7
  6
CONTINUOUS
 10
4.9678282563
 20
2.4381759724
 11
4.9678282563
 21
2.4881759724
  0
LINE
  5
39E
100
AcDbEntity
  8
0
100
AcDbLine
 62
7
  6
CONTINUOUS
 10
4.9791442382
 20
2.4881759724
 11
4.9791442382
 21
2.4381759724
  0
LINE
  5
39F
100
AcDbEntity
  8
0
100
AcDbLine
 62
7
  6
CONTINUOUS
 10
4.9795426141
 20
3.8506759724
 11
4.9795426141
 21
3.8006759724
  0
LINE
  5
3A0
100
AcDbEntity
  8
0
100
AcDbLine
 62
7
  6
CONTINUOUS
 10
4.9797566584
 20
3.8506759724
 11
4.9797566584
 21
3.8006759724
  0
LINE
  5
3A1
100
AcDbEntity
  8
0
100
AcDbLine
 62
7
  6
CONTINUOUS
 10
4.9809339147
 20
3.8506759724
 11
4.9809339147
 21
3.8006759724
  0
LINE
  5
3A2
100
AcDbEntity
  8
0
100
AcDbLine
 62
7
  6
CONTINUOUS
 10
4.9810992484
 20
2.4381759724
 11
4.9810992484
 21
2.4881759724
  0
LINE
  5
3A3
100
AcDbEntity
  8
0
100
AcDbLine
 62
7
  6
CONTINUOUS
 10
4.9815751312
 20
3.8506759724
 11
4.9815751312
 21
3.8006759724
  0
LINE
  5
3A4
100
AcDbEntity
  8
0
100
AcDbLine
 62
7
  6
CONTINUOUS
 10
4.9839246027
 20
3.8506759724
 11
4.9839246027
 21
3.8006759724
  0
LINE
  5
3A5
100
AcDbEntity
  8
0
100
AcDbLine
 62
7
  6
CONTINUOUS
 10
4.9849902455
 20
3.8506759724
 11
4.9849902455
 21
3.8006759724
  0
LINE
  5
3A6
100
AcDbEntity
  8
0
100
AcDbLine
 62
7
  6
CONTINUOUS
 10
4.9860184517
 20
2.4381759724
 11
4.9860184517
 21
2.4881759724
  0
LINE
  5
3A7
100
AcDbEntity
  8
0
100
AcDbLine
 62
7
  6
CONTINUOUS
 10
4.9885018713
 20
3.8506759724
 11
4.9885018713
 21
3.8006759724
  0
LINE
  5
3A8
100
AcDbEntity
  8
0
100
AcDbLine
 62
7
  6
CONTINUOUS
 10
4.9899873772
 20
3.8506759724
 11
4.9899873772
 21
3.8006759724
  0
LINE
  5
3A9
100
AcDbEntity
  8
0
100
AcDbLine
 62
7
  6
CONTINUOUS
 10
4.9946461201
 20
3.8506759724
 11
4.9946461201
 21
3.8006759724
  0
LINE
  5
3AA
100
AcDbEntity
  8
0
100
AcDbLine
 62
7
  6
CONTINUOUS
 10
4.9965451279
 20
3.8506759724
 11
4.9965451279
 21
3.8006759724
  0
LINE
  5
3AB
100
AcDbEntity
  8
0
100
AcDbLine
 62
7
  6
CONTINUOUS
 10
4.9973660813
 20
2.4881759724
 11
4.9973660813
 21
2.4381759724
  0
LINE
  5
3AC
100
AcDbEntity
  8
0
100
AcDbLine
 62
7
  6
CONTINUOUS
 10
4.9998072517
 20
2.4381759724
 11
4.9998072517
 21
2.4881759724
  0
LINE
  5
3AD
100
AcDbEntity
  8
0
100
AcDbLine
 62
7
  6
CONTINUOUS
 10
5.0023310383
 20
3.8506759724
 11
5.0023310383
 21
3.8006759724
  0
LINE
  5
3AE
100
AcDbEntity
  8
0
100
AcDbLine
 62
7
  6
CONTINUOUS
 10
5.0046354163
 20
3.8506759724
 11
5.0046354163
 21
3.8006759724
  0
LINE
  5
3AF
100
AcDbEntity
  8
0
100
AcDbLine
 62
7
  6
CONTINUOUS
 10
5.0049099482
 20
2.4381759724
 11
5.0049099482
 21
2.4881759724
  0
LINE
  5
3B0
100
AcDbEntity
  8
0
100
AcDbLine
 62
7
  6
CONTINUOUS
 10
5.0115237181
 20
3.8506759724
 11
5.0115237181
 21
3.8006759724
  0
LINE
  5
3B1
100
AcDbEntity
  8
0
100
AcDbLine
 62
7
  6
CONTINUOUS
 10
5.0142235984
 20
3.8506759724
 11
5.0142235984
 21
3.8006759724
  0
LINE
  5
3B2
100
AcDbEntity
  8
0
100
AcDbLine
 62
7
  6
CONTINUOUS
 10
5.0162676247
 20
2.4881759724
 11
5.0162676247
 21
2.4381759724
  0
LINE
  5
3B3
100
AcDbEntity
  8
0
100
AcDbLine
 62
7
  6
CONTINUOUS
 10
5.0191903084
 20
2.4381759724
 11
5.0191903084
 21
2.4881759724
  0
LINE
  5
3B4
100
AcDbEntity
  8
0
100
AcDbLine
 62
7
  6
CONTINUOUS
 10
5.0221847948
 20
3.8506759724
 11
5.0221847948
 21
3.8006759724
  0
LINE
  5
3B5
100
AcDbEntity
  8
0
100
AcDbLine
 62
7
  6
CONTINUOUS
 10
5.0231845985
 20
2.5256759724
 11
5.0231845985
 21
3.8006759724
  0
LINE
  5
3B6
100
AcDbEntity
  8
0
100
AcDbLine
 62
7
  6
CONTINUOUS
 10
5.0244667848
 20
2.4381759724
 11
5.0244667848
 21
2.4881759724
  0
LINE
  5
3B7
100
AcDbEntity
  8
0
100
AcDbLine
 62
7
  6
CONTINUOUS
 10
5.0252686163
 20
3.8506759724
 11
5.0252686163
 21
3.8006759724
  0
LINE
  5
3B8
100
AcDbEntity
  8
0
100
AcDbLine
 62
7
  6
CONTINUOUS
 10
5.0342686163
 20
3.8506759724
 11
5.0342686163
 21
3.8006759724
  0
LINE
  5
3B9
100
AcDbEntity
  8
0
100
AcDbLine
 62
7
  6
CONTINUOUS
 10
5.0358128881
 20
2.4881759724
 11
5.0358128881
 21
2.4381759724
  0
LINE
  5
3BA
100
AcDbEntity
  8
0
100
AcDbLine
 62
7
  6
CONTINUOUS
 10
5.0377231734
 20
3.8506759724
 11
5.0377231734
 21
3.8006759724
  0
LINE
  5
3BB
100
AcDbEntity
  8
0
100
AcDbLine
 62
7
  6
CONTINUOUS
 10
5.0392115216
 20
2.4381759724
 11
5.0392115216
 21
2.4881759724
  0
LINE
  5
3BC
100
AcDbEntity
  8
0
100
AcDbLine
 62
7
  6
CONTINUOUS
 10
5.0446517338
 20
2.4381759724
 11
5.0446517338
 21
2.4881759724
  0
LINE
  5
3BD
100
AcDbEntity
  8
0
100
AcDbLine
 62
7
  6
CONTINUOUS
 10
5.0477234376
 20
3.8506759724
 11
5.0477234376
 21
3.8006759724
  0
LINE
  5
3BE
100
AcDbEntity
  8
0
100
AcDbLine
 62
7
  6
CONTINUOUS
 10
5.0515339375
 20
3.8506759724
 11
5.0515339375
 21
3.8006759724
  0
LINE
  5
3BF
100
AcDbEntity
  8
0
100
AcDbLine
 62
7
  6
CONTINUOUS
 10
5.0559646661
 20
2.4881759724
 11
5.0559646661
 21
2.4381759724
  0
LINE
  5
3C0
100
AcDbEntity
  8
0
100
AcDbLine
 62
7
  6
CONTINUOUS
 10
5.0598327799
 20
2.4381759724
 11
5.0598327799
 21
2.4881759724
  0
LINE
  5
3C1
100
AcDbEntity
  8
0
100
AcDbLine
 62
7
  6
CONTINUOUS
 10
5.0624916432
 20
3.8506759724
 11
5.0624916432
 21
3.8006759724
  0
LINE
  5
3C2
100
AcDbEntity
  8
0
100
AcDbLine
 62
7
  6
CONTINUOUS
 10
5.0654263722
 20
2.4381759724
 11
5.0654263722
 21
2.4881759724
  0
LINE
  5
3C3
100
AcDbEntity
  8
0
100
AcDbLine
 62
7
  6
CONTINUOUS
 10
5.0666417687
 20
3.8506759724
 11
5.0666417687
 21
3.8006759724
  0
LINE
  5
3C4
100
AcDbEntity
  8
0
100
AcDbLine
 62
7
  6
CONTINUOUS
 10
5.0766845985
 20
2.4881759724
 11
5.0766845985
 21
2.4381759724
  0
LINE
  5
3C5
100
AcDbEntity
  8
0
100
AcDbLine
 62
7
  6
CONTINUOUS
 10
5.0777575493
 20
3.8006759724
 11
5.0777575493
 21
3.8506759724
  0
LINE
  5
3C6
100
AcDbEntity
  8
0
100
AcDbLine
 62
7
  6
CONTINUOUS
 10
5.0785099934
 20
3.8506759724
 11
5.0785099934
 21
3.8006759724
  0
LINE
  5
3C7
100
AcDbEntity
  8
0
100
AcDbLine
 62
7
  6
CONTINUOUS
 10
5.0810148294
 20
2.4381759724
 11
5.0810148294
 21
2.4881759724
  0
LINE
  5
3C8
100
AcDbEntity
  8
0
100
AcDbLine
 62
7
  6
CONTINUOUS
 10
5.0829819731
 20
3.8506759724
 11
5.0829819731
 21
3.8006759724
  0
LINE
  5
3C9
100
AcDbEntity
  8
0
100
AcDbLine
 62
7
  6
CONTINUOUS
 10
5.0867511541
 20
2.4381759724
 11
5.0867511541
 21
2.4881759724
  0
LINE
  5
3CA
100
AcDbEntity
  8
0
100
AcDbLine
 62
7
  6
CONTINUOUS
 10
5.094219303
 20
3.8006759724
 11
5.094219303
 21
3.8506759724
  0
LINE
  5
3CB
100
AcDbEntity
  8
0
100
AcDbLine
 62
7
  6
CONTINUOUS
 10
5.0957098951
 20
3.8506759724
 11
5.0957098951
 21
3.8006759724
  0
LINE
  5
3CC
100
AcDbEntity
  8
0
100
AcDbLine
 62
7
  6
CONTINUOUS
 10
5.0979332438
 20
2.4881759724
 11
5.0979332438
 21
2.4381759724
  0
LINE
  5
3CD
100
AcDbEntity
  8
0
100
AcDbLine
 62
7
  6
CONTINUOUS
 10
5.1004845792
 20
3.8506759724
 11
5.1004845792
 21
3.8006759724
  0
LINE
  5
3CE
100
AcDbEntity
  8
0
100
AcDbLine
 62
7
  6
CONTINUOUS
 10
5.1027173491
 20
2.4381759724
 11
5.1027173491
 21
2.4881759724
  0
LINE
  5
3CF
100
AcDbEntity
  8
0
100
AcDbLine
 62
7
  6
CONTINUOUS
 10
5.1044345985
 20
3.9281759724
 11
5.1044345985
 21
3.9731759724
  0
LINE
  5
3D0
100
AcDbEntity
  8
0
100
AcDbLine
 62
7
  6
CONTINUOUS
 10
5.1085854866
 20
2.4381759724
 11
5.1085854866
 21
2.4881759724
  0
LINE
  5
3D1
100
AcDbEntity
  8
0
100
AcDbLine
 62
7
  6
CONTINUOUS
 10
5.1117953385
 20
3.8006759724
 11
5.1117953385
 21
3.8506759724
  0
LINE
  5
3D2
100
AcDbEntity
  8
0
100
AcDbLine
 62
7
  6
CONTINUOUS
 10
5.1140176957
 20
3.8506759724
 11
5.1140176957
 21
3.8006759724
  0
LINE
  5
3D3
100
AcDbEntity
  8
0
100
AcDbLine
 62
7
  6
CONTINUOUS
 10
5.1190746383
 20
3.8506759724
 11
5.1190746383
 21
3.8006759724
  0
LINE
  5
3D4
100
AcDbEntity
  8
0
100
AcDbLine
 62
7
  6
CONTINUOUS
 10
5.1196701541
 20
2.4881759724
 11
5.1196701541
 21
2.4381759724
  0
LINE
  5
3D5
100
AcDbEntity
  8
0
100
AcDbLine
 62
7
  6
CONTINUOUS
 10
5.1248990268
 20
2.4381759724
 11
5.1248990268
 21
2.4881759724
  0
LINE
  5
3D6
100
AcDbEntity
  8
0
100
AcDbLine
 62
7
  6
CONTINUOUS
 10
5.1304103926
 20
3.8006759724
 11
5.1304103926
 21
3.8506759724
  0
LINE
  5
3D7
100
AcDbEntity
  8
0
100
AcDbLine
 62
7
  6
CONTINUOUS
 10
5.130887807
 20
2.4381759724
 11
5.130887807
 21
2.4881759724
  0
LINE
  5
3D8
100
AcDbEntity
  8
0
100
AcDbLine
 62
7
  6
CONTINUOUS
 10
5.1333549984
 20
3.8506759724
 11
5.1333549984
 21
3.8006759724
  0
LINE
  5
3D9
100
AcDbEntity
  8
0
100
AcDbLine
 62
7
  6
CONTINUOUS
 10
5.1356845985
 20
3.9881759724
 11
5.1356845985
 21
6.8806759724
  0
LINE
  5
3DA
100
AcDbEntity
  8
0
100
AcDbLine
 62
7
  6
CONTINUOUS
 10
5.1386725448
 20
3.8506759724
 11
5.1386725448
 21
3.8006759724
  0
LINE
  5
3DB
100
AcDbEntity
  8
0
100
AcDbLine
 62
7
  6
CONTINUOUS
 10
5.1418539518
 20
2.4881759724
 11
5.1418539518
 21
2.4381759724
  0
LINE
  5
3DC
100
AcDbEntity
  8
0
100
AcDbLine
 62
7
  6
CONTINUOUS
 10
5.1475176386
 20
2.4381759724
 11
5.1475176386
 21
2.4881759724
  0
LINE
  5
3DD
100
AcDbEntity
  8
0
100
AcDbLine
 62
7
  6
CONTINUOUS
 10
5.1499847527
 20
3.8006759724
 11
5.1499847527
 21
3.8506759724
  0
LINE
  5
3DE
100
AcDbEntity
  8
0
100
AcDbLine
 62
7
  6
CONTINUOUS
 10
5.1536156613
 20
2.4381759724
 11
5.1536156613
 21
2.4881759724
  0
LINE
  5
3DF
100
AcDbEntity
  8
0
100
AcDbLine
 62
7
  6
CONTINUOUS
 10
5.1536389979
 20
3.8506759724
 11
5.1536389979
 21
3.8006759724
  0
LINE
  5
3E0
100
AcDbEntity
  8
0
100
AcDbLine
 62
7
  6
CONTINUOUS
 10
5.1591943776
 20
3.8506759724
 11
5.1591943776
 21
3.8006759724
  0
LINE
  5
3E1
100
AcDbEntity
  8
0
100
AcDbLine
 62
7
  6
CONTINUOUS
 10
5.1644424089
 20
2.4881759724
 11
5.1644424089
 21
2.4381759724
  0
LINE
  5
3E2
100
AcDbEntity
  8
0
100
AcDbLine
 62
7
  6
CONTINUOUS
 10
5.1704345985
 20
3.8006759724
 11
5.1704345985
 21
3.8506759724
  0
LINE
  5
3E3
100
AcDbEntity
  8
0
100
AcDbLine
 62
7
  6
CONTINUOUS
 10
5.1705301285
 20
2.4381759724
 11
5.1705301285
 21
2.4881759724
  0
LINE
  5
3E4
100
AcDbEntity
  8
0
100
AcDbLine
 62
7
  6
CONTINUOUS
 10
5.1747828349
 20
3.8506759724
 11
5.1747828349
 21
3.8006759724
  0
LINE
  5
3E5
100
AcDbEntity
  8
0
100
AcDbLine
 62
7
  6
CONTINUOUS
 10
5.1767257859
 20
2.4381759724
 11
5.1767257859
 21
2.4881759724
  0
LINE
  5
3E6
100
AcDbEntity
  8
0
100
AcDbLine
 62
7
  6
CONTINUOUS
 10
5.180552259
 20
3.8506759724
 11
5.180552259
 21
3.8006759724
  0
LINE
  5
3E7
100
AcDbEntity
  8
0
100
AcDbLine
 62
7
  6
CONTINUOUS
 10
5.1873925269
 20
2.4881759724
 11
5.1873925269
 21
2.4381759724
  0
LINE
  5
3E8
100
AcDbEntity
  8
0
100
AcDbLine
 62
7
  6
CONTINUOUS
 10
5.1916723605
 20
3.8006759724
 11
5.1916723605
 21
3.8506759724
  0
LINE
  5
3E9
100
AcDbEntity
  8
0
100
AcDbLine
 62
7
  6
CONTINUOUS
 10
5.193892691
 20
2.4381759724
 11
5.193892691
 21
2.4881759724
  0
LINE
  5
3EA
100
AcDbEntity
  8
0
100
AcDbLine
 62
7
  6
CONTINUOUS
 10
5.1966959684
 20
3.8506759724
 11
5.1966959684
 21
3.8006759724
  0
LINE
  5
3EB
100
AcDbEntity
  8
0
100
AcDbLine
 62
7
  6
CONTINUOUS
 10
5.2001741894
 20
2.4381759724
 11
5.2001741894
 21
2.4881759724
  0
LINE
  5
3EC
100
AcDbEntity
  8
0
100
AcDbLine
 62
7
  6
CONTINUOUS
 10
5.2026547313
 20
3.8506759724
 11
5.2026547313
 21
3.8006759724
  0
LINE
  5
3ED
100
AcDbEntity
  8
0
100
AcDbLine
 62
7
  6
CONTINUOUS
 10
5.2106606189
 20
2.4881759724
 11
5.2106606189
 21
2.4381759724
  0
LINE
  5
3EE
100
AcDbEntity
  8
0
100
AcDbLine
 62
7
  6
CONTINUOUS
 10
5.2136070954
 20
3.8006759724
 11
5.2136070954
 21
3.8506759724
  0
LINE
  5
3EF
100
AcDbEntity
  8
0
100
AcDbLine
 62
7
  6
CONTINUOUS
 10
5.2175608542
 20
2.4381759724
 11
5.2175608542
 21
2.4881759724
  0
LINE
  5
3F0
100
AcDbEntity
  8
0
100
AcDbLine
 62
7
  6
CONTINUOUS
 10
5.2192845629
 20
3.8506759724
 11
5.2192845629
 21
3.8006759724
  0
LINE
  5
3F1
100
AcDbEntity
  8
0
100
AcDbLine
 62
7
  6
CONTINUOUS
 10
5.2239162362
 20
2.4381759724
 11
5.2239162362
 21
2.4881759724
  0
LINE
  5
3F2
100
AcDbEntity
  8
0
100
AcDbLine
 62
7
  6
CONTINUOUS
 10
5.2254071483
 20
3.8506759724
 11
5.2254071483
 21
3.8006759724
  0
LINE
  5
3F3
100
AcDbEntity
  8
0
100
AcDbLine
 62
7
  6
CONTINUOUS
 10
5.234202393
 20
2.4881759724
 11
5.234202393
 21
2.4381759724
  0
LINE
  5
3F4
100
AcDbEntity
  8
0
100
AcDbLine
 62
7
  6
CONTINUOUS
 10
5.2361448753
 20
3.8006759724
 11
5.2361448753
 21
3.8506759724
  0
LINE
  5
3F5
100
AcDbEntity
  8
0
100
AcDbLine
 62
7
  6
CONTINUOUS
 10
5.2414895644
 20
2.4381759724
 11
5.2414895644
 21
2.4881759724
  0
LINE
  5
3F6
100
AcDbEntity
  8
0
100
AcDbLine
 62
7
  6
CONTINUOUS
 10
5.2424518906
 20
3.8506759724
 11
5.2424518906
 21
3.8006759724
  0
LINE
  5
3F7
100
AcDbEntity
  8
0
100
AcDbLine
 62
7
  6
CONTINUOUS
 10
5.2479067322
 20
2.4381759724
 11
5.2479067322
 21
2.4881759724
  0
LINE
  5
3F8
100
AcDbEntity
  8
0
100
AcDbLine
 62
7
  6
CONTINUOUS
 10
5.2487120806
 20
3.8506759724
 11
5.2487120806
 21
3.8006759724
  0
LINE
  5
3F9
100
AcDbEntity
  8
0
100
AcDbLine
 62
7
  6
CONTINUOUS
 10
5.2579730358
 20
2.4881759724
 11
5.2579730358
 21
2.4381759724
  0
LINE
  5
3FA
100
AcDbEntity
  8
0
100
AcDbLine
 62
7
  6
CONTINUOUS
 10
5.2591891899
 20
3.8006759724
 11
5.2591891899
 21
3.8506759724
  0
LINE
  5
3FB
100
AcDbEntity
  8
0
100
AcDbLine
 62
7
  6
CONTINUOUS
 10
5.2656332718
 20
2.4381759724
 11
5.2656332718
 21
2.4881759724
  0
LINE
  5
3FC
100
AcDbEntity
  8
0
100
AcDbLine
 62
7
  6
CONTINUOUS
 10
5.2660987455
 20
3.8506759724
 11
5.2660987455
 21
3.8006759724
  0
LINE
  5
3FD
100
AcDbEntity
  8
0
100
AcDbLine
 62
7
  6
CONTINUOUS
 10
5.2721000101
 20
2.4381759724
 11
5.2721000101
 21
2.4881759724
  0
LINE
  5
3FE
100
AcDbEntity
  8
0
100
AcDbLine
 62
7
  6
CONTINUOUS
 10
5.272469733
 20
3.8506759724
 11
5.272469733
 21
3.8006759724
  0
LINE
  5
3FF
100
AcDbEntity
  8
0
100
AcDbLine
 62
7
  6
CONTINUOUS
 10
5.2819272987
 20
2.4881759724
 11
5.2819272987
 21
2.4381759724
  0
LINE
  5
400
100
AcDbEntity
  8
0
100
AcDbLine
 62
7
  6
CONTINUOUS
 10
5.28264136
 20
3.8006759724
 11
5.28264136
 21
3.8506759724
  0
LINE
  5
401
100
AcDbEntity
  8
0
100
AcDbLine
 62
7
  6
CONTINUOUS
 10
5.2899460176
 20
2.4381759724
 11
5.2899460176
 21
2.4881759724
  0
LINE
  5
402
100
AcDbEntity
  8
0
100
AcDbLine
 62
7
  6
CONTINUOUS
 10
5.2901238681
 20
3.8506759724
 11
5.2901238681
 21
3.8006759724
  0
LINE
  5
403
100
AcDbEntity
  8
0
100
AcDbLine
 62
7
  6
CONTINUOUS
 10
5.2964500165
 20
2.4381759724
 11
5.2964500165
 21
2.4881759724
  0
LINE
  5
404
100
AcDbEntity
  8
0
100
AcDbLine
 62
7
  6
CONTINUOUS
 10
5.2965783715
 20
3.8506759724
 11
5.2965783715
 21
3.8006759724
  0
LINE
  5
405
100
AcDbEntity
  8
0
100
AcDbLine
 62
7
  6
CONTINUOUS
 10
5.3060195834
 20
2.4881759724
 11
5.3060195834
 21
2.4381759724
  0
LINE
  5
406
100
AcDbEntity
  8
0
100
AcDbLine
 62
7
  6
CONTINUOUS
 10
5.3064009598
 20
3.8006759724
 11
5.3064009598
 21
3.8506759724
  0
LINE
  5
407
100
AcDbEntity
  8
0
100
AcDbLine
 62
7
  6
CONTINUOUS
 10
5.3143815211
 20
2.4381759724
 11
5.3143815211
 21
2.4881759724
  0
LINE
  5
408
100
AcDbEntity
  8
0
100
AcDbLine
 62
7
  6
CONTINUOUS
 10
5.314424379
 20
3.8506759724
 11
5.314424379
 21
3.8006759724
  0
LINE
  5
409
100
AcDbEntity
  8
0
100
AcDbLine
 62
7
  6
CONTINUOUS
 10
5.3209103999
 20
2.4381759724
 11
5.3209103999
 21
2.4881759724
  0
LINE
  5
40A
100
AcDbEntity
  8
0
100
AcDbLine
 62
7
  6
CONTINUOUS
 10
5.3209347593
 20
3.8506759724
 11
5.3209347593
 21
3.8006759724
  0
LINE
  5
40B
100
AcDbEntity
  8
0
100
AcDbLine
 62
7
  6
CONTINUOUS
 10
5.3302040288
 20
2.4881759724
 11
5.3302040288
 21
2.4381759724
  0
LINE
  5
40C
100
AcDbEntity
  8
0
100
AcDbLine
 62
7
  6
CONTINUOUS
 10
5.3303662469
 20
3.8006759724
 11
5.3303662469
 21
3.8506759724
  0
LINE
  5
40D
100
AcDbEntity
  8
0
100
AcDbLine
 62
7
  6
CONTINUOUS
 10
5.3388932679
 20
2.4381759724
 11
5.3388932679
 21
2.4881759724
  0
LINE
  5
40E
100
AcDbEntity
  8
0
100
AcDbLine
 62
7
  6
CONTINUOUS
 10
5.3388962199
 20
3.8506759724
 11
5.3388962199
 21
3.8006759724
  0
LINE
  5
40F
100
AcDbEntity
  8
0
100
AcDbLine
 62
7
  6
CONTINUOUS
 10
5.3454345985
 20
3.8506759724
 11
5.3454345985
 21
3.8006759724
  0
LINE
  5
410
100
AcDbEntity
  8
0
100
AcDbLine
 62
7
  6
CONTINUOUS
 10
5.3454345985
 20
2.4381759724
 11
5.3454345985
 21
2.4881759724
  0
LINE
  5
411
100
AcDbEntity
  8
0
100
AcDbLine
 62
7
  6
CONTINUOUS
 10
5.3544345985
 20
2.4881759724
 11
5.3544345985
 21
2.4381759724
  0
LINE
  5
412
100
AcDbEntity
  8
0
100
AcDbLine
 62
7
  6
CONTINUOUS
 10
5.3544345985
 20
3.8006759724
 11
5.3544345985
 21
3.8506759724
  0
LINE
  5
413
100
AcDbEntity
  8
0
100
AcDbLine
 62
7
  6
CONTINUOUS
 10
5.3634345985
 20
3.8506759724
 11
5.3634345985
 21
3.8006759724
  0
LINE
  5
414
100
AcDbEntity
  8
0
100
AcDbLine
 62
7
  6
CONTINUOUS
 10
5.3634345985
 20
2.4381759724
 11
5.3634345985
 21
2.4881759724
  0
LINE
  5
415
100
AcDbEntity
  8
0
100
AcDbLine
 62
7
  6
CONTINUOUS
 10
5.3699729771
 20
3.8506759724
 11
5.3699729771
 21
3.8006759724
  0
LINE
  5
416
100
AcDbEntity
  8
0
100
AcDbLine
 62
7
  6
CONTINUOUS
 10
5.3699759291
 20
2.4381759724
 11
5.3699759291
 21
2.4881759724
  0
LINE
  5
417
100
AcDbEntity
  8
0
100
AcDbLine
 62
7
  6
CONTINUOUS
 10
5.3785029501
 20
3.8006759724
 11
5.3785029501
 21
3.8506759724
  0
LINE
  5
418
100
AcDbEntity
  8
0
100
AcDbLine
 62
7
  6
CONTINUOUS
 10
5.3786651682
 20
2.4881759724
 11
5.3786651682
 21
2.4381759724
  0
LINE
  5
419
100
AcDbEntity
  8
0
100
AcDbLine
 62
7
  6
CONTINUOUS
 10
5.3879344377
 20
3.8506759724
 11
5.3879344377
 21
3.8006759724
  0
LINE
  5
41A
100
AcDbEntity
  8
0
100
AcDbLine
 62
7
  6
CONTINUOUS
 10
5.3879587971
 20
2.4381759724
 11
5.3879587971
 21
2.4881759724
  0
LINE
  5
41B
100
AcDbEntity
  8
0
100
AcDbLine
 62
7
  6
CONTINUOUS
 10
5.394444818
 20
3.8506759724
 11
5.394444818
 21
3.8006759724
  0
LINE
  5
41C
100
AcDbEntity
  8
0
100
AcDbLine
 62
7
  6
CONTINUOUS
 10
5.3944876759
 20
2.4381759724
 11
5.3944876759
 21
2.4881759724
  0
LINE
  5
41D
100
AcDbEntity
  8
0
100
AcDbLine
 62
7
  6
CONTINUOUS
 10
2.9044345985
 20
2.3156759724
 11
2.8794345985
 21
2.2906759724
  0
LINE
  5
41E
100
AcDbEntity
  8
0
100
AcDbLine
 62
7
  6
CONTINUOUS
 10
5.4024682372
 20
3.8006759724
 11
5.4024682372
 21
3.8506759724
  0
LINE
  5
41F
100
AcDbEntity
  8
0
100
AcDbLine
 62
7
  6
CONTINUOUS
 10
5.4028496136
 20
2.4881759724
 11
5.4028496136
 21
2.4381759724
  0
LINE
  5
420
100
AcDbEntity
  8
0
100
AcDbLine
 62
7
  6
CONTINUOUS
 10
5.4122908255
 20
3.8506759724
 11
5.4122908255
 21
3.8006759724
  0
LINE
  5
421
100
AcDbEntity
  8
0
100
AcDbLine
 62
7
  6
CONTINUOUS
 10
5.4124191805
 20
2.4381759724
 11
5.4124191805
 21
2.4881759724
  0
LINE
  5
422
100
AcDbEntity
  8
0
100
AcDbLine
 62
7
  6
CONTINUOUS
 10
5.4187453289
 20
3.8506759724
 11
5.4187453289
 21
3.8006759724
  0
LINE
  5
423
100
AcDbEntity
  8
0
100
AcDbLine
 62
7
  6
CONTINUOUS
 10
5.4189231794
 20
2.4381759724
 11
5.4189231794
 21
2.4881759724
  0
LINE
  5
424
100
AcDbEntity
  8
0
100
AcDbLine
 62
7
  6
CONTINUOUS
 10
5.426227837
 20
3.8006759724
 11
5.426227837
 21
3.8506759724
  0
LINE
  5
425
100
AcDbEntity
  8
0
100
AcDbLine
 62
7
  6
CONTINUOUS
 10
5.4269418983
 20
2.4881759724
 11
5.4269418983
 21
2.4381759724
  0
LINE
  5
426
100
AcDbEntity
  8
0
100
AcDbLine
 62
7
  6
CONTINUOUS
 10
5.436399464
 20
3.8506759724
 11
5.436399464
 21
3.8006759724
  0
LINE
  5
427
100
AcDbEntity
  8
0
100
AcDbLine
 62
7
  6
CONTINUOUS
 10
5.4367691869
 20
2.4381759724
 11
5.4367691869
 21
2.4881759724
  0
LINE
  5
428
100
AcDbEntity
  8
0
100
AcDbLine
 62
7
  6
CONTINUOUS
 10
5.4427704515
 20
3.8506759724
 11
5.4427704515
 21
3.8006759724
  0
LINE
  5
429
100
AcDbEntity
  8
0
100
AcDbLine
 62
7
  6
CONTINUOUS
 10
5.4432359252
 20
2.4381759724
 11
5.4432359252
 21
2.4881759724
  0
LINE
  5
42A
100
AcDbEntity
  8
0
100
AcDbLine
 62
7
  6
CONTINUOUS
 10
5.4496800071
 20
3.8006759724
 11
5.4496800071
 21
3.8506759724
  0
LINE
  5
42B
100
AcDbEntity
  8
0
100
AcDbLine
 62
7
  6
CONTINUOUS
 10
5.4508961612
 20
2.4881759724
 11
5.4508961612
 21
2.4381759724
  0
LINE
  5
42C
100
AcDbEntity
  8
0
100
AcDbLine
 62
7
  6
CONTINUOUS
 10
5.4601571164
 20
3.8506759724
 11
5.4601571164
 21
3.8006759724
  0
LINE
  5
42D
100
AcDbEntity
  8
0
100
AcDbLine
 62
7
  6
CONTINUOUS
 10
5.4609624647
 20
2.4381759724
 11
5.4609624647
 21
2.4881759724
  0
LINE
  5
42E
100
AcDbEntity
  8
0
100
AcDbLine
 62
7
  6
CONTINUOUS
 10
5.4664173064
 20
3.8506759724
 11
5.4664173064
 21
3.8006759724
  0
LINE
  5
42F
100
AcDbEntity
  8
0
100
AcDbLine
 62
7
  6
CONTINUOUS
 10
5.4673796326
 20
2.4381759724
 11
5.4673796326
 21
2.4881759724
  0
LINE
  5
430
100
AcDbEntity
  8
0
100
AcDbLine
 62
7
  6
CONTINUOUS
 10
5.4727243217
 20
3.8006759724
 11
5.4727243217
 21
3.8506759724
  0
LINE
  5
431
100
AcDbEntity
  8
0
100
AcDbLine
 62
7
  6
CONTINUOUS
 10
5.474666804
 20
2.4881759724
 11
5.474666804
 21
2.4381759724
  0
LINE
  5
432
100
AcDbEntity
  8
0
100
AcDbLine
 62
7
  6
CONTINUOUS
 10
5.4834620487
 20
3.8506759724
 11
5.4834620487
 21
3.8006759724
  0
LINE
  5
433
100
AcDbEntity
  8
0
100
AcDbLine
 62
7
  6
CONTINUOUS
 10
5.4849529607
 20
2.4381759724
 11
5.4849529607
 21
2.4881759724
  0
LINE
  5
434
100
AcDbEntity
  8
0
100
AcDbLine
 62
7
  6
CONTINUOUS
 10
5.4895846341
 20
3.8506759724
 11
5.4895846341
 21
3.8006759724
  0
LINE
  5
435
100
AcDbEntity
  8
0
100
AcDbLine
 62
7
  6
CONTINUOUS
 10
5.4913083428
 20
2.4381759724
 11
5.4913083428
 21
2.4881759724
  0
LINE
  5
436
100
AcDbEntity
  8
0
100
AcDbLine
 62
7
  6
CONTINUOUS
 10
5.4952621016
 20
3.8006759724
 11
5.4952621016
 21
3.8506759724
  0
LINE
  5
437
100
AcDbEntity
  8
0
100
AcDbLine
 62
7
  6
CONTINUOUS
 10
5.498208578
 20
2.4881759724
 11
5.498208578
 21
2.4381759724
  0
LINE
  5
438
100
AcDbEntity
  8
0
100
AcDbLine
 62
7
  6
CONTINUOUS
 10
5.5062144657
 20
3.8506759724
 11
5.5062144657
 21
3.8006759724
  0
LINE
  5
439
100
AcDbEntity
  8
0
100
AcDbLine
 62
7
  6
CONTINUOUS
 10
5.5086950076
 20
2.4381759724
 11
5.5086950076
 21
2.4881759724
  0
LINE
  5
43A
100
AcDbEntity
  8
0
100
AcDbLine
 62
7
  6
CONTINUOUS
 10
5.5121732286
 20
3.8506759724
 11
5.5121732286
 21
3.8006759724
  0
LINE
  5
43B
100
AcDbEntity
  8
0
100
AcDbLine
 62
7
  6
CONTINUOUS
 10
5.514976506
 20
2.4381759724
 11
5.514976506
 21
2.4881759724
  0
LINE
  5
43C
100
AcDbEntity
  8
0
100
AcDbLine
 62
7
  6
CONTINUOUS
 10
5.5171968365
 20
3.8006759724
 11
5.5171968365
 21
3.8506759724
  0
LINE
  5
43D
100
AcDbEntity
  8
0
100
AcDbLine
 62
7
  6
CONTINUOUS
 10
5.5214766701
 20
2.4881759724
 11
5.5214766701
 21
2.4381759724
  0
LINE
  5
43E
100
AcDbEntity
  8
0
100
AcDbLine
 62
7
  6
CONTINUOUS
 10
5.5283169379
 20
3.8506759724
 11
5.5283169379
 21
3.8006759724
  0
LINE
  5
43F
100
AcDbEntity
  8
0
100
AcDbLine
 62
7
  6
CONTINUOUS
 10
5.5321434111
 20
2.4381759724
 11
5.5321434111
 21
2.4881759724
  0
LINE
  5
440
100
AcDbEntity
  8
0
100
AcDbLine
 62
7
  6
CONTINUOUS
 10
5.5340863621
 20
3.8506759724
 11
5.5340863621
 21
3.8006759724
  0
LINE
  5
441
100
AcDbEntity
  8
0
100
AcDbLine
 62
7
  6
CONTINUOUS
 10
5.5383390685
 20
2.4381759724
 11
5.5383390685
 21
2.4881759724
  0
LINE
  5
442
100
AcDbEntity
  8
0
100
AcDbLine
 62
7
  6
CONTINUOUS
 10
5.5384345985
 20
3.8006759724
 11
5.5384345985
 21
3.8506759724
  0
LINE
  5
443
100
AcDbEntity
  8
0
100
AcDbLine
 62
7
  6
CONTINUOUS
 10
5.5444267881
 20
2.4881759724
 11
5.5444267881
 21
2.4381759724
  0
LINE
  5
444
100
AcDbEntity
  8
0
100
AcDbLine
 62
7
  6
CONTINUOUS
 10
5.5496748194
 20
3.8506759724
 11
5.5496748194
 21
3.8006759724
  0
LINE
  5
445
100
AcDbEntity
  8
0
100
AcDbLine
 62
7
  6
CONTINUOUS
 10
5.5552301991
 20
3.8506759724
 11
5.5552301991
 21
3.8006759724
  0
LINE
  5
446
100
AcDbEntity
  8
0
100
AcDbLine
 62
7
  6
CONTINUOUS
 10
5.5552535357
 20
2.4381759724
 11
5.5552535357
 21
2.4881759724
  0
LINE
  5
447
100
AcDbEntity
  8
0
100
AcDbLine
 62
7
  6
CONTINUOUS
 10
5.5588844442
 20
3.8006759724
 11
5.5588844442
 21
3.8506759724
  0
LINE
  5
448
100
AcDbEntity
  8
0
100
AcDbLine
 62
7
  6
CONTINUOUS
 10
5.5613515584
 20
2.4381759724
 11
5.5613515584
 21
2.4881759724
  0
LINE
  5
449
100
AcDbEntity
  8
0
100
AcDbLine
 62
7
  6
CONTINUOUS
 10
5.5670152452
 20
2.4881759724
 11
5.5670152452
 21
2.4381759724
  0
LINE
  5
44A
100
AcDbEntity
  8
0
100
AcDbLine
 62
7
  6
CONTINUOUS
 10
5.5701966522
 20
3.8506759724
 11
5.5701966522
 21
3.8006759724
  0
LINE
  5
44B
100
AcDbEntity
  8
0
100
AcDbLine
 62
7
  6
CONTINUOUS
 10
5.5731845985
 20
3.9881759724
 11
5.5731845985
 21
6.8806759724
  0
LINE
  5
44C
100
AcDbEntity
  8
0
100
AcDbLine
 62
7
  6
CONTINUOUS
 10
5.5755141986
 20
3.8506759724
 11
5.5755141986
 21
3.8006759724
  0
LINE
  5
44D
100
AcDbEntity
  8
0
100
AcDbLine
 62
7
  6
CONTINUOUS
 10
5.57798139
 20
2.4381759724
 11
5.57798139
 21
2.4881759724
  0
LINE
  5
44E
100
AcDbEntity
  8
0
100
AcDbLine
 62
7
  6
CONTINUOUS
 10
5.5784588044
 20
3.8006759724
 11
5.5784588044
 21
3.8506759724
  0
LINE
  5
44F
100
AcDbEntity
  8
0
100
AcDbLine
 62
7
  6
CONTINUOUS
 10
5.5839701702
 20
2.4381759724
 11
5.5839701702
 21
2.4881759724
  0
LINE
  5
450
100
AcDbEntity
  8
0
100
AcDbLine
 62
7
  6
CONTINUOUS
 10
5.5891990429
 20
2.4881759724
 11
5.5891990429
 21
2.4381759724
  0
LINE
  5
451
100
AcDbEntity
  8
0
100
AcDbLine
 62
7
  6
CONTINUOUS
 10
5.5897945587
 20
3.8506759724
 11
5.5897945587
 21
3.8006759724
  0
LINE
  5
452
100
AcDbEntity
  8
0
100
AcDbLine
 62
7
  6
CONTINUOUS
 10
5.5948515013
 20
3.8506759724
 11
5.5948515013
 21
3.8006759724
  0
LINE
  5
453
100
AcDbEntity
  8
0
100
AcDbLine
 62
7
  6
CONTINUOUS
 10
5.5970738585
 20
3.8006759724
 11
5.5970738585
 21
3.8506759724
  0
LINE
  5
454
100
AcDbEntity
  8
0
100
AcDbLine
 62
7
  6
CONTINUOUS
 10
5.6002837103
 20
2.4381759724
 11
5.6002837103
 21
2.4881759724
  0
LINE
  5
455
100
AcDbEntity
  8
0
100
AcDbLine
 62
7
  6
CONTINUOUS
 10
5.6044345985
 20
3.9281759724
 11
5.6044345985
 21
3.9731759724
  0
LINE
  5
456
100
AcDbEntity
  8
0
100
AcDbLine
 62
7
  6
CONTINUOUS
 10
5.6061518479
 20
2.4381759724
 11
5.6061518479
 21
2.4881759724
  0
LINE
  5
457
100
AcDbEntity
  8
0
100
AcDbLine
 62
7
  6
CONTINUOUS
 10
5.6083846178
 20
3.8506759724
 11
5.6083846178
 21
3.8006759724
  0
LINE
  5
458
100
AcDbEntity
  8
0
100
AcDbLine
 62
7
  6
CONTINUOUS
 10
5.6109359531
 20
2.4881759724
 11
5.6109359531
 21
2.4381759724
  0
LINE
  5
459
100
AcDbEntity
  8
0
100
AcDbLine
 62
7
  6
CONTINUOUS
 10
5.6131593019
 20
3.8506759724
 11
5.6131593019
 21
3.8006759724
  0
LINE
  5
45A
100
AcDbEntity
  8
0
100
AcDbLine
 62
7
  6
CONTINUOUS
 10
5.614649894
 20
3.8006759724
 11
5.614649894
 21
3.8506759724
  0
LINE
  5
45B
100
AcDbEntity
  8
0
100
AcDbLine
 62
7
  6
CONTINUOUS
 10
5.6221180429
 20
2.4381759724
 11
5.6221180429
 21
2.4881759724
  0
LINE
  5
45C
100
AcDbEntity
  8
0
100
AcDbLine
 62
7
  6
CONTINUOUS
 10
5.6258872239
 20
3.8506759724
 11
5.6258872239
 21
3.8006759724
  0
LINE
  5
45D
100
AcDbEntity
  8
0
100
AcDbLine
 62
7
  6
CONTINUOUS
 10
5.6278543676
 20
2.4381759724
 11
5.6278543676
 21
2.4881759724
  0
LINE
  5
45E
100
AcDbEntity
  8
0
100
AcDbLine
 62
7
  6
CONTINUOUS
 10
5.6303592036
 20
3.8506759724
 11
5.6303592036
 21
3.8006759724
  0
LINE
  5
45F
100
AcDbEntity
  8
0
100
AcDbLine
 62
7
  6
CONTINUOUS
 10
5.6311116476
 20
3.8006759724
 11
5.6311116476
 21
3.8506759724
  0
LINE
  5
460
100
AcDbEntity
  8
0
100
AcDbLine
 62
7
  6
CONTINUOUS
 10
5.6321845985
 20
2.4881759724
 11
5.6321845985
 21
2.4381759724
  0
LINE
  5
461
100
AcDbEntity
  8
0
100
AcDbLine
 62
7
  6
CONTINUOUS
 10
5.6422274282
 20
3.8506759724
 11
5.6422274282
 21
3.8006759724
  0
LINE
  5
462
100
AcDbEntity
  8
0
100
AcDbLine
 62
7
  6
CONTINUOUS
 10
5.6434428248
 20
2.4381759724
 11
5.6434428248
 21
2.4881759724
  0
LINE
  5
463
100
AcDbEntity
  8
0
100
AcDbLine
 62
7
  6
CONTINUOUS
 10
5.6463775537
 20
3.8506759724
 11
5.6463775537
 21
3.8006759724
  0
LINE
  5
464
100
AcDbEntity
  8
0
100
AcDbLine
 62
7
  6
CONTINUOUS
 10
5.6490364171
 20
2.4381759724
 11
5.6490364171
 21
2.4881759724
  0
LINE
  5
465
100
AcDbEntity
  8
0
100
AcDbLine
 62
7
  6
CONTINUOUS
 10
5.6529045309
 20
2.4881759724
 11
5.6529045309
 21
2.4381759724
  0
LINE
  5
466
100
AcDbEntity
  8
0
100
AcDbLine
 62
7
  6
CONTINUOUS
 10
5.6573352595
 20
3.8506759724
 11
5.6573352595
 21
3.8006759724
  0
LINE
  5
467
100
AcDbEntity
  8
0
100
AcDbLine
 62
7
  6
CONTINUOUS
 10
5.6611457594
 20
3.8506759724
 11
5.6611457594
 21
3.8006759724
  0
LINE
  5
468
100
AcDbEntity
  8
0
100
AcDbLine
 62
7
  6
CONTINUOUS
 10
5.6642174632
 20
2.4381759724
 11
5.6642174632
 21
2.4881759724
  0
LINE
  5
469
100
AcDbEntity
  8
0
100
AcDbLine
 62
7
  6
CONTINUOUS
 10
5.6696576754
 20
2.4381759724
 11
5.6696576754
 21
2.4881759724
  0
LINE
  5
46A
100
AcDbEntity
  8
0
100
AcDbLine
 62
7
  6
CONTINUOUS
 10
5.6711460236
 20
3.8506759724
 11
5.6711460236
 21
3.8006759724
  0
LINE
  5
46B
100
AcDbEntity
  8
0
100
AcDbLine
 62
7
  6
CONTINUOUS
 10
5.6730563089
 20
2.4881759724
 11
5.6730563089
 21
2.4381759724
  0
LINE
  5
46C
100
AcDbEntity
  8
0
100
AcDbLine
 62
7
  6
CONTINUOUS
 10
5.6746005807
 20
3.8506759724
 11
5.6746005807
 21
3.8006759724
  0
LINE
  5
46D
100
AcDbEntity
  8
0
100
AcDbLine
 62
7
  6
CONTINUOUS
 10
5.6836005807
 20
3.8506759724
 11
5.6836005807
 21
3.8006759724
  0
LINE
  5
46E
100
AcDbEntity
  8
0
100
AcDbLine
 62
7
  6
CONTINUOUS
 10
5.6844024122
 20
2.4381759724
 11
5.6844024122
 21
2.4881759724
  0
LINE
  5
46F
100
AcDbEntity
  8
0
100
AcDbLine
 62
7
  6
CONTINUOUS
 10
5.6856845985
 20
2.5256759724
 11
5.6856845985
 21
3.8006759724
  0
LINE
  5
470
100
AcDbEntity
  8
0
100
AcDbLine
 62
7
  6
CONTINUOUS
 10
5.6866844021
 20
3.8506759724
 11
5.6866844021
 21
3.8006759724
  0
LINE
  5
471
100
AcDbEntity
  8
0
100
AcDbLine
 62
7
  6
CONTINUOUS
 10
5.6896788886
 20
2.4381759724
 11
5.6896788886
 21
2.4881759724
  0
LINE
  5
472
100
AcDbEntity
  8
0
100
AcDbLine
 62
7
  6
CONTINUOUS
 10
5.6926015723
 20
2.4881759724
 11
5.6926015723
 21
2.4381759724
  0
LINE
  5
473
100
AcDbEntity
  8
0
100
AcDbLine
 62
7
  6
CONTINUOUS
 10
5.6946455986
 20
3.8506759724
 11
5.6946455986
 21
3.8006759724
  0
LINE
  5
474
100
AcDbEntity
  8
0
100
AcDbLine
 62
7
  6
CONTINUOUS
 10
7.8044345985
 20
2.3156759724
 11
7.8294345985
 21
2.2906759724
  0
LINE
  5
475
100
AcDbEntity
  8
0
100
AcDbLine
 62
7
  6
CONTINUOUS
 10
5.6973454789
 20
3.8506759724
 11
5.6973454789
 21
3.8006759724
  0
LINE
  5
476
100
AcDbEntity
  8
0
100
AcDbLine
 62
7
  6
CONTINUOUS
 10
5.7039592487
 20
2.4381759724
 11
5.7039592487
 21
2.4881759724
  0
LINE
  5
477
100
AcDbEntity
  8
0
100
AcDbLine
 62
7
  6
CONTINUOUS
 10
5.7042337807
 20
3.8506759724
 11
5.7042337807
 21
3.8006759724
  0
LINE
  5
478
100
AcDbEntity
  8
0
100
AcDbLine
 62
7
  6
CONTINUOUS
 10
5.7065381587
 20
3.8506759724
 11
5.7065381587
 21
3.8006759724
  0
LINE
  5
479
100
AcDbEntity
  8
0
100
AcDbLine
 62
7
  6
CONTINUOUS
 10
5.7090619453
 20
2.4381759724
 11
5.7090619453
 21
2.4881759724
  0
LINE
  5
47A
100
AcDbEntity
  8
0
100
AcDbLine
 62
7
  6
CONTINUOUS
 10
5.7115031157
 20
2.4881759724
 11
5.7115031157
 21
2.4381759724
  0
LINE
  5
47B
100
AcDbEntity
  8
0
100
AcDbLine
 62
7
  6
CONTINUOUS
 10
5.7123240691
 20
3.8506759724
 11
5.7123240691
 21
3.8006759724
  0
LINE
  5
47C
100
AcDbEntity
  8
0
100
AcDbLine
 62
7
  6
CONTINUOUS
 10
5.7142230769
 20
3.8506759724
 11
5.7142230769
 21
3.8006759724
  0
LINE
  5
47D
100
AcDbEntity
  8
0
100
AcDbLine
 62
7
  6
CONTINUOUS
 10
5.7188818197
 20
3.8506759724
 11
5.7188818197
 21
3.8006759724
  0
LINE
  5
47E
100
AcDbEntity
  8
0
100
AcDbLine
 62
7
  6
CONTINUOUS
 10
5.7203673257
 20
3.8506759724
 11
5.7203673257
 21
3.8006759724
  0
LINE
  5
47F
100
AcDbEntity
  8
0
100
AcDbLine
 62
7
  6
CONTINUOUS
 10
5.7228507453
 20
2.4381759724
 11
5.7228507453
 21
2.4881759724
  0
LINE
  5
480
100
AcDbEntity
  8
0
100
AcDbLine
 62
7
  6
CONTINUOUS
 10
5.7238789515
 20
3.8506759724
 11
5.7238789515
 21
3.8006759724
  0
LINE
  5
481
100
AcDbEntity
  8
0
100
AcDbLine
 62
7
  6
CONTINUOUS
 10
5.7249445943
 20
3.8506759724
 11
5.7249445943
 21
3.8006759724
  0
LINE
  5
482
100
AcDbEntity
  8
0
100
AcDbLine
 62
7
  6
CONTINUOUS
 10
5.7272940658
 20
3.8506759724
 11
5.7272940658
 21
3.8006759724
  0
LINE
  5
483
100
AcDbEntity
  8
0
100
AcDbLine
 62
7
  6
CONTINUOUS
 10
5.7277699486
 20
2.4381759724
 11
5.7277699486
 21
2.4881759724
  0
LINE
  5
484
100
AcDbEntity
  8
0
100
AcDbLine
 62
7
  6
CONTINUOUS
 10
5.7279352823
 20
3.8506759724
 11
5.7279352823
 21
3.8006759724
  0
LINE
  5
485
100
AcDbEntity
  8
0
100
AcDbLine
 62
7
  6
CONTINUOUS
 10
5.7291125386
 20
3.8506759724
 11
5.7291125386
 21
3.8006759724
  0
LINE
  5
486
100
AcDbEntity
  8
0
100
AcDbLine
 62
7
  6
CONTINUOUS
 10
5.7293265829
 20
3.8506759724
 11
5.7293265829
 21
3.8006759724
  0
LINE
  5
487
100
AcDbEntity
  8
0
100
AcDbLine
 62
7
  6
CONTINUOUS
 10
5.7297249588
 20
2.4881759724
 11
5.7297249588
 21
2.4381759724
  0
LINE
  5
488
100
AcDbEntity
  8
0
100
AcDbLine
 62
7
  6
CONTINUOUS
 10
5.7410409407
 20
2.4381759724
 11
5.7410409407
 21
2.4881759724
  0
LINE
  5
489
100
AcDbEntity
  8
0
100
AcDbLine
 62
7
  6
CONTINUOUS
 10
5.7457672869
 20
2.4381759724
 11
5.7457672869
 21
2.4881759724
  0
LINE
  5
48A
100
AcDbEntity
  8
0
100
AcDbLine
 62
7
  6
CONTINUOUS
 10
5.7472324154
 20
2.4881759724
 11
5.7472324154
 21
2.4381759724
  0
LINE
  5
48B
100
AcDbEntity
  8
0
100
AcDbLine
 62
7
  6
CONTINUOUS
 10
5.758495209
 20
2.4381759724
 11
5.758495209
 21
2.4881759724
  0
LINE
  5
48C
100
AcDbEntity
  8
0
100
AcDbLine
 62
7
  6
CONTINUOUS
 10
5.7630197012
 20
2.4381759724
 11
5.7630197012
 21
2.4881759724
  0
LINE
  5
48D
100
AcDbEntity
  8
0
100
AcDbLine
 62
7
  6
CONTINUOUS
 10
5.7639921591
 20
2.4881759724
 11
5.7639921591
 21
2.4381759724
  0
LINE
  5
48E
100
AcDbEntity
  8
0
100
AcDbLine
 62
7
  6
CONTINUOUS
 10
5.775180325
 20
2.4381759724
 11
5.775180325
 21
2.4881759724
  0
LINE
  5
48F
100
AcDbEntity
  8
0
100
AcDbLine
 62
7
  6
CONTINUOUS
 10
5.7794943505
 20
2.4381759724
 11
5.7794943505
 21
2.4881759724
  0
LINE
  5
490
100
AcDbEntity
  8
0
100
AcDbLine
 62
7
  6
CONTINUOUS
 10
5.7799722866
 20
2.4881759724
 11
5.7799722866
 21
2.4381759724
  0
LINE
  5
491
100
AcDbEntity
  8
0
100
AcDbLine
 62
7
  6
CONTINUOUS
 10
5.7910645275
 20
2.4381759724
 11
5.7910645275
 21
2.4881759724
  0
LINE
  5
492
100
AcDbEntity
  8
0
100
AcDbLine
 62
7
  6
CONTINUOUS
 10
5.7951598745
 20
2.4381759724
 11
5.7951598745
 21
2.4881759724
  0
LINE
  5
493
100
AcDbEntity
  8
0
100
AcDbLine
 62
7
  6
CONTINUOUS
 10
5.8061175802
 20
2.4381759724
 11
5.8061175802
 21
2.4881759724
  0
LINE
  5
494
100
AcDbEntity
  8
0
100
AcDbLine
 62
7
  6
CONTINUOUS
 10
5.8099864528
 20
2.4381759724
 11
5.8099864528
 21
2.4881759724
  0
LINE
  5
495
100
AcDbEntity
  8
0
100
AcDbLine
 62
7
  6
CONTINUOUS
 10
5.8203108286
 20
2.4381759724
 11
5.8203108286
 21
2.4881759724
  0
LINE
  5
496
100
AcDbEntity
  8
0
100
AcDbLine
 62
7
  6
CONTINUOUS
 10
5.8239458622
 20
2.4381759724
 11
5.8239458622
 21
2.4881759724
  0
LINE
  5
497
100
AcDbEntity
  8
0
100
AcDbLine
 62
7
  6
CONTINUOUS
 10
5.8336172552
 20
2.4381759724
 11
5.8336172552
 21
2.4881759724
  0
LINE
  5
498
100
AcDbEntity
  8
0
100
AcDbLine
 62
7
  6
CONTINUOUS
 10
5.8370115303
 20
2.4381759724
 11
5.8370115303
 21
2.4881759724
  0
LINE
  5
499
100
AcDbEntity
  8
0
100
AcDbLine
 62
7
  6
CONTINUOUS
 10
5.8460115303
 20
2.4381759724
 11
5.8460115303
 21
2.4881759724
  0
LINE
  5
49A
100
AcDbEntity
  8
0
100
AcDbLine
 62
7
  6
CONTINUOUS
 10
5.8491585858
 20
2.4381759724
 11
5.8491585858
 21
2.4881759724
  0
LINE
  5
49B
100
AcDbEntity
  8
0
100
AcDbLine
 62
7
  6
CONTINUOUS
 10
5.8574700608
 20
2.4381759724
 11
5.8574700608
 21
2.4881759724
  0
LINE
  5
49C
100
AcDbEntity
  8
0
100
AcDbLine
 62
7
  6
CONTINUOUS
 10
5.860363906
 20
2.4381759724
 11
5.860363906
 21
2.4881759724
  0
LINE
  5
49D
100
AcDbEntity
  8
0
100
AcDbLine
 62
7
  6
CONTINUOUS
 10
5.8679710347
 20
2.4381759724
 11
5.8679710347
 21
2.4881759724
  0
LINE
  5
49E
100
AcDbEntity
  8
0
100
AcDbLine
 62
7
  6
CONTINUOUS
 10
5.8706061611
 20
2.4381759724
 11
5.8706061611
 21
2.4881759724
  0
LINE
  5
49F
100
AcDbEntity
  8
0
100
AcDbLine
 62
7
  6
CONTINUOUS
 10
5.8774944628
 20
2.4381759724
 11
5.8774944628
 21
2.4881759724
  0
LINE
  5
4A0
100
AcDbEntity
  8
0
100
AcDbLine
 62
7
  6
CONTINUOUS
 10
5.8798658542
 20
2.4381759724
 11
5.8798658542
 21
2.4881759724
  0
LINE
  5
4A1
100
AcDbEntity
  8
0
100
AcDbLine
 62
7
  6
CONTINUOUS
 10
5.8860222168
 20
2.4381759724
 11
5.8860222168
 21
2.4881759724
  0
LINE
  5
4A2
100
AcDbEntity
  8
0
100
AcDbLine
 62
7
  6
CONTINUOUS
 10
5.8881253591
 20
2.4381759724
 11
5.8881253591
 21
2.4881759724
  0
LINE
  5
4A3
100
AcDbEntity
  8
0
100
AcDbLine
 62
7
  6
CONTINUOUS
 10
5.8919345985
 20
2.4381759724
 11
5.8919345985
 21
2.3256759724
  0
LINE
  5
4A4
100
AcDbEntity
  8
0
100
AcDbLine
 62
7
  6
CONTINUOUS
 10
5.8935380635
 20
2.4381759724
 11
5.8935380635
 21
2.4881759724
  0
LINE
  5
4A5
100
AcDbEntity
  8
0
100
AcDbLine
 62
7
  6
CONTINUOUS
 10
5.8953689533
 20
2.4381759724
 11
5.8953689533
 21
2.4881759724
  0
LINE
  5
4A6
100
AcDbEntity
  8
0
100
AcDbLine
 62
7
  6
CONTINUOUS
 10
5.9000276961
 20
2.4381759724
 11
5.9000276961
 21
2.4881759724
  0
LINE
  5
4A7
100
AcDbEntity
  8
0
100
AcDbLine
 62
7
  6
CONTINUOUS
 10
5.9015828482
 20
2.4381759724
 11
5.9015828482
 21
2.4881759724
  0
LINE
  5
4A8
100
AcDbEntity
  8
0
100
AcDbLine
 62
7
  6
CONTINUOUS
 10
5.9054787612
 20
2.4381759724
 11
5.9054787612
 21
2.4881759724
  0
LINE
  5
4A9
100
AcDbEntity
  8
0
100
AcDbLine
 62
7
  6
CONTINUOUS
 10
5.9067552153
 20
2.4381759724
 11
5.9067552153
 21
2.4881759724
  0
LINE
  5
4AA
100
AcDbEntity
  8
0
100
AcDbLine
 62
7
  6
CONTINUOUS
 10
5.9098808825
 20
2.4381759724
 11
5.9098808825
 21
2.4881759724
  0
LINE
  5
4AB
100
AcDbEntity
  8
0
100
AcDbLine
 62
7
  6
CONTINUOUS
 10
5.9108762087
 20
2.4381759724
 11
5.9108762087
 21
2.4881759724
  0
LINE
  5
4AC
100
AcDbEntity
  8
0
100
AcDbLine
 62
7
  6
CONTINUOUS
 10
5.9132256801
 20
2.4381759724
 11
5.9132256801
 21
2.4881759724
  0
LINE
  5
4AD
100
AcDbEntity
  8
0
100
AcDbLine
 62
7
  6
CONTINUOUS
 10
5.9139379839
 20
2.4381759724
 11
5.9139379839
 21
2.4881759724
  0
LINE
  5
4AE
100
AcDbEntity
  8
0
100
AcDbLine
 62
7
  6
CONTINUOUS
 10
5.9155067872
 20
2.4381759724
 11
5.9155067872
 21
2.4881759724
  0
LINE
  5
4AF
100
AcDbEntity
  8
0
100
AcDbLine
 62
7
  6
CONTINUOUS
 10
5.9159347126
 20
2.4381759724
 11
5.9159347126
 21
2.4881759724
  0
LINE
  5
4B0
100
AcDbEntity
  8
0
100
AcDbLine
 62
7
  6
CONTINUOUS
 10
5.9167198615
 20
2.4381759724
 11
5.9167198615
 21
2.4881759724
  0
LINE
  5
4B1
100
AcDbEntity
  8
0
100
AcDbLine
 62
7
  6
CONTINUOUS
 10
5.9168625939
 20
2.4381759724
 11
5.9168625939
 21
2.4881759724
  0
LINE
  5
4B2
100
AcDbEntity
  8
0
100
AcDbLine
 62
7
  6
CONTINUOUS
 10
5.9169345985
 20
2.3006759724
 11
5.9169345985
 21
2.2506759724
  0
LINE
  5
4B3
100
AcDbEntity
  8
0
100
AcDbLine
 62
7
  6
CONTINUOUS
 10
5.5731845985
 20
5.5006759724
 11
5.1356845985
 21
5.5006759724
  0
LINE
  5
4B4
100
AcDbEntity
  8
0
100
AcDbLine
 62
7
  6
CONTINUOUS
 10
6.8794345985
 20
2.2906759724
 11
6.8794345985
 21
2.2506759724
  0
LINE
  5
4B5
100
AcDbEntity
  8
0
100
AcDbLine
 62
7
  6
CONTINUOUS
 10
6.8795198693
 20
2.3656759724
 11
6.8795198693
 21
2.4056759724
  0
LINE
  5
4B6
100
AcDbEntity
  8
0
100
AcDbLine
 62
7
  6
CONTINUOUS
 10
6.8796996998
 20
2.3656759724
 11
6.8796996998
 21
2.4056759724
  0
LINE
  5
4B7
100
AcDbEntity
  8
0
100
AcDbLine
 62
7
  6
CONTINUOUS
 10
6.880641747
 20
2.3656759724
 11
6.880641747
 21
2.4056759724
  0
LINE
  5
4B8
100
AcDbEntity
  8
0
100
AcDbLine
 62
7
  6
CONTINUOUS
 10
6.8811807457
 20
2.3656759724
 11
6.8811807457
 21
2.4056759724
  0
LINE
  5
4B9
100
AcDbEntity
  8
0
100
AcDbLine
 62
7
  6
CONTINUOUS
 10
6.8830622581
 20
2.3656759724
 11
6.8830622581
 21
2.4056759724
  0
LINE
  5
4BA
100
AcDbEntity
  8
0
100
AcDbLine
 62
7
  6
CONTINUOUS
 10
6.8839589475
 20
2.3656759724
 11
6.8839589475
 21
2.4056759724
  0
LINE
  5
4BB
100
AcDbEntity
  8
0
100
AcDbLine
 62
7
  6
CONTINUOUS
 10
6.8867747679
 20
2.3656759724
 11
6.8867747679
 21
2.4056759724
  0
LINE
  5
4BC
100
AcDbEntity
  8
0
100
AcDbLine
 62
7
  6
CONTINUOUS
 10
6.8880266904
 20
2.3656759724
 11
6.8880266904
 21
2.4056759724
  0
LINE
  5
4BD
100
AcDbEntity
  8
0
100
AcDbLine
 62
7
  6
CONTINUOUS
 10
6.8917691008
 20
2.3656759724
 11
6.8917691008
 21
2.4056759724
  0
LINE
  5
4BE
100
AcDbEntity
  8
0
100
AcDbLine
 62
7
  6
CONTINUOUS
 10
6.8933728249
 20
2.3656759724
 11
6.8933728249
 21
2.4056759724
  0
LINE
  5
4BF
100
AcDbEntity
  8
0
100
AcDbLine
 62
7
  6
CONTINUOUS
 10
4.8169345985
 20
2.3256759724
 11
4.7919345985
 21
2.3006759724
  0
LINE
  5
4C0
100
AcDbEntity
  8
0
100
AcDbLine
 62
7
  6
CONTINUOUS
 10
5.5731845985
 20
6.1306759724
 11
5.1356845985
 21
6.1306759724
  0
LINE
  5
4C1
100
AcDbEntity
  8
0
100
AcDbLine
 62
7
  6
CONTINUOUS
 10
6.8980315677
 20
2.3656759724
 11
6.8980315677
 21
2.4056759724
  0
LINE
  5
4C2
100
AcDbEntity
  8
0
100
AcDbLine
 62
7
  6
CONTINUOUS
 10
6.8999826977
 20
2.3656759724
 11
6.8999826977
 21
2.4056759724
  0
LINE
  5
4C3
100
AcDbEntity
  8
0
100
AcDbLine
 62
7
  6
CONTINUOUS
 10
6.9044345985
 20
2.3656759724
 11
6.9044345985
 21
2.3156759724
  0
LINE
  5
4C4
100
AcDbEntity
  8
0
100
AcDbLine
 62
7
  6
CONTINUOUS
 10
6.9055450036
 20
2.3656759724
 11
6.9055450036
 21
2.4056759724
  0
LINE
  5
4C5
100
AcDbEntity
  8
0
100
AcDbLine
 62
7
  6
CONTINUOUS
 10
6.9078381915
 20
2.3656759724
 11
6.9078381915
 21
2.4056759724
  0
LINE
  5
4C6
100
AcDbEntity
  8
0
100
AcDbLine
 62
7
  6
CONTINUOUS
 10
6.9142888146
 20
2.3656759724
 11
6.9142888146
 21
2.4056759724
  0
LINE
  5
4C7
100
AcDbEntity
  8
0
100
AcDbLine
 62
7
  6
CONTINUOUS
 10
6.9169177751
 20
2.3656759724
 11
6.9169177751
 21
2.4056759724
  0
LINE
  5
4C8
100
AcDbEntity
  8
0
100
AcDbLine
 62
7
  6
CONTINUOUS
 10
6.9242390347
 20
2.3656759724
 11
6.9242390347
 21
2.4056759724
  0
LINE
  5
4C9
100
AcDbEntity
  8
0
100
AcDbLine
 62
7
  6
CONTINUOUS
 10
6.9271965619
 20
2.3656759724
 11
6.9271965619
 21
2.4056759724
  0
LINE
  5
4CA
100
AcDbEntity
  8
0
100
AcDbLine
 62
7
  6
CONTINUOUS
 10
6.9353683909
 20
2.3656759724
 11
6.9353683909
 21
2.4056759724
  0
LINE
  5
4CB
100
AcDbEntity
  8
0
100
AcDbLine
 62
7
  6
CONTINUOUS
 10
6.9386463784
 20
2.3656759724
 11
6.9386463784
 21
2.4056759724
  0
LINE
  5
4CC
100
AcDbEntity
  8
0
100
AcDbLine
 62
7
  6
CONTINUOUS
 10
6.9476463784
 20
2.3656759724
 11
6.9476463784
 21
2.4056759724
  0
LINE
  5
4CD
100
AcDbEntity
  8
0
100
AcDbLine
 62
7
  6
CONTINUOUS
 10
6.9512358415
 20
2.3656759724
 11
6.9512358415
 21
2.4056759724
  0
LINE
  5
4CE
100
AcDbEntity
  8
0
100
AcDbLine
 62
7
  6
CONTINUOUS
 10
6.9610393442
 20
2.3656759724
 11
6.9610393442
 21
2.4056759724
  0
LINE
  5
4CF
100
AcDbEntity
  8
0
100
AcDbLine
 62
7
  6
CONTINUOUS
 10
6.9649304444
 20
2.3656759724
 11
6.9649304444
 21
2.4056759724
  0
LINE
  5
4D0
100
AcDbEntity
  8
0
100
AcDbLine
 62
7
  6
CONTINUOUS
 10
6.975510579
 20
2.3656759724
 11
6.975510579
 21
2.4056759724
  0
LINE
  5
4D1
100
AcDbEntity
  8
0
100
AcDbLine
 62
7
  6
CONTINUOUS
 10
6.9796926511
 20
2.3656759724
 11
6.9796926511
 21
2.4056759724
  0
LINE
  5
4D2
100
AcDbEntity
  8
0
100
AcDbLine
 62
7
  6
CONTINUOUS
 10
6.9907302885
 20
2.4056759724
 11
6.9907302885
 21
2.3656759724
  0
LINE
  5
4D3
100
AcDbEntity
  8
0
100
AcDbLine
 62
7
  6
CONTINUOUS
 10
6.9910204182
 20
2.3656759724
 11
6.9910204182
 21
2.4056759724
  0
LINE
  5
4D4
100
AcDbEntity
  8
0
100
AcDbLine
 62
7
  6
CONTINUOUS
 10
6.9954819995
 20
2.3656759724
 11
6.9954819995
 21
2.4056759724
  0
LINE
  5
4D5
100
AcDbEntity
  8
0
100
AcDbLine
 62
7
  6
CONTINUOUS
 10
6.9969457994
 20
3.0556759724
 11
6.9969457994
 21
3.1056759724
  0
LINE
  5
4D6
100
AcDbEntity
  8
0
100
AcDbLine
 62
7
  6
CONTINUOUS
 10
6.997061134
 20
3.0556759724
 11
6.997061134
 21
3.1056759724
  0
LINE
  5
4D7
100
AcDbEntity
  8
0
100
AcDbLine
 62
7
  6
CONTINUOUS
 10
6.9979928384
 20
3.0556759724
 11
6.9979928384
 21
3.1056759724
  0
LINE
  5
4D8
100
AcDbEntity
  8
0
100
AcDbLine
 62
7
  6
CONTINUOUS
 10
6.9985688244
 20
3.0556759724
 11
6.9985688244
 21
3.1056759724
  0
LINE
  5
4D9
100
AcDbEntity
  8
0
100
AcDbLine
 62
7
  6
CONTINUOUS
 10
7.0007384847
 20
3.0556759724
 11
7.0007384847
 21
3.1056759724
  0
LINE
  5
4DA
100
AcDbEntity
  8
0
100
AcDbLine
 62
7
  6
CONTINUOUS
 10
7.0017723773
 20
3.0556759724
 11
7.0017723773
 21
3.1056759724
  0
LINE
  5
4DB
100
AcDbEntity
  8
0
100
AcDbLine
 62
7
  6
CONTINUOUS
 10
7.005169654
 20
3.0556759724
 11
7.005169654
 21
3.1056759724
  0
LINE
  5
4DC
100
AcDbEntity
  8
0
100
AcDbLine
 62
7
  6
CONTINUOUS
 10
7.0066428202
 20
2.4056759724
 11
7.0066428202
 21
2.3656759724
  0
LINE
  5
4DD
100
AcDbEntity
  8
0
100
AcDbLine
 62
7
  6
CONTINUOUS
 10
7.0066565262
 20
3.0556759724
 11
7.0066565262
 21
3.1056759724
  0
LINE
  5
4DE
100
AcDbEntity
  8
0
100
AcDbLine
 62
7
  6
CONTINUOUS
 10
7.0075263504
 20
2.3656759724
 11
7.0075263504
 21
2.4056759724
  0
LINE
  5
4DF
100
AcDbEntity
  8
0
100
AcDbLine
 62
7
  6
CONTINUOUS
 10
7.0112652299
 20
3.0556759724
 11
7.0112652299
 21
3.1056759724
  0
LINE
  5
4E0
100
AcDbEntity
  8
0
100
AcDbLine
 62
7
  6
CONTINUOUS
 10
7.012255212
 20
2.3656759724
 11
7.012255212
 21
2.4056759724
  0
LINE
  5
4E1
100
AcDbEntity
  8
0
100
AcDbLine
 62
7
  6
CONTINUOUS
 10
7.0131979961
 20
3.0556759724
 11
7.0131979961
 21
3.1056759724
  0
LINE
  5
4E2
100
AcDbEntity
  8
0
100
AcDbLine
 62
7
  6
CONTINUOUS
 10
7.018996164
 20
3.0556759724
 11
7.018996164
 21
3.1056759724
  0
LINE
  5
4E3
100
AcDbEntity
  8
0
100
AcDbLine
 62
7
  6
CONTINUOUS
 10
7.0213656137
 20
3.0556759724
 11
7.0213656137
 21
3.1056759724
  0
LINE
  5
4E4
100
AcDbEntity
  8
0
100
AcDbLine
 62
7
  6
CONTINUOUS
 10
7.0235086249
 20
2.4056759724
 11
7.0235086249
 21
2.3656759724
  0
LINE
  5
4E5
100
AcDbEntity
  8
0
100
AcDbLine
 62
7
  6
CONTINUOUS
 10
7.024983134
 20
2.3656759724
 11
7.024983134
 21
2.4056759724
  0
LINE
  5
4E6
100
AcDbEntity
  8
0
100
AcDbLine
 62
7
  6
CONTINUOUS
 10
7.0283256151
 20
3.0556759724
 11
7.0283256151
 21
3.1056759724
  0
LINE
  5
4E7
100
AcDbEntity
  8
0
100
AcDbLine
 62
7
  6
CONTINUOUS
 10
7.0299663144
 20
2.3656759724
 11
7.0299663144
 21
2.4056759724
  0
LINE
  5
4E8
100
AcDbEntity
  8
0
100
AcDbLine
 62
7
  6
CONTINUOUS
 10
7.0311204568
 20
3.0556759724
 11
7.0311204568
 21
3.1056759724
  0
LINE
  5
4E9
100
AcDbEntity
  8
0
100
AcDbLine
 62
7
  6
CONTINUOUS
 10
7.039209124
 20
3.0556759724
 11
7.039209124
 21
3.1056759724
  0
LINE
  5
4EA
100
AcDbEntity
  8
0
100
AcDbLine
 62
7
  6
CONTINUOUS
 10
7.0412814747
 20
2.4056759724
 11
7.0412814747
 21
2.3656759724
  0
LINE
  5
4EB
100
AcDbEntity
  8
0
100
AcDbLine
 62
7
  6
CONTINUOUS
 10
7.0419345985
 20
3.0556759724
 11
7.0419345985
 21
2.4456759724
  0
LINE
  5
4EC
100
AcDbEntity
  8
0
100
AcDbLine
 62
7
  6
CONTINUOUS
 10
7.0424160389
 20
3.0556759724
 11
7.0424160389
 21
3.1056759724
  0
LINE
  5
4ED
100
AcDbEntity
  8
0
100
AcDbLine
 62
7
  6
CONTINUOUS
 10
7.0433429212
 20
2.3656759724
 11
7.0433429212
 21
2.4056759724
  0
LINE
  5
4EE
100
AcDbEntity
  8
0
100
AcDbLine
 62
7
  6
CONTINUOUS
 10
7.0485667618
 20
2.3656759724
 11
7.0485667618
 21
2.4056759724
  0
LINE
  5
4EF
100
AcDbEntity
  8
0
100
AcDbLine
 62
7
  6
CONTINUOUS
 10
7.0515948258
 20
3.0556759724
 11
7.0515948258
 21
3.1056759724
  0
LINE
  5
4F0
100
AcDbEntity
  8
0
100
AcDbLine
 62
7
  6
CONTINUOUS
 10
7.0544345985
 20
2.4456759724
 11
7.0544345985
 21
2.4406759724
  0
LINE
  5
4F1
100
AcDbEntity
  8
0
100
AcDbLine
 62
7
  6
CONTINUOUS
 10
7.0551985316
 20
3.0556759724
 11
7.0551985316
 21
3.1056759724
  0
LINE
  5
4F2
100
AcDbEntity
  8
0
100
AcDbLine
 62
7
  6
CONTINUOUS
 10
7.0599126555
 20
2.4056759724
 11
7.0599126555
 21
2.3656759724
  0
LINE
  5
4F3
100
AcDbEntity
  8
0
100
AcDbLine
 62
7
  6
CONTINUOUS
 10
7.0625553891
 20
2.3656759724
 11
7.0625553891
 21
2.4056759724
  0
LINE
  5
4F4
100
AcDbEntity
  8
0
100
AcDbLine
 62
7
  6
CONTINUOUS
 10
7.0654236971
 20
3.0556759724
 11
7.0654236971
 21
3.1056759724
  0
LINE
  5
4F5
100
AcDbEntity
  8
0
100
AcDbLine
 62
7
  6
CONTINUOUS
 10
7.0680055716
 20
2.3656759724
 11
7.0680055716
 21
2.4056759724
  0
LINE
  5
4F6
100
AcDbEntity
  8
0
100
AcDbLine
 62
7
  6
CONTINUOUS
 10
7.0694070205
 20
3.0556759724
 11
7.0694070205
 21
3.1056759724
  0
LINE
  5
4F7
100
AcDbEntity
  8
0
100
AcDbLine
 62
7
  6
CONTINUOUS
 10
7.0793511004
 20
2.4056759724
 11
7.0793511004
 21
2.3656759724
  0
LINE
  5
4F8
100
AcDbEntity
  8
0
100
AcDbLine
 62
7
  6
CONTINUOUS
 10
7.0804026639
 20
3.1056759724
 11
7.0804026639
 21
3.0556759724
  0
LINE
  5
4F9
100
AcDbEntity
  8
0
100
AcDbLine
 62
7
  6
CONTINUOUS
 10
7.0806298369
 20
3.0556759724
 11
7.0806298369
 21
3.1056759724
  0
LINE
  5
4FA
100
AcDbEntity
  8
0
100
AcDbLine
 62
7
  6
CONTINUOUS
 10
7.0825678775
 20
2.3656759724
 11
7.0825678775
 21
2.4056759724
  0
LINE
  5
4FB
100
AcDbEntity
  8
0
100
AcDbLine
 62
7
  6
CONTINUOUS
 10
7.0849737955
 20
3.0556759724
 11
7.0849737955
 21
3.1056759724
  0
LINE
  5
4FC
100
AcDbEntity
  8
0
100
AcDbLine
 62
7
  6
CONTINUOUS
 10
7.0882294636
 20
2.3656759724
 11
7.0882294636
 21
2.4056759724
  0
LINE
  5
4FD
100
AcDbEntity
  8
0
100
AcDbLine
 62
7
  6
CONTINUOUS
 10
7.0961324612
 20
3.1056759724
 11
7.0961324612
 21
3.0556759724
  0
LINE
  5
4FE
100
AcDbEntity
  8
0
100
AcDbLine
 62
7
  6
CONTINUOUS
 10
7.0971407811
 20
3.0556759724
 11
7.0971407811
 21
3.1056759724
  0
LINE
  5
4FF
100
AcDbEntity
  8
0
100
AcDbLine
 62
7
  6
CONTINUOUS
 10
7.0995435301
 20
2.4056759724
 11
7.0995435301
 21
2.3656759724
  0
LINE
  5
500
100
AcDbEntity
  8
0
100
AcDbLine
 62
7
  6
CONTINUOUS
 10
7.101824674
 20
3.0556759724
 11
7.101824674
 21
3.1056759724
  0
LINE
  5
501
100
AcDbEntity
  8
0
100
AcDbLine
 62
7
  6
CONTINUOUS
 10
7.1033255338
 20
2.3656759724
 11
7.1033255338
 21
2.4056759724
  0
LINE
  5
502
100
AcDbEntity
  8
0
100
AcDbLine
 62
7
  6
CONTINUOUS
 10
7.1091830053
 20
2.3656759724
 11
7.1091830053
 21
2.4056759724
  0
LINE
  5
503
100
AcDbEntity
  8
0
100
AcDbLine
 62
7
  6
CONTINUOUS
 10
7.1130931859
 20
3.1056759724
 11
7.1130931859
 21
3.0556759724
  0
LINE
  5
504
100
AcDbEntity
  8
0
100
AcDbLine
 62
7
  6
CONTINUOUS
 10
7.1148778475
 20
3.0556759724
 11
7.1148778475
 21
3.1056759724
  0
LINE
  5
505
100
AcDbEntity
  8
0
100
AcDbLine
 62
7
  6
CONTINUOUS
 10
7.1198793538
 20
3.0556759724
 11
7.1198793538
 21
3.1056759724
  0
LINE
  5
506
100
AcDbEntity
  8
0
100
AcDbLine
 62
7
  6
CONTINUOUS
 10
7.1204345985
 20
2.4056759724
 11
7.1204345985
 21
2.3656759724
  0
LINE
  5
507
100
AcDbEntity
  8
0
100
AcDbLine
 62
7
  6
CONTINUOUS
 10
7.1247714625
 20
2.3656759724
 11
7.1247714625
 21
2.4056759724
  0
LINE
  5
508
100
AcDbEntity
  8
0
100
AcDbLine
 62
7
  6
CONTINUOUS
 10
7.1308087645
 20
2.3656759724
 11
7.1308087645
 21
2.4056759724
  0
LINE
  5
509
100
AcDbEntity
  8
0
100
AcDbLine
 62
7
  6
CONTINUOUS
 10
7.1312040123
 20
3.1056759724
 11
7.1312040123
 21
3.0556759724
  0
LINE
  5
50A
100
AcDbEntity
  8
0
100
AcDbLine
 62
7
  6
CONTINUOUS
 10
7.1337565109
 20
3.0556759724
 11
7.1337565109
 21
3.1056759724
  0
LINE
  5
50B
100
AcDbEntity
  8
0
100
AcDbLine
 62
7
  6
CONTINUOUS
 10
7.1390517961
 20
3.0556759724
 11
7.1390517961
 21
3.1056759724
  0
LINE
  5
50C
100
AcDbEntity
  8
0
100
AcDbLine
 62
7
  6
CONTINUOUS
 10
7.1419670446
 20
2.4056759724
 11
7.1419670446
 21
2.3656759724
  0
LINE
  5
50D
100
AcDbEntity
  8
0
100
AcDbLine
 62
7
  6
CONTINUOUS
 10
7.146846882
 20
2.3656759724
 11
7.146846882
 21
2.4056759724
  0
LINE
  5
50E
100
AcDbEntity
  8
0
100
AcDbLine
 62
7
  6
CONTINUOUS
 10
7.1503786341
 20
3.1056759724
 11
7.1503786341
 21
3.0556759724
  0
LINE
  5
50F
100
AcDbEntity
  8
0
100
AcDbLine
 62
7
  6
CONTINUOUS
 10
7.1530474667
 20
2.3656759724
 11
7.1530474667
 21
2.4056759724
  0
LINE
  5
510
100
AcDbEntity
  8
0
100
AcDbLine
 62
7
  6
CONTINUOUS
 10
7.1536868059
 20
3.0556759724
 11
7.1536868059
 21
3.1056759724
  0
LINE
  5
511
100
AcDbEntity
  8
0
100
AcDbLine
 62
7
  6
CONTINUOUS
 10
7.1544345985
 20
3.2281759724
 11
7.1544345985
 21
3.1831759724
  0
LINE
  5
512
100
AcDbEntity
  8
0
100
AcDbLine
 62
7
  6
CONTINUOUS
 10
7.1592506356
 20
3.0556759724
 11
7.1592506356
 21
3.1056759724
  0
LINE
  5
513
100
AcDbEntity
  8
0
100
AcDbLine
 62
7
  6
CONTINUOUS
 10
7.1640818495
 20
2.4056759724
 11
7.1640818495
 21
2.3656759724
  0
LINE
  5
514
100
AcDbEntity
  8
0
100
AcDbLine
 62
7
  6
CONTINUOUS
 10
7.1694912849
 20
2.3656759724
 11
7.1694912849
 21
2.4056759724
  0
LINE
  5
515
100
AcDbEntity
  8
0
100
AcDbLine
 62
7
  6
CONTINUOUS
 10
7.1705256755
 20
3.1056759724
 11
7.1705256755
 21
3.0556759724
  0
LINE
  5
516
100
AcDbEntity
  8
0
100
AcDbLine
 62
7
  6
CONTINUOUS
 10
7.1745737555
 20
3.0556759724
 11
7.1745737555
 21
3.1056759724
  0
LINE
  5
517
100
AcDbEntity
  8
0
100
AcDbLine
 62
7
  6
CONTINUOUS
 10
7.1758381569
 20
2.3656759724
 11
7.1758381569
 21
2.4056759724
  0
LINE
  5
518
100
AcDbEntity
  8
0
100
AcDbLine
 62
7
  6
CONTINUOUS
 10
7.1803796156
 20
3.0556759724
 11
7.1803796156
 21
3.1056759724
  0
LINE
  5
519
100
AcDbEntity
  8
0
100
AcDbLine
 62
7
  6
CONTINUOUS
 10
7.1867183981
 20
2.4056759724
 11
7.1867183981
 21
2.3656759724
  0
LINE
  5
51A
100
AcDbEntity
  8
0
100
AcDbLine
 62
7
  6
CONTINUOUS
 10
7.1915491267
 20
3.1056759724
 11
7.1915491267
 21
3.0556759724
  0
LINE
  5
51B
100
AcDbEntity
  8
0
100
AcDbLine
 62
7
  6
CONTINUOUS
 10
7.1926426046
 20
2.3656759724
 11
7.1926426046
 21
2.4056759724
  0
LINE
  5
51C
100
AcDbEntity
  8
0
100
AcDbLine
 62
7
  6
CONTINUOUS
 10
7.196317824
 20
3.0556759724
 11
7.196317824
 21
3.1056759724
  0
LINE
  5
51D
100
AcDbEntity
  8
0
100
AcDbLine
 62
7
  6
CONTINUOUS
 10
7.1991183676
 20
2.3656759724
 11
7.1991183676
 21
2.4056759724
  0
LINE
  5
51E
100
AcDbEntity
  8
0
100
AcDbLine
 62
7
  6
CONTINUOUS
 10
7.2023380468
 20
3.0556759724
 11
7.2023380468
 21
3.1056759724
  0
LINE
  5
51F
100
AcDbEntity
  8
0
100
AcDbLine
 62
7
  6
CONTINUOUS
 10
7.2056845985
 20
3.2431759724
 11
7.2056845985
 21
3.3489897027
  0
LINE
  5
520
100
AcDbEntity
  8
0
100
AcDbLine
 62
7
  6
CONTINUOUS
 10
7.2098146451
 20
2.4056759724
 11
7.2098146451
 21
2.3656759724
  0
LINE
  5
521
100
AcDbEntity
  8
0
100
AcDbLine
 62
7
  6
CONTINUOUS
 10
7.2133488013
 20
3.1056759724
 11
7.2133488013
 21
3.0556759724
  0
LINE
  5
522
100
AcDbEntity
  8
0
100
AcDbLine
 62
7
  6
CONTINUOUS
 10
7.2162373849
 20
2.3656759724
 11
7.2162373849
 21
2.4056759724
  0
LINE
  5
523
100
AcDbEntity
  8
0
100
AcDbLine
 62
7
  6
CONTINUOUS
 10
7.2188153909
 20
3.0556759724
 11
7.2188153909
 21
3.1056759724
  0
LINE
  5
524
100
AcDbEntity
  8
0
100
AcDbLine
 62
7
  6
CONTINUOUS
 10
7.2228242893
 20
2.3656759724
 11
7.2228242893
 21
2.4056759724
  0
LINE
  5
525
100
AcDbEntity
  8
0
100
AcDbLine
 62
7
  6
CONTINUOUS
 10
7.2250212873
 20
3.0556759724
 11
7.2250212873
 21
3.1056759724
  0
LINE
  5
526
100
AcDbEntity
  8
0
100
AcDbLine
 62
7
  6
CONTINUOUS
 10
7.2333072854
 20
2.4056759724
 11
7.2333072854
 21
2.3656759724
  0
LINE
  5
527
100
AcDbEntity
  8
0
100
AcDbLine
 62
7
  6
CONTINUOUS
 10
7.235820814
 20
3.1056759724
 11
7.235820814
 21
3.0556759724
  0
LINE
  5
528
100
AcDbEntity
  8
0
100
AcDbLine
 62
7
  6
CONTINUOUS
 10
7.2402109542
 20
2.3656759724
 11
7.2402109542
 21
2.4056759724
  0
LINE
  5
529
100
AcDbEntity
  8
0
100
AcDbLine
 62
7
  6
CONTINUOUS
 10
7.2419592451
 20
3.0556759724
 11
7.2419592451
 21
3.1056759724
  0
LINE
  5
52A
100
AcDbEntity
  8
0
100
AcDbLine
 62
7
  6
CONTINUOUS
 10
7.2468909457
 20
2.3656759724
 11
7.2468909457
 21
2.4056759724
  0
LINE
  5
52B
100
AcDbEntity
  8
0
100
AcDbLine
 62
7
  6
CONTINUOUS
 10
7.2483212413
 20
3.0556759724
 11
7.2483212413
 21
3.1056759724
  0
LINE
  5
52C
100
AcDbEntity
  8
0
100
AcDbLine
 62
7
  6
CONTINUOUS
 10
7.2569345985
 20
3.4286759724
 11
7.2569345985
 21
3.4411759724
  0
LINE
  5
52D
100
AcDbEntity
  8
0
100
AcDbLine
 62
7
  6
CONTINUOUS
 10
7.2571319272
 20
2.4056759724
 11
7.2571319272
 21
2.3656759724
  0
LINE
  5
52E
100
AcDbEntity
  8
0
100
AcDbLine
 62
7
  6
CONTINUOUS
 10
7.2588580754
 20
3.1056759724
 11
7.2588580754
 21
3.0556759724
  0
LINE
  5
52F
100
AcDbEntity
  8
0
100
AcDbLine
 62
7
  6
CONTINUOUS
 10
7.2644976026
 20
2.3656759724
 11
7.2644976026
 21
2.4056759724
  0
LINE
  5
530
100
AcDbEntity
  8
0
100
AcDbLine
 62
7
  6
CONTINUOUS
 10
7.2656390956
 20
3.0556759724
 11
7.2656390956
 21
3.1056759724
  0
LINE
  5
531
100
AcDbEntity
  8
0
100
AcDbLine
 62
7
  6
CONTINUOUS
 10
7.2712523718
 20
2.3656759724
 11
7.2712523718
 21
2.4056759724
  0
LINE
  5
532
100
AcDbEntity
  8
0
100
AcDbLine
 62
7
  6
CONTINUOUS
 10
7.2721268736
 20
3.0556759724
 11
7.2721268736
 21
3.1056759724
  0
LINE
  5
533
100
AcDbEntity
  8
0
100
AcDbLine
 62
7
  6
CONTINUOUS
 10
7.2812232689
 20
2.4056759724
 11
7.2812232689
 21
2.3656759724
  0
LINE
  5
534
100
AcDbEntity
  8
0
100
AcDbLine
 62
7
  6
CONTINUOUS
 10
7.2823508025
 20
3.1056759724
 11
7.2823508025
 21
3.0556759724
  0
LINE
  5
535
100
AcDbEntity
  8
0
100
AcDbLine
 62
7
  6
CONTINUOUS
 10
7.289030762
 20
2.3656759724
 11
7.289030762
 21
2.4056759724
  0
LINE
  5
536
100
AcDbEntity
  8
0
100
AcDbLine
 62
7
  6
CONTINUOUS
 10
7.2897420971
 20
3.0556759724
 11
7.2897420971
 21
3.1056759724
  0
LINE
  5
537
100
AcDbEntity
  8
0
100
AcDbLine
 62
7
  6
CONTINUOUS
 10
7.2958417946
 20
2.3656759724
 11
7.2958417946
 21
2.4056759724
  0
LINE
  5
538
100
AcDbEntity
  8
0
100
AcDbLine
 62
7
  6
CONTINUOUS
 10
7.2963247398
 20
3.0556759724
 11
7.2963247398
 21
3.1056759724
  0
LINE
  5
539
100
AcDbEntity
  8
0
100
AcDbLine
 62
7
  6
CONTINUOUS
 10
7.3055152777
 20
2.4056759724
 11
7.3055152777
 21
2.3656759724
  0
LINE
  5
53A
100
AcDbEntity
  8
0
100
AcDbLine
 62
7
  6
CONTINUOUS
 10
7.3061870416
 20
3.1056759724
 11
7.3061870416
 21
3.0556759724
  0
LINE
  5
53B
100
AcDbEntity
  8
0
100
AcDbLine
 62
7
  6
CONTINUOUS
 10
7.3137431887
 20
2.3656759724
 11
7.3137431887
 21
2.4056759724
  0
LINE
  5
53C
100
AcDbEntity
  8
0
100
AcDbLine
 62
7
  6
CONTINUOUS
 10
7.3141533878
 20
3.0556759724
 11
7.3141533878
 21
3.1056759724
  0
LINE
  5
53D
100
AcDbEntity
  8
0
100
AcDbLine
 62
7
  6
CONTINUOUS
 10
7.3205918162
 20
2.3656759724
 11
7.3205918162
 21
2.4056759724
  0
LINE
  5
53E
100
AcDbEntity
  8
0
100
AcDbLine
 62
7
  6
CONTINUOUS
 10
7.3207995259
 20
3.0556759724
 11
7.3207995259
 21
3.1056759724
  0
LINE
  5
53F
100
AcDbEntity
  8
0
100
AcDbLine
 62
7
  6
CONTINUOUS
 10
7.329941371
 20
2.4056759724
 11
7.329941371
 21
2.3656759724
  0
LINE
  5
540
100
AcDbEntity
  8
0
100
AcDbLine
 62
7
  6
CONTINUOUS
 10
7.3302532024
 20
3.1056759724
 11
7.3302532024
 21
3.0556759724
  0
LINE
  5
541
100
AcDbEntity
  8
0
100
AcDbLine
 62
7
  6
CONTINUOUS
 10
7.3385671478
 20
2.3656759724
 11
7.3385671478
 21
2.4056759724
  0
LINE
  5
542
100
AcDbEntity
  8
0
100
AcDbLine
 62
7
  6
CONTINUOUS
 10
7.3387566368
 20
3.0556759724
 11
7.3387566368
 21
3.1056759724
  0
LINE
  5
543
100
AcDbEntity
  8
0
100
AcDbLine
 62
7
  6
CONTINUOUS
 10
7.3454345985
 20
2.3656759724
 11
7.3454345985
 21
2.4056759724
  0
LINE
  5
544
100
AcDbEntity
  8
0
100
AcDbLine
 62
7
  6
CONTINUOUS
 10
7.3454345985
 20
3.0556759724
 11
7.3454345985
 21
3.1056759724
  0
LINE
  5
545
100
AcDbEntity
  8
0
100
AcDbLine
 62
7
  6
CONTINUOUS
 10
7.3544345985
 20
3.1056759724
 11
7.3544345985
 21
3.0556759724
  0
LINE
  5
546
100
AcDbEntity
  8
0
100
AcDbLine
 62
7
  6
CONTINUOUS
 10
7.3544345985
 20
2.4056759724
 11
7.3544345985
 21
2.3656759724
  0
LINE
  5
547
100
AcDbEntity
  8
0
100
AcDbLine
 62
7
  6
CONTINUOUS
 10
7.3634345985
 20
2.3656759724
 11
7.3634345985
 21
2.4056759724
  0
LINE
  5
548
100
AcDbEntity
  8
0
100
AcDbLine
 62
7
  6
CONTINUOUS
 10
7.3634345985
 20
3.0556759724
 11
7.3634345985
 21
3.1056759724
  0
LINE
  5
549
100
AcDbEntity
  8
0
100
AcDbLine
 62
7
  6
CONTINUOUS
 10
7.3701125601
 20
3.0556759724
 11
7.3701125601
 21
3.1056759724
  0
LINE
  5
54A
100
AcDbEntity
  8
0
100
AcDbLine
 62
7
  6
CONTINUOUS
 10
7.3703020492
 20
2.3656759724
 11
7.3703020492
 21
2.4056759724
  0
LINE
  5
54B
100
AcDbEntity
  8
0
100
AcDbLine
 62
7
  6
CONTINUOUS
 10
7.3786159946
 20
3.1056759724
 11
7.3786159946
 21
3.0556759724
  0
LINE
  5
54C
100
AcDbEntity
  8
0
100
AcDbLine
 62
7
  6
CONTINUOUS
 10
7.378927826
 20
2.4056759724
 11
7.378927826
 21
2.3656759724
  0
LINE
  5
54D
100
AcDbEntity
  8
0
100
AcDbLine
 62
7
  6
CONTINUOUS
 10
7.3880696711
 20
3.0556759724
 11
7.3880696711
 21
3.1056759724
  0
LINE
  5
54E
100
AcDbEntity
  8
0
100
AcDbLine
 62
7
  6
CONTINUOUS
 10
7.3882773808
 20
2.3656759724
 11
7.3882773808
 21
2.4056759724
  0
LINE
  5
54F
100
AcDbEntity
  8
0
100
AcDbLine
 62
7
  6
CONTINUOUS
 10
7.3947158092
 20
3.0556759724
 11
7.3947158092
 21
3.1056759724
  0
LINE
  5
550
100
AcDbEntity
  8
0
100
AcDbLine
 62
7
  6
CONTINUOUS
 10
7.3951260083
 20
2.3656759724
 11
7.3951260083
 21
2.4056759724
  0
LINE
  5
551
100
AcDbEntity
  8
0
100
AcDbLine
 62
7
  6
CONTINUOUS
 10
7.4026821554
 20
3.1056759724
 11
7.4026821554
 21
3.0556759724
  0
LINE
  5
552
100
AcDbEntity
  8
0
100
AcDbLine
 62
7
  6
CONTINUOUS
 10
7.4033539193
 20
2.4056759724
 11
7.4033539193
 21
2.3656759724
  0
LINE
  5
553
100
AcDbEntity
  8
0
100
AcDbLine
 62
7
  6
CONTINUOUS
 10
7.4125444572
 20
3.0556759724
 11
7.4125444572
 21
3.1056759724
  0
LINE
  5
554
100
AcDbEntity
  8
0
100
AcDbLine
 62
7
  6
CONTINUOUS
 10
7.4130274024
 20
2.3656759724
 11
7.4130274024
 21
2.4056759724
  0
LINE
  5
555
100
AcDbEntity
  8
0
100
AcDbLine
 62
7
  6
CONTINUOUS
 10
7.4191270999
 20
3.0556759724
 11
7.4191270999
 21
3.1056759724
  0
LINE
  5
556
100
AcDbEntity
  8
0
100
AcDbLine
 62
7
  6
CONTINUOUS
 10
7.419838435
 20
2.3656759724
 11
7.419838435
 21
2.4056759724
  0
LINE
  5
557
100
AcDbEntity
  8
0
100
AcDbLine
 62
7
  6
CONTINUOUS
 10
7.4265183945
 20
3.1056759724
 11
7.4265183945
 21
3.0556759724
  0
LINE
  5
558
100
AcDbEntity
  8
0
100
AcDbLine
 62
7
  6
CONTINUOUS
 10
7.4276459281
 20
2.4056759724
 11
7.4276459281
 21
2.3656759724
  0
LINE
  5
559
100
AcDbEntity
  8
0
100
AcDbLine
 62
7
  6
CONTINUOUS
 10
7.4367423233
 20
3.0556759724
 11
7.4367423233
 21
3.1056759724
  0
LINE
  5
55A
100
AcDbEntity
  8
0
100
AcDbLine
 62
7
  6
CONTINUOUS
 10
7.4376168252
 20
2.3656759724
 11
7.4376168252
 21
2.4056759724
  0
LINE
  5
55B
100
AcDbEntity
  8
0
100
AcDbLine
 62
7
  6
CONTINUOUS
 10
7.4432301014
 20
3.0556759724
 11
7.4432301014
 21
3.1056759724
  0
LINE
  5
55C
100
AcDbEntity
  8
0
100
AcDbLine
 62
7
  6
CONTINUOUS
 10
7.4443715944
 20
2.3656759724
 11
7.4443715944
 21
2.4056759724
  0
LINE
  5
55D
100
AcDbEntity
  8
0
100
AcDbLine
 62
7
  6
CONTINUOUS
 10
7.4500111216
 20
3.1056759724
 11
7.4500111216
 21
3.0556759724
  0
LINE
  5
55E
100
AcDbEntity
  8
0
100
AcDbLine
 62
7
  6
CONTINUOUS
 10
7.4517372698
 20
2.4056759724
 11
7.4517372698
 21
2.3656759724
  0
LINE
  5
55F
100
AcDbEntity
  8
0
100
AcDbLine
 62
7
  6
CONTINUOUS
 10
7.4519345985
 20
3.4286759724
 11
7.4519345985
 21
3.4411759724
  0
LINE
  5
560
100
AcDbEntity
  8
0
100
AcDbLine
 62
7
  6
CONTINUOUS
 10
7.4605479557
 20
3.0556759724
 11
7.4605479557
 21
3.1056759724
  0
LINE
  5
561
100
AcDbEntity
  8
0
100
AcDbLine
 62
7
  6
CONTINUOUS
 10
7.4619782512
 20
2.3656759724
 11
7.4619782512
 21
2.4056759724
  0
LINE
  5
562
100
AcDbEntity
  8
0
100
AcDbLine
 62
7
  6
CONTINUOUS
 10
7.4669099519
 20
3.0556759724
 11
7.4669099519
 21
3.1056759724
  0
LINE
  5
563
100
AcDbEntity
  8
0
100
AcDbLine
 62
7
  6
CONTINUOUS
 10
7.4686582428
 20
2.3656759724
 11
7.4686582428
 21
2.4056759724
  0
LINE
  5
564
100
AcDbEntity
  8
0
100
AcDbLine
 62
7
  6
CONTINUOUS
 10
7.473048383
 20
3.1056759724
 11
7.473048383
 21
3.0556759724
  0
LINE
  5
565
100
AcDbEntity
  8
0
100
AcDbLine
 62
7
  6
CONTINUOUS
 10
7.4755619116
 20
2.4056759724
 11
7.4755619116
 21
2.3656759724
  0
LINE
  5
566
100
AcDbEntity
  8
0
100
AcDbLine
 62
7
  6
CONTINUOUS
 10
7.4838479097
 20
3.0556759724
 11
7.4838479097
 21
3.1056759724
  0
LINE
  5
567
100
AcDbEntity
  8
0
100
AcDbLine
 62
7
  6
CONTINUOUS
 10
7.4860449076
 20
2.3656759724
 11
7.4860449076
 21
2.4056759724
  0
LINE
  5
568
100
AcDbEntity
  8
0
100
AcDbLine
 62
7
  6
CONTINUOUS
 10
7.4900538061
 20
3.0556759724
 11
7.4900538061
 21
3.1056759724
  0
LINE
  5
569
100
AcDbEntity
  8
0
100
AcDbLine
 62
7
  6
CONTINUOUS
 10
7.492631812
 20
2.3656759724
 11
7.492631812
 21
2.4056759724
  0
LINE
  5
56A
100
AcDbEntity
  8
0
100
AcDbLine
 62
7
  6
CONTINUOUS
 10
7.4955203957
 20
3.1056759724
 11
7.4955203957
 21
3.0556759724
  0
LINE
  5
56B
100
AcDbEntity
  8
0
100
AcDbLine
 62
7
  6
CONTINUOUS
 10
7.4990545519
 20
2.4056759724
 11
7.4990545519
 21
2.3656759724
  0
LINE
  5
56C
100
AcDbEntity
  8
0
100
AcDbLine
 62
7
  6
CONTINUOUS
 10
7.5031845985
 20
3.2431759724
 11
7.5031845985
 21
3.3489897027
  0
LINE
  5
56D
100
AcDbEntity
  8
0
100
AcDbLine
 62
7
  6
CONTINUOUS
 10
7.5065311502
 20
3.0556759724
 11
7.5065311502
 21
3.1056759724
  0
LINE
  5
56E
100
AcDbEntity
  8
0
100
AcDbLine
 62
7
  6
CONTINUOUS
 10
7.5097508293
 20
2.3656759724
 11
7.5097508293
 21
2.4056759724
  0
LINE
  5
56F
100
AcDbEntity
  8
0
100
AcDbLine
 62
7
  6
CONTINUOUS
 10
7.512551373
 20
3.0556759724
 11
7.512551373
 21
3.1056759724
  0
LINE
  5
570
100
AcDbEntity
  8
0
100
AcDbLine
 62
7
  6
CONTINUOUS
 10
7.5162265924
 20
2.3656759724
 11
7.5162265924
 21
2.4056759724
  0
LINE
  5
571
100
AcDbEntity
  8
0
100
AcDbLine
 62
7
  6
CONTINUOUS
 10
7.5173200703
 20
3.1056759724
 11
7.5173200703
 21
3.0556759724
  0
LINE
  5
572
100
AcDbEntity
  8
0
100
AcDbLine
 62
7
  6
CONTINUOUS
 10
7.5221507989
 20
2.4056759724
 11
7.5221507989
 21
2.3656759724
  0
LINE
  5
573
100
AcDbEntity
  8
0
100
AcDbLine
 62
7
  6
CONTINUOUS
 10
7.5284895814
 20
3.0556759724
 11
7.5284895814
 21
3.1056759724
  0
LINE
  5
574
100
AcDbEntity
  8
0
100
AcDbLine
 62
7
  6
CONTINUOUS
 10
7.5294345985
 20
3.7136759724
 11
7.5294345985
 21
3.5186759724
  0
LINE
  5
575
100
AcDbEntity
  8
0
100
AcDbLine
 62
7
  6
CONTINUOUS
 10
7.53303104
 20
2.3656759724
 11
7.53303104
 21
2.4056759724
  0
LINE
  5
576
100
AcDbEntity
  8
0
100
AcDbLine
 62
7
  6
CONTINUOUS
 10
7.5342954414
 20
3.0556759724
 11
7.5342954414
 21
3.1056759724
  0
LINE
  5
577
100
AcDbEntity
  8
0
100
AcDbLine
 62
7
  6
CONTINUOUS
 10
7.5383435215
 20
3.1056759724
 11
7.5383435215
 21
3.0556759724
  0
LINE
  5
578
100
AcDbEntity
  8
0
100
AcDbLine
 62
7
  6
CONTINUOUS
 10
7.5393779121
 20
2.3656759724
 11
7.5393779121
 21
2.4056759724
  0
LINE
  5
579
100
AcDbEntity
  8
0
100
AcDbLine
 62
7
  6
CONTINUOUS
 10
7.5447873475
 20
2.4056759724
 11
7.5447873475
 21
2.3656759724
  0
LINE
  5
57A
100
AcDbEntity
  8
0
100
AcDbLine
 62
7
  6
CONTINUOUS
 10
7.5496185614
 20
3.0556759724
 11
7.5496185614
 21
3.1056759724
  0
LINE
  5
57B
100
AcDbEntity
  8
0
100
AcDbLine
 62
7
  6
CONTINUOUS
 10
7.5544345985
 20
3.2281759724
 11
7.5544345985
 21
3.1831759724
  0
LINE
  5
57C
100
AcDbEntity
  8
0
100
AcDbLine
 62
7
  6
CONTINUOUS
 10
7.5551823911
 20
3.0556759724
 11
7.5551823911
 21
3.1056759724
  0
LINE
  5
57D
100
AcDbEntity
  8
0
100
AcDbLine
 62
7
  6
CONTINUOUS
 10
7.5558217303
 20
2.3656759724
 11
7.5558217303
 21
2.4056759724
  0
LINE
  5
57E
100
AcDbEntity
  8
0
100
AcDbLine
 62
7
  6
CONTINUOUS
 10
7.5584905629
 20
3.1056759724
 11
7.5584905629
 21
3.0556759724
  0
LINE
  5
57F
100
AcDbEntity
  8
0
100
AcDbLine
 62
7
  6
CONTINUOUS
 10
7.562022315
 20
2.3656759724
 11
7.562022315
 21
2.4056759724
  0
LINE
  5
580
100
AcDbEntity
  8
0
100
AcDbLine
 62
7
  6
CONTINUOUS
 10
7.5669021524
 20
2.4056759724
 11
7.5669021524
 21
2.3656759724
  0
LINE
  5
581
100
AcDbEntity
  8
0
100
AcDbLine
 62
7
  6
CONTINUOUS
 10
7.5698174009
 20
3.0556759724
 11
7.5698174009
 21
3.1056759724
  0
LINE
  5
582
100
AcDbEntity
  8
0
100
AcDbLine
 62
7
  6
CONTINUOUS
 10
7.5751126861
 20
3.0556759724
 11
7.5751126861
 21
3.1056759724
  0
LINE
  5
583
100
AcDbEntity
  8
0
100
AcDbLine
 62
7
  6
CONTINUOUS
 10
7.5776651847
 20
3.1056759724
 11
7.5776651847
 21
3.0556759724
  0
LINE
  5
584
100
AcDbEntity
  8
0
100
AcDbLine
 62
7
  6
CONTINUOUS
 10
7.5780604324
 20
2.3656759724
 11
7.5780604324
 21
2.4056759724
  0
LINE
  5
585
100
AcDbEntity
  8
0
100
AcDbLine
 62
7
  6
CONTINUOUS
 10
7.5840977345
 20
2.3656759724
 11
7.5840977345
 21
2.4056759724
  0
LINE
  5
586
100
AcDbEntity
  8
0
100
AcDbLine
 62
7
  6
CONTINUOUS
 10
7.5884345985
 20
2.4056759724
 11
7.5884345985
 21
2.3656759724
  0
LINE
  5
587
100
AcDbEntity
  8
0
100
AcDbLine
 62
7
  6
CONTINUOUS
 10
7.5889898432
 20
3.0556759724
 11
7.5889898432
 21
3.1056759724
  0
LINE
  5
588
100
AcDbEntity
  8
0
100
AcDbLine
 62
7
  6
CONTINUOUS
 10
7.5939913495
 20
3.0556759724
 11
7.5939913495
 21
3.1056759724
  0
LINE
  5
589
100
AcDbEntity
  8
0
100
AcDbLine
 62
7
  6
CONTINUOUS
 10
7.5957760111
 20
3.1056759724
 11
7.5957760111
 21
3.0556759724
  0
LINE
  5
58A
100
AcDbEntity
  8
0
100
AcDbLine
 62
7
  6
CONTINUOUS
 10
7.5996861917
 20
2.3656759724
 11
7.5996861917
 21
2.4056759724
  0
LINE
  5
58B
100
AcDbEntity
  8
0
100
AcDbLine
 62
7
  6
CONTINUOUS
 10
7.6055436632
 20
2.3656759724
 11
7.6055436632
 21
2.4056759724
  0
LINE
  5
58C
100
AcDbEntity
  8
0
100
AcDbLine
 62
7
  6
CONTINUOUS
 10
7.607044523
 20
3.0556759724
 11
7.607044523
 21
3.1056759724
  0
LINE
  5
58D
100
AcDbEntity
  8
0
100
AcDbLine
 62
7
  6
CONTINUOUS
 10
7.6093256669
 20
2.4056759724
 11
7.6093256669
 21
2.3656759724
  0
LINE
  5
58E
100
AcDbEntity
  8
0
100
AcDbLine
 62
7
  6
CONTINUOUS
 10
7.6117284159
 20
3.0556759724
 11
7.6117284159
 21
3.1056759724
  0
LINE
  5
58F
100
AcDbEntity
  8
0
100
AcDbLine
 62
7
  6
CONTINUOUS
 10
7.6127367357
 20
3.1056759724
 11
7.6127367357
 21
3.0556759724
  0
LINE
  5
590
100
AcDbEntity
  8
0
100
AcDbLine
 62
7
  6
CONTINUOUS
 10
7.6206397334
 20
2.3656759724
 11
7.6206397334
 21
2.4056759724
  0
LINE
  5
591
100
AcDbEntity
  8
0
100
AcDbLine
 62
7
  6
CONTINUOUS
 10
7.6238954015
 20
3.0556759724
 11
7.6238954015
 21
3.1056759724
  0
LINE
  5
592
100
AcDbEntity
  8
0
100
AcDbLine
 62
7
  6
CONTINUOUS
 10
7.6263013195
 20
2.3656759724
 11
7.6263013195
 21
2.4056759724
  0
LINE
  5
593
100
AcDbEntity
  8
0
100
AcDbLine
 62
7
  6
CONTINUOUS
 10
7.6282393601
 20
3.0556759724
 11
7.6282393601
 21
3.1056759724
  0
LINE
  5
594
100
AcDbEntity
  8
0
100
AcDbLine
 62
7
  6
CONTINUOUS
 10
7.6284665331
 20
3.1056759724
 11
7.6284665331
 21
3.0556759724
  0
LINE
  5
595
100
AcDbEntity
  8
0
100
AcDbLine
 62
7
  6
CONTINUOUS
 10
7.6295180966
 20
2.4056759724
 11
7.6295180966
 21
2.3656759724
  0
LINE
  5
596
100
AcDbEntity
  8
0
100
AcDbLine
 62
7
  6
CONTINUOUS
 10
7.6394621765
 20
3.0556759724
 11
7.6394621765
 21
3.1056759724
  0
LINE
  5
597
100
AcDbEntity
  8
0
100
AcDbLine
 62
7
  6
CONTINUOUS
 10
7.6408636254
 20
2.3656759724
 11
7.6408636254
 21
2.4056759724
  0
LINE
  5
598
100
AcDbEntity
  8
0
100
AcDbLine
 62
7
  6
CONTINUOUS
 10
7.6434454999
 20
3.0556759724
 11
7.6434454999
 21
3.1056759724
  0
LINE
  5
599
100
AcDbEntity
  8
0
100
AcDbLine
 62
7
  6
CONTINUOUS
 10
7.6463138079
 20
2.3656759724
 11
7.6463138079
 21
2.4056759724
  0
LINE
  5
59A
100
AcDbEntity
  8
0
100
AcDbLine
 62
7
  6
CONTINUOUS
 10
7.6489565415
 20
2.4056759724
 11
7.6489565415
 21
2.3656759724
  0
LINE
  5
59B
100
AcDbEntity
  8
0
100
AcDbLine
 62
7
  6
CONTINUOUS
 10
7.6536706654
 20
3.0556759724
 11
7.6536706654
 21
3.1056759724
  0
LINE
  5
59C
100
AcDbEntity
  8
0
100
AcDbLine
 62
7
  6
CONTINUOUS
 10
7.6544345985
 20
2.4456759724
 11
7.6544345985
 21
2.4406759724
  0
LINE
  5
59D
100
AcDbEntity
  8
0
100
AcDbLine
 62
7
  6
CONTINUOUS
 10
7.6572743712
 20
3.0556759724
 11
7.6572743712
 21
3.1056759724
  0
LINE
  5
59E
100
AcDbEntity
  8
0
100
AcDbLine
 62
7
  6
CONTINUOUS
 10
7.6603024352
 20
2.3656759724
 11
7.6603024352
 21
2.4056759724
  0
LINE
  5
59F
100
AcDbEntity
  8
0
100
AcDbLine
 62
7
  6
CONTINUOUS
 10
7.6655262758
 20
2.3656759724
 11
7.6655262758
 21
2.4056759724
  0
LINE
  5
5A0
100
AcDbEntity
  8
0
100
AcDbLine
 62
7
  6
CONTINUOUS
 10
7.666453158
 20
3.0556759724
 11
7.666453158
 21
3.1056759724
  0
LINE
  5
5A1
100
AcDbEntity
  8
0
100
AcDbLine
 62
7
  6
CONTINUOUS
 10
7.6669345985
 20
3.0556759724
 11
7.6669345985
 21
2.4456759724
  0
LINE
  5
5A2
100
AcDbEntity
  8
0
100
AcDbLine
 62
7
  6
CONTINUOUS
 10
7.6675877223
 20
2.4056759724
 11
7.6675877223
 21
2.3656759724
  0
LINE
  5
5A3
100
AcDbEntity
  8
0
100
AcDbLine
 62
7
  6
CONTINUOUS
 10
7.669660073
 20
3.0556759724
 11
7.669660073
 21
3.1056759724
  0
LINE
  5
5A4
100
AcDbEntity
  8
0
100
AcDbLine
 62
7
  6
CONTINUOUS
 10
7.6777487402
 20
3.0556759724
 11
7.6777487402
 21
3.1056759724
  0
LINE
  5
5A5
100
AcDbEntity
  8
0
100
AcDbLine
 62
7
  6
CONTINUOUS
 10
7.6789028826
 20
2.3656759724
 11
7.6789028826
 21
2.4056759724
  0
LINE
  5
5A6
100
AcDbEntity
  8
0
100
AcDbLine
 62
7
  6
CONTINUOUS
 10
7.6805435819
 20
3.0556759724
 11
7.6805435819
 21
3.1056759724
  0
LINE
  5
5A7
100
AcDbEntity
  8
0
100
AcDbLine
 62
7
  6
CONTINUOUS
 10
7.683886063
 20
2.3656759724
 11
7.683886063
 21
2.4056759724
  0
LINE
  5
5A8
100
AcDbEntity
  8
0
100
AcDbLine
 62
7
  6
CONTINUOUS
 10
7.6853605721
 20
2.4056759724
 11
7.6853605721
 21
2.3656759724
  0
LINE
  5
5A9
100
AcDbEntity
  8
0
100
AcDbLine
 62
7
  6
CONTINUOUS
 10
7.6875035833
 20
3.0556759724
 11
7.6875035833
 21
3.1056759724
  0
LINE
  5
5AA
100
AcDbEntity
  8
0
100
AcDbLine
 62
7
  6
CONTINUOUS
 10
7.689873033
 20
3.0556759724
 11
7.689873033
 21
3.1056759724
  0
LINE
  5
5AB
100
AcDbEntity
  8
0
100
AcDbLine
 62
7
  6
CONTINUOUS
 10
7.6956712009
 20
3.0556759724
 11
7.6956712009
 21
3.1056759724
  0
LINE
  5
5AC
100
AcDbEntity
  8
0
100
AcDbLine
 62
7
  6
CONTINUOUS
 10
7.696613985
 20
2.3656759724
 11
7.696613985
 21
2.4056759724
  0
LINE
  5
5AD
100
AcDbEntity
  8
0
100
AcDbLine
 62
7
  6
CONTINUOUS
 10
7.6976039671
 20
3.0556759724
 11
7.6976039671
 21
3.1056759724
  0
LINE
  5
5AE
100
AcDbEntity
  8
0
100
AcDbLine
 62
7
  6
CONTINUOUS
 10
7.7013428466
 20
2.3656759724
 11
7.7013428466
 21
2.4056759724
  0
LINE
  5
5AF
100
AcDbEntity
  8
0
100
AcDbLine
 62
7
  6
CONTINUOUS
 10
7.7022126707
 20
3.0556759724
 11
7.7022126707
 21
3.1056759724
  0
LINE
  5
5B0
100
AcDbEntity
  8
0
100
AcDbLine
 62
7
  6
CONTINUOUS
 10
7.7022263768
 20
2.4056759724
 11
7.7022263768
 21
2.3656759724
  0
LINE
  5
5B1
100
AcDbEntity
  8
0
100
AcDbLine
 62
7
  6
CONTINUOUS
 10
7.703699543
 20
3.0556759724
 11
7.703699543
 21
3.1056759724
  0
LINE
  5
5B2
100
AcDbEntity
  8
0
100
AcDbLine
 62
7
  6
CONTINUOUS
 10
7.7069345985
 20
3.7331759724
 11
7.7069345985
 21
3.4991759724
  0
LINE
  5
5B3
100
AcDbEntity
  8
0
100
AcDbLine
 62
7
  6
CONTINUOUS
 10
7.7070968197
 20
3.0556759724
 11
7.7070968197
 21
3.1056759724
  0
LINE
  5
5B4
100
AcDbEntity
  8
0
100
AcDbLine
 62
7
  6
CONTINUOUS
 10
7.7081307123
 20
3.0556759724
 11
7.7081307123
 21
3.1056759724
  0
LINE
  5
5B5
100
AcDbEntity
  8
0
100
AcDbLine
 62
7
  6
CONTINUOUS
 10
7.7103003726
 20
3.0556759724
 11
7.7103003726
 21
3.1056759724
  0
LINE
  5
5B6
100
AcDbEntity
  8
0
100
AcDbLine
 62
7
  6
CONTINUOUS
 10
7.7108763586
 20
3.0556759724
 11
7.7108763586
 21
3.1056759724
  0
LINE
  5
5B7
100
AcDbEntity
  8
0
100
AcDbLine
 62
7
  6
CONTINUOUS
 10
7.7118080629
 20
3.0556759724
 11
7.7118080629
 21
3.1056759724
  0
LINE
  5
5B8
100
AcDbEntity
  8
0
100
AcDbLine
 62
7
  6
CONTINUOUS
 10
7.7119233976
 20
3.0556759724
 11
7.7119233976
 21
3.1056759724
  0
LINE
  5
5B9
100
AcDbEntity
  8
0
100
AcDbLine
 62
7
  6
CONTINUOUS
 10
7.7133871975
 20
2.3656759724
 11
7.7133871975
 21
2.4056759724
  0
LINE
  5
5BA
100
AcDbEntity
  8
0
100
AcDbLine
 62
7
  6
CONTINUOUS
 10
7.7178487788
 20
2.3656759724
 11
7.7178487788
 21
2.4056759724
  0
LINE
  5
5BB
100
AcDbEntity
  8
0
100
AcDbLine
 62
7
  6
CONTINUOUS
 10
7.7181389085
 20
2.4056759724
 11
7.7181389085
 21
2.3656759724
  0
LINE
  5
5BC
100
AcDbEntity
  8
0
100
AcDbLine
 62
7
  6
CONTINUOUS
 10
7.7291765458
 20
2.3656759724
 11
7.7291765458
 21
2.4056759724
  0
LINE
  5
5BD
100
AcDbEntity
  8
0
100
AcDbLine
 62
7
  6
CONTINUOUS
 10
7.733358618
 20
2.3656759724
 11
7.733358618
 21
2.4056759724
  0
LINE
  5
5BE
100
AcDbEntity
  8
0
100
AcDbLine
 62
7
  6
CONTINUOUS
 10
7.7439387526
 20
2.3656759724
 11
7.7439387526
 21
2.4056759724
  0
LINE
  5
5BF
100
AcDbEntity
  8
0
100
AcDbLine
 62
7
  6
CONTINUOUS
 10
7.7444345985
 20
3.7661759724
 11
7.7444345985
 21
3.4661759724
  0
LINE
  5
5C0
100
AcDbEntity
  8
0
100
AcDbLine
 62
7
  6
CONTINUOUS
 10
7.7478298528
 20
2.3656759724
 11
7.7478298528
 21
2.4056759724
  0
LINE
  5
5C1
100
AcDbEntity
  8
0
100
AcDbLine
 62
7
  6
CONTINUOUS
 10
7.7576333555
 20
2.3656759724
 11
7.7576333555
 21
2.4056759724
  0
LINE
  5
5C2
100
AcDbEntity
  8
0
100
AcDbLine
 62
7
  6
CONTINUOUS
 10
7.7612228186
 20
2.3656759724
 11
7.7612228186
 21
2.4056759724
  0
LINE
  5
5C3
100
AcDbEntity
  8
0
100
AcDbLine
 62
7
  6
CONTINUOUS
 10
7.7702228186
 20
2.3656759724
 11
7.7702228186
 21
2.4056759724
  0
LINE
  5
5C4
100
AcDbEntity
  8
0
100
AcDbLine
 62
7
  6
CONTINUOUS
 10
7.7735008061
 20
2.3656759724
 11
7.7735008061
 21
2.4056759724
  0
LINE
  5
5C5
100
AcDbEntity
  8
0
100
AcDbLine
 62
7
  6
CONTINUOUS
 10
7.7816726351
 20
2.3656759724
 11
7.7816726351
 21
2.4056759724
  0
LINE
  5
5C6
100
AcDbEntity
  8
0
100
AcDbLine
 62
7
  6
CONTINUOUS
 10
7.7846301623
 20
2.3656759724
 11
7.7846301623
 21
2.4056759724
  0
LINE
  5
5C7
100
AcDbEntity
  8
0
100
AcDbLine
 62
7
  6
CONTINUOUS
 10
7.7919514219
 20
2.3656759724
 11
7.7919514219
 21
2.4056759724
  0
LINE
  5
5C8
100
AcDbEntity
  8
0
100
AcDbLine
 62
7
  6
CONTINUOUS
 10
7.7945803824
 20
2.3656759724
 11
7.7945803824
 21
2.4056759724
  0
LINE
  5
5C9
100
AcDbEntity
  8
0
100
AcDbLine
 62
7
  6
CONTINUOUS
 10
7.8010310055
 20
2.3656759724
 11
7.8010310055
 21
2.4056759724
  0
LINE
  5
5CA
100
AcDbEntity
  8
0
100
AcDbLine
 62
7
  6
CONTINUOUS
 10
7.8033241934
 20
2.3656759724
 11
7.8033241934
 21
2.4056759724
  0
LINE
  5
5CB
100
AcDbEntity
  8
0
100
AcDbLine
 62
7
  6
CONTINUOUS
 10
7.8044345985
 20
2.3656759724
 11
7.8044345985
 21
2.3156759724
  0
LINE
  5
5CC
100
AcDbEntity
  8
0
100
AcDbLine
 62
7
  6
CONTINUOUS
 10
7.8069345985
 20
3.7661759724
 11
7.8069345985
 21
3.4661759724
  0
LINE
  5
5CD
100
AcDbEntity
  8
0
100
AcDbLine
 62
7
  6
CONTINUOUS
 10
7.8088864993
 20
2.3656759724
 11
7.8088864993
 21
2.4056759724
  0
LINE
  5
5CE
100
AcDbEntity
  8
0
100
AcDbLine
 62
7
  6
CONTINUOUS
 10
7.8108376293
 20
2.3656759724
 11
7.8108376293
 21
2.4056759724
  0
LINE
  5
5CF
100
AcDbEntity
  8
0
100
AcDbLine
 62
7
  6
CONTINUOUS
 10
7.8154963721
 20
2.3656759724
 11
7.8154963721
 21
2.4056759724
  0
LINE
  5
5D0
100
AcDbEntity
  8
0
100
AcDbLine
 62
7
  6
CONTINUOUS
 10
7.8171000962
 20
2.3656759724
 11
7.8171000962
 21
2.4056759724
  0
LINE
  5
5D1
100
AcDbEntity
  8
0
100
AcDbLine
 62
7
  6
CONTINUOUS
 10
7.8208425066
 20
2.3656759724
 11
7.8208425066
 21
2.4056759724
  0
LINE
  5
5D2
100
AcDbEntity
  8
0
100
AcDbLine
 62
7
  6
CONTINUOUS
 10
7.8220944291
 20
2.3656759724
 11
7.8220944291
 21
2.4056759724
  0
LINE
  5
5D3
100
AcDbEntity
  8
0
100
AcDbLine
 62
7
  6
CONTINUOUS
 10
7.8249102495
 20
2.3656759724
 11
7.8249102495
 21
2.4056759724
  0
LINE
  5
5D4
100
AcDbEntity
  8
0
100
AcDbLine
 62
7
  6
CONTINUOUS
 10
7.8258069389
 20
2.3656759724
 11
7.8258069389
 21
2.4056759724
  0
LINE
  5
5D5
100
AcDbEntity
  8
0
100
AcDbLine
 62
7
  6
CONTINUOUS
 10
7.8276884513
 20
2.3656759724
 11
7.8276884513
 21
2.4056759724
  0
LINE
  5
5D6
100
AcDbEntity
  8
0
100
AcDbLine
 62
7
  6
CONTINUOUS
 10
7.8282274499
 20
2.3656759724
 11
7.8282274499
 21
2.4056759724
  0
LINE
  5
5D7
100
AcDbEntity
  8
0
100
AcDbLine
 62
7
  6
CONTINUOUS
 10
7.8291694972
 20
2.3656759724
 11
7.8291694972
 21
2.4056759724
  0
LINE
  5
5D8
100
AcDbEntity
  8
0
100
AcDbLine
 62
7
  6
CONTINUOUS
 10
7.8293493277
 20
2.3656759724
 11
7.8293493277
 21
2.4056759724
  0
LINE
  5
5D9
100
AcDbEntity
  8
0
100
AcDbLine
 62
7
  6
CONTINUOUS
 10
7.8294345985
 20
2.2906759724
 11
7.8294345985
 21
2.2506759724
  0
LINE
  5
5DA
100
AcDbEntity
  8
0
100
AcDbLine
 62
7
  6
CONTINUOUS
 10
6.9044345985
 20
2.3156759724
 11
6.8794345985
 21
2.2906759724
  0
LINE
  5
5DB
100
AcDbEntity
  8
0
100
AcDbLine
 62
7
  6
CONTINUOUS
 10
9.0969345985
 20
3.7774259724
 11
9.0969345985
 21
3.4549259724
  0
LINE
  5
5DC
100
AcDbEntity
  8
0
100
AcDbLine
 62
7
  6
CONTINUOUS
 10
9.1569345985
 20
3.7774259724
 11
9.1569345985
 21
3.4549259724
  0
ARC
  5
5DD
100
AcDbEntity
  8
0
100
AcDbCircle
 62
7
  6
CONTINUOUS
 10
2.9381845985
 20
2.4406759724
 40
0.035
100
AcDbArc
 50
272.4180798959
 51
342.5423968763
  0
ARC
  5
5DE
100
AcDbEntity
  8
0
100
AcDbCircle
 62
7
  6
CONTINUOUS
 10
2.9858815586
 20
2.4256759724
 40
0.015
100
AcDbArc
 50
90.0
 51
162.5423968763
  0
ARC
  5
5DF
100
AcDbEntity
  8
0
100
AcDbCircle
 62
7
  6
CONTINUOUS
 10
3.1394345985
 20
3.1831759724
 40
0.015
100
AcDbArc
 50
270.0
 51
360.0
  0
ARC
  5
5E0
100
AcDbEntity
  8
0
100
AcDbCircle
 62
7
  6
CONTINUOUS
 10
3.1252736612
 20
3.1531759724
 40
0.015
100
AcDbArc
 50
90.0
 51
146.3876254015
  0
ARC
  5
5E1
100
AcDbEntity
  8
0
100
AcDbCircle
 62
7
  6
CONTINUOUS
 10
3.1794345985
 20
3.4411759724
 40
0.2725
100
AcDbArc
 50
0.0
 51
90.0
  0
ARC
  5
5E2
100
AcDbEntity
  8
0
100
AcDbCircle
 62
7
  6
CONTINUOUS
 10
3.008681423
 20
3.2306759724
 40
0.125
100
AcDbArc
 50
271.8512068931
 51
326.3876254015
  0
ARC
  5
5E3
100
AcDbEntity
  8
0
100
AcDbCircle
 62
7
  6
CONTINUOUS
 10
3.1794345985
 20
3.4411759724
 40
0.0775
100
AcDbArc
 50
0.0
 51
90.0
  0
ARC
  5
5E4
100
AcDbEntity
  8
0
100
AcDbCircle
 62
7
  6
CONTINUOUS
 10
3.0019345985
 20
3.7709827906
 40
0.0378068182
100
AcDbArc
 50
187.3044455606
 51
270.0
  0
ARC
  5
5E5
100
AcDbEntity
  8
0
100
AcDbCircle
 62
7
  6
CONTINUOUS
 10
3.0019345985
 20
3.4613691542
 40
0.0378068182
100
AcDbArc
 50
90.0
 51
172.6955544394
  0
ARC
  5
5E6
100
AcDbEntity
  8
0
100
AcDbCircle
 62
7
  6
CONTINUOUS
 10
2.9331845985
 20
3.7661759724
 40
0.03125
100
AcDbArc
 50
0.0
 51
180.0
  0
ARC
  5
5E7
100
AcDbEntity
  8
0
100
AcDbCircle
 62
7
  6
CONTINUOUS
 10
2.9331845985
 20
3.4661759724
 40
0.03125
100
AcDbArc
 50
180.0
 51
360.0
  0
ARC
  5
5E8
100
AcDbEntity
  8
0
100
AcDbCircle
 62
7
  6
CONTINUOUS
 10
3.2006845985
 20
3.3886759724
 40
0.03
100
AcDbArc
 50
90.0
 51
262.8192442185
  0
ARC
  5
5E9
100
AcDbEntity
  8
0
100
AcDbCircle
 62
7
  6
CONTINUOUS
 10
1.5819345985
 20
3.7774259724
 40
0.03
100
AcDbArc
 50
0.0
 51
180.0
  0
ARC
  5
5EA
100
AcDbEntity
  8
0
100
AcDbCircle
 62
7
  6
CONTINUOUS
 10
1.5819345985
 20
3.4549259724
 40
0.03
100
AcDbArc
 50
180.0
 51
360.0
  0
ARC
  5
5EB
100
AcDbEntity
  8
0
100
AcDbCircle
 62
7
  6
CONTINUOUS
 10
3.1694345985
 20
3.2281759724
 40
0.015
100
AcDbArc
 50
90.0
 51
180.0
  0
ARC
  5
5EC
100
AcDbEntity
  8
0
100
AcDbCircle
 62
7
  6
CONTINUOUS
 10
3.1956845985
 20
3.3489897027
 40
0.01
100
AcDbArc
 50
0.0
 51
82.8192442186
  0
ARC
  5
5ED
100
AcDbEntity
  8
0
100
AcDbCircle
 62
7
  6
CONTINUOUS
 10
3.2469345985
 20
3.4286759724
 40
0.01
100
AcDbArc
 50
270.0
 51
360.0
  0
ARC
  5
5EE
100
AcDbEntity
  8
0
100
AcDbCircle
 62
7
  6
CONTINUOUS
 10
4.8372723067
 20
2.5381759724
 40
0.05
100
AcDbArc
 50
273.0938571673
 51
334.9710005124
  0
ARC
  5
5EF
100
AcDbEntity
  8
0
100
AcDbCircle
 62
7
  6
CONTINUOUS
 10
3.7706845985
 20
2.4406759724
 40
0.035
100
AcDbArc
 50
197.4576031237
 51
267.5819201041
  0
ARC
  5
5F0
100
AcDbEntity
  8
0
100
AcDbCircle
 62
7
  6
CONTINUOUS
 10
4.8961684016
 20
2.5106759724
 40
0.015
100
AcDbArc
 50
90.0
 51
154.9710005124
  0
ARC
  5
5F1
100
AcDbEntity
  8
0
100
AcDbCircle
 62
7
  6
CONTINUOUS
 10
3.7229876384
 20
2.4256759724
 40
0.015
100
AcDbArc
 50
17.4576031237
 51
90.0
  0
ARC
  5
5F2
100
AcDbEntity
  8
0
100
AcDbCircle
 62
7
  6
CONTINUOUS
 10
3.5694345985
 20
3.1831759724
 40
0.015
100
AcDbArc
 50
180.0
 51
270.0
  0
ARC
  5
5F3
100
AcDbEntity
  8
0
100
AcDbCircle
 62
7
  6
CONTINUOUS
 10
3.5835955358
 20
3.1531759724
 40
0.015
100
AcDbArc
 50
33.6123745985
 51
90.0
  0
ARC
  5
5F4
100
AcDbEntity
  8
0
100
AcDbCircle
 62
7
  6
CONTINUOUS
 10
3.700187774
 20
3.2306759724
 40
0.125
100
AcDbArc
 50
213.6123745985
 51
268.1487931069
  0
ARC
  5
5F5
100
AcDbEntity
  8
0
100
AcDbCircle
 62
7
  6
CONTINUOUS
 10
4.9992336012
 20
3.9256759724
 40
0.075
100
AcDbArc
 50
272.3658380059
 51
342.208409427
  0
ARC
  5
5F6
100
AcDbEntity
  8
0
100
AcDbCircle
 62
7
  6
CONTINUOUS
 10
3.5081845985
 20
3.3886759724
 40
0.03
100
AcDbArc
 50
277.1807557815
 51
90.0
  0
ARC
  5
5F7
100
AcDbEntity
  8
0
100
AcDbCircle
 62
7
  6
CONTINUOUS
 10
5.1194345985
 20
3.9731759724
 40
0.015
100
AcDbArc
 50
90.0
 51
180.0
  0
ARC
  5
5F8
100
AcDbEntity
  8
0
100
AcDbCircle
 62
7
  6
CONTINUOUS
 10
5.0894345985
 20
3.9281759724
 40
0.015
100
AcDbArc
 50
270.0
 51
360.0
  0
ARC
  5
5F9
100
AcDbEntity
  8
0
100
AcDbCircle
 62
7
  6
CONTINUOUS
 10
5.0849292837
 20
3.8981759724
 40
0.015
100
AcDbArc
 50
90.0
 51
162.208409427
  0
ARC
  5
5FA
100
AcDbEntity
  8
0
100
AcDbCircle
 62
7
  6
CONTINUOUS
 10
3.5394345985
 20
3.2281759724
 40
0.015
100
AcDbArc
 50
0.0
 51
90.0
  0
ARC
  5
5FB
100
AcDbEntity
  8
0
100
AcDbCircle
 62
7
  6
CONTINUOUS
 10
3.5131845985
 20
3.3489897027
 40
0.01
100
AcDbArc
 50
97.1807557814
 51
180.0
  0
ARC
  5
5FC
100
AcDbEntity
  8
0
100
AcDbCircle
 62
7
  6
CONTINUOUS
 10
3.4619345985
 20
3.4286759724
 40
0.01
100
AcDbArc
 50
180.0
 51
270.0
  0
ARC
  5
5FD
100
AcDbEntity
  8
0
100
AcDbCircle
 62
7
  6
CONTINUOUS
 10
5.8715968903
 20
2.5381759724
 40
0.05
100
AcDbArc
 50
205.0289994876
 51
266.9061428327
  0
ARC
  5
5FE
100
AcDbEntity
  8
0
100
AcDbCircle
 62
7
  6
CONTINUOUS
 10
6.9381845985
 20
2.4406759724
 40
0.035
100
AcDbArc
 50
272.1982544508
 51
342.5423968763
  0
ARC
  5
5FF
100
AcDbEntity
  8
0
100
AcDbCircle
 62
7
  6
CONTINUOUS
 10
5.8127007954
 20
2.5106759724
 40
0.015
100
AcDbArc
 50
25.0289994877
 51
90.0
  0
ARC
  5
600
100
AcDbEntity
  8
0
100
AcDbCircle
 62
7
  6
CONTINUOUS
 10
7.1252736612
 20
3.1531759724
 40
0.015
100
AcDbArc
 50
90.0
 51
146.3876254015
  0
ARC
  5
601
100
AcDbEntity
  8
0
100
AcDbCircle
 62
7
  6
CONTINUOUS
 10
7.1394345985
 20
3.1831759724
 40
0.015
100
AcDbArc
 50
270.0
 51
360.0
  0
ARC
  5
602
100
AcDbEntity
  8
0
100
AcDbCircle
 62
7
  6
CONTINUOUS
 10
6.9858815586
 20
2.4256759724
 40
0.015
100
AcDbArc
 50
90.0
 51
162.5423968763
  0
ARC
  5
603
100
AcDbEntity
  8
0
100
AcDbCircle
 62
7
  6
CONTINUOUS
 10
7.008681423
 20
3.2306759724
 40
0.125
100
AcDbArc
 50
272.0691539326
 51
326.3876254015
  0
ARC
  5
604
100
AcDbEntity
  8
0
100
AcDbCircle
 62
7
  6
CONTINUOUS
 10
5.7096355958
 20
3.9256759724
 40
0.075
100
AcDbArc
 50
197.791590573
 51
267.6341619941
  0
ARC
  5
605
100
AcDbEntity
  8
0
100
AcDbCircle
 62
7
  6
CONTINUOUS
 10
7.2006845985
 20
3.3886759724
 40
0.03
100
AcDbArc
 50
90.0
 51
262.8192442185
  0
ARC
  5
606
100
AcDbEntity
  8
0
100
AcDbCircle
 62
7
  6
CONTINUOUS
 10
5.5894345985
 20
3.9731759724
 40
0.015
100
AcDbArc
 50
0.0
 51
90.0
  0
ARC
  5
607
100
AcDbEntity
  8
0
100
AcDbCircle
 62
7
  6
CONTINUOUS
 10
5.6194345985
 20
3.9281759724
 40
0.015
100
AcDbArc
 50
180.0
 51
270.0
  0
ARC
  5
608
100
AcDbEntity
  8
0
100
AcDbCircle
 62
7
  6
CONTINUOUS
 10
5.6239399133
 20
3.8981759724
 40
0.015
100
AcDbArc
 50
17.791590573
 51
90.0
  0
ARC
  5
609
100
AcDbEntity
  8
0
100
AcDbCircle
 62
7
  6
CONTINUOUS
 10
7.1694345985
 20
3.2281759724
 40
0.015
100
AcDbArc
 50
90.0
 51
180.0
  0
ARC
  5
60A
100
AcDbEntity
  8
0
100
AcDbCircle
 62
7
  6
CONTINUOUS
 10
7.2469345985
 20
3.4286759724
 40
0.01
100
AcDbArc
 50
270.0
 51
360.0
  0
ARC
  5
60B
100
AcDbEntity
  8
0
100
AcDbCircle
 62
7
  6
CONTINUOUS
 10
7.1956845985
 20
3.3489897027
 40
0.01
100
AcDbArc
 50
0.0
 51
82.8192442186
  0
ARC
  5
60C
100
AcDbEntity
  8
0
100
AcDbCircle
 62
7
  6
CONTINUOUS
 10
7.7706845985
 20
2.4406759724
 40
0.035
100
AcDbArc
 50
197.4576031237
 51
267.8017455492
  0
ARC
  5
60D
100
AcDbEntity
  8
0
100
AcDbCircle
 62
7
  6
CONTINUOUS
 10
7.5835955358
 20
3.1531759724
 40
0.015
100
AcDbArc
 50
33.6123745985
 51
90.0
  0
ARC
  5
60E
100
AcDbEntity
  8
0
100
AcDbCircle
 62
7
  6
CONTINUOUS
 10
7.5694345985
 20
3.1831759724
 40
0.015
100
AcDbArc
 50
180.0
 51
270.0
  0
ARC
  5
60F
100
AcDbEntity
  8
0
100
AcDbCircle
 62
7
  6
CONTINUOUS
 10
7.7229876384
 20
2.4256759724
 40
0.015
100
AcDbArc
 50
17.4576031237
 51
90.0
  0
ARC
  5
610
100
AcDbEntity
  8
0
100
AcDbCircle
 62
7
  6
CONTINUOUS
 10
7.5294345985
 20
3.4411759724
 40
0.2725
100
AcDbArc
 50
90.0
 51
180.0
  0
ARC
  5
611
100
AcDbEntity
  8
0
100
AcDbCircle
 62
7
  6
CONTINUOUS
 10
7.700187774
 20
3.2306759724
 40
0.125
100
AcDbArc
 50
213.6123745985
 51
267.9308460674
  0
ARC
  5
612
100
AcDbEntity
  8
0
100
AcDbCircle
 62
7
  6
CONTINUOUS
 10
7.5294345985
 20
3.4411759724
 40
0.0775
100
AcDbArc
 50
90.0
 51
180.0
  0
ARC
  5
613
100
AcDbEntity
  8
0
100
AcDbCircle
 62
7
  6
CONTINUOUS
 10
7.7069345985
 20
3.4613691542
 40
0.0378068182
100
AcDbArc
 50
7.3044455606
 51
90.0
  0
ARC
  5
614
100
AcDbEntity
  8
0
100
AcDbCircle
 62
7
  6
CONTINUOUS
 10
7.7069345985
 20
3.7709827906
 40
0.0378068182
100
AcDbArc
 50
270.0
 51
352.6955544394
  0
ARC
  5
615
100
AcDbEntity
  8
0
100
AcDbCircle
 62
7
  6
CONTINUOUS
 10
7.7756845985
 20
3.4661759724
 40
0.03125
100
AcDbArc
 50
180.0
 51
360.0
  0
ARC
  5
616
100
AcDbEntity
  8
0
100
AcDbCircle
 62
7
  6
CONTINUOUS
 10
7.7756845985
 20
3.7661759724
 40
0.03125
100
AcDbArc
 50
0.0
 51
180.0
  0
ARC
  5
617
100
AcDbEntity
  8
0
100
AcDbCircle
 62
7
  6
CONTINUOUS
 10
9.1269345985
 20
3.4549259724
 40
0.03
100
AcDbArc
 50
180.0
 51
360.0
  0
ARC
  5
618
100
AcDbEntity
  8
0
100
AcDbCircle
 62
7
  6
CONTINUOUS
 10
9.1269345985
 20
3.7774259724
 40
0.03
100
AcDbArc
 50
0.0
 51
180.0
  0
ARC
  5
619
100
AcDbEntity
  8
0
100
AcDbCircle
 62
7
  6
CONTINUOUS
 10
7.5081845985
 20
3.3886759724
 40
0.03
100
AcDbArc
 50
277.1807557815
 51
90.0
  0
ARC
  5
61A
100
AcDbEntity
  8
0
100
AcDbCircle
 62
7
  6
CONTINUOUS
 10
7.5394345985
 20
3.2281759724
 40
0.015
100
AcDbArc
 50
0.0
 51
90.0
  0
ARC
  5
61B
100
AcDbEntity
  8
0
100
AcDbCircle
 62
7
  6
CONTINUOUS
 10
7.4619345985
 20
3.4286759724
 40
0.01
100
AcDbArc
 50
180.0
 51
270.0
  0
ARC
  5
61C
100
AcDbEntity
  8
0
100
AcDbCircle
 62
7
  6
CONTINUOUS
 10
7.5131845985
 20
3.3489897027
 40
0.01
100
AcDbArc
 50
97.1807557814
 51
180.0
  0
ARC
  5
61D
100
AcDbEntity
  8
0
100
AcDbCircle
 62
7
  6
CONTINUOUS
 10
5.3544345985
 20
6.8806759724
 40
0.21875
100
AcDbArc
 50
0.0
 51
180.0
  0
ENDSEC
  0
SECTION
  2
OBJECTS
  0
DICTIONARY
  5
C
100
AcDbDictionary
280
0
281
1
  3
ACAD_GROUP
350
D
  3
ACAD_MLINESTYLE
350
17
  3
ACAD_LAYOUT
350
1A
  3
ACAD_PLOTSETTINGS
350
19
  3
ACAD_PLOTSTYLENAME
350
E
  0
DICTIONARY
  5
D
102
{ACAD_REACTORS
330
C
102
}
100
AcDbDictionary
280
0
281
1
  0
ACDBDICTIONARYWDFLT
  5
E
102
{ACAD_REACTORS
330
C
102
}
100
AcDbDictionary
281
1
  3
Normal
350
F
100
AcDbDictionaryWithDefault
340
F
  0
DICTIONARY
  5
17
102
{ACAD_REACTORS
330
C
102
}
100
AcDbDictionary
280
0
281
1
  3
Standard
350
18
  0
DICTIONARY
  5
19
102
{ACAD_REACTORS
330
C
102
}
100
AcDbDictionary
281
1
  0
DICTIONARY
  5
1A
102
{ACAD_REACTORS
330
C
102
}
100
AcDbDictionary
281
1
  3
Model
350
61E
  3
Layout1
350
61F
  0
ACDBPLACEHOLDER
  5
F
102
{ACAD_REACTORS
330
E
102
}
  0
MLINESTYLE
  5
18
102
{ACAD_REACTORS
330
17
102
}
100
AcDbMlineStyle
  2
STANDARD
 70
0
  3

 62
256
 51
90.0
 52
90.0
 71
2
 49
0.5
 62
256
  6
BYLAYER
 49
-0.5
 62
256
  6
BYLAYER
  0
LAYOUT
  5
61E
102
{ACAD_REACTORS
330
1A
102
}
100
AcDbPlotSettings
  1

  2
none_device
  4
ANSI_A_(11.00_x_8.50_Inches)
  6

 40
0.0
 41
0.0
 42
0.0
 43
0.0
 44
279.4
 45
215.9
 46
0.0
 47
0.0
 48
0.0
 49
0.0
140
0.0
141
0.0
142
1.0
143
1.0
 70
1024
 72
0
 73
0
 74
0
  7

 75
0
147
1.0
148
0.0
149
0.0
100
AcDbLayout
  1
Model
 70
0
 71
0
 10
0.0
 20
0.0
 11
11.0
 21
8.5
 12
0.0
 22
0.0
 32
0.0
 14
0.0
 24
0.0
 34
0.0
 15
0.0
 25
0.0
 35
0.0
146
0.0
 13
0.0
 23
0.0
 33
0.0
 16
1.0
 26
0.0
 36
0.0
 17
0.0
 27
1.0
 37
0.0
 76
0
330
202
345
0
346
0
  0
LAYOUT
  5
61F
102
{ACAD_REACTORS
330
1A
102
}
100
AcDbPlotSettings
  1

  2
none_device
  4
ANSI_A_(11.00_x_8.50_Inches)
  6

 40
0.0
 41
0.0
 42
0.0
 43
0.0
 44
279.4
 45
215.9
 46
0.0
 47
0.0
 48
0.0
 49
0.0
140
0.0
141
0.0
142
1.0
143
1.0
 70
0
 72
0
 73
0
 74
0
  7

 75
0
147
1.0
148
0.0
149
0.0
100
AcDbLayout
  1
Layout1
 70
0
 71
1
 10
0.0
 20
0.0
 11
11.0
 21
8.5
 12
0.0
 22
0.0
 32
0.0
 14
0.0
 24
0.0
 34
0.0
 15
0.0
 25
0.0
 35
0.0
146
0.0
 13
0.0
 23
0.0
 33
0.0
 16
1.0
 26
0.0
 36
0.0
 17
0.0
 27
1.0
 37
0.0
 76
0
330
203
345
0
346
0
  0
ENDSEC
  0
EOF
