999
DXF file: 3-2946_right.dxf
999
Pro/ENGINEER 2019352 by Parametric Technology Corporation
  0
SECTION
  2
HEADER
  9
$ACADVER
  1
AC1032
  9
$DWGCODEPAGE
  3
ANSI_1252
  9
$EXTMAX
 10
11.0
 20
8.5
 30
0.0
  9
$EXTMIN
 10
0.0
 20
0.0
 30
0.0
  9
$LIMMIN
 10
0.0
 20
0.0
  9
$LIMMAX
 10
11.0
 20
8.5
  9
$VIEWCTR
 10
5.5
 20
4.25
  9
$VIEWSIZE
 40
8.5
  9
$CLAYER
  8
0
  9
$LTSCALE
 40
0.605
  9
$CELTYPE
  6
BYLAYER
  9
$DIMSCALE
 40
1.0
  9
$DIMASZ
 40
0.1
  9
$DIMEXO
 40
0.0625
  9
$DIMDLI
 40
0.418
  9
$DIMEXE
 40
0.125
  9
$DIMCEN
 40
0.099
  9
$DIMLFAC
 40
1.0
  9
$DIMBLK
  1
_FILLED
  9
$DIMALT
 70
1
  9
$DIMALTD
 70
2
  9
$DIMALTTD
 70
2
  9
$DIMALTF
 40
25.4
  9
$DIMTXT
 40
0.08
  9
$DIMTOL
 70
1
  9
$DIMLIM
 70
0
  9
$DIMTFAC
 40
1.0
  9
$DIMTP
 40
0.001
  9
$DIMTM
 40
0.001
  9
$DIMGAP
 40
0.09
  9
$DIMDSEP
 70
46
  9
$AUNITS
 70
0
  9
$PDMODE
 70
3
  9
$PDSIZE
 40
0.3125
  9
$HANDSEED
  5
47D
  9
$TILEMODE
 70
1
  9
$MEASUREMENT
 70
0
  9
$INSUNITS
 70
1
  0
ENDSEC
  0
SECTION
  2
CLASSES
  0
CLASS
  1
ACDBDICTIONARYWDFLT
  2
AcDbDictionaryWithDefault
  3
AutoCAD 2000
 90
0
 91
1
280
0
281
0
  0
CLASS
  1
ACDBPLACEHOLDER
  2
AcDbPlaceHolder
  3
AutoCAD 2000
 90
0
 91
1
280
0
281
0
  0
CLASS
  1
LAYOUT
  2
AcDbLayout
  3
AutoCAD 2000
 90
0
 91
0
280
0
281
0
  0
ENDSEC
  0
SECTION
  2
TABLES
  0
TABLE
  2
VPORT
  5
8
100
AcDbSymbolTable
 70
2
  0
VPORT
  5
1F4
100
AcDbSymbolTableRecord
100
AcDbViewportTableRecord
  2
*ACTIVE
 70
0
 10
0.0
 20
0.0
 11
1.0
 21
1.0
 12
5.5
 22
4.25
 13
0.0
 23
0.0
 14
1.0
 24
1.0
 15
0.0
 25
0.0
 16
0.0
 26
0.0
 36
1.0
 17
0.0
 27
0.0
 37
0.0
 40
8.5
 41
1.2941176471
 42
50.0
 43
0.0
 44
0.0
 50
0.0
 51
0.0
 71
0
 72
100
 73
1
 74
1
 75
0
 76
0
 77
0
 78
0
  0
ENDTAB
  0
TABLE
  2
LTYPE
  5
5
100
AcDbSymbolTable
 70
6
  0
LTYPE
  5
14
100
AcDbSymbolTableRecord
100
AcDbLinetypeTableRecord
  2
BYBLOCK
 70
0
  3

 72
65
 73
0
 40
0.0
  0
LTYPE
  5
15
100
AcDbSymbolTableRecord
100
AcDbLinetypeTableRecord
  2
BYLAYER
 70
0
  3

 72
65
 73
0
 40
0.0
  0
LTYPE
  5
16
100
AcDbSymbolTableRecord
100
AcDbLinetypeTableRecord
  2
CONTINUOUS
 70
64
  3
Solid line
 72
65
 73
0
 40
0.0
  0
LTYPE
  5
1F5
100
AcDbSymbolTableRecord
100
AcDbLinetypeTableRecord
  2
CENTER
 70
64
  3
____ _ ____ _ ____ _ ____ _ ____ _ ____ _ ____
 72
65
 73
4
 40
0.6
 49
0.375
 74
0
 49
-0.075
 74
0
 49
0.075
 74
0
 49
-0.075
 74
0
  0
LTYPE
  5
1F6
100
AcDbSymbolTableRecord
100
AcDbLinetypeTableRecord
  2
HIDDEN
 70
64
  3
- - - - - - - - - - - - - - - - - - - -
 72
65
 73
2
 40
0.2
 49
0.1
 74
0
 49
-0.1
 74
0
  0
LTYPE
  5
1F7
100
AcDbSymbolTableRecord
100
AcDbLinetypeTableRecord
  2
PHANTOM
 70
64
  3
_____ _ _ _____ _ _ _____ _ _ _____
 72
65
 73
6
 40
0.8
 49
0.45
 74
0
 49
-0.05
 74
0
 49
0.1
 74
0
 49
-0.05
 74
0
 49
0.1
 74
0
 49
-0.05
 74
0
  0
LTYPE
  5
1F8
100
AcDbSymbolTableRecord
100
AcDbLinetypeTableRecord
  2
DOT
 70
64
  3
. . . . . . . . . . . . . . . . . . . .
 72
65
 73
2
 40
0.2
 49
0.1
 74
0
 49
-0.1
 74
0
  0
LTYPE
  5
1F9
100
AcDbSymbolTableRecord
100
AcDbLinetypeTableRecord
  2
DASHED
 70
64
  3
- - - - - - - - - - - - - - - - - - - -
 72
65
 73
2
 40
0.2
 49
0.1
 74
0
 49
-0.1
 74
0
  0
ENDTAB
  0
TABLE
  2
LAYER
  5
2
100
AcDbSymbolTable
 70
36
  0
LAYER
  5
10
100
AcDbSymbolTableRecord
100
AcDbLayerTableRecord
  2
0
 70
0
 62
7
  6
CONTINUOUS
370
-3
390
F
  0
LAYER
  5
1FA
100
AcDbSymbolTableRecord
100
AcDbLayerTableRecord
  2
DEFAULT_1
 70
0
 62
7
  6
CENTER
370
-3
390
F
  0
LAYER
  5
1FB
100
AcDbSymbolTableRecord
100
AcDbLayerTableRecord
  2
DEFAULT_2
 70
0
 62
8
  6
HIDDEN
370
-3
390
F
  0
LAYER
  5
1FC
100
AcDbSymbolTableRecord
100
AcDbLayerTableRecord
  2
DEFAULT_3
 70
0
 62
7
  6
PHANTOM
370
-3
390
F
  0
LAYER
  5
1FD
100
AcDbSymbolTableRecord
100
AcDbLayerTableRecord
  2
DEFAULT_COORDINATE_SYSTEM
 70
0
 62
7
  6
CONTINUOUS
370
-3
390
F
  0
LAYER
  5
1FE
100
AcDbSymbolTableRecord
100
AcDbLayerTableRecord
  2
DEFAULT_DATUM_AXES
 70
0
 62
7
  6
CONTINUOUS
370
-3
390
F
  0
LAYER
  5
1FF
100
AcDbSymbolTableRecord
100
AcDbLayerTableRecord
  2
DEFAULT_DATUM_PLANES
 70
0
 62
7
  6
CONTINUOUS
370
-3
390
F
  0
ENDTAB
  0
TABLE
  2
STYLE
  5
3
100
AcDbSymbolTable
 70
1
  0
STYLE
  5
11
100
AcDbSymbolTableRecord
100
AcDbTextStyleTableRecord
  2
STANDARD
 70
0
 40
0.0
 41
0.8
 50
0.0
 71
0
 42
0.2
  3
txt
  4

  0
STYLE
  5
200
100
AcDbSymbolTableRecord
100
AcDbTextStyleTableRecord
  2
TEXTSTYLE_1
 70
0
 40
0.0
 41
0.8
 50
0.0
 71
0
 42
0.2
  3
gdt
  4

  0
ENDTAB
  0
TABLE
  2
VIEW
  5
6
100
AcDbSymbolTable
 70
0
  0
ENDTAB
  0
TABLE
  2
UCS
  5
7
100
AcDbSymbolTable
 70
0
  0
ENDTAB
  0
TABLE
  2
APPID
  5
9
100
AcDbSymbolTable
 70
1
  0
APPID
  5
201
100
AcDbSymbolTableRecord
100
AcDbRegAppTableRecord
  2
ACAD
 70
0
  0
ENDTAB
  0
TABLE
  2
BLOCK_RECORD
  5
1
100
AcDbSymbolTable
 70
0
  0
BLOCK_RECORD
  5
202
100
AcDbSymbolTableRecord
100
AcDbBlockTableRecord
  2
*Model_Space
  0
BLOCK_RECORD
  5
203
100
AcDbSymbolTableRecord
100
AcDbBlockTableRecord
  2
*Paper_Space
  0
BLOCK_RECORD
  5
204
100
AcDbSymbolTableRecord
100
AcDbBlockTableRecord
  2
_FILLED
  0
ENDTAB
  0
TABLE
  2
DIMSTYLE
  5
A
100
AcDbSymbolTable
 70
1
100
AcDbDimStyleTable
 71
0
  0
DIMSTYLE
105
205
100
AcDbSymbolTableRecord
100
AcDbDimStyleTableRecord
  2
STANDARD
 70
0
  3

  4

 40
1.0
 41
0.1
 42
0.0625
 43
0.38
 44
0.125
 45
0.0
 46
0.0
 47
0.001
 48
0.001
140
0.08
141
0.09
142
0.0
143
25.4
144
1.0
145
0.0
146
1.0
147
0.09
 71
1.0
 72
0.0
 73
1
 74
1
 75
0
 76
0
 77
0
 78
4
 79
1
170
1
171
2
172
0
173
0
174
0
175
0
176
0
177
0
178
0
270
2
179
3
271
3
272
3
273
2
274
2
275
0
280
0
281
0
282
0
283
1
284
4
285
0
286
0
287
3
288
0
340
11
278
46
341
204
342
204
343
204
344
204
  0
ENDTAB
  0
ENDSEC
  0
SECTION
  2
BLOCKS
  0
BLOCK
  5
20
100
AcDbEntity
  8
0
100
AcDbBlockBegin
  2
*Model_Space
 70
0
 10
0.0
 20
0.0
 30
0.0
  3
*Model_Space
  1

  0
ENDBLK
  5
21
100
AcDbEntity
  8
0
100
AcDbBlockEnd
  0
BLOCK
  5
1C
100
AcDbEntity
  8
0
100
AcDbBlockBegin
  2
*Paper_Space
 70
0
 10
0.0
 20
0.0
 30
0.0
  3
*Paper_Space
  1

  0
ENDBLK
  5
1D
100
AcDbEntity
  8
0
100
AcDbBlockEnd
  0
BLOCK
  5
206
100
AcDbEntity
  8
0
100
AcDbBlockBegin
  2
_FILLED
 70
64
 10
0.0
 20
0.0
  3
_FILLED
  1

  0
SOLID
  5
207
100
AcDbEntity
  8
0
  6
BYBLOCK
 62
0
100
AcDbTrace
 10
0.0
 20
0.0
 11
-1.0
 21
0.2
 12
-1.0
 22
-0.2
 13
-1.0
 23
-0.2
  0
ENDBLK
  5
208
100
AcDbEntity
  8
0
  6
BYBLOCK
 62
0
100
AcDbBlockEnd
  0
ENDSEC
  0
SECTION
  2
ENTITIES
  0
MTEXT
  5
209
100
AcDbEntity
  8
0
100
AcDbMText
 62
2
  6
CONTINUOUS
  7
STANDARD
 71
3
 72
1
 10
5.6098679033
 20
1.2706383312
 30
0.0
 11
1.0
 21
0.0
 31
0.0
 73
2
 44
0.9
  1
SCALE 0.500
 40
0.08
 41
0.704
  0
LINE
  5
20A
100
AcDbEntity
  8
0
100
AcDbLine
 62
7
  6
CONTINUOUS
 10
0.0
 20
0.0
 11
0.0
 21
8.5
  0
LINE
  5
20B
100
AcDbEntity
  8
0
100
AcDbLine
 62
7
  6
CONTINUOUS
 10
0.0
 20
0.0
 11
11.0
 21
0.0
  0
LINE
  5
20C
100
AcDbEntity
  8
0
100
AcDbLine
 62
7
  6
CONTINUOUS
 10
0.0
 20
8.5
 11
11.0
 21
8.5
  0
LINE
  5
20D
100
AcDbEntity
  8
0
100
AcDbLine
 62
7
  6
CONTINUOUS
 10
11.0
 20
0.0
 11
11.0
 21
8.5
  0
LINE
  5
20E
100
AcDbEntity
  8
0
100
AcDbLine
 62
7
  6
CONTINUOUS
 10
2.9013095985
 20
6.1306759724
 11
2.9013095985
 21
5.5006759724
  0
LINE
  5
20F
100
AcDbEntity
  8
0
100
AcDbLine
 62
7
  6
CONTINUOUS
 10
6.6825595985
 20
2.2506759724
 11
7.8075595985
 21
2.2506759724
  0
LINE
  5
210
100
AcDbEntity
  8
0
100
AcDbLine
 62
7
  6
CONTINUOUS
 10
6.7700595985
 20
2.2906759724
 11
7.7200595985
 21
2.2906759724
  0
LINE
  5
211
100
AcDbEntity
  8
0
100
AcDbLine
 62
7
  6
CONTINUOUS
 10
6.7800595985
 20
2.3006759724
 11
6.6825595985
 21
2.3006759724
  0
LINE
  5
212
100
AcDbEntity
  8
0
100
AcDbLine
 62
7
  6
CONTINUOUS
 10
7.7100595985
 20
2.3006759724
 11
7.8075595985
 21
2.3006759724
  0
LINE
  5
213
100
AcDbEntity
  8
0
100
AcDbLine
 62
7
  6
CONTINUOUS
 10
6.7950595985
 20
2.3156759724
 11
7.6950595985
 21
2.3156759724
  0
LINE
  5
214
100
AcDbEntity
  8
0
100
AcDbLine
 62
7
  6
CONTINUOUS
 10
6.7950595985
 20
2.3256759724
 11
6.7075595985
 21
2.3256759724
  0
LINE
  5
215
100
AcDbEntity
  8
0
100
AcDbLine
 62
7
  6
CONTINUOUS
 10
7.6950595985
 20
2.3256759724
 11
7.7825595985
 21
2.3256759724
  0
LINE
  5
216
100
AcDbEntity
  8
0
100
AcDbLine
 62
7
  6
CONTINUOUS
 10
7.7199743277
 20
2.3656759724
 11
6.7701448693
 21
2.3656759724
  0
LINE
  5
217
100
AcDbEntity
  8
0
100
AcDbLine
 62
7
  6
CONTINUOUS
 10
6.7701448693
 20
2.4056759724
 11
7.7199743277
 21
2.4056759724
  0
LINE
  5
218
100
AcDbEntity
  8
0
100
AcDbLine
 62
7
  6
CONTINUOUS
 10
7.6279217264
 20
2.4301759724
 11
6.8621974705
 21
2.4301759724
  0
LINE
  5
219
100
AcDbEntity
  8
0
100
AcDbLine
 62
7
  6
CONTINUOUS
 10
7.8074875939
 20
2.4381759724
 11
7.6218967503
 21
2.4381759724
  0
LINE
  5
21A
100
AcDbEntity
  8
0
100
AcDbLine
 62
7
  6
CONTINUOUS
 10
6.8682224467
 20
2.4381759724
 11
6.6826316031
 21
2.4381759724
  0
LINE
  5
21B
100
AcDbEntity
  8
0
100
AcDbLine
 62
7
  6
CONTINUOUS
 10
7.6136124663
 20
2.4406759724
 11
6.8765067307
 21
2.4406759724
  0
LINE
  5
21C
100
AcDbEntity
  8
0
100
AcDbLine
 62
7
  6
CONTINUOUS
 10
6.9325599837
 20
2.4456759724
 11
7.5575592133
 21
2.4456759724
  0
LINE
  5
21D
100
AcDbEntity
  8
0
100
AcDbLine
 62
7
  6
CONTINUOUS
 10
6.6826316031
 20
2.4881759724
 11
6.9325595985
 21
2.4881759724
  0
LINE
  5
21E
100
AcDbEntity
  8
0
100
AcDbLine
 62
7
  6
CONTINUOUS
 10
7.5575595985
 20
2.4881759724
 11
7.8074875939
 21
2.4881759724
  0
LINE
  5
21F
100
AcDbEntity
  8
0
100
AcDbLine
 62
7
  6
CONTINUOUS
 10
7.7169172019
 20
2.5170221262
 11
7.5575595985
 21
2.5170221262
  0
LINE
  5
220
100
AcDbEntity
  8
0
100
AcDbLine
 62
7
  6
CONTINUOUS
 10
6.9325595985
 20
2.5170221262
 11
6.7732019951
 21
2.5170221262
  0
LINE
  5
221
100
AcDbEntity
  8
0
100
AcDbLine
 62
7
  6
CONTINUOUS
 10
7.7033257954
 20
2.5256759724
 11
7.5575595985
 21
2.5256759724
  0
LINE
  5
222
100
AcDbEntity
  8
0
100
AcDbLine
 62
7
  6
CONTINUOUS
 10
6.9325595985
 20
2.5256759724
 11
6.7867934016
 21
2.5256759724
  0
LINE
  5
223
100
AcDbEntity
  8
0
100
AcDbLine
 62
7
  6
CONTINUOUS
 10
3.3388095985
 20
6.1306759724
 11
3.3388095985
 21
5.5006759724
  0
LINE
  5
224
100
AcDbEntity
  8
0
100
AcDbLine
 62
7
  6
CONTINUOUS
 10
7.6025439868
 20
3.0556759724
 11
7.5228227316
 21
3.0556759724
  0
LINE
  5
225
100
AcDbEntity
  8
0
100
AcDbLine
 62
7
  6
CONTINUOUS
 10
7.5227911601
 20
3.0556759724
 11
6.8875752102
 21
3.0556759724
  0
LINE
  5
226
100
AcDbEntity
  8
0
100
AcDbLine
 62
7
  6
CONTINUOUS
 10
3.8700595985
 20
6.6619259724
 11
3.8700595985
 21
7.0994259724
  0
LINE
  5
227
100
AcDbEntity
  8
0
100
AcDbLine
 62
7
  6
CONTINUOUS
 10
6.8875752102
 20
3.1056759724
 11
7.5227911601
 21
3.1056759724
  0
LINE
  5
228
100
AcDbEntity
  8
0
100
AcDbLine
 62
7
  6
CONTINUOUS
 10
7.5228227316
 20
3.1056759724
 11
7.6025439868
 21
3.1056759724
  0
LINE
  5
229
100
AcDbEntity
  8
0
100
AcDbLine
 62
7
  6
CONTINUOUS
 10
7.4867125613
 20
3.1614795438
 11
7.0034066357
 21
3.1614795438
  0
LINE
  5
22A
100
AcDbEntity
  8
0
100
AcDbLine
 62
7
  6
CONTINUOUS
 10
7.4742205358
 20
3.1681759724
 11
7.0158986612
 21
3.1681759724
  0
LINE
  5
22B
100
AcDbEntity
  8
0
100
AcDbLine
 62
7
  6
CONTINUOUS
 10
7.0450595985
 20
3.1831759724
 11
7.4450595985
 21
3.1831759724
  0
LINE
  5
22C
100
AcDbEntity
  8
0
100
AcDbLine
 62
7
  6
CONTINUOUS
 10
7.4450595985
 20
3.2281759724
 11
7.0450595985
 21
3.2281759724
  0
LINE
  5
22D
100
AcDbEntity
  8
0
100
AcDbLine
 62
7
  6
CONTINUOUS
 10
7.4300595985
 20
3.2431759724
 11
7.0600595985
 21
3.2431759724
  0
LINE
  5
22E
100
AcDbEntity
  8
0
100
AcDbLine
 62
7
  6
CONTINUOUS
 10
7.3938095985
 20
3.3489897027
 11
7.0963095985
 21
3.3489897027
  0
LINE
  5
22F
100
AcDbEntity
  8
0
100
AcDbLine
 62
7
  6
CONTINUOUS
 10
7.4025595985
 20
3.3589112701
 11
7.0875595985
 21
3.3589112701
  0
LINE
  5
230
100
AcDbEntity
  8
0
100
AcDbLine
 62
7
  6
CONTINUOUS
 10
7.3988095985
 20
3.4186759724
 11
7.0913095985
 21
3.4186759724
  0
LINE
  5
231
100
AcDbEntity
  8
0
100
AcDbLine
 62
7
  6
CONTINUOUS
 10
7.1475595985
 20
3.4286759724
 11
7.2074312939
 21
3.4286759724
  0
LINE
  5
232
100
AcDbEntity
  8
0
100
AcDbLine
 62
7
  6
CONTINUOUS
 10
7.2826879031
 20
3.4286759724
 11
7.3425595985
 21
3.4286759724
  0
LINE
  5
233
100
AcDbEntity
  8
0
100
AcDbLine
 62
7
  6
CONTINUOUS
 10
7.1475595985
 20
3.4411759724
 11
7.1679422913
 21
3.4411759724
  0
LINE
  5
234
100
AcDbEntity
  8
0
100
AcDbLine
 62
7
  6
CONTINUOUS
 10
7.3221769057
 20
3.4411759724
 11
7.3425595985
 21
3.4411759724
  0
LINE
  5
235
100
AcDbEntity
  8
0
100
AcDbLine
 62
7
  6
CONTINUOUS
 10
6.8701676141
 20
3.8006759724
 11
7.1947555787
 21
3.8006759724
  0
LINE
  5
236
100
AcDbEntity
  8
0
100
AcDbLine
 62
7
  6
CONTINUOUS
 10
7.2953636183
 20
3.8006759724
 11
7.6199515829
 21
3.8006759724
  0
LINE
  5
237
100
AcDbEntity
  8
0
100
AcDbLine
 62
7
  6
CONTINUOUS
 10
6.8701676141
 20
3.8506759724
 11
7.6199515829
 21
3.8506759724
  0
LINE
  5
238
100
AcDbEntity
  8
0
100
AcDbLine
 62
7
  6
CONTINUOUS
 10
6.96127167
 20
3.9027593057
 11
7.528847527
 21
3.9027593057
  0
LINE
  5
239
100
AcDbEntity
  8
0
100
AcDbLine
 62
7
  6
CONTINUOUS
 10
7.5145649133
 20
3.9131759724
 11
6.9755542837
 21
3.9131759724
  0
LINE
  5
23A
100
AcDbEntity
  8
0
100
AcDbLine
 62
7
  6
CONTINUOUS
 10
7.4950595985
 20
3.9281759724
 11
6.9950595985
 21
3.9281759724
  0
LINE
  5
23B
100
AcDbEntity
  8
0
100
AcDbLine
 62
7
  6
CONTINUOUS
 10
6.9950595985
 20
3.9731759724
 11
7.4950595985
 21
3.9731759724
  0
LINE
  5
23C
100
AcDbEntity
  8
0
100
AcDbLine
 62
7
  6
CONTINUOUS
 10
7.4800595985
 20
3.9881759724
 11
7.0100595985
 21
3.9881759724
  0
LINE
  5
23D
100
AcDbEntity
  8
0
100
AcDbLine
 62
7
  6
CONTINUOUS
 10
7.7200595985
 20
2.2906759724
 11
7.6950595985
 21
2.3156759724
  0
LINE
  5
23E
100
AcDbEntity
  8
0
100
AcDbLine
 62
7
  6
CONTINUOUS
 10
7.8075595985
 20
2.3006759724
 11
7.7825595985
 21
2.3256759724
  0
LINE
  5
23F
100
AcDbEntity
  8
0
100
AcDbLine
 62
7
  6
CONTINUOUS
 10
2.9013097198
 20
5.5006759724
 11
3.3388094772
 21
5.5006759724
  0
LINE
  5
240
100
AcDbEntity
  8
0
100
AcDbLine
 62
7
  6
CONTINUOUS
 10
6.4950595985
 20
6.6619259724
 11
6.4950595985
 21
7.0994259724
  0
LINE
  5
241
100
AcDbEntity
  8
0
100
AcDbLine
 62
7
  6
CONTINUOUS
 10
6.6825595985
 20
2.2506759724
 11
6.6825595985
 21
2.3006759724
  0
LINE
  5
242
100
AcDbEntity
  8
0
100
AcDbLine
 62
7
  6
CONTINUOUS
 10
6.6826316031
 20
2.4381759724
 11
6.6826316031
 21
2.4881759724
  0
LINE
  5
243
100
AcDbEntity
  8
0
100
AcDbLine
 62
7
  6
CONTINUOUS
 10
6.6827743354
 20
2.4381759724
 11
6.6827743354
 21
2.4881759724
  0
LINE
  5
244
100
AcDbEntity
  8
0
100
AcDbLine
 62
7
  6
CONTINUOUS
 10
6.6835594844
 20
2.4381759724
 11
6.6835594844
 21
2.4881759724
  0
LINE
  5
245
100
AcDbEntity
  8
0
100
AcDbLine
 62
7
  6
CONTINUOUS
 10
6.6839874097
 20
2.4381759724
 11
6.6839874097
 21
2.4881759724
  0
LINE
  5
246
100
AcDbEntity
  8
0
100
AcDbLine
 62
7
  6
CONTINUOUS
 10
6.6855562131
 20
2.4381759724
 11
6.6855562131
 21
2.4881759724
  0
LINE
  5
247
100
AcDbEntity
  8
0
100
AcDbLine
 62
7
  6
CONTINUOUS
 10
6.6862685168
 20
2.4381759724
 11
6.6862685168
 21
2.4881759724
  0
LINE
  5
248
100
AcDbEntity
  8
0
100
AcDbLine
 62
7
  6
CONTINUOUS
 10
6.6886179883
 20
2.4381759724
 11
6.6886179883
 21
2.4881759724
  0
LINE
  5
249
100
AcDbEntity
  8
0
100
AcDbLine
 62
7
  6
CONTINUOUS
 10
6.6896133145
 20
2.4381759724
 11
6.6896133145
 21
2.4881759724
  0
LINE
  5
24A
100
AcDbEntity
  8
0
100
AcDbLine
 62
7
  6
CONTINUOUS
 10
6.6927389817
 20
2.4381759724
 11
6.6927389817
 21
2.4881759724
  0
LINE
  5
24B
100
AcDbEntity
  8
0
100
AcDbLine
 62
7
  6
CONTINUOUS
 10
6.6940154358
 20
2.4381759724
 11
6.6940154358
 21
2.4881759724
  0
LINE
  5
24C
100
AcDbEntity
  8
0
100
AcDbLine
 62
7
  6
CONTINUOUS
 10
6.6979113488
 20
2.4381759724
 11
6.6979113488
 21
2.4881759724
  0
LINE
  5
24D
100
AcDbEntity
  8
0
100
AcDbLine
 62
7
  6
CONTINUOUS
 10
6.6994665009
 20
2.4381759724
 11
6.6994665009
 21
2.4881759724
  0
LINE
  5
24E
100
AcDbEntity
  8
0
100
AcDbLine
 62
7
  6
CONTINUOUS
 10
6.7041252437
 20
2.4381759724
 11
6.7041252437
 21
2.4881759724
  0
LINE
  5
24F
100
AcDbEntity
  8
0
100
AcDbLine
 62
7
  6
CONTINUOUS
 10
6.7059561335
 20
2.4381759724
 11
6.7059561335
 21
2.4881759724
  0
LINE
  5
250
100
AcDbEntity
  8
0
100
AcDbLine
 62
7
  6
CONTINUOUS
 10
6.7075595985
 20
2.3256759724
 11
6.7075595985
 21
2.4381759724
  0
LINE
  5
251
100
AcDbEntity
  8
0
100
AcDbLine
 62
7
  6
CONTINUOUS
 10
6.7113688379
 20
2.4381759724
 11
6.7113688379
 21
2.4881759724
  0
LINE
  5
252
100
AcDbEntity
  8
0
100
AcDbLine
 62
7
  6
CONTINUOUS
 10
6.7134719802
 20
2.4381759724
 11
6.7134719802
 21
2.4881759724
  0
LINE
  5
253
100
AcDbEntity
  8
0
100
AcDbLine
 62
7
  6
CONTINUOUS
 10
6.7196283428
 20
2.4381759724
 11
6.7196283428
 21
2.4881759724
  0
LINE
  5
254
100
AcDbEntity
  8
0
100
AcDbLine
 62
7
  6
CONTINUOUS
 10
6.7219997341
 20
2.4381759724
 11
6.7219997341
 21
2.4881759724
  0
LINE
  5
255
100
AcDbEntity
  8
0
100
AcDbLine
 62
7
  6
CONTINUOUS
 10
6.7288880359
 20
2.4381759724
 11
6.7288880359
 21
2.4881759724
  0
LINE
  5
256
100
AcDbEntity
  8
0
100
AcDbLine
 62
7
  6
CONTINUOUS
 10
6.7315231623
 20
2.4381759724
 11
6.7315231623
 21
2.4881759724
  0
LINE
  5
257
100
AcDbEntity
  8
0
100
AcDbLine
 62
7
  6
CONTINUOUS
 10
6.739130291
 20
2.4381759724
 11
6.739130291
 21
2.4881759724
  0
LINE
  5
258
100
AcDbEntity
  8
0
100
AcDbLine
 62
7
  6
CONTINUOUS
 10
6.7420241362
 20
2.4381759724
 11
6.7420241362
 21
2.4881759724
  0
LINE
  5
259
100
AcDbEntity
  8
0
100
AcDbLine
 62
7
  6
CONTINUOUS
 10
6.7503356112
 20
2.4381759724
 11
6.7503356112
 21
2.4881759724
  0
LINE
  5
25A
100
AcDbEntity
  8
0
100
AcDbLine
 62
7
  6
CONTINUOUS
 10
6.7534826667
 20
2.4381759724
 11
6.7534826667
 21
2.4881759724
  0
LINE
  5
25B
100
AcDbEntity
  8
0
100
AcDbLine
 62
7
  6
CONTINUOUS
 10
6.7624826667
 20
2.4381759724
 11
6.7624826667
 21
2.4881759724
  0
LINE
  5
25C
100
AcDbEntity
  8
0
100
AcDbLine
 62
7
  6
CONTINUOUS
 10
6.7658769418
 20
2.4381759724
 11
6.7658769418
 21
2.4881759724
  0
LINE
  5
25D
100
AcDbEntity
  8
0
100
AcDbLine
 62
7
  6
CONTINUOUS
 10
6.7700595985
 20
2.2506759724
 11
6.7700595985
 21
2.2906759724
  0
LINE
  5
25E
100
AcDbEntity
  8
0
100
AcDbLine
 62
7
  6
CONTINUOUS
 10
6.7701448693
 20
2.3656759724
 11
6.7701448693
 21
2.4056759724
  0
LINE
  5
25F
100
AcDbEntity
  8
0
100
AcDbLine
 62
7
  6
CONTINUOUS
 10
6.7703246998
 20
2.3656759724
 11
6.7703246998
 21
2.4056759724
  0
LINE
  5
260
100
AcDbEntity
  8
0
100
AcDbLine
 62
7
  6
CONTINUOUS
 10
6.771266747
 20
2.3656759724
 11
6.771266747
 21
2.4056759724
  0
LINE
  5
261
100
AcDbEntity
  8
0
100
AcDbLine
 62
7
  6
CONTINUOUS
 10
6.7718057457
 20
2.3656759724
 11
6.7718057457
 21
2.4056759724
  0
LINE
  5
262
100
AcDbEntity
  8
0
100
AcDbLine
 62
7
  6
CONTINUOUS
 10
6.7736872581
 20
2.3656759724
 11
6.7736872581
 21
2.4056759724
  0
LINE
  5
263
100
AcDbEntity
  8
0
100
AcDbLine
 62
7
  6
CONTINUOUS
 10
6.7745839475
 20
2.3656759724
 11
6.7745839475
 21
2.4056759724
  0
LINE
  5
264
100
AcDbEntity
  8
0
100
AcDbLine
 62
7
  6
CONTINUOUS
 10
6.7755483348
 20
2.4381759724
 11
6.7755483348
 21
2.4881759724
  0
LINE
  5
265
100
AcDbEntity
  8
0
100
AcDbLine
 62
7
  6
CONTINUOUS
 10
6.7773997679
 20
2.3656759724
 11
6.7773997679
 21
2.4056759724
  0
LINE
  5
266
100
AcDbEntity
  8
0
100
AcDbLine
 62
7
  6
CONTINUOUS
 10
6.7786516904
 20
2.3656759724
 11
6.7786516904
 21
2.4056759724
  0
LINE
  5
267
100
AcDbEntity
  8
0
100
AcDbLine
 62
7
  6
CONTINUOUS
 10
6.7791833684
 20
2.4381759724
 11
6.7791833684
 21
2.4881759724
  0
LINE
  5
268
100
AcDbEntity
  8
0
100
AcDbLine
 62
7
  6
CONTINUOUS
 10
6.7823941008
 20
2.3656759724
 11
6.7823941008
 21
2.4056759724
  0
LINE
  5
269
100
AcDbEntity
  8
0
100
AcDbLine
 62
7
  6
CONTINUOUS
 10
6.7839978249
 20
2.3656759724
 11
6.7839978249
 21
2.4056759724
  0
LINE
  5
26A
100
AcDbEntity
  8
0
100
AcDbLine
 62
7
  6
CONTINUOUS
 10
6.7886565677
 20
2.3656759724
 11
6.7886565677
 21
2.4056759724
  0
LINE
  5
26B
100
AcDbEntity
  8
0
100
AcDbLine
 62
7
  6
CONTINUOUS
 10
6.7895077442
 20
2.4381759724
 11
6.7895077442
 21
2.4881759724
  0
LINE
  5
26C
100
AcDbEntity
  8
0
100
AcDbLine
 62
7
  6
CONTINUOUS
 10
6.7906076977
 20
2.3656759724
 11
6.7906076977
 21
2.4056759724
  0
LINE
  5
26D
100
AcDbEntity
  8
0
100
AcDbLine
 62
7
  6
CONTINUOUS
 10
6.7933766168
 20
2.4381759724
 11
6.7933766168
 21
2.4881759724
  0
LINE
  5
26E
100
AcDbEntity
  8
0
100
AcDbLine
 62
7
  6
CONTINUOUS
 10
6.7950595985
 20
2.3156759724
 11
6.7950595985
 21
2.3656759724
  0
LINE
  5
26F
100
AcDbEntity
  8
0
100
AcDbLine
 62
7
  6
CONTINUOUS
 10
6.7961700036
 20
2.3656759724
 11
6.7961700036
 21
2.4056759724
  0
LINE
  5
270
100
AcDbEntity
  8
0
100
AcDbLine
 62
7
  6
CONTINUOUS
 10
6.7984631915
 20
2.3656759724
 11
6.7984631915
 21
2.4056759724
  0
LINE
  5
271
100
AcDbEntity
  8
0
100
AcDbLine
 62
7
  6
CONTINUOUS
 10
6.8043343225
 20
2.4381759724
 11
6.8043343225
 21
2.4881759724
  0
LINE
  5
272
100
AcDbEntity
  8
0
100
AcDbLine
 62
7
  6
CONTINUOUS
 10
6.8049138146
 20
2.3656759724
 11
6.8049138146
 21
2.4056759724
  0
LINE
  5
273
100
AcDbEntity
  8
0
100
AcDbLine
 62
7
  6
CONTINUOUS
 10
6.8075427751
 20
2.3656759724
 11
6.8075427751
 21
2.4056759724
  0
LINE
  5
274
100
AcDbEntity
  8
0
100
AcDbLine
 62
7
  6
CONTINUOUS
 10
6.8084296695
 20
2.4381759724
 11
6.8084296695
 21
2.4881759724
  0
LINE
  5
275
100
AcDbEntity
  8
0
100
AcDbLine
 62
7
  6
CONTINUOUS
 10
6.8148640347
 20
2.3656759724
 11
6.8148640347
 21
2.4056759724
  0
LINE
  5
276
100
AcDbEntity
  8
0
100
AcDbLine
 62
7
  6
CONTINUOUS
 10
6.8178215619
 20
2.3656759724
 11
6.8178215619
 21
2.4056759724
  0
LINE
  5
277
100
AcDbEntity
  8
0
100
AcDbLine
 62
7
  6
CONTINUOUS
 10
6.8195219103
 20
2.4881759724
 11
6.8195219103
 21
2.4381759724
  0
LINE
  5
278
100
AcDbEntity
  8
0
100
AcDbLine
 62
7
  6
CONTINUOUS
 10
6.8199998465
 20
2.4381759724
 11
6.8199998465
 21
2.4881759724
  0
LINE
  5
279
100
AcDbEntity
  8
0
100
AcDbLine
 62
7
  6
CONTINUOUS
 10
6.824313872
 20
2.4381759724
 11
6.824313872
 21
2.4881759724
  0
LINE
  5
27A
100
AcDbEntity
  8
0
100
AcDbLine
 62
7
  6
CONTINUOUS
 10
6.8259933909
 20
2.3656759724
 11
6.8259933909
 21
2.4056759724
  0
LINE
  5
27B
100
AcDbEntity
  8
0
100
AcDbLine
 62
7
  6
CONTINUOUS
 10
6.8292713784
 20
2.3656759724
 11
6.8292713784
 21
2.4056759724
  0
LINE
  5
27C
100
AcDbEntity
  8
0
100
AcDbLine
 62
7
  6
CONTINUOUS
 10
6.8355020379
 20
2.4881759724
 11
6.8355020379
 21
2.4381759724
  0
LINE
  5
27D
100
AcDbEntity
  8
0
100
AcDbLine
 62
7
  6
CONTINUOUS
 10
6.8364744958
 20
2.4381759724
 11
6.8364744958
 21
2.4881759724
  0
LINE
  5
27E
100
AcDbEntity
  8
0
100
AcDbLine
 62
7
  6
CONTINUOUS
 10
6.8382713784
 20
2.3656759724
 11
6.8382713784
 21
2.4056759724
  0
LINE
  5
27F
100
AcDbEntity
  8
0
100
AcDbLine
 62
7
  6
CONTINUOUS
 10
6.840998988
 20
2.4381759724
 11
6.840998988
 21
2.4881759724
  0
LINE
  5
280
100
AcDbEntity
  8
0
100
AcDbLine
 62
7
  6
CONTINUOUS
 10
6.8418608415
 20
2.3656759724
 11
6.8418608415
 21
2.4056759724
  0
LINE
  5
281
100
AcDbEntity
  8
0
100
AcDbLine
 62
7
  6
CONTINUOUS
 10
6.8516643442
 20
2.3656759724
 11
6.8516643442
 21
2.4056759724
  0
LINE
  5
282
100
AcDbEntity
  8
0
100
AcDbLine
 62
7
  6
CONTINUOUS
 10
6.8522617815
 20
2.4881759724
 11
6.8522617815
 21
2.4381759724
  0
LINE
  5
283
100
AcDbEntity
  8
0
100
AcDbLine
 62
7
  6
CONTINUOUS
 10
6.8537269101
 20
2.4381759724
 11
6.8537269101
 21
2.4881759724
  0
LINE
  5
284
100
AcDbEntity
  8
0
100
AcDbLine
 62
7
  6
CONTINUOUS
 10
6.8555554444
 20
2.3656759724
 11
6.8555554444
 21
2.4056759724
  0
LINE
  5
285
100
AcDbEntity
  8
0
100
AcDbLine
 62
7
  6
CONTINUOUS
 10
6.8584532563
 20
2.4381759724
 11
6.8584532563
 21
2.4881759724
  0
LINE
  5
286
100
AcDbEntity
  8
0
100
AcDbLine
 62
7
  6
CONTINUOUS
 10
6.866135579
 20
2.3656759724
 11
6.866135579
 21
2.4056759724
  0
LINE
  5
287
100
AcDbEntity
  8
0
100
AcDbLine
 62
7
  6
CONTINUOUS
 10
6.8697692382
 20
2.4881759724
 11
6.8697692382
 21
2.4390766515
  0
LINE
  5
288
100
AcDbEntity
  8
0
100
AcDbLine
 62
7
  6
CONTINUOUS
 10
6.8701676141
 20
3.8506759724
 11
6.8701676141
 21
3.8006759724
  0
LINE
  5
289
100
AcDbEntity
  8
0
100
AcDbLine
 62
7
  6
CONTINUOUS
 10
6.8703176511
 20
2.3656759724
 11
6.8703176511
 21
2.4056759724
  0
LINE
  5
28A
100
AcDbEntity
  8
0
100
AcDbLine
 62
7
  6
CONTINUOUS
 10
6.8703816584
 20
3.8506759724
 11
6.8703816584
 21
3.8006759724
  0
LINE
  5
28B
100
AcDbEntity
  8
0
100
AcDbLine
 62
7
  6
CONTINUOUS
 10
6.8715589147
 20
3.8506759724
 11
6.8715589147
 21
3.8006759724
  0
LINE
  5
28C
100
AcDbEntity
  8
0
100
AcDbLine
 62
7
  6
CONTINUOUS
 10
6.8717242484
 20
2.4398919219
 11
6.8717242484
 21
2.4881759724
  0
LINE
  5
28D
100
AcDbEntity
  8
0
100
AcDbLine
 62
7
  6
CONTINUOUS
 10
6.8722001312
 20
3.8506759724
 11
6.8722001312
 21
3.8006759724
  0
LINE
  5
28E
100
AcDbEntity
  8
0
100
AcDbLine
 62
7
  6
CONTINUOUS
 10
6.8745496027
 20
3.8506759724
 11
6.8745496027
 21
3.8006759724
  0
LINE
  5
28F
100
AcDbEntity
  8
0
100
AcDbLine
 62
7
  6
CONTINUOUS
 10
6.8756152455
 20
3.8506759724
 11
6.8756152455
 21
3.8006759724
  0
LINE
  5
290
100
AcDbEntity
  8
0
100
AcDbLine
 62
7
  6
CONTINUOUS
 10
6.8766434517
 20
2.4406759724
 11
6.8766434517
 21
2.4881759724
  0
LINE
  5
291
100
AcDbEntity
  8
0
100
AcDbLine
 62
7
  6
CONTINUOUS
 10
6.8791268713
 20
3.8506759724
 11
6.8791268713
 21
3.8006759724
  0
LINE
  5
292
100
AcDbEntity
  8
0
100
AcDbLine
 62
7
  6
CONTINUOUS
 10
6.8806123772
 20
3.8506759724
 11
6.8806123772
 21
3.8006759724
  0
LINE
  5
293
100
AcDbEntity
  8
0
100
AcDbLine
 62
7
  6
CONTINUOUS
 10
6.8813552885
 20
2.4056759724
 11
6.8813552885
 21
2.3656759724
  0
LINE
  5
294
100
AcDbEntity
  8
0
100
AcDbLine
 62
7
  6
CONTINUOUS
 10
6.8816454182
 20
2.3656759724
 11
6.8816454182
 21
2.4056759724
  0
LINE
  5
295
100
AcDbEntity
  8
0
100
AcDbLine
 62
7
  6
CONTINUOUS
 10
6.8852711201
 20
3.8506759724
 11
6.8852711201
 21
3.8006759724
  0
LINE
  5
296
100
AcDbEntity
  8
0
100
AcDbLine
 62
7
  6
CONTINUOUS
 10
6.8861069995
 20
2.3656759724
 11
6.8861069995
 21
2.4056759724
  0
LINE
  5
297
100
AcDbEntity
  8
0
100
AcDbLine
 62
7
  6
CONTINUOUS
 10
6.8871701279
 20
3.8506759724
 11
6.8871701279
 21
3.8006759724
  0
LINE
  5
298
100
AcDbEntity
  8
0
100
AcDbLine
 62
7
  6
CONTINUOUS
 10
6.8875752102
 20
3.0556759724
 11
6.8875752102
 21
3.1056759724
  0
LINE
  5
299
100
AcDbEntity
  8
0
100
AcDbLine
 62
7
  6
CONTINUOUS
 10
6.8876729032
 20
3.0556759724
 11
6.8876729032
 21
3.1056759724
  0
LINE
  5
29A
100
AcDbEntity
  8
0
100
AcDbLine
 62
7
  6
CONTINUOUS
 10
6.887903538
 20
3.0556759724
 11
6.887903538
 21
3.1056759724
  0
LINE
  5
29B
100
AcDbEntity
  8
0
100
AcDbLine
 62
7
  6
CONTINUOUS
 10
6.8879910813
 20
2.4881759724
 11
6.8879910813
 21
2.4406759724
  0
LINE
  5
29C
100
AcDbEntity
  8
0
100
AcDbLine
 62
7
  6
CONTINUOUS
 10
6.8891453786
 20
3.0556759724
 11
6.8891453786
 21
3.1056759724
  0
LINE
  5
29D
100
AcDbEntity
  8
0
100
AcDbLine
 62
7
  6
CONTINUOUS
 10
6.8898361842
 20
3.0556759724
 11
6.8898361842
 21
3.1056759724
  0
LINE
  5
29E
100
AcDbEntity
  8
0
100
AcDbLine
 62
7
  6
CONTINUOUS
 10
6.8904322517
 20
2.4406759724
 11
6.8904322517
 21
2.4881759724
  0
LINE
  5
29F
100
AcDbEntity
  8
0
100
AcDbLine
 62
7
  6
CONTINUOUS
 10
6.8923139475
 20
3.0556759724
 11
6.8923139475
 21
3.1056759724
  0
LINE
  5
2A0
100
AcDbEntity
  8
0
100
AcDbLine
 62
7
  6
CONTINUOUS
 10
6.8929560383
 20
3.8506759724
 11
6.8929560383
 21
3.8006759724
  0
LINE
  5
2A1
100
AcDbEntity
  8
0
100
AcDbLine
 62
7
  6
CONTINUOUS
 10
6.8934616317
 20
3.0556759724
 11
6.8934616317
 21
3.1056759724
  0
LINE
  5
2A2
100
AcDbEntity
  8
0
100
AcDbLine
 62
7
  6
CONTINUOUS
 10
6.8952604163
 20
3.8506759724
 11
6.8952604163
 21
3.8006759724
  0
LINE
  5
2A3
100
AcDbEntity
  8
0
100
AcDbLine
 62
7
  6
CONTINUOUS
 10
6.8955349482
 20
2.4406759724
 11
6.8955349482
 21
2.4881759724
  0
LINE
  5
2A4
100
AcDbEntity
  8
0
100
AcDbLine
 62
7
  6
CONTINUOUS
 10
6.8971635099
 20
3.0556759724
 11
6.8971635099
 21
3.1056759724
  0
LINE
  5
2A5
100
AcDbEntity
  8
0
100
AcDbLine
 62
7
  6
CONTINUOUS
 10
6.8972678202
 20
2.4056759724
 11
6.8972678202
 21
2.3656759724
  0
LINE
  5
2A6
100
AcDbEntity
  8
0
100
AcDbLine
 62
7
  6
CONTINUOUS
 10
6.8981513504
 20
2.3656759724
 11
6.8981513504
 21
2.4056759724
  0
LINE
  5
2A7
100
AcDbEntity
  8
0
100
AcDbLine
 62
7
  6
CONTINUOUS
 10
6.8987626036
 20
3.0556759724
 11
6.8987626036
 21
3.1056759724
  0
LINE
  5
2A8
100
AcDbEntity
  8
0
100
AcDbLine
 62
7
  6
CONTINUOUS
 10
6.9021487181
 20
3.8506759724
 11
6.9021487181
 21
3.8006759724
  0
LINE
  5
2A9
100
AcDbEntity
  8
0
100
AcDbLine
 62
7
  6
CONTINUOUS
 10
6.902880212
 20
2.3656759724
 11
6.902880212
 21
2.4056759724
  0
LINE
  5
2AA
100
AcDbEntity
  8
0
100
AcDbLine
 62
7
  6
CONTINUOUS
 10
6.9036709557
 20
3.0556759724
 11
6.9036709557
 21
3.1056759724
  0
LINE
  5
2AB
100
AcDbEntity
  8
0
100
AcDbLine
 62
7
  6
CONTINUOUS
 10
6.9048485984
 20
3.8506759724
 11
6.9048485984
 21
3.8006759724
  0
LINE
  5
2AC
100
AcDbEntity
  8
0
100
AcDbLine
 62
7
  6
CONTINUOUS
 10
6.9057138384
 20
3.0556759724
 11
6.9057138384
 21
3.1056759724
  0
LINE
  5
2AD
100
AcDbEntity
  8
0
100
AcDbLine
 62
7
  6
CONTINUOUS
 10
6.9068926247
 20
2.4881759724
 11
6.9068926247
 21
2.4406759724
  0
LINE
  5
2AE
100
AcDbEntity
  8
0
100
AcDbLine
 62
7
  6
CONTINUOUS
 10
6.9098153084
 20
2.4406759724
 11
6.9098153084
 21
2.4881759724
  0
LINE
  5
2AF
100
AcDbEntity
  8
0
100
AcDbLine
 62
7
  6
CONTINUOUS
 10
6.9118052738
 20
3.0556759724
 11
6.9118052738
 21
3.1056759724
  0
LINE
  5
2B0
100
AcDbEntity
  8
0
100
AcDbLine
 62
7
  6
CONTINUOUS
 10
6.9128097948
 20
3.8506759724
 11
6.9128097948
 21
3.8006759724
  0
LINE
  5
2B1
100
AcDbEntity
  8
0
100
AcDbLine
 62
7
  6
CONTINUOUS
 10
6.9138095985
 20
3.8006759724
 11
6.9138095985
 21
3.106529104
  0
LINE
  5
2B2
100
AcDbEntity
  8
0
100
AcDbLine
 62
7
  6
CONTINUOUS
 10
6.9138095985
 20
3.0556759724
 11
6.9138095985
 21
2.5256759724
  0
LINE
  5
2B3
100
AcDbEntity
  8
0
100
AcDbLine
 62
7
  6
CONTINUOUS
 10
6.9141336249
 20
2.4056759724
 11
6.9141336249
 21
2.3656759724
  0
LINE
  5
2B4
100
AcDbEntity
  8
0
100
AcDbLine
 62
7
  6
CONTINUOUS
 10
6.9142822103
 20
3.0556759724
 11
6.9142822103
 21
3.1056759724
  0
LINE
  5
2B5
100
AcDbEntity
  8
0
100
AcDbLine
 62
7
  6
CONTINUOUS
 10
6.9150917848
 20
2.4406759724
 11
6.9150917848
 21
2.4881759724
  0
LINE
  5
2B6
100
AcDbEntity
  8
0
100
AcDbLine
 62
7
  6
CONTINUOUS
 10
6.915608134
 20
2.3656759724
 11
6.915608134
 21
2.4056759724
  0
LINE
  5
2B7
100
AcDbEntity
  8
0
100
AcDbLine
 62
7
  6
CONTINUOUS
 10
6.9158936163
 20
3.8506759724
 11
6.9158936163
 21
3.8006759724
  0
LINE
  5
2B8
100
AcDbEntity
  8
0
100
AcDbLine
 62
7
  6
CONTINUOUS
 10
6.9205913144
 20
2.3656759724
 11
6.9205913144
 21
2.4056759724
  0
LINE
  5
2B9
100
AcDbEntity
  8
0
100
AcDbLine
 62
7
  6
CONTINUOUS
 10
6.9215277006
 20
3.0556759724
 11
6.9215277006
 21
3.1056759724
  0
LINE
  5
2BA
100
AcDbEntity
  8
0
100
AcDbLine
 62
7
  6
CONTINUOUS
 10
6.9244268871
 20
3.0556759724
 11
6.9244268871
 21
3.1056759724
  0
LINE
  5
2BB
100
AcDbEntity
  8
0
100
AcDbLine
 62
7
  6
CONTINUOUS
 10
6.9248936163
 20
3.8506759724
 11
6.9248936163
 21
3.8006759724
  0
LINE
  5
2BC
100
AcDbEntity
  8
0
100
AcDbLine
 62
7
  6
CONTINUOUS
 10
6.9264378881
 20
2.4881759724
 11
6.9264378881
 21
2.4406759724
  0
LINE
  5
2BD
100
AcDbEntity
  8
0
100
AcDbLine
 62
7
  6
CONTINUOUS
 10
6.9283481734
 20
3.8506759724
 11
6.9283481734
 21
3.8006759724
  0
LINE
  5
2BE
100
AcDbEntity
  8
0
100
AcDbLine
 62
7
  6
CONTINUOUS
 10
6.9298365216
 20
2.4406759724
 11
6.9298365216
 21
2.4881759724
  0
LINE
  5
2BF
100
AcDbEntity
  8
0
100
AcDbLine
 62
7
  6
CONTINUOUS
 10
6.9319064747
 20
2.4056759724
 11
6.9319064747
 21
2.3656759724
  0
LINE
  5
2C0
100
AcDbEntity
  8
0
100
AcDbLine
 62
7
  6
CONTINUOUS
 10
6.9325595985
 20
2.4456759724
 11
6.9325595985
 21
3.0556759724
  0
LINE
  5
2C1
100
AcDbEntity
  8
0
100
AcDbLine
 62
7
  6
CONTINUOUS
 10
6.9327919042
 20
3.0556759724
 11
6.9327919042
 21
3.1056759724
  0
LINE
  5
2C2
100
AcDbEntity
  8
0
100
AcDbLine
 62
7
  6
CONTINUOUS
 10
6.9339679212
 20
2.3656759724
 11
6.9339679212
 21
2.4056759724
  0
LINE
  5
2C3
100
AcDbEntity
  8
0
100
AcDbLine
 62
7
  6
CONTINUOUS
 10
6.9352767338
 20
2.4406759724
 11
6.9352767338
 21
2.4456759724
  0
LINE
  5
2C4
100
AcDbEntity
  8
0
100
AcDbLine
 62
7
  6
CONTINUOUS
 10
6.9360995247
 20
3.0556759724
 11
6.9360995247
 21
3.1056759724
  0
LINE
  5
2C5
100
AcDbEntity
  8
0
100
AcDbLine
 62
7
  6
CONTINUOUS
 10
6.9383484376
 20
3.8506759724
 11
6.9383484376
 21
3.8006759724
  0
LINE
  5
2C6
100
AcDbEntity
  8
0
100
AcDbLine
 62
7
  6
CONTINUOUS
 10
6.9391917618
 20
2.3656759724
 11
6.9391917618
 21
2.4056759724
  0
LINE
  5
2C7
100
AcDbEntity
  8
0
100
AcDbLine
 62
7
  6
CONTINUOUS
 10
6.9421589375
 20
3.8506759724
 11
6.9421589375
 21
3.8006759724
  0
LINE
  5
2C8
100
AcDbEntity
  8
0
100
AcDbLine
 62
7
  6
CONTINUOUS
 10
6.9450595985
 20
2.4406759724
 11
6.9450595985
 21
2.4456759724
  0
LINE
  5
2C9
100
AcDbEntity
  8
0
100
AcDbLine
 62
7
  6
CONTINUOUS
 10
6.9455442055
 20
3.0556759724
 11
6.9455442055
 21
3.1056759724
  0
LINE
  5
2CA
100
AcDbEntity
  8
0
100
AcDbLine
 62
7
  6
CONTINUOUS
 10
6.9492444979
 20
3.0556759724
 11
6.9492444979
 21
3.1056759724
  0
LINE
  5
2CB
100
AcDbEntity
  8
0
100
AcDbLine
 62
7
  6
CONTINUOUS
 10
6.9505376555
 20
2.4056759724
 11
6.9505376555
 21
2.3656759724
  0
LINE
  5
2CC
100
AcDbEntity
  8
0
100
AcDbLine
 62
7
  6
CONTINUOUS
 10
6.9531166432
 20
3.8506759724
 11
6.9531166432
 21
3.8006759724
  0
LINE
  5
2CD
100
AcDbEntity
  8
0
100
AcDbLine
 62
7
  6
CONTINUOUS
 10
6.9531803891
 20
2.3656759724
 11
6.9531803891
 21
2.4056759724
  0
LINE
  5
2CE
100
AcDbEntity
  8
0
100
AcDbLine
 62
7
  6
CONTINUOUS
 10
6.9572667687
 20
3.8506759724
 11
6.9572667687
 21
3.8006759724
  0
LINE
  5
2CF
100
AcDbEntity
  8
0
100
AcDbLine
 62
7
  6
CONTINUOUS
 10
6.9586305716
 20
2.3656759724
 11
6.9586305716
 21
2.4056759724
  0
LINE
  5
2D0
100
AcDbEntity
  8
0
100
AcDbLine
 62
7
  6
CONTINUOUS
 10
6.9597238341
 20
3.0556759724
 11
6.9597238341
 21
3.1056759724
  0
LINE
  5
2D1
100
AcDbEntity
  8
0
100
AcDbLine
 62
7
  6
CONTINUOUS
 10
6.9637991646
 20
3.0556759724
 11
6.9637991646
 21
3.1056759724
  0
LINE
  5
2D2
100
AcDbEntity
  8
0
100
AcDbLine
 62
7
  6
CONTINUOUS
 10
6.9683825493
 20
3.8006759724
 11
6.9683825493
 21
3.8506759724
  0
LINE
  5
2D3
100
AcDbEntity
  8
0
100
AcDbLine
 62
7
  6
CONTINUOUS
 10
6.9691349934
 20
3.8506759724
 11
6.9691349934
 21
3.8006759724
  0
LINE
  5
2D4
100
AcDbEntity
  8
0
100
AcDbLine
 62
7
  6
CONTINUOUS
 10
6.9699761004
 20
2.4056759724
 11
6.9699761004
 21
2.3656759724
  0
LINE
  5
2D5
100
AcDbEntity
  8
0
100
AcDbLine
 62
7
  6
CONTINUOUS
 10
6.9731928775
 20
2.3656759724
 11
6.9731928775
 21
2.4056759724
  0
LINE
  5
2D6
100
AcDbEntity
  8
0
100
AcDbLine
 62
7
  6
CONTINUOUS
 10
6.9736069731
 20
3.8506759724
 11
6.9736069731
 21
3.8006759724
  0
LINE
  5
2D7
100
AcDbEntity
  8
0
100
AcDbLine
 62
7
  6
CONTINUOUS
 10
6.9748405107
 20
3.1056759724
 11
6.9748405107
 21
3.0556759724
  0
LINE
  5
2D8
100
AcDbEntity
  8
0
100
AcDbLine
 62
7
  6
CONTINUOUS
 10
6.9752632176
 20
3.0556759724
 11
6.9752632176
 21
3.1056759724
  0
LINE
  5
2D9
100
AcDbEntity
  8
0
100
AcDbLine
 62
7
  6
CONTINUOUS
 10
6.9788544636
 20
2.3656759724
 11
6.9788544636
 21
2.4056759724
  0
LINE
  5
2DA
100
AcDbEntity
  8
0
100
AcDbLine
 62
7
  6
CONTINUOUS
 10
6.9796941655
 20
3.0556759724
 11
6.9796941655
 21
3.1056759724
  0
LINE
  5
2DB
100
AcDbEntity
  8
0
100
AcDbLine
 62
7
  6
CONTINUOUS
 10
6.984844303
 20
3.8006759724
 11
6.984844303
 21
3.8506759724
  0
LINE
  5
2DC
100
AcDbEntity
  8
0
100
AcDbLine
 62
7
  6
CONTINUOUS
 10
6.9863348951
 20
3.8506759724
 11
6.9863348951
 21
3.8006759724
  0
LINE
  5
2DD
100
AcDbEntity
  8
0
100
AcDbLine
 62
7
  6
CONTINUOUS
 10
6.9901685301
 20
2.4056759724
 11
6.9901685301
 21
2.3656759724
  0
LINE
  5
2DE
100
AcDbEntity
  8
0
100
AcDbLine
 62
7
  6
CONTINUOUS
 10
6.9908853028
 20
3.1056759724
 11
6.9908853028
 21
3.0556759724
  0
LINE
  5
2DF
100
AcDbEntity
  8
0
100
AcDbLine
 62
7
  6
CONTINUOUS
 10
6.9911095792
 20
3.8506759724
 11
6.9911095792
 21
3.8006759724
  0
LINE
  5
2E0
100
AcDbEntity
  8
0
100
AcDbLine
 62
7
  6
CONTINUOUS
 10
6.9920883036
 20
3.0556759724
 11
6.9920883036
 21
3.1056759724
  0
LINE
  5
2E1
100
AcDbEntity
  8
0
100
AcDbLine
 62
7
  6
CONTINUOUS
 10
6.9939505338
 20
2.3656759724
 11
6.9939505338
 21
2.4056759724
  0
LINE
  5
2E2
100
AcDbEntity
  8
0
100
AcDbLine
 62
7
  6
CONTINUOUS
 10
3.3388095985
 20
6.1306759724
 11
2.9013095985
 21
6.1306759724
  0
LINE
  5
2E3
100
AcDbEntity
  8
0
100
AcDbLine
 62
7
  6
CONTINUOUS
 10
7.0263095985
 20
6.1306759724
 11
7.4638095985
 21
6.1306759724
  0
LINE
  5
2E4
100
AcDbEntity
  8
0
100
AcDbLine
 62
7
  6
CONTINUOUS
 10
6.9950595985
 20
3.9731759724
 11
6.9950595985
 21
3.9281759724
  0
LINE
  5
2E5
100
AcDbEntity
  8
0
100
AcDbLine
 62
7
  6
CONTINUOUS
 10
6.9968537534
 20
3.0556759724
 11
6.9968537534
 21
3.1056759724
  0
LINE
  5
2E6
100
AcDbEntity
  8
0
100
AcDbLine
 62
7
  6
CONTINUOUS
 10
6.9998080053
 20
2.3656759724
 11
6.9998080053
 21
2.4056759724
  0
LINE
  5
2E7
100
AcDbEntity
  8
0
100
AcDbLine
 62
7
  6
CONTINUOUS
 10
7.0024203385
 20
3.8006759724
 11
7.0024203385
 21
3.8506759724
  0
LINE
  5
2E8
100
AcDbEntity
  8
0
100
AcDbLine
 62
7
  6
CONTINUOUS
 10
7.0046426957
 20
3.8506759724
 11
7.0046426957
 21
3.8006759724
  0
LINE
  5
2E9
100
AcDbEntity
  8
0
100
AcDbLine
 62
7
  6
CONTINUOUS
 10
7.0081413512
 20
3.1056759724
 11
7.0081413512
 21
3.0556759724
  0
LINE
  5
2EA
100
AcDbEntity
  8
0
100
AcDbLine
 62
7
  6
CONTINUOUS
 10
7.0096996383
 20
3.8506759724
 11
7.0096996383
 21
3.8006759724
  0
LINE
  5
2EB
100
AcDbEntity
  8
0
100
AcDbLine
 62
7
  6
CONTINUOUS
 10
7.0101189131
 20
3.0556759724
 11
7.0101189131
 21
3.1056759724
  0
LINE
  5
2EC
100
AcDbEntity
  8
0
100
AcDbLine
 62
7
  6
CONTINUOUS
 10
7.0110595985
 20
2.4056759724
 11
7.0110595985
 21
2.3656759724
  0
LINE
  5
2ED
100
AcDbEntity
  8
0
100
AcDbLine
 62
7
  6
CONTINUOUS
 10
7.0151961553
 20
3.0556759724
 11
7.0151961553
 21
3.1056759724
  0
LINE
  5
2EE
100
AcDbEntity
  8
0
100
AcDbLine
 62
7
  6
CONTINUOUS
 10
7.0153964625
 20
2.3656759724
 11
7.0153964625
 21
2.4056759724
  0
LINE
  5
2EF
100
AcDbEntity
  8
0
100
AcDbLine
 62
7
  6
CONTINUOUS
 10
7.0210353926
 20
3.8006759724
 11
7.0210353926
 21
3.8506759724
  0
LINE
  5
2F0
100
AcDbEntity
  8
0
100
AcDbLine
 62
7
  6
CONTINUOUS
 10
7.0214337645
 20
2.3656759724
 11
7.0214337645
 21
2.4056759724
  0
LINE
  5
2F1
100
AcDbEntity
  8
0
100
AcDbLine
 62
7
  6
CONTINUOUS
 10
7.0239799984
 20
3.8506759724
 11
7.0239799984
 21
3.8006759724
  0
LINE
  5
2F2
100
AcDbEntity
  8
0
100
AcDbLine
 62
7
  6
CONTINUOUS
 10
7.0263095985
 20
3.9881759724
 11
7.0263095985
 21
6.1306759724
  0
LINE
  5
2F3
100
AcDbEntity
  8
0
100
AcDbLine
 62
7
  6
CONTINUOUS
 10
7.0265264229
 20
3.1056759724
 11
7.0265264229
 21
3.0556759724
  0
LINE
  5
2F4
100
AcDbEntity
  8
0
100
AcDbLine
 62
7
  6
CONTINUOUS
 10
7.029269122
 20
3.0556759724
 11
7.029269122
 21
3.1056759724
  0
LINE
  5
2F5
100
AcDbEntity
  8
0
100
AcDbLine
 62
7
  6
CONTINUOUS
 10
7.0292975448
 20
3.8506759724
 11
7.0292975448
 21
3.8006759724
  0
LINE
  5
2F6
100
AcDbEntity
  8
0
100
AcDbLine
 62
7
  6
CONTINUOUS
 10
7.0325920446
 20
2.4056759724
 11
7.0325920446
 21
2.3656759724
  0
LINE
  5
2F7
100
AcDbEntity
  8
0
100
AcDbLine
 62
7
  6
CONTINUOUS
 10
7.0346339611
 20
3.0556759724
 11
7.0346339611
 21
3.1056759724
  0
LINE
  5
2F8
100
AcDbEntity
  8
0
100
AcDbLine
 62
7
  6
CONTINUOUS
 10
7.037471882
 20
2.3656759724
 11
7.037471882
 21
2.4056759724
  0
LINE
  5
2F9
100
AcDbEntity
  8
0
100
AcDbLine
 62
7
  6
CONTINUOUS
 10
7.0406097527
 20
3.8006759724
 11
7.0406097527
 21
3.8506759724
  0
LINE
  5
2FA
100
AcDbEntity
  8
0
100
AcDbLine
 62
7
  6
CONTINUOUS
 10
7.0436724667
 20
2.3656759724
 11
7.0436724667
 21
2.4056759724
  0
LINE
  5
2FB
100
AcDbEntity
  8
0
100
AcDbLine
 62
7
  6
CONTINUOUS
 10
7.0442639979
 20
3.8506759724
 11
7.0442639979
 21
3.8006759724
  0
LINE
  5
2FC
100
AcDbEntity
  8
0
100
AcDbLine
 62
7
  6
CONTINUOUS
 10
7.0450595985
 20
3.1831759724
 11
7.0450595985
 21
3.2281759724
  0
LINE
  5
2FD
100
AcDbEntity
  8
0
100
AcDbLine
 62
7
  6
CONTINUOUS
 10
7.0459529048
 20
3.1056759724
 11
7.0459529048
 21
3.0556759724
  0
LINE
  5
2FE
100
AcDbEntity
  8
0
100
AcDbLine
 62
7
  6
CONTINUOUS
 10
7.0494476707
 20
3.0556759724
 11
7.0494476707
 21
3.1056759724
  0
LINE
  5
2FF
100
AcDbEntity
  8
0
100
AcDbLine
 62
7
  6
CONTINUOUS
 10
7.0498193776
 20
3.8506759724
 11
7.0498193776
 21
3.8006759724
  0
LINE
  5
300
100
AcDbEntity
  8
0
100
AcDbLine
 62
7
  6
CONTINUOUS
 10
7.0547068495
 20
2.4056759724
 11
7.0547068495
 21
2.3656759724
  0
LINE
  5
301
100
AcDbEntity
  8
0
100
AcDbLine
 62
7
  6
CONTINUOUS
 10
7.055074541
 20
3.0556759724
 11
7.055074541
 21
3.1056759724
  0
LINE
  5
302
100
AcDbEntity
  8
0
100
AcDbLine
 62
7
  6
CONTINUOUS
 10
7.0601162849
 20
2.3656759724
 11
7.0601162849
 21
2.4056759724
  0
LINE
  5
303
100
AcDbEntity
  8
0
100
AcDbLine
 62
7
  6
CONTINUOUS
 10
7.0610595985
 20
3.8006759724
 11
7.0610595985
 21
3.8506759724
  0
LINE
  5
304
100
AcDbEntity
  8
0
100
AcDbLine
 62
7
  6
CONTINUOUS
 10
7.0654078349
 20
3.8506759724
 11
7.0654078349
 21
3.8006759724
  0
LINE
  5
305
100
AcDbEntity
  8
0
100
AcDbLine
 62
7
  6
CONTINUOUS
 10
7.0663282207
 20
3.1056759724
 11
7.0663282207
 21
3.0556759724
  0
LINE
  5
306
100
AcDbEntity
  8
0
100
AcDbLine
 62
7
  6
CONTINUOUS
 10
7.0664631569
 20
2.3656759724
 11
7.0664631569
 21
2.4056759724
  0
LINE
  5
307
100
AcDbEntity
  8
0
100
AcDbLine
 62
7
  6
CONTINUOUS
 10
7.0705583994
 20
3.0556759724
 11
7.0705583994
 21
3.1056759724
  0
LINE
  5
308
100
AcDbEntity
  8
0
100
AcDbLine
 62
7
  6
CONTINUOUS
 10
7.071177259
 20
3.8506759724
 11
7.071177259
 21
3.8006759724
  0
LINE
  5
309
100
AcDbEntity
  8
0
100
AcDbLine
 62
7
  6
CONTINUOUS
 10
7.0764204861
 20
3.0556759724
 11
7.0764204861
 21
3.1056759724
  0
LINE
  5
30A
100
AcDbEntity
  8
0
100
AcDbLine
 62
7
  6
CONTINUOUS
 10
7.0773433981
 20
2.4056759724
 11
7.0773433981
 21
2.3656759724
  0
LINE
  5
30B
100
AcDbEntity
  8
0
100
AcDbLine
 62
7
  6
CONTINUOUS
 10
7.0822973605
 20
3.8006759724
 11
7.0822973605
 21
3.8506759724
  0
LINE
  5
30C
100
AcDbEntity
  8
0
100
AcDbLine
 62
7
  6
CONTINUOUS
 10
7.0832676046
 20
2.3656759724
 11
7.0832676046
 21
2.4056759724
  0
LINE
  5
30D
100
AcDbEntity
  8
0
100
AcDbLine
 62
7
  6
CONTINUOUS
 10
7.0873209684
 20
3.8506759724
 11
7.0873209684
 21
3.8006759724
  0
LINE
  5
30E
100
AcDbEntity
  8
0
100
AcDbLine
 62
7
  6
CONTINUOUS
 10
7.087555273
 20
3.1056759724
 11
7.087555273
 21
3.0556759724
  0
LINE
  5
30F
100
AcDbEntity
  8
0
100
AcDbLine
 62
7
  6
CONTINUOUS
 10
7.0897433676
 20
2.3656759724
 11
7.0897433676
 21
2.4056759724
  0
LINE
  5
310
100
AcDbEntity
  8
0
100
AcDbLine
 62
7
  6
CONTINUOUS
 10
7.0925007057
 20
3.0556759724
 11
7.0925007057
 21
3.1056759724
  0
LINE
  5
311
100
AcDbEntity
  8
0
100
AcDbLine
 62
7
  6
CONTINUOUS
 10
7.0932797313
 20
3.8506759724
 11
7.0932797313
 21
3.8006759724
  0
LINE
  5
312
100
AcDbEntity
  8
0
100
AcDbLine
 62
7
  6
CONTINUOUS
 10
7.0963095985
 20
3.3489897027
 11
7.0963095985
 21
3.2431759724
  0
LINE
  5
313
100
AcDbEntity
  8
0
100
AcDbLine
 62
7
  6
CONTINUOUS
 10
7.0985700734
 20
3.0556759724
 11
7.0985700734
 21
3.1056759724
  0
LINE
  5
314
100
AcDbEntity
  8
0
100
AcDbLine
 62
7
  6
CONTINUOUS
 10
7.1004396451
 20
2.4056759724
 11
7.1004396451
 21
2.3656759724
  0
LINE
  5
315
100
AcDbEntity
  8
0
100
AcDbLine
 62
7
  6
CONTINUOUS
 10
7.1042320954
 20
3.8006759724
 11
7.1042320954
 21
3.8506759724
  0
LINE
  5
316
100
AcDbEntity
  8
0
100
AcDbLine
 62
7
  6
CONTINUOUS
 10
7.1068623849
 20
2.3656759724
 11
7.1068623849
 21
2.4056759724
  0
LINE
  5
317
100
AcDbEntity
  8
0
100
AcDbLine
 62
7
  6
CONTINUOUS
 10
7.1095329051
 20
3.1056759724
 11
7.1095329051
 21
3.0556759724
  0
LINE
  5
318
100
AcDbEntity
  8
0
100
AcDbLine
 62
7
  6
CONTINUOUS
 10
7.1099095629
 20
3.8506759724
 11
7.1099095629
 21
3.8006759724
  0
LINE
  5
319
100
AcDbEntity
  8
0
100
AcDbLine
 62
7
  6
CONTINUOUS
 10
7.1134492893
 20
2.3656759724
 11
7.1134492893
 21
2.4056759724
  0
LINE
  5
31A
100
AcDbEntity
  8
0
100
AcDbLine
 62
7
  6
CONTINUOUS
 10
7.1151700247
 20
3.0556759724
 11
7.1151700247
 21
3.1056759724
  0
LINE
  5
31B
100
AcDbEntity
  8
0
100
AcDbLine
 62
7
  6
CONTINUOUS
 10
7.1160321483
 20
3.8506759724
 11
7.1160321483
 21
3.8006759724
  0
LINE
  5
31C
100
AcDbEntity
  8
0
100
AcDbLine
 62
7
  6
CONTINUOUS
 10
7.12141775
 20
3.0556759724
 11
7.12141775
 21
3.1056759724
  0
LINE
  5
31D
100
AcDbEntity
  8
0
100
AcDbLine
 62
7
  6
CONTINUOUS
 10
7.1239322854
 20
2.4056759724
 11
7.1239322854
 21
2.3656759724
  0
LINE
  5
31E
100
AcDbEntity
  8
0
100
AcDbLine
 62
7
  6
CONTINUOUS
 10
7.1267698753
 20
3.8006759724
 11
7.1267698753
 21
3.8506759724
  0
LINE
  5
31F
100
AcDbEntity
  8
0
100
AcDbLine
 62
7
  6
CONTINUOUS
 10
7.1308359542
 20
2.3656759724
 11
7.1308359542
 21
2.4056759724
  0
LINE
  5
320
100
AcDbEntity
  8
0
100
AcDbLine
 62
7
  6
CONTINUOUS
 10
7.1321563836
 20
3.1056759724
 11
7.1321563836
 21
3.0556759724
  0
LINE
  5
321
100
AcDbEntity
  8
0
100
AcDbLine
 62
7
  6
CONTINUOUS
 10
7.1330768906
 20
3.8506759724
 11
7.1330768906
 21
3.8006759724
  0
LINE
  5
322
100
AcDbEntity
  8
0
100
AcDbLine
 62
7
  6
CONTINUOUS
 10
7.1375159457
 20
2.3656759724
 11
7.1375159457
 21
2.4056759724
  0
LINE
  5
323
100
AcDbEntity
  8
0
100
AcDbLine
 62
7
  6
CONTINUOUS
 10
7.1384583266
 20
3.0556759724
 11
7.1384583266
 21
3.1056759724
  0
LINE
  5
324
100
AcDbEntity
  8
0
100
AcDbLine
 62
7
  6
CONTINUOUS
 10
7.1393370806
 20
3.8506759724
 11
7.1393370806
 21
3.8006759724
  0
LINE
  5
325
100
AcDbEntity
  8
0
100
AcDbLine
 62
7
  6
CONTINUOUS
 10
7.1448546364
 20
3.0556759724
 11
7.1448546364
 21
3.1056759724
  0
LINE
  5
326
100
AcDbEntity
  8
0
100
AcDbLine
 62
7
  6
CONTINUOUS
 10
7.1475595985
 20
3.4286759724
 11
7.1475595985
 21
3.4516491536
  0
LINE
  5
327
100
AcDbEntity
  8
0
100
AcDbLine
 62
7
  6
CONTINUOUS
 10
7.1477569272
 20
2.4056759724
 11
7.1477569272
 21
2.3656759724
  0
LINE
  5
328
100
AcDbEntity
  8
0
100
AcDbLine
 62
7
  6
CONTINUOUS
 10
7.1498141899
 20
3.8006759724
 11
7.1498141899
 21
3.8506759724
  0
LINE
  5
329
100
AcDbEntity
  8
0
100
AcDbLine
 62
7
  6
CONTINUOUS
 10
7.1551226026
 20
2.3656759724
 11
7.1551226026
 21
2.4056759724
  0
LINE
  5
32A
100
AcDbEntity
  8
0
100
AcDbLine
 62
7
  6
CONTINUOUS
 10
7.1553178974
 20
3.1056759724
 11
7.1553178974
 21
3.0556759724
  0
LINE
  5
32B
100
AcDbEntity
  8
0
100
AcDbLine
 62
7
  6
CONTINUOUS
 10
7.1567237455
 20
3.8506759724
 11
7.1567237455
 21
3.8006759724
  0
LINE
  5
32C
100
AcDbEntity
  8
0
100
AcDbLine
 62
7
  6
CONTINUOUS
 10
7.1618773718
 20
2.3656759724
 11
7.1618773718
 21
2.4056759724
  0
LINE
  5
32D
100
AcDbEntity
  8
0
100
AcDbLine
 62
7
  6
CONTINUOUS
 10
7.1622546321
 20
3.0556759724
 11
7.1622546321
 21
3.1056759724
  0
LINE
  5
32E
100
AcDbEntity
  8
0
100
AcDbLine
 62
7
  6
CONTINUOUS
 10
7.163094733
 20
3.8506759724
 11
7.163094733
 21
3.8006759724
  0
LINE
  5
32F
100
AcDbEntity
  8
0
100
AcDbLine
 62
7
  6
CONTINUOUS
 10
7.168769045
 20
3.0556759724
 11
7.168769045
 21
3.1056759724
  0
LINE
  5
330
100
AcDbEntity
  8
0
100
AcDbLine
 62
7
  6
CONTINUOUS
 10
7.1718482689
 20
2.4056759724
 11
7.1718482689
 21
2.3656759724
  0
LINE
  5
331
100
AcDbEntity
  8
0
100
AcDbLine
 62
7
  6
CONTINUOUS
 10
7.17326636
 20
3.8006759724
 11
7.17326636
 21
3.8506759724
  0
LINE
  5
332
100
AcDbEntity
  8
0
100
AcDbLine
 62
7
  6
CONTINUOUS
 10
7.1789070713
 20
3.1056759724
 11
7.1789070713
 21
3.0556759724
  0
LINE
  5
333
100
AcDbEntity
  8
0
100
AcDbLine
 62
7
  6
CONTINUOUS
 10
7.179655762
 20
2.3656759724
 11
7.179655762
 21
2.4056759724
  0
LINE
  5
334
100
AcDbEntity
  8
0
100
AcDbLine
 62
7
  6
CONTINUOUS
 10
7.1807488681
 20
3.8506759724
 11
7.1807488681
 21
3.8006759724
  0
LINE
  5
335
100
AcDbEntity
  8
0
100
AcDbLine
 62
7
  6
CONTINUOUS
 10
7.186445541
 20
3.0556759724
 11
7.186445541
 21
3.1056759724
  0
LINE
  5
336
100
AcDbEntity
  8
0
100
AcDbLine
 62
7
  6
CONTINUOUS
 10
7.1864667946
 20
2.3656759724
 11
7.1864667946
 21
2.4056759724
  0
LINE
  5
337
100
AcDbEntity
  8
0
100
AcDbLine
 62
7
  6
CONTINUOUS
 10
7.1872033715
 20
3.8506759724
 11
7.1872033715
 21
3.8006759724
  0
LINE
  5
338
100
AcDbEntity
  8
0
100
AcDbLine
 62
7
  6
CONTINUOUS
 10
7.1930470128
 20
3.0556759724
 11
7.1930470128
 21
3.1056759724
  0
LINE
  5
339
100
AcDbEntity
  8
0
100
AcDbLine
 62
7
  6
CONTINUOUS
 10
7.1961402777
 20
2.4056759724
 11
7.1961402777
 21
2.3656759724
  0
LINE
  5
33A
100
AcDbEntity
  8
0
100
AcDbLine
 62
7
  6
CONTINUOUS
 10
7.1970259598
 20
3.8012921102
 11
7.1970259598
 21
3.8506759724
  0
LINE
  5
33B
100
AcDbEntity
  8
0
100
AcDbLine
 62
7
  6
CONTINUOUS
 10
7.2028114921
 20
3.1056759724
 11
7.2028114921
 21
3.0556759724
  0
LINE
  5
33C
100
AcDbEntity
  8
0
100
AcDbLine
 62
7
  6
CONTINUOUS
 10
7.2043681887
 20
2.3656759724
 11
7.2043681887
 21
2.4056759724
  0
LINE
  5
33D
100
AcDbEntity
  8
0
100
AcDbLine
 62
7
  6
CONTINUOUS
 10
7.205049379
 20
3.8506759724
 11
7.205049379
 21
3.8031819733
  0
LINE
  5
33E
100
AcDbEntity
  8
0
100
AcDbLine
 62
7
  6
CONTINUOUS
 10
7.2109157725
 20
3.0556759724
 11
7.2109157725
 21
3.1056759724
  0
LINE
  5
33F
100
AcDbEntity
  8
0
100
AcDbLine
 62
7
  6
CONTINUOUS
 10
7.2112168162
 20
2.3656759724
 11
7.2112168162
 21
2.4056759724
  0
LINE
  5
340
100
AcDbEntity
  8
0
100
AcDbLine
 62
7
  6
CONTINUOUS
 10
7.2115597593
 20
3.8506759724
 11
7.2115597593
 21
3.8044631403
  0
LINE
  5
341
100
AcDbEntity
  8
0
100
AcDbLine
 62
7
  6
CONTINUOUS
 10
7.2175728443
 20
3.0556759724
 11
7.2175728443
 21
3.1056759724
  0
LINE
  5
342
100
AcDbEntity
  8
0
100
AcDbLine
 62
7
  6
CONTINUOUS
 10
7.220566371
 20
2.4056759724
 11
7.220566371
 21
2.3656759724
  0
LINE
  5
343
100
AcDbEntity
  8
0
100
AcDbLine
 62
7
  6
CONTINUOUS
 10
7.2209912469
 20
3.8059019309
 11
7.2209912469
 21
3.8506759724
  0
LINE
  5
344
100
AcDbEntity
  8
0
100
AcDbLine
 62
7
  6
CONTINUOUS
 10
7.2269172443
 20
3.1056759724
 11
7.2269172443
 21
3.0556759724
  0
LINE
  5
345
100
AcDbEntity
  8
0
100
AcDbLine
 62
7
  6
CONTINUOUS
 10
7.2291921478
 20
2.3656759724
 11
7.2291921478
 21
2.4056759724
  0
LINE
  5
346
100
AcDbEntity
  8
0
100
AcDbLine
 62
7
  6
CONTINUOUS
 10
7.2295212199
 20
3.8506759724
 11
7.2295212199
 21
3.8067842858
  0
LINE
  5
347
100
AcDbEntity
  8
0
100
AcDbLine
 62
7
  6
CONTINUOUS
 10
7.235548715
 20
3.0556759724
 11
7.235548715
 21
3.1056759724
  0
LINE
  5
348
100
AcDbEntity
  8
0
100
AcDbLine
 62
7
  6
CONTINUOUS
 10
7.2360595985
 20
3.8506759724
 11
7.2360595985
 21
3.8072058338
  0
LINE
  5
349
100
AcDbEntity
  8
0
100
AcDbLine
 62
7
  6
CONTINUOUS
 10
7.2360595985
 20
2.3656759724
 11
7.2360595985
 21
2.4056759724
  0
LINE
  5
34A
100
AcDbEntity
  8
0
100
AcDbLine
 62
7
  6
CONTINUOUS
 10
7.2422296627
 20
3.0556759724
 11
7.2422296627
 21
3.1056759724
  0
LINE
  5
34B
100
AcDbEntity
  8
0
100
AcDbLine
 62
7
  6
CONTINUOUS
 10
7.2450595985
 20
2.4056759724
 11
7.2450595985
 21
2.3656759724
  0
LINE
  5
34C
100
AcDbEntity
  8
0
100
AcDbLine
 62
7
  6
CONTINUOUS
 10
7.2450595985
 20
3.8074259724
 11
7.2450595985
 21
3.8506759724
  0
LINE
  5
34D
100
AcDbEntity
  8
0
100
AcDbLine
 62
7
  6
CONTINUOUS
 10
7.2511094531
 20
3.1056759724
 11
7.2511094531
 21
3.0556759724
  0
LINE
  5
34E
100
AcDbEntity
  8
0
100
AcDbLine
 62
7
  6
CONTINUOUS
 10
7.2540595985
 20
3.8506759724
 11
7.2540595985
 21
3.8072058338
  0
LINE
  5
34F
100
AcDbEntity
  8
0
100
AcDbLine
 62
7
  6
CONTINUOUS
 10
7.2540595985
 20
2.3656759724
 11
7.2540595985
 21
2.4056759724
  0
LINE
  5
350
100
AcDbEntity
  8
0
100
AcDbLine
 62
7
  6
CONTINUOUS
 10
7.2602269811
 20
3.0556759724
 11
7.2602269811
 21
3.1056759724
  0
LINE
  5
351
100
AcDbEntity
  8
0
100
AcDbLine
 62
7
  6
CONTINUOUS
 10
7.2605979771
 20
3.8506759724
 11
7.2605979771
 21
3.8067842858
  0
LINE
  5
352
100
AcDbEntity
  8
0
100
AcDbLine
 62
7
  6
CONTINUOUS
 10
7.2609270492
 20
2.3656759724
 11
7.2609270492
 21
2.4056759724
  0
LINE
  5
353
100
AcDbEntity
  8
0
100
AcDbLine
 62
7
  6
CONTINUOUS
 10
7.266899967
 20
3.0556759724
 11
7.266899967
 21
3.1056759724
  0
LINE
  5
354
100
AcDbEntity
  8
0
100
AcDbLine
 62
7
  6
CONTINUOUS
 10
7.2691279501
 20
3.8059019309
 11
7.2691279501
 21
3.8506759724
  0
LINE
  5
355
100
AcDbEntity
  8
0
100
AcDbLine
 62
7
  6
CONTINUOUS
 10
7.269552826
 20
2.4056759724
 11
7.269552826
 21
2.3656759724
  0
LINE
  5
356
100
AcDbEntity
  8
0
100
AcDbLine
 62
7
  6
CONTINUOUS
 10
7.2752728316
 20
3.1056759724
 11
7.2752728316
 21
3.0556759724
  0
LINE
  5
357
100
AcDbEntity
  8
0
100
AcDbLine
 62
7
  6
CONTINUOUS
 10
7.2785594377
 20
3.8506759724
 11
7.2785594377
 21
3.8044631403
  0
LINE
  5
358
100
AcDbEntity
  8
0
100
AcDbLine
 62
7
  6
CONTINUOUS
 10
7.2789023808
 20
2.3656759724
 11
7.2789023808
 21
2.4056759724
  0
LINE
  5
359
100
AcDbEntity
  8
0
100
AcDbLine
 62
7
  6
CONTINUOUS
 10
7.2848329678
 20
3.0556759724
 11
7.2848329678
 21
3.1056759724
  0
LINE
  5
35A
100
AcDbEntity
  8
0
100
AcDbLine
 62
7
  6
CONTINUOUS
 10
7.285069818
 20
3.8506759724
 11
7.285069818
 21
3.8031819733
  0
LINE
  5
35B
100
AcDbEntity
  8
0
100
AcDbLine
 62
7
  6
CONTINUOUS
 10
7.2857510083
 20
2.3656759724
 11
7.2857510083
 21
2.4056759724
  0
LINE
  5
35C
100
AcDbEntity
  8
0
100
AcDbLine
 62
7
  6
CONTINUOUS
 10
7.291466192
 20
3.0556759724
 11
7.291466192
 21
3.1056759724
  0
LINE
  5
35D
100
AcDbEntity
  8
0
100
AcDbLine
 62
7
  6
CONTINUOUS
 10
7.2930932372
 20
3.8012921102
 11
7.2930932372
 21
3.8506759724
  0
LINE
  5
35E
100
AcDbEntity
  8
0
100
AcDbLine
 62
7
  6
CONTINUOUS
 10
7.2939789193
 20
2.4056759724
 11
7.2939789193
 21
2.3656759724
  0
LINE
  5
35F
100
AcDbEntity
  8
0
100
AcDbLine
 62
7
  6
CONTINUOUS
 10
7.2992922303
 20
3.1056759724
 11
7.2992922303
 21
3.0556759724
  0
LINE
  5
360
100
AcDbEntity
  8
0
100
AcDbLine
 62
7
  6
CONTINUOUS
 10
7.3029158255
 20
3.8506759724
 11
7.3029158255
 21
3.8006759724
  0
LINE
  5
361
100
AcDbEntity
  8
0
100
AcDbLine
 62
7
  6
CONTINUOUS
 10
7.3036524024
 20
2.3656759724
 11
7.3036524024
 21
2.4056759724
  0
LINE
  5
362
100
AcDbEntity
  8
0
100
AcDbLine
 62
7
  6
CONTINUOUS
 10
7.3092494162
 20
3.0556759724
 11
7.3092494162
 21
3.1056759724
  0
LINE
  5
363
100
AcDbEntity
  8
0
100
AcDbLine
 62
7
  6
CONTINUOUS
 10
7.3093703289
 20
3.8506759724
 11
7.3093703289
 21
3.8006759724
  0
LINE
  5
364
100
AcDbEntity
  8
0
100
AcDbLine
 62
7
  6
CONTINUOUS
 10
7.310463435
 20
2.3656759724
 11
7.310463435
 21
2.4056759724
  0
LINE
  5
365
100
AcDbEntity
  8
0
100
AcDbLine
 62
7
  6
CONTINUOUS
 10
7.3158112685
 20
3.0556759724
 11
7.3158112685
 21
3.1056759724
  0
LINE
  5
366
100
AcDbEntity
  8
0
100
AcDbLine
 62
7
  6
CONTINUOUS
 10
7.316852837
 20
3.8006759724
 11
7.316852837
 21
3.8506759724
  0
LINE
  5
367
100
AcDbEntity
  8
0
100
AcDbLine
 62
7
  6
CONTINUOUS
 10
7.3182709281
 20
2.4056759724
 11
7.3182709281
 21
2.3656759724
  0
LINE
  5
368
100
AcDbEntity
  8
0
100
AcDbLine
 62
7
  6
CONTINUOUS
 10
7.3230531858
 20
3.1056759724
 11
7.3230531858
 21
3.0556759724
  0
LINE
  5
369
100
AcDbEntity
  8
0
100
AcDbLine
 62
7
  6
CONTINUOUS
 10
7.327024464
 20
3.8506759724
 11
7.327024464
 21
3.8006759724
  0
LINE
  5
36A
100
AcDbEntity
  8
0
100
AcDbLine
 62
7
  6
CONTINUOUS
 10
7.3282418252
 20
2.3656759724
 11
7.3282418252
 21
2.4056759724
  0
LINE
  5
36B
100
AcDbEntity
  8
0
100
AcDbLine
 62
7
  6
CONTINUOUS
 10
7.3333599709
 20
3.0556759724
 11
7.3333599709
 21
3.1056759724
  0
LINE
  5
36C
100
AcDbEntity
  8
0
100
AcDbLine
 62
7
  6
CONTINUOUS
 10
7.3333954515
 20
3.8506759724
 11
7.3333954515
 21
3.8006759724
  0
LINE
  5
36D
100
AcDbEntity
  8
0
100
AcDbLine
 62
7
  6
CONTINUOUS
 10
7.3349965944
 20
2.3656759724
 11
7.3349965944
 21
2.4056759724
  0
LINE
  5
36E
100
AcDbEntity
  8
0
100
AcDbLine
 62
7
  6
CONTINUOUS
 10
7.3398191811
 20
3.0556759724
 11
7.3398191811
 21
3.1056759724
  0
LINE
  5
36F
100
AcDbEntity
  8
0
100
AcDbLine
 62
7
  6
CONTINUOUS
 10
7.3403050071
 20
3.8006759724
 11
7.3403050071
 21
3.8506759724
  0
LINE
  5
370
100
AcDbEntity
  8
0
100
AcDbLine
 62
7
  6
CONTINUOUS
 10
7.3423622698
 20
2.4056759724
 11
7.3423622698
 21
2.3656759724
  0
LINE
  5
371
100
AcDbEntity
  8
0
100
AcDbLine
 62
7
  6
CONTINUOUS
 10
7.3425595985
 20
3.4286759724
 11
7.3425595985
 21
3.4516491536
  0
LINE
  5
372
100
AcDbEntity
  8
0
100
AcDbLine
 62
7
  6
CONTINUOUS
 10
7.3464424664
 20
3.1056759724
 11
7.3464424664
 21
3.0556759724
  0
LINE
  5
373
100
AcDbEntity
  8
0
100
AcDbLine
 62
7
  6
CONTINUOUS
 10
7.3507821164
 20
3.8506759724
 11
7.3507821164
 21
3.8006759724
  0
LINE
  5
374
100
AcDbEntity
  8
0
100
AcDbLine
 62
7
  6
CONTINUOUS
 10
7.3526032512
 20
2.3656759724
 11
7.3526032512
 21
2.4056759724
  0
LINE
  5
375
100
AcDbEntity
  8
0
100
AcDbLine
 62
7
  6
CONTINUOUS
 10
7.3570423064
 20
3.8506759724
 11
7.3570423064
 21
3.8006759724
  0
LINE
  5
376
100
AcDbEntity
  8
0
100
AcDbLine
 62
7
  6
CONTINUOUS
 10
7.3570497342
 20
3.0556759724
 11
7.3570497342
 21
3.1056759724
  0
LINE
  5
377
100
AcDbEntity
  8
0
100
AcDbLine
 62
7
  6
CONTINUOUS
 10
7.3592832428
 20
2.3656759724
 11
7.3592832428
 21
2.4056759724
  0
LINE
  5
378
100
AcDbEntity
  8
0
100
AcDbLine
 62
7
  6
CONTINUOUS
 10
7.3633493217
 20
3.8006759724
 11
7.3633493217
 21
3.8506759724
  0
LINE
  5
379
100
AcDbEntity
  8
0
100
AcDbLine
 62
7
  6
CONTINUOUS
 10
7.363375521
 20
3.0556759724
 11
7.363375521
 21
3.1056759724
  0
LINE
  5
37A
100
AcDbEntity
  8
0
100
AcDbLine
 62
7
  6
CONTINUOUS
 10
7.3661869116
 20
2.4056759724
 11
7.3661869116
 21
2.3656759724
  0
LINE
  5
37B
100
AcDbEntity
  8
0
100
AcDbLine
 62
7
  6
CONTINUOUS
 10
7.3693486114
 20
3.1056759724
 11
7.3693486114
 21
3.0556759724
  0
LINE
  5
37C
100
AcDbEntity
  8
0
100
AcDbLine
 62
7
  6
CONTINUOUS
 10
7.3740870487
 20
3.8506759724
 11
7.3740870487
 21
3.8006759724
  0
LINE
  5
37D
100
AcDbEntity
  8
0
100
AcDbLine
 62
7
  6
CONTINUOUS
 10
7.3766699076
 20
2.3656759724
 11
7.3766699076
 21
2.4056759724
  0
LINE
  5
37E
100
AcDbEntity
  8
0
100
AcDbLine
 62
7
  6
CONTINUOUS
 10
7.3802058134
 20
3.0556759724
 11
7.3802058134
 21
3.1056759724
  0
LINE
  5
37F
100
AcDbEntity
  8
0
100
AcDbLine
 62
7
  6
CONTINUOUS
 10
7.3802096341
 20
3.8506759724
 11
7.3802096341
 21
3.8006759724
  0
LINE
  5
380
100
AcDbEntity
  8
0
100
AcDbLine
 62
7
  6
CONTINUOUS
 10
7.383256812
 20
2.3656759724
 11
7.383256812
 21
2.4056759724
  0
LINE
  5
381
100
AcDbEntity
  8
0
100
AcDbLine
 62
7
  6
CONTINUOUS
 10
7.3858871016
 20
3.8006759724
 11
7.3858871016
 21
3.8506759724
  0
LINE
  5
382
100
AcDbEntity
  8
0
100
AcDbLine
 62
7
  6
CONTINUOUS
 10
7.3863680318
 20
3.0556759724
 11
7.3863680318
 21
3.1056759724
  0
LINE
  5
383
100
AcDbEntity
  8
0
100
AcDbLine
 62
7
  6
CONTINUOUS
 10
7.3896795519
 20
2.4056759724
 11
7.3896795519
 21
2.3656759724
  0
LINE
  5
384
100
AcDbEntity
  8
0
100
AcDbLine
 62
7
  6
CONTINUOUS
 10
7.3916624627
 20
3.1056759724
 11
7.3916624627
 21
3.0556759724
  0
LINE
  5
385
100
AcDbEntity
  8
0
100
AcDbLine
 62
7
  6
CONTINUOUS
 10
7.3938095985
 20
3.3489897027
 11
7.3938095985
 21
3.2431759724
  0
LINE
  5
386
100
AcDbEntity
  8
0
100
AcDbLine
 62
7
  6
CONTINUOUS
 10
7.3968394657
 20
3.8506759724
 11
7.3968394657
 21
3.8006759724
  0
LINE
  5
387
100
AcDbEntity
  8
0
100
AcDbLine
 62
7
  6
CONTINUOUS
 10
7.4003758293
 20
2.3656759724
 11
7.4003758293
 21
2.4056759724
  0
LINE
  5
388
100
AcDbEntity
  8
0
100
AcDbLine
 62
7
  6
CONTINUOUS
 10
7.4027178594
 20
3.0556759724
 11
7.4027178594
 21
3.1056759724
  0
LINE
  5
389
100
AcDbEntity
  8
0
100
AcDbLine
 62
7
  6
CONTINUOUS
 10
7.4027982286
 20
3.8506759724
 11
7.4027982286
 21
3.8006759724
  0
LINE
  5
38A
100
AcDbEntity
  8
0
100
AcDbLine
 62
7
  6
CONTINUOUS
 10
7.4068515924
 20
2.3656759724
 11
7.4068515924
 21
2.4056759724
  0
LINE
  5
38B
100
AcDbEntity
  8
0
100
AcDbLine
 62
7
  6
CONTINUOUS
 10
7.4078218365
 20
3.8006759724
 11
7.4078218365
 21
3.8506759724
  0
LINE
  5
38C
100
AcDbEntity
  8
0
100
AcDbLine
 62
7
  6
CONTINUOUS
 10
7.4086871435
 20
3.0556759724
 11
7.4086871435
 21
3.1056759724
  0
LINE
  5
38D
100
AcDbEntity
  8
0
100
AcDbLine
 62
7
  6
CONTINUOUS
 10
7.4127757989
 20
2.4056759724
 11
7.4127757989
 21
2.3656759724
  0
LINE
  5
38E
100
AcDbEntity
  8
0
100
AcDbLine
 62
7
  6
CONTINUOUS
 10
7.4132776845
 20
3.1056759724
 11
7.4132776845
 21
3.0556759724
  0
LINE
  5
38F
100
AcDbEntity
  8
0
100
AcDbLine
 62
7
  6
CONTINUOUS
 10
7.4189419379
 20
3.8506759724
 11
7.4189419379
 21
3.8006759724
  0
LINE
  5
390
100
AcDbEntity
  8
0
100
AcDbLine
 62
7
  6
CONTINUOUS
 10
7.42365604
 20
2.3656759724
 11
7.42365604
 21
2.4056759724
  0
LINE
  5
391
100
AcDbEntity
  8
0
100
AcDbLine
 62
7
  6
CONTINUOUS
 10
7.424478592
 20
3.0556759724
 11
7.424478592
 21
3.1056759724
  0
LINE
  5
392
100
AcDbEntity
  8
0
100
AcDbLine
 62
7
  6
CONTINUOUS
 10
7.4247113621
 20
3.8506759724
 11
7.4247113621
 21
3.8006759724
  0
LINE
  5
393
100
AcDbEntity
  8
0
100
AcDbLine
 62
7
  6
CONTINUOUS
 10
7.4290595985
 20
3.8006759724
 11
7.4290595985
 21
3.8506759724
  0
LINE
  5
394
100
AcDbEntity
  8
0
100
AcDbLine
 62
7
  6
CONTINUOUS
 10
7.4300029121
 20
2.3656759724
 11
7.4300029121
 21
2.4056759724
  0
LINE
  5
395
100
AcDbEntity
  8
0
100
AcDbLine
 62
7
  6
CONTINUOUS
 10
7.4302264954
 20
3.0556759724
 11
7.4302264954
 21
3.1056759724
  0
LINE
  5
396
100
AcDbEntity
  8
0
100
AcDbLine
 62
7
  6
CONTINUOUS
 10
7.4340912706
 20
3.1056759724
 11
7.4340912706
 21
3.0556759724
  0
LINE
  5
397
100
AcDbEntity
  8
0
100
AcDbLine
 62
7
  6
CONTINUOUS
 10
7.4354123475
 20
2.4056759724
 11
7.4354123475
 21
2.3656759724
  0
LINE
  5
398
100
AcDbEntity
  8
0
100
AcDbLine
 62
7
  6
CONTINUOUS
 10
7.4402998194
 20
3.8506759724
 11
7.4402998194
 21
3.8006759724
  0
LINE
  5
399
100
AcDbEntity
  8
0
100
AcDbLine
 62
7
  6
CONTINUOUS
 10
7.4450595985
 20
3.1831759724
 11
7.4450595985
 21
3.2281759724
  0
LINE
  5
39A
100
AcDbEntity
  8
0
100
AcDbLine
 62
7
  6
CONTINUOUS
 10
7.4453843113
 20
3.0556759724
 11
7.4453843113
 21
3.1056759724
  0
LINE
  5
39B
100
AcDbEntity
  8
0
100
AcDbLine
 62
7
  6
CONTINUOUS
 10
7.4458551991
 20
3.8506759724
 11
7.4458551991
 21
3.8006759724
  0
LINE
  5
39C
100
AcDbEntity
  8
0
100
AcDbLine
 62
7
  6
CONTINUOUS
 10
7.4464467303
 20
2.3656759724
 11
7.4464467303
 21
2.4056759724
  0
LINE
  5
39D
100
AcDbEntity
  8
0
100
AcDbLine
 62
7
  6
CONTINUOUS
 10
7.4495094442
 20
3.8006759724
 11
7.4495094442
 21
3.8506759724
  0
LINE
  5
39E
100
AcDbEntity
  8
0
100
AcDbLine
 62
7
  6
CONTINUOUS
 10
7.4508834427
 20
3.0556759724
 11
7.4508834427
 21
3.1056759724
  0
LINE
  5
39F
100
AcDbEntity
  8
0
100
AcDbLine
 62
7
  6
CONTINUOUS
 10
7.452647315
 20
2.3656759724
 11
7.452647315
 21
2.4056759724
  0
LINE
  5
3A0
100
AcDbEntity
  8
0
100
AcDbLine
 62
7
  6
CONTINUOUS
 10
7.4540040347
 20
3.1056759724
 11
7.4540040347
 21
3.0556759724
  0
LINE
  5
3A1
100
AcDbEntity
  8
0
100
AcDbLine
 62
7
  6
CONTINUOUS
 10
6.4950595985
 20
6.6619259724
 11
3.8700595985
 21
6.6619259724
  0
LINE
  5
3A2
100
AcDbEntity
  8
0
100
AcDbLine
 62
7
  6
CONTINUOUS
 10
7.4575271524
 20
2.4056759724
 11
7.4575271524
 21
2.3656759724
  0
LINE
  5
3A3
100
AcDbEntity
  8
0
100
AcDbLine
 62
7
  6
CONTINUOUS
 10
7.4608216522
 20
3.8506759724
 11
7.4608216522
 21
3.8006759724
  0
LINE
  5
3A4
100
AcDbEntity
  8
0
100
AcDbLine
 62
7
  6
CONTINUOUS
 10
7.4638095985
 20
3.9881759724
 11
7.4638095985
 21
6.1306759724
  0
LINE
  5
3A5
100
AcDbEntity
  8
0
100
AcDbLine
 62
7
  6
CONTINUOUS
 10
7.4653353922
 20
3.0556759724
 11
7.4653353922
 21
3.1056759724
  0
LINE
  5
3A6
100
AcDbEntity
  8
0
100
AcDbLine
 62
7
  6
CONTINUOUS
 10
7.4661391986
 20
3.8506759724
 11
7.4661391986
 21
3.8006759724
  0
LINE
  5
3A7
100
AcDbEntity
  8
0
100
AcDbLine
 62
7
  6
CONTINUOUS
 10
7.4686854324
 20
2.3656759724
 11
7.4686854324
 21
2.4056759724
  0
LINE
  5
3A8
100
AcDbEntity
  8
0
100
AcDbLine
 62
7
  6
CONTINUOUS
 10
7.4690838044
 20
3.8006759724
 11
7.4690838044
 21
3.8506759724
  0
LINE
  5
3A9
100
AcDbEntity
  8
0
100
AcDbLine
 62
7
  6
CONTINUOUS
 10
7.4705595457
 20
3.0556759724
 11
7.4705595457
 21
3.1056759724
  0
LINE
  5
3AA
100
AcDbEntity
  8
0
100
AcDbLine
 62
7
  6
CONTINUOUS
 10
7.4729210833
 20
3.1056759724
 11
7.4729210833
 21
3.0556759724
  0
LINE
  5
3AB
100
AcDbEntity
  8
0
100
AcDbLine
 62
7
  6
CONTINUOUS
 10
7.4747227345
 20
2.3656759724
 11
7.4747227345
 21
2.4056759724
  0
LINE
  5
3AC
100
AcDbEntity
  8
0
100
AcDbLine
 62
7
  6
CONTINUOUS
 10
7.4790595985
 20
2.4056759724
 11
7.4790595985
 21
2.3656759724
  0
LINE
  5
3AD
100
AcDbEntity
  8
0
100
AcDbLine
 62
7
  6
CONTINUOUS
 10
7.4804195587
 20
3.8506759724
 11
7.4804195587
 21
3.8006759724
  0
LINE
  5
3AE
100
AcDbEntity
  8
0
100
AcDbLine
 62
7
  6
CONTINUOUS
 10
7.4842367586
 20
3.0556759724
 11
7.4842367586
 21
3.1056759724
  0
LINE
  5
3AF
100
AcDbEntity
  8
0
100
AcDbLine
 62
7
  6
CONTINUOUS
 10
7.4854765013
 20
3.8506759724
 11
7.4854765013
 21
3.8006759724
  0
LINE
  5
3B0
100
AcDbEntity
  8
0
100
AcDbLine
 62
7
  6
CONTINUOUS
 10
7.4876988585
 20
3.8006759724
 11
7.4876988585
 21
3.8506759724
  0
LINE
  5
3B1
100
AcDbEntity
  8
0
100
AcDbLine
 62
7
  6
CONTINUOUS
 10
7.4891610388
 20
3.0556759724
 11
7.4891610388
 21
3.1056759724
  0
LINE
  5
3B2
100
AcDbEntity
  8
0
100
AcDbLine
 62
7
  6
CONTINUOUS
 10
7.4903111917
 20
2.3656759724
 11
7.4903111917
 21
2.4056759724
  0
LINE
  5
3B3
100
AcDbEntity
  8
0
100
AcDbLine
 62
7
  6
CONTINUOUS
 10
7.4907522683
 20
3.1056759724
 11
7.4907522683
 21
3.0556759724
  0
LINE
  5
3B4
100
AcDbEntity
  8
0
100
AcDbLine
 62
7
  6
CONTINUOUS
 10
7.4950595985
 20
3.9731759724
 11
7.4950595985
 21
3.9281759724
  0
LINE
  5
3B5
100
AcDbEntity
  8
0
100
AcDbLine
 62
7
  6
CONTINUOUS
 10
7.4961686632
 20
2.3656759724
 11
7.4961686632
 21
2.4056759724
  0
LINE
  5
3B6
100
AcDbEntity
  8
0
100
AcDbLine
 62
7
  6
CONTINUOUS
 10
7.4990096178
 20
3.8506759724
 11
7.4990096178
 21
3.8006759724
  0
LINE
  5
3B7
100
AcDbEntity
  8
0
100
AcDbLine
 62
7
  6
CONTINUOUS
 10
7.4999506669
 20
2.4056759724
 11
7.4999506669
 21
2.3656759724
  0
LINE
  5
3B8
100
AcDbEntity
  8
0
100
AcDbLine
 62
7
  6
CONTINUOUS
 10
7.5019983369
 20
3.0556759724
 11
7.5019983369
 21
3.1056759724
  0
LINE
  5
3B9
100
AcDbEntity
  8
0
100
AcDbLine
 62
7
  6
CONTINUOUS
 10
7.5037843019
 20
3.8506759724
 11
7.5037843019
 21
3.8006759724
  0
LINE
  5
3BA
100
AcDbEntity
  8
0
100
AcDbLine
 62
7
  6
CONTINUOUS
 10
7.505274894
 20
3.8006759724
 11
7.505274894
 21
3.8506759724
  0
LINE
  5
3BB
100
AcDbEntity
  8
0
100
AcDbLine
 62
7
  6
CONTINUOUS
 10
7.5065992773
 20
3.0556759724
 11
7.5065992773
 21
3.1056759724
  0
LINE
  5
3BC
100
AcDbEntity
  8
0
100
AcDbLine
 62
7
  6
CONTINUOUS
 10
7.5074126157
 20
3.1056759724
 11
7.5074126157
 21
3.0556759724
  0
LINE
  5
3BD
100
AcDbEntity
  8
0
100
AcDbLine
 62
7
  6
CONTINUOUS
 10
7.5112647334
 20
2.3656759724
 11
7.5112647334
 21
2.4056759724
  0
LINE
  5
3BE
100
AcDbEntity
  8
0
100
AcDbLine
 62
7
  6
CONTINUOUS
 10
7.5165122239
 20
3.8506759724
 11
7.5165122239
 21
3.8006759724
  0
LINE
  5
3BF
100
AcDbEntity
  8
0
100
AcDbLine
 62
7
  6
CONTINUOUS
 10
7.5169263195
 20
2.3656759724
 11
7.5169263195
 21
2.4056759724
  0
LINE
  5
3C0
100
AcDbEntity
  8
0
100
AcDbLine
 62
7
  6
CONTINUOUS
 10
7.5185354851
 20
3.0556759724
 11
7.5185354851
 21
3.1056759724
  0
LINE
  5
3C1
100
AcDbEntity
  8
0
100
AcDbLine
 62
7
  6
CONTINUOUS
 10
7.5201430966
 20
2.4056759724
 11
7.5201430966
 21
2.3656759724
  0
LINE
  5
3C2
100
AcDbEntity
  8
0
100
AcDbLine
 62
7
  6
CONTINUOUS
 10
7.5209842036
 20
3.8506759724
 11
7.5209842036
 21
3.8006759724
  0
LINE
  5
3C3
100
AcDbEntity
  8
0
100
AcDbLine
 62
7
  6
CONTINUOUS
 10
7.5217366476
 20
3.8006759724
 11
7.5217366476
 21
3.8506759724
  0
LINE
  5
3C4
100
AcDbEntity
  8
0
100
AcDbLine
 62
7
  6
CONTINUOUS
 10
7.5227911601
 20
3.0556759724
 11
7.5227911601
 21
3.1056759724
  0
LINE
  5
3C5
100
AcDbEntity
  8
0
100
AcDbLine
 62
7
  6
CONTINUOUS
 10
7.5314886254
 20
2.3656759724
 11
7.5314886254
 21
2.4056759724
  0
LINE
  5
3C6
100
AcDbEntity
  8
0
100
AcDbLine
 62
7
  6
CONTINUOUS
 10
7.5328524282
 20
3.8506759724
 11
7.5328524282
 21
3.8006759724
  0
LINE
  5
3C7
100
AcDbEntity
  8
0
100
AcDbLine
 62
7
  6
CONTINUOUS
 10
7.5337693962
 20
3.0556759724
 11
7.5337693962
 21
3.1056759724
  0
LINE
  5
3C8
100
AcDbEntity
  8
0
100
AcDbLine
 62
7
  6
CONTINUOUS
 10
7.5369388079
 20
2.3656759724
 11
7.5369388079
 21
2.4056759724
  0
LINE
  5
3C9
100
AcDbEntity
  8
0
100
AcDbLine
 62
7
  6
CONTINUOUS
 10
7.5370025537
 20
3.8506759724
 11
7.5370025537
 21
3.8006759724
  0
LINE
  5
3CA
100
AcDbEntity
  8
0
100
AcDbLine
 62
7
  6
CONTINUOUS
 10
7.5376595256
 20
3.0556759724
 11
7.5376595256
 21
3.1056759724
  0
LINE
  5
3CB
100
AcDbEntity
  8
0
100
AcDbLine
 62
7
  6
CONTINUOUS
 10
7.5395815415
 20
2.4056759724
 11
7.5395815415
 21
2.3656759724
  0
LINE
  5
3CC
100
AcDbEntity
  8
0
100
AcDbLine
 62
7
  6
CONTINUOUS
 10
7.5450595985
 20
2.4406759724
 11
7.5450595985
 21
2.4456759724
  0
LINE
  5
3CD
100
AcDbEntity
  8
0
100
AcDbLine
 62
7
  6
CONTINUOUS
 10
7.5476274736
 20
3.0556759724
 11
7.5476274736
 21
3.1056759724
  0
LINE
  5
3CE
100
AcDbEntity
  8
0
100
AcDbLine
 62
7
  6
CONTINUOUS
 10
7.5479602595
 20
3.8506759724
 11
7.5479602595
 21
3.8006759724
  0
LINE
  5
3CF
100
AcDbEntity
  8
0
100
AcDbLine
 62
7
  6
CONTINUOUS
 10
7.5509274352
 20
2.3656759724
 11
7.5509274352
 21
2.4056759724
  0
LINE
  5
3D0
100
AcDbEntity
  8
0
100
AcDbLine
 62
7
  6
CONTINUOUS
 10
7.5511335192
 20
3.0556759724
 11
7.5511335192
 21
3.1056759724
  0
LINE
  5
3D1
100
AcDbEntity
  8
0
100
AcDbLine
 62
7
  6
CONTINUOUS
 10
7.5517707594
 20
3.8506759724
 11
7.5517707594
 21
3.8006759724
  0
LINE
  5
3D2
100
AcDbEntity
  8
0
100
AcDbLine
 62
7
  6
CONTINUOUS
 10
7.5548424632
 20
2.4406759724
 11
7.5548424632
 21
2.4456759724
  0
LINE
  5
3D3
100
AcDbEntity
  8
0
100
AcDbLine
 62
7
  6
CONTINUOUS
 10
7.5561512758
 20
2.3656759724
 11
7.5561512758
 21
2.4056759724
  0
LINE
  5
3D4
100
AcDbEntity
  8
0
100
AcDbLine
 62
7
  6
CONTINUOUS
 10
7.5575595985
 20
2.4456759724
 11
7.5575595985
 21
3.0556759724
  0
LINE
  5
3D5
100
AcDbEntity
  8
0
100
AcDbLine
 62
7
  6
CONTINUOUS
 10
7.5582127223
 20
2.4056759724
 11
7.5582127223
 21
2.3656759724
  0
LINE
  5
3D6
100
AcDbEntity
  8
0
100
AcDbLine
 62
7
  6
CONTINUOUS
 10
7.5600436773
 20
3.0556759724
 11
7.5600436773
 21
3.1056759724
  0
LINE
  5
3D7
100
AcDbEntity
  8
0
100
AcDbLine
 62
7
  6
CONTINUOUS
 10
7.5602826754
 20
2.4406759724
 11
7.5602826754
 21
2.4881759724
  0
LINE
  5
3D8
100
AcDbEntity
  8
0
100
AcDbLine
 62
7
  6
CONTINUOUS
 10
7.5617710236
 20
3.8506759724
 11
7.5617710236
 21
3.8006759724
  0
LINE
  5
3D9
100
AcDbEntity
  8
0
100
AcDbLine
 62
7
  6
CONTINUOUS
 10
7.5631489311
 20
3.0556759724
 11
7.5631489311
 21
3.1056759724
  0
LINE
  5
3DA
100
AcDbEntity
  8
0
100
AcDbLine
 62
7
  6
CONTINUOUS
 10
7.5636813089
 20
2.4881759724
 11
7.5636813089
 21
2.4406759724
  0
LINE
  5
3DB
100
AcDbEntity
  8
0
100
AcDbLine
 62
7
  6
CONTINUOUS
 10
7.5652255807
 20
3.8506759724
 11
7.5652255807
 21
3.8006759724
  0
LINE
  5
3DC
100
AcDbEntity
  8
0
100
AcDbLine
 62
7
  6
CONTINUOUS
 10
7.5695278826
 20
2.3656759724
 11
7.5695278826
 21
2.4056759724
  0
LINE
  5
3DD
100
AcDbEntity
  8
0
100
AcDbLine
 62
7
  6
CONTINUOUS
 10
7.5709588384
 20
3.0556759724
 11
7.5709588384
 21
3.1056759724
  0
LINE
  5
3DE
100
AcDbEntity
  8
0
100
AcDbLine
 62
7
  6
CONTINUOUS
 10
7.5736485026
 20
3.0556759724
 11
7.5736485026
 21
3.1056759724
  0
LINE
  5
3DF
100
AcDbEntity
  8
0
100
AcDbLine
 62
7
  6
CONTINUOUS
 10
7.5742255807
 20
3.8506759724
 11
7.5742255807
 21
3.8006759724
  0
LINE
  5
3E0
100
AcDbEntity
  8
0
100
AcDbLine
 62
7
  6
CONTINUOUS
 10
7.574511063
 20
2.3656759724
 11
7.574511063
 21
2.4056759724
  0
LINE
  5
3E1
100
AcDbEntity
  8
0
100
AcDbLine
 62
7
  6
CONTINUOUS
 10
7.5750274122
 20
2.4406759724
 11
7.5750274122
 21
2.4881759724
  0
LINE
  5
3E2
100
AcDbEntity
  8
0
100
AcDbLine
 62
7
  6
CONTINUOUS
 10
7.5759855721
 20
2.4056759724
 11
7.5759855721
 21
2.3656759724
  0
LINE
  5
3E3
100
AcDbEntity
  8
0
100
AcDbLine
 62
7
  6
CONTINUOUS
 10
7.5763095985
 20
3.8006759724
 11
7.5763095985
 21
3.106529104
  0
LINE
  5
3E4
100
AcDbEntity
  8
0
100
AcDbLine
 62
7
  6
CONTINUOUS
 10
7.5763095985
 20
3.0556759724
 11
7.5763095985
 21
2.5256759724
  0
LINE
  5
3E5
100
AcDbEntity
  8
0
100
AcDbLine
 62
7
  6
CONTINUOUS
 10
7.5773094021
 20
3.8506759724
 11
7.5773094021
 21
3.8006759724
  0
LINE
  5
3E6
100
AcDbEntity
  8
0
100
AcDbLine
 62
7
  6
CONTINUOUS
 10
7.5803038886
 20
2.4406759724
 11
7.5803038886
 21
2.4881759724
  0
LINE
  5
3E7
100
AcDbEntity
  8
0
100
AcDbLine
 62
7
  6
CONTINUOUS
 10
7.5803209413
 20
3.0556759724
 11
7.5803209413
 21
3.1056759724
  0
LINE
  5
3E8
100
AcDbEntity
  8
0
100
AcDbLine
 62
7
  6
CONTINUOUS
 10
7.5825821982
 20
3.0556759724
 11
7.5825821982
 21
3.1056759724
  0
LINE
  5
3E9
100
AcDbEntity
  8
0
100
AcDbLine
 62
7
  6
CONTINUOUS
 10
7.5832265723
 20
2.4881759724
 11
7.5832265723
 21
2.4406759724
  0
LINE
  5
3EA
100
AcDbEntity
  8
0
100
AcDbLine
 62
7
  6
CONTINUOUS
 10
7.5852705986
 20
3.8506759724
 11
7.5852705986
 21
3.8006759724
  0
LINE
  5
3EB
100
AcDbEntity
  8
0
100
AcDbLine
 62
7
  6
CONTINUOUS
 10
7.587238985
 20
2.3656759724
 11
7.587238985
 21
2.4056759724
  0
LINE
  5
3EC
100
AcDbEntity
  8
0
100
AcDbLine
 62
7
  6
CONTINUOUS
 10
7.5879704789
 20
3.8506759724
 11
7.5879704789
 21
3.8006759724
  0
LINE
  5
3ED
100
AcDbEntity
  8
0
100
AcDbLine
 62
7
  6
CONTINUOUS
 10
7.5880853711
 20
3.0556759724
 11
7.5880853711
 21
3.1056759724
  0
LINE
  5
3EE
100
AcDbEntity
  8
0
100
AcDbLine
 62
7
  6
CONTINUOUS
 10
7.589907445
 20
3.0556759724
 11
7.589907445
 21
3.1056759724
  0
LINE
  5
3EF
100
AcDbEntity
  8
0
100
AcDbLine
 62
7
  6
CONTINUOUS
 10
7.5919678466
 20
2.3656759724
 11
7.5919678466
 21
2.4056759724
  0
LINE
  5
3F0
100
AcDbEntity
  8
0
100
AcDbLine
 62
7
  6
CONTINUOUS
 10
7.5928513768
 20
2.4056759724
 11
7.5928513768
 21
2.3656759724
  0
LINE
  5
3F1
100
AcDbEntity
  8
0
100
AcDbLine
 62
7
  6
CONTINUOUS
 10
7.594215127
 20
3.0556759724
 11
7.594215127
 21
3.1056759724
  0
LINE
  5
3F2
100
AcDbEntity
  8
0
100
AcDbLine
 62
7
  6
CONTINUOUS
 10
7.5945842487
 20
2.4406759724
 11
7.5945842487
 21
2.4881759724
  0
LINE
  5
3F3
100
AcDbEntity
  8
0
100
AcDbLine
 62
7
  6
CONTINUOUS
 10
7.5948587807
 20
3.8506759724
 11
7.5948587807
 21
3.8006759724
  0
LINE
  5
3F4
100
AcDbEntity
  8
0
100
AcDbLine
 62
7
  6
CONTINUOUS
 10
7.5955893347
 20
3.0556759724
 11
7.5955893347
 21
3.1056759724
  0
LINE
  5
3F5
100
AcDbEntity
  8
0
100
AcDbLine
 62
7
  6
CONTINUOUS
 10
7.5971631587
 20
3.8506759724
 11
7.5971631587
 21
3.8006759724
  0
LINE
  5
3F6
100
AcDbEntity
  8
0
100
AcDbLine
 62
7
  6
CONTINUOUS
 10
7.5986809977
 20
3.0556759724
 11
7.5986809977
 21
3.1056759724
  0
LINE
  5
3F7
100
AcDbEntity
  8
0
100
AcDbLine
 62
7
  6
CONTINUOUS
 10
7.5996007907
 20
3.0556759724
 11
7.5996007907
 21
3.1056759724
  0
LINE
  5
3F8
100
AcDbEntity
  8
0
100
AcDbLine
 62
7
  6
CONTINUOUS
 10
7.5996869453
 20
2.4406759724
 11
7.5996869453
 21
2.4881759724
  0
LINE
  5
3F9
100
AcDbEntity
  8
0
100
AcDbLine
 62
7
  6
CONTINUOUS
 10
7.6014617014
 20
3.0556759724
 11
7.6014617014
 21
3.1056759724
  0
LINE
  5
3FA
100
AcDbEntity
  8
0
100
AcDbLine
 62
7
  6
CONTINUOUS
 10
7.6019226963
 20
3.0556759724
 11
7.6019226963
 21
3.1056759724
  0
LINE
  5
3FB
100
AcDbEntity
  8
0
100
AcDbLine
 62
7
  6
CONTINUOUS
 10
7.6021281157
 20
2.4881759724
 11
7.6021281157
 21
2.4406759724
  0
LINE
  5
3FC
100
AcDbEntity
  8
0
100
AcDbLine
 62
7
  6
CONTINUOUS
 10
7.6025439868
 20
3.0556759724
 11
7.6025439868
 21
3.1056759724
  0
LINE
  5
3FD
100
AcDbEntity
  8
0
100
AcDbLine
 62
7
  6
CONTINUOUS
 10
7.6029490691
 20
3.8506759724
 11
7.6029490691
 21
3.8006759724
  0
LINE
  5
3FE
100
AcDbEntity
  8
0
100
AcDbLine
 62
7
  6
CONTINUOUS
 10
7.6040121975
 20
2.3656759724
 11
7.6040121975
 21
2.4056759724
  0
LINE
  5
3FF
100
AcDbEntity
  8
0
100
AcDbLine
 62
7
  6
CONTINUOUS
 10
7.6048480769
 20
3.8506759724
 11
7.6048480769
 21
3.8006759724
  0
LINE
  5
400
100
AcDbEntity
  8
0
100
AcDbLine
 62
7
  6
CONTINUOUS
 10
7.6084737788
 20
2.3656759724
 11
7.6084737788
 21
2.4056759724
  0
LINE
  5
401
100
AcDbEntity
  8
0
100
AcDbLine
 62
7
  6
CONTINUOUS
 10
7.6087639085
 20
2.4056759724
 11
7.6087639085
 21
2.3656759724
  0
LINE
  5
402
100
AcDbEntity
  8
0
100
AcDbLine
 62
7
  6
CONTINUOUS
 10
7.6095068197
 20
3.8506759724
 11
7.6095068197
 21
3.8006759724
  0
LINE
  5
403
100
AcDbEntity
  8
0
100
AcDbLine
 62
7
  6
CONTINUOUS
 10
7.6109923257
 20
3.8506759724
 11
7.6109923257
 21
3.8006759724
  0
LINE
  5
404
100
AcDbEntity
  8
0
100
AcDbLine
 62
7
  6
CONTINUOUS
 10
7.6134757453
 20
2.4406759724
 11
7.6134757453
 21
2.4881759724
  0
LINE
  5
405
100
AcDbEntity
  8
0
100
AcDbLine
 62
7
  6
CONTINUOUS
 10
7.6145039515
 20
3.8506759724
 11
7.6145039515
 21
3.8006759724
  0
LINE
  5
406
100
AcDbEntity
  8
0
100
AcDbLine
 62
7
  6
CONTINUOUS
 10
7.6155695943
 20
3.8506759724
 11
7.6155695943
 21
3.8006759724
  0
LINE
  5
407
100
AcDbEntity
  8
0
100
AcDbLine
 62
7
  6
CONTINUOUS
 10
7.6179190658
 20
3.8506759724
 11
7.6179190658
 21
3.8006759724
  0
LINE
  5
408
100
AcDbEntity
  8
0
100
AcDbLine
 62
7
  6
CONTINUOUS
 10
7.6183949486
 20
2.4398919219
 11
7.6183949486
 21
2.4881759724
  0
LINE
  5
409
100
AcDbEntity
  8
0
100
AcDbLine
 62
7
  6
CONTINUOUS
 10
7.6185602823
 20
3.8506759724
 11
7.6185602823
 21
3.8006759724
  0
LINE
  5
40A
100
AcDbEntity
  8
0
100
AcDbLine
 62
7
  6
CONTINUOUS
 10
7.6197375386
 20
3.8506759724
 11
7.6197375386
 21
3.8006759724
  0
LINE
  5
40B
100
AcDbEntity
  8
0
100
AcDbLine
 62
7
  6
CONTINUOUS
 10
7.6198015458
 20
2.3656759724
 11
7.6198015458
 21
2.4056759724
  0
LINE
  5
40C
100
AcDbEntity
  8
0
100
AcDbLine
 62
7
  6
CONTINUOUS
 10
7.6199515829
 20
3.8506759724
 11
7.6199515829
 21
3.8006759724
  0
LINE
  5
40D
100
AcDbEntity
  8
0
100
AcDbLine
 62
7
  6
CONTINUOUS
 10
7.6203499588
 20
2.4881759724
 11
7.6203499588
 21
2.4390766515
  0
LINE
  5
40E
100
AcDbEntity
  8
0
100
AcDbLine
 62
7
  6
CONTINUOUS
 10
7.623983618
 20
2.3656759724
 11
7.623983618
 21
2.4056759724
  0
LINE
  5
40F
100
AcDbEntity
  8
0
100
AcDbLine
 62
7
  6
CONTINUOUS
 10
7.6316659407
 20
2.4381759724
 11
7.6316659407
 21
2.4881759724
  0
LINE
  5
410
100
AcDbEntity
  8
0
100
AcDbLine
 62
7
  6
CONTINUOUS
 10
7.6345637526
 20
2.3656759724
 11
7.6345637526
 21
2.4056759724
  0
LINE
  5
411
100
AcDbEntity
  8
0
100
AcDbLine
 62
7
  6
CONTINUOUS
 10
7.6363922869
 20
2.4381759724
 11
7.6363922869
 21
2.4881759724
  0
LINE
  5
412
100
AcDbEntity
  8
0
100
AcDbLine
 62
7
  6
CONTINUOUS
 10
7.6378574154
 20
2.4881759724
 11
7.6378574154
 21
2.4381759724
  0
LINE
  5
413
100
AcDbEntity
  8
0
100
AcDbLine
 62
7
  6
CONTINUOUS
 10
7.6384548528
 20
2.3656759724
 11
7.6384548528
 21
2.4056759724
  0
LINE
  5
414
100
AcDbEntity
  8
0
100
AcDbLine
 62
7
  6
CONTINUOUS
 10
7.6482583555
 20
2.3656759724
 11
7.6482583555
 21
2.4056759724
  0
LINE
  5
415
100
AcDbEntity
  8
0
100
AcDbLine
 62
7
  6
CONTINUOUS
 10
7.649120209
 20
2.4381759724
 11
7.649120209
 21
2.4881759724
  0
LINE
  5
416
100
AcDbEntity
  8
0
100
AcDbLine
 62
7
  6
CONTINUOUS
 10
7.6518478186
 20
2.3656759724
 11
7.6518478186
 21
2.4056759724
  0
LINE
  5
417
100
AcDbEntity
  8
0
100
AcDbLine
 62
7
  6
CONTINUOUS
 10
7.6536447012
 20
2.4381759724
 11
7.6536447012
 21
2.4881759724
  0
LINE
  5
418
100
AcDbEntity
  8
0
100
AcDbLine
 62
7
  6
CONTINUOUS
 10
7.6546171591
 20
2.4881759724
 11
7.6546171591
 21
2.4381759724
  0
LINE
  5
419
100
AcDbEntity
  8
0
100
AcDbLine
 62
7
  6
CONTINUOUS
 10
7.6608478186
 20
2.3656759724
 11
7.6608478186
 21
2.4056759724
  0
LINE
  5
41A
100
AcDbEntity
  8
0
100
AcDbLine
 62
7
  6
CONTINUOUS
 10
7.6641258061
 20
2.3656759724
 11
7.6641258061
 21
2.4056759724
  0
LINE
  5
41B
100
AcDbEntity
  8
0
100
AcDbLine
 62
7
  6
CONTINUOUS
 10
7.665805325
 20
2.4381759724
 11
7.665805325
 21
2.4881759724
  0
LINE
  5
41C
100
AcDbEntity
  8
0
100
AcDbLine
 62
7
  6
CONTINUOUS
 10
7.6701193505
 20
2.4381759724
 11
7.6701193505
 21
2.4881759724
  0
LINE
  5
41D
100
AcDbEntity
  8
0
100
AcDbLine
 62
7
  6
CONTINUOUS
 10
7.6705972866
 20
2.4881759724
 11
7.6705972866
 21
2.4381759724
  0
LINE
  5
41E
100
AcDbEntity
  8
0
100
AcDbLine
 62
7
  6
CONTINUOUS
 10
7.6722976351
 20
2.3656759724
 11
7.6722976351
 21
2.4056759724
  0
LINE
  5
41F
100
AcDbEntity
  8
0
100
AcDbLine
 62
7
  6
CONTINUOUS
 10
7.6752551623
 20
2.3656759724
 11
7.6752551623
 21
2.4056759724
  0
LINE
  5
420
100
AcDbEntity
  8
0
100
AcDbLine
 62
7
  6
CONTINUOUS
 10
7.6816895275
 20
2.4381759724
 11
7.6816895275
 21
2.4881759724
  0
LINE
  5
421
100
AcDbEntity
  8
0
100
AcDbLine
 62
7
  6
CONTINUOUS
 10
7.6825764219
 20
2.3656759724
 11
7.6825764219
 21
2.4056759724
  0
LINE
  5
422
100
AcDbEntity
  8
0
100
AcDbLine
 62
7
  6
CONTINUOUS
 10
7.6852053824
 20
2.3656759724
 11
7.6852053824
 21
2.4056759724
  0
LINE
  5
423
100
AcDbEntity
  8
0
100
AcDbLine
 62
7
  6
CONTINUOUS
 10
7.6857848745
 20
2.4381759724
 11
7.6857848745
 21
2.4881759724
  0
LINE
  5
424
100
AcDbEntity
  8
0
100
AcDbLine
 62
7
  6
CONTINUOUS
 10
7.6916560055
 20
2.3656759724
 11
7.6916560055
 21
2.4056759724
  0
LINE
  5
425
100
AcDbEntity
  8
0
100
AcDbLine
 62
7
  6
CONTINUOUS
 10
7.6939491934
 20
2.3656759724
 11
7.6939491934
 21
2.4056759724
  0
LINE
  5
426
100
AcDbEntity
  8
0
100
AcDbLine
 62
7
  6
CONTINUOUS
 10
7.6950595985
 20
2.3156759724
 11
7.6950595985
 21
2.3656759724
  0
LINE
  5
427
100
AcDbEntity
  8
0
100
AcDbLine
 62
7
  6
CONTINUOUS
 10
7.6967425802
 20
2.4381759724
 11
7.6967425802
 21
2.4881759724
  0
LINE
  5
428
100
AcDbEntity
  8
0
100
AcDbLine
 62
7
  6
CONTINUOUS
 10
7.6995114993
 20
2.3656759724
 11
7.6995114993
 21
2.4056759724
  0
LINE
  5
429
100
AcDbEntity
  8
0
100
AcDbLine
 62
7
  6
CONTINUOUS
 10
7.7006114528
 20
2.4381759724
 11
7.7006114528
 21
2.4881759724
  0
LINE
  5
42A
100
AcDbEntity
  8
0
100
AcDbLine
 62
7
  6
CONTINUOUS
 10
7.7014626293
 20
2.3656759724
 11
7.7014626293
 21
2.4056759724
  0
LINE
  5
42B
100
AcDbEntity
  8
0
100
AcDbLine
 62
7
  6
CONTINUOUS
 10
7.7061213721
 20
2.3656759724
 11
7.7061213721
 21
2.4056759724
  0
LINE
  5
42C
100
AcDbEntity
  8
0
100
AcDbLine
 62
7
  6
CONTINUOUS
 10
7.7077250962
 20
2.3656759724
 11
7.7077250962
 21
2.4056759724
  0
LINE
  5
42D
100
AcDbEntity
  8
0
100
AcDbLine
 62
7
  6
CONTINUOUS
 10
7.7109358286
 20
2.4381759724
 11
7.7109358286
 21
2.4881759724
  0
LINE
  5
42E
100
AcDbEntity
  8
0
100
AcDbLine
 62
7
  6
CONTINUOUS
 10
7.7114675066
 20
2.3656759724
 11
7.7114675066
 21
2.4056759724
  0
LINE
  5
42F
100
AcDbEntity
  8
0
100
AcDbLine
 62
7
  6
CONTINUOUS
 10
7.7127194291
 20
2.3656759724
 11
7.7127194291
 21
2.4056759724
  0
LINE
  5
430
100
AcDbEntity
  8
0
100
AcDbLine
 62
7
  6
CONTINUOUS
 10
7.7145708622
 20
2.4381759724
 11
7.7145708622
 21
2.4881759724
  0
LINE
  5
431
100
AcDbEntity
  8
0
100
AcDbLine
 62
7
  6
CONTINUOUS
 10
7.7155352495
 20
2.3656759724
 11
7.7155352495
 21
2.4056759724
  0
LINE
  5
432
100
AcDbEntity
  8
0
100
AcDbLine
 62
7
  6
CONTINUOUS
 10
7.7164319389
 20
2.3656759724
 11
7.7164319389
 21
2.4056759724
  0
LINE
  5
433
100
AcDbEntity
  8
0
100
AcDbLine
 62
7
  6
CONTINUOUS
 10
7.7183134513
 20
2.3656759724
 11
7.7183134513
 21
2.4056759724
  0
LINE
  5
434
100
AcDbEntity
  8
0
100
AcDbLine
 62
7
  6
CONTINUOUS
 10
7.7188524499
 20
2.3656759724
 11
7.7188524499
 21
2.4056759724
  0
LINE
  5
435
100
AcDbEntity
  8
0
100
AcDbLine
 62
7
  6
CONTINUOUS
 10
7.7197944972
 20
2.3656759724
 11
7.7197944972
 21
2.4056759724
  0
LINE
  5
436
100
AcDbEntity
  8
0
100
AcDbLine
 62
7
  6
CONTINUOUS
 10
7.7199743277
 20
2.3656759724
 11
7.7199743277
 21
2.4056759724
  0
LINE
  5
437
100
AcDbEntity
  8
0
100
AcDbLine
 62
7
  6
CONTINUOUS
 10
7.7200595985
 20
2.2506759724
 11
7.7200595985
 21
2.2906759724
  0
LINE
  5
438
100
AcDbEntity
  8
0
100
AcDbLine
 62
7
  6
CONTINUOUS
 10
7.7242422552
 20
2.4381759724
 11
7.7242422552
 21
2.4881759724
  0
LINE
  5
439
100
AcDbEntity
  8
0
100
AcDbLine
 62
7
  6
CONTINUOUS
 10
7.7276365303
 20
2.4381759724
 11
7.7276365303
 21
2.4881759724
  0
LINE
  5
43A
100
AcDbEntity
  8
0
100
AcDbLine
 62
7
  6
CONTINUOUS
 10
7.7366365303
 20
2.4381759724
 11
7.7366365303
 21
2.4881759724
  0
LINE
  5
43B
100
AcDbEntity
  8
0
100
AcDbLine
 62
7
  6
CONTINUOUS
 10
7.7397835858
 20
2.4381759724
 11
7.7397835858
 21
2.4881759724
  0
LINE
  5
43C
100
AcDbEntity
  8
0
100
AcDbLine
 62
7
  6
CONTINUOUS
 10
7.7480950608
 20
2.4381759724
 11
7.7480950608
 21
2.4881759724
  0
LINE
  5
43D
100
AcDbEntity
  8
0
100
AcDbLine
 62
7
  6
CONTINUOUS
 10
7.750988906
 20
2.4381759724
 11
7.750988906
 21
2.4881759724
  0
LINE
  5
43E
100
AcDbEntity
  8
0
100
AcDbLine
 62
7
  6
CONTINUOUS
 10
7.7585960347
 20
2.4381759724
 11
7.7585960347
 21
2.4881759724
  0
LINE
  5
43F
100
AcDbEntity
  8
0
100
AcDbLine
 62
7
  6
CONTINUOUS
 10
7.7612311611
 20
2.4381759724
 11
7.7612311611
 21
2.4881759724
  0
LINE
  5
440
100
AcDbEntity
  8
0
100
AcDbLine
 62
7
  6
CONTINUOUS
 10
7.7681194628
 20
2.4381759724
 11
7.7681194628
 21
2.4881759724
  0
LINE
  5
441
100
AcDbEntity
  8
0
100
AcDbLine
 62
7
  6
CONTINUOUS
 10
7.7704908542
 20
2.4381759724
 11
7.7704908542
 21
2.4881759724
  0
LINE
  5
442
100
AcDbEntity
  8
0
100
AcDbLine
 62
7
  6
CONTINUOUS
 10
7.7766472168
 20
2.4381759724
 11
7.7766472168
 21
2.4881759724
  0
LINE
  5
443
100
AcDbEntity
  8
0
100
AcDbLine
 62
7
  6
CONTINUOUS
 10
7.7787503591
 20
2.4381759724
 11
7.7787503591
 21
2.4881759724
  0
LINE
  5
444
100
AcDbEntity
  8
0
100
AcDbLine
 62
7
  6
CONTINUOUS
 10
7.7825595985
 20
2.3256759724
 11
7.7825595985
 21
2.4381759724
  0
LINE
  5
445
100
AcDbEntity
  8
0
100
AcDbLine
 62
7
  6
CONTINUOUS
 10
7.7841630635
 20
2.4381759724
 11
7.7841630635
 21
2.4881759724
  0
LINE
  5
446
100
AcDbEntity
  8
0
100
AcDbLine
 62
7
  6
CONTINUOUS
 10
7.7859939533
 20
2.4381759724
 11
7.7859939533
 21
2.4881759724
  0
LINE
  5
447
100
AcDbEntity
  8
0
100
AcDbLine
 62
7
  6
CONTINUOUS
 10
7.7906526961
 20
2.4381759724
 11
7.7906526961
 21
2.4881759724
  0
LINE
  5
448
100
AcDbEntity
  8
0
100
AcDbLine
 62
7
  6
CONTINUOUS
 10
7.7922078482
 20
2.4381759724
 11
7.7922078482
 21
2.4881759724
  0
LINE
  5
449
100
AcDbEntity
  8
0
100
AcDbLine
 62
7
  6
CONTINUOUS
 10
7.7961037612
 20
2.4381759724
 11
7.7961037612
 21
2.4881759724
  0
LINE
  5
44A
100
AcDbEntity
  8
0
100
AcDbLine
 62
7
  6
CONTINUOUS
 10
7.7973802153
 20
2.4381759724
 11
7.7973802153
 21
2.4881759724
  0
LINE
  5
44B
100
AcDbEntity
  8
0
100
AcDbLine
 62
7
  6
CONTINUOUS
 10
7.8005058825
 20
2.4381759724
 11
7.8005058825
 21
2.4881759724
  0
LINE
  5
44C
100
AcDbEntity
  8
0
100
AcDbLine
 62
7
  6
CONTINUOUS
 10
7.8015012087
 20
2.4381759724
 11
7.8015012087
 21
2.4881759724
  0
LINE
  5
44D
100
AcDbEntity
  8
0
100
AcDbLine
 62
7
  6
CONTINUOUS
 10
7.8038506801
 20
2.4381759724
 11
7.8038506801
 21
2.4881759724
  0
LINE
  5
44E
100
AcDbEntity
  8
0
100
AcDbLine
 62
7
  6
CONTINUOUS
 10
7.8045629839
 20
2.4381759724
 11
7.8045629839
 21
2.4881759724
  0
LINE
  5
44F
100
AcDbEntity
  8
0
100
AcDbLine
 62
7
  6
CONTINUOUS
 10
7.8061317872
 20
2.4381759724
 11
7.8061317872
 21
2.4881759724
  0
LINE
  5
450
100
AcDbEntity
  8
0
100
AcDbLine
 62
7
  6
CONTINUOUS
 10
7.8065597126
 20
2.4381759724
 11
7.8065597126
 21
2.4881759724
  0
LINE
  5
451
100
AcDbEntity
  8
0
100
AcDbLine
 62
7
  6
CONTINUOUS
 10
7.8073448615
 20
2.4381759724
 11
7.8073448615
 21
2.4881759724
  0
LINE
  5
452
100
AcDbEntity
  8
0
100
AcDbLine
 62
7
  6
CONTINUOUS
 10
7.8074875939
 20
2.4381759724
 11
7.8074875939
 21
2.4881759724
  0
LINE
  5
453
100
AcDbEntity
  8
0
100
AcDbLine
 62
7
  6
CONTINUOUS
 10
7.8075595985
 20
2.2506759724
 11
7.8075595985
 21
2.3006759724
  0
LINE
  5
454
100
AcDbEntity
  8
0
100
AcDbLine
 62
7
  6
CONTINUOUS
 10
6.4950595985
 20
7.0994259724
 11
3.8700595985
 21
7.0994259724
  0
LINE
  5
455
100
AcDbEntity
  8
0
100
AcDbLine
 62
7
  6
CONTINUOUS
 10
6.6825595985
 20
2.3006759724
 11
6.7075595985
 21
2.3256759724
  0
LINE
  5
456
100
AcDbEntity
  8
0
100
AcDbLine
 62
7
  6
CONTINUOUS
 10
6.7700595985
 20
2.2906759724
 11
6.7950595985
 21
2.3156759724
  0
ARC
  5
457
100
AcDbEntity
  8
0
100
AcDbCircle
 62
7
  6
CONTINUOUS
 10
3.8700595985
 20
6.1306759724
 40
0.96875
100
AcDbArc
 50
90.0
 51
180.0
  0
ARC
  5
458
100
AcDbEntity
  8
0
100
AcDbCircle
 62
7
  6
CONTINUOUS
 10
3.8700595985
 20
6.1306759724
 40
0.53125
100
AcDbArc
 50
90.0
 51
180.0
  0
ARC
  5
459
100
AcDbEntity
  8
0
100
AcDbCircle
 62
7
  6
CONTINUOUS
 10
6.7278973067
 20
2.5381759724
 40
0.05
100
AcDbArc
 50
271.9688181973
 51
334.9710005124
  0
ARC
  5
45A
100
AcDbEntity
  8
0
100
AcDbCircle
 62
7
  6
CONTINUOUS
 10
6.8288095985
 20
2.4406759724
 40
0.035
100
AcDbArc
 50
272.1982544508
 51
342.5423968763
  0
ARC
  5
45B
100
AcDbEntity
  8
0
100
AcDbCircle
 62
7
  6
CONTINUOUS
 10
7.0158986612
 20
3.1531759724
 40
0.015
100
AcDbArc
 50
90.0
 51
146.3876254015
  0
ARC
  5
45C
100
AcDbEntity
  8
0
100
AcDbCircle
 62
7
  6
CONTINUOUS
 10
7.0300595985
 20
3.1831759724
 40
0.015
100
AcDbArc
 50
270.0
 51
360.0
  0
ARC
  5
45D
100
AcDbEntity
  8
0
100
AcDbCircle
 62
7
  6
CONTINUOUS
 10
6.8765065586
 20
2.4256759724
 40
0.015
100
AcDbArc
 50
90.0
 51
162.5423968763
  0
ARC
  5
45E
100
AcDbEntity
  8
0
100
AcDbCircle
 62
7
  6
CONTINUOUS
 10
6.7867934016
 20
2.5106759724
 40
0.015
100
AcDbArc
 50
90.0
 51
154.9710005124
  0
ARC
  5
45F
100
AcDbEntity
  8
0
100
AcDbCircle
 62
7
  6
CONTINUOUS
 10
6.899306423
 20
3.2306759724
 40
0.125
100
AcDbArc
 50
271.9995201783
 51
326.3876254015
  0
ARC
  5
460
100
AcDbEntity
  8
0
100
AcDbCircle
 62
7
  6
CONTINUOUS
 10
6.8898586012
 20
3.9256759724
 40
0.075
100
AcDbArc
 50
272.3645578217
 51
342.208409427
  0
ARC
  5
461
100
AcDbEntity
  8
0
100
AcDbCircle
 62
7
  6
CONTINUOUS
 10
7.0913095985
 20
3.3886759724
 40
0.03
100
AcDbArc
 50
90.0
 51
262.8192442185
  0
ARC
  5
462
100
AcDbEntity
  8
0
100
AcDbCircle
 62
7
  6
CONTINUOUS
 10
7.0600595985
 20
3.2281759724
 40
0.015
100
AcDbArc
 50
90.0
 51
180.0
  0
ARC
  5
463
100
AcDbEntity
  8
0
100
AcDbCircle
 62
7
  6
CONTINUOUS
 10
6.9755542837
 20
3.8981759724
 40
0.015
100
AcDbArc
 50
90.0
 51
162.208409427
  0
ARC
  5
464
100
AcDbEntity
  8
0
100
AcDbCircle
 62
7
  6
CONTINUOUS
 10
6.9800595985
 20
3.9281759724
 40
0.015
100
AcDbArc
 50
270.0
 51
360.0
  0
ARC
  5
465
100
AcDbEntity
  8
0
100
AcDbCircle
 62
7
  6
CONTINUOUS
 10
7.0100595985
 20
3.9731759724
 40
0.015
100
AcDbArc
 50
90.0
 51
180.0
  0
ARC
  5
466
100
AcDbEntity
  8
0
100
AcDbCircle
 62
7
  6
CONTINUOUS
 10
7.1375595985
 20
3.4286759724
 40
0.01
100
AcDbArc
 50
270.0
 51
360.0
  0
ARC
  5
467
100
AcDbEntity
  8
0
100
AcDbCircle
 62
7
  6
CONTINUOUS
 10
7.0863095985
 20
3.3489897027
 40
0.01
100
AcDbArc
 50
0.0
 51
82.8192442185
  0
ARC
  5
468
100
AcDbEntity
  8
0
100
AcDbCircle
 62
7
  6
CONTINUOUS
 10
7.7622218903
 20
2.5381759724
 40
0.05
100
AcDbArc
 50
205.0289994876
 51
268.0311818027
  0
ARC
  5
469
100
AcDbEntity
  8
0
100
AcDbCircle
 62
7
  6
CONTINUOUS
 10
7.6613095985
 20
2.4406759724
 40
0.035
100
AcDbArc
 50
197.4576031237
 51
267.8017455492
  0
ARC
  5
46A
100
AcDbEntity
  8
0
100
AcDbCircle
 62
7
  6
CONTINUOUS
 10
7.4742205358
 20
3.1531759724
 40
0.015
100
AcDbArc
 50
33.6123745985
 51
90.0
  0
ARC
  5
46B
100
AcDbEntity
  8
0
100
AcDbCircle
 62
7
  6
CONTINUOUS
 10
7.4600595985
 20
3.1831759724
 40
0.015
100
AcDbArc
 50
180.0
 51
270.0
  0
ARC
  5
46C
100
AcDbEntity
  8
0
100
AcDbCircle
 62
7
  6
CONTINUOUS
 10
7.6136126384
 20
2.4256759724
 40
0.015
100
AcDbArc
 50
17.4576031237
 51
90.0
  0
ARC
  5
46D
100
AcDbEntity
  8
0
100
AcDbCircle
 62
7
  6
CONTINUOUS
 10
7.7033257954
 20
2.5106759724
 40
0.015
100
AcDbArc
 50
25.0289994876
 51
90.0
  0
CIRCLE
  5
46E
100
AcDbEntity
  8
0
100
AcDbCircle
 62
7
  6
CONTINUOUS
 10
7.2450595985
 20
3.6161759724
 40
0.19125
  0
CIRCLE
  5
46F
100
AcDbEntity
  8
0
100
AcDbCircle
 62
7
  6
CONTINUOUS
 10
7.2450595985
 20
3.6161759724
 40
0.16125
  0
ARC
  5
470
100
AcDbEntity
  8
0
100
AcDbCircle
 62
7
  6
CONTINUOUS
 10
7.590812774
 20
3.2306759724
 40
0.125
100
AcDbArc
 50
213.6123745985
 51
268.4336770722
  0
ARC
  5
471
100
AcDbEntity
  8
0
100
AcDbCircle
 62
7
  6
CONTINUOUS
 10
7.6002605958
 20
3.9256759724
 40
0.075
100
AcDbArc
 50
197.791590573
 51
267.6354421783
  0
ARC
  5
472
100
AcDbEntity
  8
0
100
AcDbCircle
 62
7
  6
CONTINUOUS
 10
7.3988095985
 20
3.3886759724
 40
0.03
100
AcDbArc
 50
277.1807557815
 51
90.0
  0
ARC
  5
473
100
AcDbEntity
  8
0
100
AcDbCircle
 62
7
  6
CONTINUOUS
 10
7.4300595985
 20
3.2281759724
 40
0.015
100
AcDbArc
 50
0.0
 51
90.0
  0
ARC
  5
474
100
AcDbEntity
  8
0
100
AcDbCircle
 62
7
  6
CONTINUOUS
 10
7.5145649133
 20
3.8981759724
 40
0.015
100
AcDbArc
 50
17.791590573
 51
90.0
  0
ARC
  5
475
100
AcDbEntity
  8
0
100
AcDbCircle
 62
7
  6
CONTINUOUS
 10
7.5100595985
 20
3.9281759724
 40
0.015
100
AcDbArc
 50
180.0
 51
270.0
  0
ARC
  5
476
100
AcDbEntity
  8
0
100
AcDbCircle
 62
7
  6
CONTINUOUS
 10
7.4800595985
 20
3.9731759724
 40
0.015
100
AcDbArc
 50
0.0
 51
90.0
  0
ARC
  5
477
100
AcDbEntity
  8
0
100
AcDbCircle
 62
7
  6
CONTINUOUS
 10
7.3525595985
 20
3.4286759724
 40
0.01
100
AcDbArc
 50
180.0
 51
270.0
  0
ARC
  5
478
100
AcDbEntity
  8
0
100
AcDbCircle
 62
7
  6
CONTINUOUS
 10
7.4038095985
 20
3.3489897027
 40
0.01
100
AcDbArc
 50
97.1807557814
 51
180.0
  0
ARC
  5
479
100
AcDbEntity
  8
0
100
AcDbCircle
 62
7
  6
CONTINUOUS
 10
6.4950595985
 20
6.1306759724
 40
0.96875
100
AcDbArc
 50
0.0
 51
90.0
  0
ARC
  5
47A
100
AcDbEntity
  8
0
100
AcDbCircle
 62
7
  6
CONTINUOUS
 10
6.4950595985
 20
6.1306759724
 40
0.53125
100
AcDbArc
 50
0.0
 51
90.0
  0
ENDSEC
  0
SECTION
  2
OBJECTS
  0
DICTIONARY
  5
C
100
AcDbDictionary
280
0
281
1
  3
ACAD_GROUP
350
D
  3
ACAD_MLINESTYLE
350
17
  3
ACAD_LAYOUT
350
1A
  3
ACAD_PLOTSETTINGS
350
19
  3
ACAD_PLOTSTYLENAME
350
E
  0
DICTIONARY
  5
D
102
{ACAD_REACTORS
330
C
102
}
100
AcDbDictionary
280
0
281
1
  0
ACDBDICTIONARYWDFLT
  5
E
102
{ACAD_REACTORS
330
C
102
}
100
AcDbDictionary
281
1
  3
Normal
350
F
100
AcDbDictionaryWithDefault
340
F
  0
DICTIONARY
  5
17
102
{ACAD_REACTORS
330
C
102
}
100
AcDbDictionary
280
0
281
1
  3
Standard
350
18
  0
DICTIONARY
  5
19
102
{ACAD_REACTORS
330
C
102
}
100
AcDbDictionary
281
1
  0
DICTIONARY
  5
1A
102
{ACAD_REACTORS
330
C
102
}
100
AcDbDictionary
281
1
  3
Model
350
47B
  3
Layout1
350
47C
  0
ACDBPLACEHOLDER
  5
F
102
{ACAD_REACTORS
330
E
102
}
  0
MLINESTYLE
  5
18
102
{ACAD_REACTORS
330
17
102
}
100
AcDbMlineStyle
  2
STANDARD
 70
0
  3

 62
256
 51
90.0
 52
90.0
 71
2
 49
0.5
 62
256
  6
BYLAYER
 49
-0.5
 62
256
  6
BYLAYER
  0
LAYOUT
  5
47B
102
{ACAD_REACTORS
330
1A
102
}
100
AcDbPlotSettings
  1

  2
none_device
  4
ANSI_A_(11.00_x_8.50_Inches)
  6

 40
0.0
 41
0.0
 42
0.0
 43
0.0
 44
279.4
 45
215.9
 46
0.0
 47
0.0
 48
0.0
 49
0.0
140
0.0
141
0.0
142
1.0
143
1.0
 70
1024
 72
0
 73
0
 74
0
  7

 75
0
147
1.0
148
0.0
149
0.0
100
AcDbLayout
  1
Model
 70
0
 71
0
 10
0.0
 20
0.0
 11
11.0
 21
8.5
 12
0.0
 22
0.0
 32
0.0
 14
0.0
 24
0.0
 34
0.0
 15
0.0
 25
0.0
 35
0.0
146
0.0
 13
0.0
 23
0.0
 33
0.0
 16
1.0
 26
0.0
 36
0.0
 17
0.0
 27
1.0
 37
0.0
 76
0
330
202
345
0
346
0
  0
LAYOUT
  5
47C
102
{ACAD_REACTORS
330
1A
102
}
100
AcDbPlotSettings
  1

  2
none_device
  4
ANSI_A_(11.00_x_8.50_Inches)
  6

 40
0.0
 41
0.0
 42
0.0
 43
0.0
 44
279.4
 45
215.9
 46
0.0
 47
0.0
 48
0.0
 49
0.0
140
0.0
141
0.0
142
1.0
143
1.0
 70
0
 72
0
 73
0
 74
0
  7

 75
0
147
1.0
148
0.0
149
0.0
100
AcDbLayout
  1
Layout1
 70
0
 71
1
 10
0.0
 20
0.0
 11
11.0
 21
8.5
 12
0.0
 22
0.0
 32
0.0
 14
0.0
 24
0.0
 34
0.0
 15
0.0
 25
0.0
 35
0.0
146
0.0
 13
0.0
 23
0.0
 33
0.0
 16
1.0
 26
0.0
 36
0.0
 17
0.0
 27
1.0
 37
0.0
 76
0
330
203
345
0
346
0
  0
ENDSEC
  0
EOF
