999
DXF file: 3-2946_top.dxf
999
Pro/ENGINEER 2019352 by Parametric Technology Corporation
  0
SECTION
  2
HEADER
  9
$ACADVER
  1
AC1032
  9
$DWGCODEPAGE
  3
ANSI_1252
  9
$EXTMAX
 10
11.0
 20
8.5
 30
0.0
  9
$EXTMIN
 10
0.0
 20
0.0
 30
0.0
  9
$LIMMIN
 10
0.0
 20
0.0
  9
$LIMMAX
 10
11.0
 20
8.5
  9
$VIEWCTR
 10
5.5
 20
4.25
  9
$VIEWSIZE
 40
8.5
  9
$CLAYER
  8
0
  9
$LTSCALE
 40
0.605
  9
$CELTYPE
  6
BYLAYER
  9
$DIMSCALE
 40
1.0
  9
$DIMASZ
 40
0.1
  9
$DIMEXO
 40
0.0625
  9
$DIMDLI
 40
0.418
  9
$DIMEXE
 40
0.125
  9
$DIMCEN
 40
0.099
  9
$DIMLFAC
 40
1.0
  9
$DIMBLK
  1
_FILLED
  9
$DIMALT
 70
1
  9
$DIMALTD
 70
2
  9
$DIMALTTD
 70
2
  9
$DIMALTF
 40
25.4
  9
$DIMTXT
 40
0.08
  9
$DIMTOL
 70
1
  9
$DIMLIM
 70
0
  9
$DIMTFAC
 40
1.0
  9
$DIMTP
 40
0.001
  9
$DIMTM
 40
0.001
  9
$DIMGAP
 40
0.09
  9
$DIMDSEP
 70
46
  9
$AUNITS
 70
0
  9
$PDMODE
 70
3
  9
$PDSIZE
 40
0.3125
  9
$HANDSEED
  5
830
  9
$TILEMODE
 70
1
  9
$MEASUREMENT
 70
0
  9
$INSUNITS
 70
1
  0
ENDSEC
  0
SECTION
  2
CLASSES
  0
CLASS
  1
ACDBDICTIONARYWDFLT
  2
AcDbDictionaryWithDefault
  3
AutoCAD 2000
 90
0
 91
1
280
0
281
0
  0
CLASS
  1
ACDBPLACEHOLDER
  2
AcDbPlaceHolder
  3
AutoCAD 2000
 90
0
 91
1
280
0
281
0
  0
CLASS
  1
LAYOUT
  2
AcDbLayout
  3
AutoCAD 2000
 90
0
 91
0
280
0
281
0
  0
ENDSEC
  0
SECTION
  2
TABLES
  0
TABLE
  2
VPORT
  5
8
100
AcDbSymbolTable
 70
2
  0
VPORT
  5
1F4
100
AcDbSymbolTableRecord
100
AcDbViewportTableRecord
  2
*ACTIVE
 70
0
 10
0.0
 20
0.0
 11
1.0
 21
1.0
 12
5.5
 22
4.25
 13
0.0
 23
0.0
 14
1.0
 24
1.0
 15
0.0
 25
0.0
 16
0.0
 26
0.0
 36
1.0
 17
0.0
 27
0.0
 37
0.0
 40
8.5
 41
1.2941176471
 42
50.0
 43
0.0
 44
0.0
 50
0.0
 51
0.0
 71
0
 72
100
 73
1
 74
1
 75
0
 76
0
 77
0
 78
0
  0
ENDTAB
  0
TABLE
  2
LTYPE
  5
5
100
AcDbSymbolTable
 70
6
  0
LTYPE
  5
14
100
AcDbSymbolTableRecord
100
AcDbLinetypeTableRecord
  2
BYBLOCK
 70
0
  3

 72
65
 73
0
 40
0.0
  0
LTYPE
  5
15
100
AcDbSymbolTableRecord
100
AcDbLinetypeTableRecord
  2
BYLAYER
 70
0
  3

 72
65
 73
0
 40
0.0
  0
LTYPE
  5
16
100
AcDbSymbolTableRecord
100
AcDbLinetypeTableRecord
  2
CONTINUOUS
 70
64
  3
Solid line
 72
65
 73
0
 40
0.0
  0
LTYPE
  5
1F5
100
AcDbSymbolTableRecord
100
AcDbLinetypeTableRecord
  2
CENTER
 70
64
  3
____ _ ____ _ ____ _ ____ _ ____ _ ____ _ ____
 72
65
 73
4
 40
0.6
 49
0.375
 74
0
 49
-0.075
 74
0
 49
0.075
 74
0
 49
-0.075
 74
0
  0
LTYPE
  5
1F6
100
AcDbSymbolTableRecord
100
AcDbLinetypeTableRecord
  2
HIDDEN
 70
64
  3
- - - - - - - - - - - - - - - - - - - -
 72
65
 73
2
 40
0.2
 49
0.1
 74
0
 49
-0.1
 74
0
  0
LTYPE
  5
1F7
100
AcDbSymbolTableRecord
100
AcDbLinetypeTableRecord
  2
PHANTOM
 70
64
  3
_____ _ _ _____ _ _ _____ _ _ _____
 72
65
 73
6
 40
0.8
 49
0.45
 74
0
 49
-0.05
 74
0
 49
0.1
 74
0
 49
-0.05
 74
0
 49
0.1
 74
0
 49
-0.05
 74
0
  0
LTYPE
  5
1F8
100
AcDbSymbolTableRecord
100
AcDbLinetypeTableRecord
  2
DOT
 70
64
  3
. . . . . . . . . . . . . . . . . . . .
 72
65
 73
2
 40
0.2
 49
0.1
 74
0
 49
-0.1
 74
0
  0
LTYPE
  5
1F9
100
AcDbSymbolTableRecord
100
AcDbLinetypeTableRecord
  2
DASHED
 70
64
  3
- - - - - - - - - - - - - - - - - - - -
 72
65
 73
2
 40
0.2
 49
0.1
 74
0
 49
-0.1
 74
0
  0
ENDTAB
  0
TABLE
  2
LAYER
  5
2
100
AcDbSymbolTable
 70
36
  0
LAYER
  5
10
100
AcDbSymbolTableRecord
100
AcDbLayerTableRecord
  2
0
 70
0
 62
7
  6
CONTINUOUS
370
-3
390
F
  0
LAYER
  5
1FA
100
AcDbSymbolTableRecord
100
AcDbLayerTableRecord
  2
DEFAULT_1
 70
0
 62
7
  6
CENTER
370
-3
390
F
  0
LAYER
  5
1FB
100
AcDbSymbolTableRecord
100
AcDbLayerTableRecord
  2
DEFAULT_2
 70
0
 62
8
  6
HIDDEN
370
-3
390
F
  0
LAYER
  5
1FC
100
AcDbSymbolTableRecord
100
AcDbLayerTableRecord
  2
DEFAULT_3
 70
0
 62
7
  6
PHANTOM
370
-3
390
F
  0
LAYER
  5
1FD
100
AcDbSymbolTableRecord
100
AcDbLayerTableRecord
  2
DEFAULT_COORDINATE_SYSTEM
 70
0
 62
7
  6
CONTINUOUS
370
-3
390
F
  0
LAYER
  5
1FE
100
AcDbSymbolTableRecord
100
AcDbLayerTableRecord
  2
DEFAULT_DATUM_AXES
 70
0
 62
7
  6
CONTINUOUS
370
-3
390
F
  0
LAYER
  5
1FF
100
AcDbSymbolTableRecord
100
AcDbLayerTableRecord
  2
DEFAULT_DATUM_PLANES
 70
0
 62
7
  6
CONTINUOUS
370
-3
390
F
  0
ENDTAB
  0
TABLE
  2
STYLE
  5
3
100
AcDbSymbolTable
 70
1
  0
STYLE
  5
11
100
AcDbSymbolTableRecord
100
AcDbTextStyleTableRecord
  2
STANDARD
 70
0
 40
0.0
 41
0.8
 50
0.0
 71
0
 42
0.2
  3
txt
  4

  0
STYLE
  5
200
100
AcDbSymbolTableRecord
100
AcDbTextStyleTableRecord
  2
TEXTSTYLE_1
 70
0
 40
0.0
 41
0.8
 50
0.0
 71
0
 42
0.2
  3
gdt
  4

  0
ENDTAB
  0
TABLE
  2
VIEW
  5
6
100
AcDbSymbolTable
 70
0
  0
ENDTAB
  0
TABLE
  2
UCS
  5
7
100
AcDbSymbolTable
 70
0
  0
ENDTAB
  0
TABLE
  2
APPID
  5
9
100
AcDbSymbolTable
 70
1
  0
APPID
  5
201
100
AcDbSymbolTableRecord
100
AcDbRegAppTableRecord
  2
ACAD
 70
0
  0
ENDTAB
  0
TABLE
  2
BLOCK_RECORD
  5
1
100
AcDbSymbolTable
 70
0
  0
BLOCK_RECORD
  5
202
100
AcDbSymbolTableRecord
100
AcDbBlockTableRecord
  2
*Model_Space
  0
BLOCK_RECORD
  5
203
100
AcDbSymbolTableRecord
100
AcDbBlockTableRecord
  2
*Paper_Space
  0
BLOCK_RECORD
  5
204
100
AcDbSymbolTableRecord
100
AcDbBlockTableRecord
  2
_FILLED
  0
ENDTAB
  0
TABLE
  2
DIMSTYLE
  5
A
100
AcDbSymbolTable
 70
1
100
AcDbDimStyleTable
 71
0
  0
DIMSTYLE
105
205
100
AcDbSymbolTableRecord
100
AcDbDimStyleTableRecord
  2
STANDARD
 70
0
  3

  4

 40
1.0
 41
0.1
 42
0.0625
 43
0.38
 44
0.125
 45
0.0
 46
0.0
 47
0.001
 48
0.001
140
0.08
141
0.09
142
0.0
143
25.4
144
1.0
145
0.0
146
1.0
147
0.09
 71
1.0
 72
0.0
 73
1
 74
1
 75
0
 76
0
 77
0
 78
4
 79
1
170
1
171
2
172
0
173
0
174
0
175
0
176
0
177
0
178
0
270
2
179
3
271
3
272
3
273
2
274
2
275
0
280
0
281
0
282
0
283
1
284
4
285
0
286
0
287
3
288
0
340
11
278
46
341
204
342
204
343
204
344
204
  0
ENDTAB
  0
ENDSEC
  0
SECTION
  2
BLOCKS
  0
BLOCK
  5
20
100
AcDbEntity
  8
0
100
AcDbBlockBegin
  2
*Model_Space
 70
0
 10
0.0
 20
0.0
 30
0.0
  3
*Model_Space
  1

  0
ENDBLK
  5
21
100
AcDbEntity
  8
0
100
AcDbBlockEnd
  0
BLOCK
  5
1C
100
AcDbEntity
  8
0
100
AcDbBlockBegin
  2
*Paper_Space
 70
0
 10
0.0
 20
0.0
 30
0.0
  3
*Paper_Space
  1

  0
ENDBLK
  5
1D
100
AcDbEntity
  8
0
100
AcDbBlockEnd
  0
BLOCK
  5
206
100
AcDbEntity
  8
0
100
AcDbBlockBegin
  2
_FILLED
 70
64
 10
0.0
 20
0.0
  3
_FILLED
  1

  0
SOLID
  5
207
100
AcDbEntity
  8
0
  6
BYBLOCK
 62
0
100
AcDbTrace
 10
0.0
 20
0.0
 11
-1.0
 21
0.2
 12
-1.0
 22
-0.2
 13
-1.0
 23
-0.2
  0
ENDBLK
  5
208
100
AcDbEntity
  8
0
  6
BYBLOCK
 62
0
100
AcDbBlockEnd
  0
ENDSEC
  0
SECTION
  2
ENTITIES
  0
MTEXT
  5
209
100
AcDbEntity
  8
0
100
AcDbMText
 62
2
  6
CONTINUOUS
  7
STANDARD
 71
3
 72
1
 10
5.7503724906
 20
1.2418883312
 30
0.0
 11
1.0
 21
0.0
 31
0.0
 73
2
 44
0.9
  1
SCALE 0.500
 40
0.08
 41
0.704
  0
LINE
  5
20A
100
AcDbEntity
  8
0
100
AcDbLine
 62
7
  6
CONTINUOUS
 10
0.0
 20
0.0
 11
0.0
 21
8.5
  0
LINE
  5
20B
100
AcDbEntity
  8
0
100
AcDbLine
 62
7
  6
CONTINUOUS
 10
0.0
 20
0.0
 11
11.0
 21
0.0
  0
LINE
  5
20C
100
AcDbEntity
  8
0
100
AcDbLine
 62
7
  6
CONTINUOUS
 10
0.0
 20
8.5
 11
11.0
 21
8.5
  0
LINE
  5
20D
100
AcDbEntity
  8
0
100
AcDbLine
 62
7
  6
CONTINUOUS
 10
11.0
 20
0.0
 11
11.0
 21
8.5
  0
LINE
  5
20E
100
AcDbEntity
  8
0
100
AcDbLine
 62
7
  6
CONTINUOUS
 10
1.5519345985
 20
6.4044261688
 11
1.5519345985
 21
6.726925776
  0
LINE
  5
20F
100
AcDbEntity
  8
0
100
AcDbLine
 62
7
  6
CONTINUOUS
 10
1.6119345985
 20
6.4044261688
 11
1.6119345985
 21
6.726925776
  0
LINE
  5
210
100
AcDbEntity
  8
0
100
AcDbLine
 62
7
  6
CONTINUOUS
 10
3.1419670446
 20
6.9826670257
 11
3.146846882
 21
6.992914009
  0
LINE
  5
211
100
AcDbEntity
  8
0
100
AcDbLine
 62
7
  6
CONTINUOUS
 10
3.1640818495
 20
6.9932152466
 11
3.1694912849
 21
7.0031927958
  0
LINE
  5
212
100
AcDbEntity
  8
0
100
AcDbLine
 62
7
  6
CONTINUOUS
 10
3.1867183981
 20
7.002591612
 11
3.1926426046
 21
7.0122723794
  0
LINE
  5
213
100
AcDbEntity
  8
0
100
AcDbLine
 62
7
  6
CONTINUOUS
 10
3.235820814
 20
6.8954956506
 11
3.2419592451
 21
6.9050217325
  0
LINE
  5
214
100
AcDbEntity
  8
0
100
AcDbLine
 62
7
  6
CONTINUOUS
 10
3.2098146451
 20
7.010770422
 11
3.2162373849
 21
7.0201278732
  0
LINE
  5
215
100
AcDbEntity
  8
0
100
AcDbLine
 62
7
  6
CONTINUOUS
 10
3.2588580754
 20
6.9028930809
 11
3.2656390956
 21
6.9119729673
  0
LINE
  5
216
100
AcDbEntity
  8
0
100
AcDbLine
 62
7
  6
CONTINUOUS
 10
3.2333072854
 20
7.0177292591
 11
3.2402109542
 21
7.026737746
  0
LINE
  5
217
100
AcDbEntity
  8
0
100
AcDbLine
 62
7
  6
CONTINUOUS
 10
3.2571319272
 20
7.0234490495
 11
3.2644976026
 21
7.0320838805
  0
LINE
  5
218
100
AcDbEntity
  8
0
100
AcDbLine
 62
7
  6
CONTINUOUS
 10
3.2823508025
 20
6.908683518
 11
3.2897420971
 21
6.9172739392
  0
LINE
  5
219
100
AcDbEntity
  8
0
100
AcDbLine
 62
7
  6
CONTINUOUS
 10
3.2812232689
 20
7.0279141158
 11
3.289030762
 21
7.0361516234
  0
LINE
  5
21A
100
AcDbEntity
  8
0
100
AcDbLine
 62
7
  6
CONTINUOUS
 10
3.3061870416
 20
6.912839368
 11
3.3141533878
 21
6.9208993867
  0
LINE
  5
21B
100
AcDbEntity
  8
0
100
AcDbLine
 62
7
  6
CONTINUOUS
 10
3.3055152777
 20
7.0311122194
 11
3.3137431887
 21
7.0389298252
  0
LINE
  5
21C
100
AcDbEntity
  8
0
100
AcDbLine
 62
7
  6
CONTINUOUS
 10
3.3302532024
 20
6.9153408263
 11
3.3387566368
 21
6.9228320328
  0
LINE
  5
21D
100
AcDbEntity
  8
0
100
AcDbLine
 62
7
  6
CONTINUOUS
 10
3.329941371
 20
7.0330345947
 11
3.3385671478
 21
7.0404108711
  0
LINE
  5
21E
100
AcDbEntity
  8
0
100
AcDbLine
 62
7
  6
CONTINUOUS
 10
3.3544345985
 20
7.0336759724
 11
3.3634345985
 21
7.0405907016
  0
LINE
  5
21F
100
AcDbEntity
  8
0
100
AcDbLine
 62
7
  6
CONTINUOUS
 10
3.3544345985
 20
6.9161759724
 11
3.3634345985
 21
6.9230626677
  0
LINE
  5
220
100
AcDbEntity
  8
0
100
AcDbLine
 62
7
  6
CONTINUOUS
 10
3.378927826
 20
7.0330345947
 11
3.3882773808
 21
7.0394688238
  0
LINE
  5
221
100
AcDbEntity
  8
0
100
AcDbLine
 62
7
  6
CONTINUOUS
 10
3.4033539193
 20
7.0311122194
 11
3.4130274024
 21
7.0370483128
  0
LINE
  5
222
100
AcDbEntity
  8
0
100
AcDbLine
 62
7
  6
CONTINUOUS
 10
3.4276459281
 20
7.0279141158
 11
3.4376168252
 21
7.033335803
  0
LINE
  5
223
100
AcDbEntity
  8
0
100
AcDbLine
 62
7
  6
CONTINUOUS
 10
2.9169177751
 20
6.750619286
 11
2.9268953243
 21
6.7560287214
  0
LINE
  5
224
100
AcDbEntity
  8
0
100
AcDbLine
 62
7
  6
CONTINUOUS
 10
3.0412814747
 20
6.9134677507
 11
3.0433429212
 21
6.9246285714
  0
LINE
  5
225
100
AcDbEntity
  8
0
100
AcDbLine
 62
7
  6
CONTINUOUS
 10
2.9353683909
 20
6.3420501384
 11
2.9374435452
 21
6.3532084185
  0
LINE
  5
226
100
AcDbEntity
  8
0
100
AcDbLine
 62
7
  6
CONTINUOUS
 10
3.0599126555
 20
6.9293802824
 11
3.0625553891
 21
6.9404179197
  0
LINE
  5
227
100
AcDbEntity
  8
0
100
AcDbLine
 62
7
  6
CONTINUOUS
 10
2.9242390347
 20
6.3642888406
 11
2.9268953243
 21
6.3753232234
  0
LINE
  5
228
100
AcDbEntity
  8
0
100
AcDbLine
 62
7
  6
CONTINUOUS
 10
3.0793511004
 20
6.9442959258
 11
3.0825678775
 21
6.9551801265
  0
LINE
  5
229
100
AcDbEntity
  8
0
100
AcDbLine
 62
7
  6
CONTINUOUS
 10
2.9142888146
 20
6.3870795308
 11
2.9151942666
 21
6.3901294057
  0
LINE
  5
22A
100
AcDbEntity
  8
0
100
AcDbLine
 62
7
  6
CONTINUOUS
 10
3.0234636774
 20
6.4305297575
 11
3.0267114054
 21
6.4413869595
  0
LINE
  5
22B
100
AcDbEntity
  8
0
100
AcDbLine
 62
7
  6
CONTINUOUS
 10
3.1503786341
 20
6.8506521353
 11
3.1536868059
 21
6.861491073
  0
LINE
  5
22C
100
AcDbEntity
  8
0
100
AcDbLine
 62
7
  6
CONTINUOUS
 10
3.0995435301
 20
6.9581737982
 11
3.1033255338
 21
6.9688747294
  0
LINE
  5
22D
100
AcDbEntity
  8
0
100
AcDbLine
 62
7
  6
CONTINUOUS
 10
3.014928399
 20
6.4536858367
 11
3.0189174393
 21
6.4642931045
  0
LINE
  5
22E
100
AcDbEntity
  8
0
100
AcDbLine
 62
7
  6
CONTINUOUS
 10
3.1705256755
 20
6.8640511692
 11
3.1745737555
 21
6.8746360462
  0
LINE
  5
22F
100
AcDbEntity
  8
0
100
AcDbLine
 62
7
  6
CONTINUOUS
 10
3.1204345985
 20
6.9709758614
 11
3.1247714625
 21
6.9814641925
  0
LINE
  5
230
100
AcDbEntity
  8
0
100
AcDbLine
 62
7
  6
CONTINUOUS
 10
3.1915491267
 20
6.8760283094
 11
3.196317824
 21
6.8863086838
  0
LINE
  5
231
100
AcDbEntity
  8
0
100
AcDbLine
 62
7
  6
CONTINUOUS
 10
3.2133488013
 20
6.8865264794
 11
3.2188153909
 21
6.8964533606
  0
LINE
  5
232
100
AcDbEntity
  8
0
100
AcDbLine
 62
7
  6
CONTINUOUS
 10
3.0131979961
 20
6.6722772443
 11
3.0226167056
 21
6.6785791872
  0
LINE
  5
233
100
AcDbEntity
  8
0
100
AcDbLine
 62
7
  6
CONTINUOUS
 10
3.3786159946
 20
6.9153408263
 11
3.3880696711
 21
6.9215901923
  0
LINE
  5
234
100
AcDbEntity
  8
0
100
AcDbLine
 62
7
  6
CONTINUOUS
 10
3.0213656137
 20
6.6955655462
 11
3.0311966592
 21
6.7012026658
  0
LINE
  5
235
100
AcDbEntity
  8
0
100
AcDbLine
 62
7
  6
CONTINUOUS
 10
3.4026821554
 20
6.912839368
 11
3.4125444572
 21
6.9184216234
  0
LINE
  5
236
100
AcDbEntity
  8
0
100
AcDbLine
 62
7
  6
CONTINUOUS
 10
3.0311204568
 20
6.7182348652
 11
3.0413169889
 21
6.7231802979
  0
LINE
  5
237
100
AcDbEntity
  8
0
100
AcDbLine
 62
7
  6
CONTINUOUS
 10
3.4265183945
 20
6.908683518
 11
3.4367423233
 21
6.9135720609
  0
LINE
  5
238
100
AcDbEntity
  8
0
100
AcDbLine
 62
7
  6
CONTINUOUS
 10
3.4517372698
 20
7.0234490495
 11
3.4619782512
 21
7.0283414701
  0
LINE
  5
239
100
AcDbEntity
  8
0
100
AcDbLine
 62
7
  6
CONTINUOUS
 10
2.9271965619
 20
6.7732636889
 11
2.9374435452
 21
6.7781435263
  0
LINE
  5
23A
100
AcDbEntity
  8
0
100
AcDbLine
 62
7
  6
CONTINUOUS
 10
3.4755619116
 20
7.0177292591
 11
3.4860449076
 21
7.0220790032
  0
LINE
  5
23B
100
AcDbEntity
  8
0
100
AcDbLine
 62
7
  6
CONTINUOUS
 10
2.9386463784
 20
6.7953391084
 11
2.9491347095
 21
6.7996759724
  0
LINE
  5
23C
100
AcDbEntity
  8
0
100
AcDbLine
 62
7
  6
CONTINUOUS
 10
3.0424160389
 20
6.7401771715
 11
3.0529294666
 21
6.7444073502
  0
LINE
  5
23D
100
AcDbEntity
  8
0
100
AcDbLine
 62
7
  6
CONTINUOUS
 10
3.4500111216
 20
6.9028930809
 11
3.4605479557
 21
6.9070646152
  0
LINE
  5
23E
100
AcDbEntity
  8
0
100
AcDbLine
 62
7
  6
CONTINUOUS
 10
3.4990545519
 20
7.010770422
 11
3.5097508293
 21
7.0145655673
  0
LINE
  5
23F
100
AcDbEntity
  8
0
100
AcDbLine
 62
7
  6
CONTINUOUS
 10
2.9512358415
 20
6.8167850371
 11
2.9619367727
 21
6.8205670408
  0
LINE
  5
240
100
AcDbEntity
  8
0
100
AcDbLine
 62
7
  6
CONTINUOUS
 10
3.0551985316
 20
6.7612879002
 11
3.0659787535
 21
6.7647826661
  0
LINE
  5
241
100
AcDbEntity
  8
0
100
AcDbLine
 62
7
  6
CONTINUOUS
 10
3.473048383
 20
6.8954956506
 11
3.4838479097
 21
6.898930297
  0
LINE
  5
242
100
AcDbEntity
  8
0
100
AcDbLine
 62
7
  6
CONTINUOUS
 10
3.5221507989
 20
7.002591612
 11
3.53303104
 21
7.0058217563
  0
LINE
  5
243
100
AcDbEntity
  8
0
100
AcDbLine
 62
7
  6
CONTINUOUS
 10
2.9649304444
 20
6.8375426934
 11
2.9758146451
 21
6.8407594705
  0
LINE
  5
244
100
AcDbEntity
  8
0
100
AcDbLine
 62
7
  6
CONTINUOUS
 10
2.9019345985
 20
6.4156759724
 11
2.9019345985
 21
6.7156759724
  0
LINE
  5
245
100
AcDbEntity
  8
0
100
AcDbLine
 62
7
  6
CONTINUOUS
 10
2.9644345985
 20
6.4156759724
 11
2.9644345985
 21
6.7156759724
  0
LINE
  5
246
100
AcDbEntity
  8
0
100
AcDbLine
 62
7
  6
CONTINUOUS
 10
2.9907302885
 20
6.8601979154
 11
2.9910204182
 21
6.8715438091
  0
LINE
  5
247
100
AcDbEntity
  8
0
100
AcDbLine
 62
7
  6
CONTINUOUS
 10
2.975510579
 20
6.2792469455
 11
2.9758146451
 21
6.2905924743
  0
LINE
  5
248
100
AcDbEntity
  8
0
100
AcDbLine
 62
7
  6
CONTINUOUS
 10
3.0066428202
 20
6.8788290962
 11
3.0075263504
 21
6.8901442565
  0
LINE
  5
249
100
AcDbEntity
  8
0
100
AcDbLine
 62
7
  6
CONTINUOUS
 10
2.9610393442
 20
6.2994708375
 11
2.9619367727
 21
6.310784904
  0
LINE
  5
24A
100
AcDbEntity
  8
0
100
AcDbLine
 62
7
  6
CONTINUOUS
 10
3.0583328264
 20
6.3653512596
 11
3.0592782383
 21
6.3766443003
  0
LINE
  5
24B
100
AcDbEntity
  8
0
100
AcDbLine
 62
7
  6
CONTINUOUS
 10
3.0961324612
 20
6.8025942197
 11
3.0971407811
 21
6.8138818175
  0
LINE
  5
24C
100
AcDbEntity
  8
0
100
AcDbLine
 62
7
  6
CONTINUOUS
 10
3.0235086249
 20
6.896601946
 11
3.024983134
 21
6.9078553589
  0
LINE
  5
24D
100
AcDbEntity
  8
0
100
AcDbLine
 62
7
  6
CONTINUOUS
 10
2.9476463784
 20
6.3204243792
 11
2.9491347095
 21
6.3316759724
  0
LINE
  5
24E
100
AcDbEntity
  8
0
100
AcDbLine
 62
7
  6
CONTINUOUS
 10
3.0452177251
 20
6.3862569789
 11
3.0469400042
 21
6.3974578864
  0
LINE
  5
24F
100
AcDbEntity
  8
0
100
AcDbLine
 62
7
  6
CONTINUOUS
 10
3.1130931859
 20
6.8198502681
 11
3.1148778475
 21
6.8310414054
  0
LINE
  5
250
100
AcDbEntity
  8
0
100
AcDbLine
 62
7
  6
CONTINUOUS
 10
3.033576183
 20
6.4080177115
 11
3.0360671218
 21
6.4190731082
  0
LINE
  5
251
100
AcDbEntity
  8
0
100
AcDbLine
 62
7
  6
CONTINUOUS
 10
3.1312040123
 20
6.8358950602
 11
3.1337565109
 21
6.8469364063
  0
LINE
  5
252
100
AcDbEntity
  8
0
100
AcDbLine
 62
7
  6
CONTINUOUS
 10
3.7081307123
 20
6.6176885581
 11
3.7023790589
 21
6.6079240788
  0
LINE
  5
253
100
AcDbEntity
  8
0
100
AcDbLine
 62
7
  6
CONTINUOUS
 10
3.4843618077
 20
6.2401469102
 11
3.4785558378
 21
6.2304146296
  0
LINE
  5
254
100
AcDbEntity
  8
0
100
AcDbLine
 62
7
  6
CONTINUOUS
 10
3.7108763586
 20
6.5931627266
 11
3.7044647472
 21
6.5838183266
  0
LINE
  5
255
100
AcDbEntity
  8
0
100
AcDbLine
 62
7
  6
CONTINUOUS
 10
3.461593604
 20
6.2319587305
 11
3.4551300269
 21
6.2226501998
  0
LINE
  5
256
100
AcDbEntity
  8
0
100
AcDbLine
 62
7
  6
CONTINUOUS
 10
3.7119233976
 20
6.5685059082
 11
3.7048823824
 21
6.5596261178
  0
LINE
  5
257
100
AcDbEntity
  8
0
100
AcDbLine
 62
7
  6
CONTINUOUS
 10
3.4383147388
 20
6.2253608654
 11
3.4312243565
 21
6.2165204439
  0
LINE
  5
258
100
AcDbEntity
  8
0
100
AcDbLine
 62
7
  6
CONTINUOUS
 10
3.4517372698
 20
6.1079028953
 11
3.4443715944
 21
6.0992680643
  0
LINE
  5
259
100
AcDbEntity
  8
0
100
AcDbLine
 62
7
  6
CONTINUOUS
 10
3.8291694972
 20
6.5498085217
 11
3.8217932208
 21
6.5411827449
  0
LINE
  5
25A
100
AcDbEntity
  8
0
100
AcDbLine
 62
7
  6
CONTINUOUS
 10
3.7112668396
 20
6.5438356039
 11
3.7036299744
 21
6.5354627392
  0
LINE
  5
25B
100
AcDbEntity
  8
0
100
AcDbLine
 62
7
  6
CONTINUOUS
 10
3.4146361466
 20
6.2203847567
 11
3.406952748
 21
6.2120545732
  0
LINE
  5
25C
100
AcDbEntity
  8
0
100
AcDbLine
 62
7
  6
CONTINUOUS
 10
3.4276459281
 20
6.103437829
 11
3.419838435
 21
6.0952003214
  0
LINE
  5
25D
100
AcDbEntity
  8
0
100
AcDbLine
 62
7
  6
CONTINUOUS
 10
3.8276884513
 20
6.5249845626
 11
3.8198708455
 21
6.5167566516
  0
LINE
  5
25E
100
AcDbEntity
  8
0
100
AcDbLine
 62
7
  6
CONTINUOUS
 10
3.7089098135
 20
6.5192693788
 11
3.7007134914
 21
6.5114433406
  0
LINE
  5
25F
100
AcDbEntity
  8
0
100
AcDbLine
 62
7
  6
CONTINUOUS
 10
3.4033539193
 20
6.1002397254
 11
3.3951260083
 21
6.0924221196
  0
LINE
  5
260
100
AcDbEntity
  8
0
100
AcDbLine
 62
7
  6
CONTINUOUS
 10
3.8249102495
 20
6.5002721359
 11
3.8166727419
 21
6.4924646428
  0
LINE
  5
261
100
AcDbEntity
  8
0
100
AcDbLine
 62
7
  6
CONTINUOUS
 10
3.3906706666
 20
6.217054118
 11
3.3824308665
 21
6.2092738695
  0
LINE
  5
262
100
AcDbEntity
  8
0
100
AcDbLine
 62
7
  6
CONTINUOUS
 10
3.7048635516
 20
6.4949243024
 11
3.6961468317
 21
6.487682385
  0
LINE
  5
263
100
AcDbEntity
  8
0
100
AcDbLine
 62
7
  6
CONTINUOUS
 10
3.3665325052
 20
6.2153848211
 11
3.3577755701
 21
6.2081915841
  0
LINE
  5
264
100
AcDbEntity
  8
0
100
AcDbLine
 62
7
  6
CONTINUOUS
 10
3.6991473362
 20
6.4709163898
 11
3.6899517577
 21
6.4642931045
  0
LINE
  5
265
100
AcDbEntity
  8
0
100
AcDbLine
 62
7
  6
CONTINUOUS
 10
3.3423366918
 20
6.2153848211
 11
3.3331043524
 21
6.2088128746
  0
LINE
  5
266
100
AcDbEntity
  8
0
100
AcDbLine
 62
7
  6
CONTINUOUS
 10
3.6917884075
 20
6.4473600499
 11
3.6821577916
 21
6.4413869595
  0
LINE
  5
267
100
AcDbEntity
  8
0
100
AcDbLine
 62
7
  6
CONTINUOUS
 10
3.3181985304
 20
6.217054118
 11
3.308534783
 21
6.2111347802
  0
LINE
  5
268
100
AcDbEntity
  8
0
100
AcDbLine
 62
7
  6
CONTINUOUS
 10
2.9619367727
 20
6.8205670408
 11
2.9610393442
 21
6.8318811073
  0
LINE
  5
269
100
AcDbEntity
  8
0
100
AcDbLine
 62
7
  6
CONTINUOUS
 10
3.0075263504
 20
6.2412076883
 11
3.0066428202
 21
6.2525228486
  0
LINE
  5
26A
100
AcDbEntity
  8
0
100
AcDbLine
 62
7
  6
CONTINUOUS
 10
3.0887269846
 20
6.3264988123
 11
3.0881088699
 21
6.3378144876
  0
LINE
  5
26B
100
AcDbEntity
  8
0
100
AcDbLine
 62
7
  6
CONTINUOUS
 10
3.0659787535
 20
6.7647826661
 11
3.0654236971
 21
6.7761016098
  0
LINE
  5
26C
100
AcDbEntity
  8
0
100
AcDbLine
 62
7
  6
CONTINUOUS
 10
2.9758146451
 20
6.8407594705
 11
2.975510579
 21
6.8521049993
  0
LINE
  5
26D
100
AcDbEntity
  8
0
100
AcDbLine
 62
7
  6
CONTINUOUS
 10
2.9910204182
 20
6.2598081357
 11
2.9907302885
 21
6.2711540294
  0
LINE
  5
26E
100
AcDbEntity
  8
0
100
AcDbLine
 62
7
  6
CONTINUOUS
 10
3.0019345985
 20
6.4486759724
 11
3.0019345985
 21
6.6826759724
  0
LINE
  5
26F
100
AcDbEntity
  8
0
100
AcDbLine
 62
7
  6
CONTINUOUS
 10
3.1794345985
 20
6.4681759724
 11
3.1794345985
 21
6.6631759724
  0
LINE
  5
270
100
AcDbEntity
  8
0
100
AcDbLine
 62
7
  6
CONTINUOUS
 10
3.0728589875
 20
6.3454001787
 11
3.073023027
 21
6.3567315362
  0
LINE
  5
271
100
AcDbEntity
  8
0
100
AcDbLine
 62
7
  6
CONTINUOUS
 10
3.0804026639
 20
6.7842091479
 11
3.0806298369
 21
6.7955394156
  0
LINE
  5
272
100
AcDbEntity
  8
0
100
AcDbLine
 62
7
  6
CONTINUOUS
 10
3.6805435819
 20
6.7121654975
 11
3.6776725378
 21
6.7012026658
  0
LINE
  5
273
100
AcDbEntity
  8
0
100
AcDbLine
 62
7
  6
CONTINUOUS
 10
3.568205251
 20
6.2879128393
 11
3.5652731687
 21
6.2769661747
  0
LINE
  5
274
100
AcDbEntity
  8
0
100
AcDbLine
 62
7
  6
CONTINUOUS
 10
3.6295180966
 20
6.187056019
 11
3.6263013195
 21
6.1761718183
  0
LINE
  5
275
100
AcDbEntity
  8
0
100
AcDbLine
 62
7
  6
CONTINUOUS
 10
3.7945803824
 20
6.7442724139
 11
3.7913502381
 21
6.7333921728
  0
LINE
  5
276
100
AcDbEntity
  8
0
100
AcDbLine
 62
7
  6
CONTINUOUS
 10
3.689873033
 20
6.6893178209
 11
3.6862524914
 21
6.6785791872
  0
LINE
  5
277
100
AcDbEntity
  8
0
100
AcDbLine
 62
7
  6
CONTINUOUS
 10
3.5485326974
 20
6.2738263912
 11
3.5448523785
 21
6.2631080973
  0
LINE
  5
278
100
AcDbEntity
  8
0
100
AcDbLine
 62
7
  6
CONTINUOUS
 10
3.6093256669
 20
6.1731781466
 11
3.6055436632
 21
6.1624772154
  0
LINE
  5
279
100
AcDbEntity
  8
0
100
AcDbLine
 62
7
  6
CONTINUOUS
 10
3.8033241934
 20
6.7209922032
 11
3.7995290481
 21
6.7102959258
  0
LINE
  5
27A
100
AcDbEntity
  8
0
100
AcDbLine
 62
7
  6
CONTINUOUS
 10
3.5884345985
 20
6.1603760834
 11
3.5840977345
 21
6.1498877523
  0
LINE
  5
27B
100
AcDbEntity
  8
0
100
AcDbLine
 62
7
  6
CONTINUOUS
 10
3.8108376293
 20
6.6972862815
 11
3.8064878852
 21
6.6868032855
  0
LINE
  5
27C
100
AcDbEntity
  8
0
100
AcDbLine
 62
7
  6
CONTINUOUS
 10
3.6976039671
 20
6.6658809345
 11
3.6932511818
 21
6.6554176735
  0
LINE
  5
27D
100
AcDbEntity
  8
0
100
AcDbLine
 62
7
  6
CONTINUOUS
 10
3.5279351778
 20
6.2611307394
 11
3.5235241608
 21
6.2506918936
  0
LINE
  5
27E
100
AcDbEntity
  8
0
100
AcDbLine
 62
7
  6
CONTINUOUS
 10
3.5669021524
 20
6.1486849191
 11
3.562022315
 21
6.1384379358
  0
LINE
  5
27F
100
AcDbEntity
  8
0
100
AcDbLine
 62
7
  6
CONTINUOUS
 10
3.8171000962
 20
6.6732196251
 11
3.8122076756
 21
6.6629786437
  0
LINE
  5
280
100
AcDbEntity
  8
0
100
AcDbLine
 62
7
  6
CONTINUOUS
 10
3.703699543
 20
6.6419665259
 11
3.6986352568
 21
6.6318284996
  0
LINE
  5
281
100
AcDbEntity
  8
0
100
AcDbLine
 62
7
  6
CONTINUOUS
 10
3.5065108491
 20
6.2498863842
 11
3.5013901544
 21
6.2397767324
  0
LINE
  5
282
100
AcDbEntity
  8
0
100
AcDbLine
 62
7
  6
CONTINUOUS
 10
3.5447873475
 20
6.1381366982
 11
3.5393779121
 21
6.128159149
  0
LINE
  5
283
100
AcDbEntity
  8
0
100
AcDbLine
 62
7
  6
CONTINUOUS
 10
3.8220944291
 20
6.6488581991
 11
3.8166727419
 21
6.638887302
  0
LINE
  5
284
100
AcDbEntity
  8
0
100
AcDbLine
 62
7
  6
CONTINUOUS
 10
3.5221507989
 20
6.1287603328
 11
3.5162265924
 21
6.1190795654
  0
LINE
  5
285
100
AcDbEntity
  8
0
100
AcDbLine
 62
7
  6
CONTINUOUS
 10
3.8258069389
 20
6.6242687763
 11
3.8198708455
 21
6.6145952932
  0
LINE
  5
286
100
AcDbEntity
  8
0
100
AcDbLine
 62
7
  6
CONTINUOUS
 10
3.4990545519
 20
6.1205815228
 11
3.492631812
 21
6.1112240716
  0
LINE
  5
287
100
AcDbEntity
  8
0
100
AcDbLine
 62
7
  6
CONTINUOUS
 10
3.8282274499
 20
6.5995187547
 11
3.8217932208
 21
6.5901691999
  0
LINE
  5
288
100
AcDbEntity
  8
0
100
AcDbLine
 62
7
  6
CONTINUOUS
 10
3.4755619116
 20
6.1136226857
 11
3.4686582428
 21
6.1046141988
  0
LINE
  5
289
100
AcDbEntity
  8
0
100
AcDbLine
 62
7
  6
CONTINUOUS
 10
3.8293493277
 20
6.5746759724
 11
3.8224345985
 21
6.5656759724
  0
LINE
  5
28A
100
AcDbEntity
  8
0
100
AcDbLine
 62
7
  6
CONTINUOUS
 10
3.378927826
 20
6.0983173501
 11
3.3703020492
 21
6.0909410737
  0
LINE
  5
28B
100
AcDbEntity
  8
0
100
AcDbLine
 62
7
  6
CONTINUOUS
 10
3.8208425066
 20
6.4757389765
 11
3.8122076756
 21
6.4683733011
  0
LINE
  5
28C
100
AcDbEntity
  8
0
100
AcDbLine
 62
7
  6
CONTINUOUS
 10
3.3544345985
 20
6.0976759724
 11
3.3454345985
 21
6.0907612432
  0
LINE
  5
28D
100
AcDbEntity
  8
0
100
AcDbLine
 62
7
  6
CONTINUOUS
 10
3.8154963721
 20
6.4514523281
 11
3.8064878852
 21
6.4445486593
  0
LINE
  5
28E
100
AcDbEntity
  8
0
100
AcDbLine
 62
7
  6
CONTINUOUS
 10
3.329941371
 20
6.0983173501
 11
3.3205918162
 21
6.0918831209
  0
LINE
  5
28F
100
AcDbEntity
  8
0
100
AcDbLine
 62
7
  6
CONTINUOUS
 10
3.8088864993
 20
6.4274787588
 11
3.7995290481
 21
6.421056019
  0
LINE
  5
290
100
AcDbEntity
  8
0
100
AcDbLine
 62
7
  6
CONTINUOUS
 10
3.3055152777
 20
6.1002397254
 11
3.2958417946
 21
6.094303632
  0
LINE
  5
291
100
AcDbEntity
  8
0
100
AcDbLine
 62
7
  6
CONTINUOUS
 10
3.8010310055
 20
6.4038839785
 11
3.7913502381
 21
6.397959772
  0
LINE
  5
292
100
AcDbEntity
  8
0
100
AcDbLine
 62
7
  6
CONTINUOUS
 10
5.4269418983
 20
7.1164235929
 11
5.4367691869
 21
7.1221175826
  0
LINE
  5
293
100
AcDbEntity
  8
0
100
AcDbLine
 62
7
  6
CONTINUOUS
 10
4.8313747341
 20
6.7725929323
 11
4.8412195182
 21
6.7782566191
  0
LINE
  5
294
100
AcDbEntity
  8
0
100
AcDbLine
 62
7
  6
CONTINUOUS
 10
3.2812232689
 20
6.103437829
 11
3.2712523718
 21
6.0980161418
  0
LINE
  5
295
100
AcDbEntity
  8
0
100
AcDbLine
 62
7
  6
CONTINUOUS
 10
3.7919514219
 20
6.3807326588
 11
3.7819738727
 21
6.3753232234
  0
LINE
  5
296
100
AcDbEntity
  8
0
100
AcDbLine
 62
7
  6
CONTINUOUS
 10
3.6828218344
 20
6.4243675391
 11
3.6728020752
 21
6.4190731082
  0
LINE
  5
297
100
AcDbEntity
  8
0
100
AcDbLine
 62
7
  6
CONTINUOUS
 10
5.4508961612
 20
7.1127366792
 11
5.4609624647
 21
7.1179965892
  0
LINE
  5
298
100
AcDbEntity
  8
0
100
AcDbLine
 62
7
  6
CONTINUOUS
 10
3.2942330504
 20
6.2203847567
 11
3.2841839472
 21
6.2151462361
  0
LINE
  5
299
100
AcDbEntity
  8
0
100
AcDbLine
 62
7
  6
CONTINUOUS
 10
4.8408981623
 20
6.7952115441
 11
4.8509806228
 21
6.8004404168
  0
LINE
  5
29A
100
AcDbEntity
  8
0
100
AcDbLine
 62
7
  6
CONTINUOUS
 10
3.2571319272
 20
6.1079028953
 11
3.2468909457
 21
6.1030104747
  0
LINE
  5
29B
100
AcDbEntity
  8
0
100
AcDbLine
 62
7
  6
CONTINUOUS
 10
3.7816726351
 20
6.3580882559
 11
3.7714256518
 21
6.3532084185
  0
LINE
  5
29C
100
AcDbEntity
  8
0
100
AcDbLine
 62
7
  6
CONTINUOUS
 10
5.474666804
 20
7.1080084044
 11
5.4849529607
 21
7.1128242221
  0
LINE
  5
29D
100
AcDbEntity
  8
0
100
AcDbLine
 62
7
  6
CONTINUOUS
 10
4.8513991362
 20
6.8173932218
 11
4.8617000807
 21
6.822177327
  0
LINE
  5
29E
100
AcDbEntity
  8
0
100
AcDbLine
 62
7
  6
CONTINUOUS
 10
3.6722903465
 20
6.4020484274
 11
3.6619291928
 21
6.3974578864
  0
LINE
  5
29F
100
AcDbEntity
  8
0
100
AcDbLine
 62
7
  6
CONTINUOUS
 10
3.2705544582
 20
6.2253608654
 11
3.2601678877
 21
6.2208281259
  0
LINE
  5
2A0
100
AcDbEntity
  8
0
100
AcDbLine
 62
7
  6
CONTINUOUS
 10
5.498208578
 20
7.1022477689
 11
5.5086950076
 21
7.1066103272
  0
LINE
  5
2A1
100
AcDbEntity
  8
0
100
AcDbLine
 62
7
  6
CONTINUOUS
 10
3.2333072854
 20
6.1136226857
 11
3.2228242893
 21
6.1092729416
  0
LINE
  5
2A2
100
AcDbEntity
  8
0
100
AcDbLine
 62
7
  6
CONTINUOUS
 10
3.7702228186
 20
6.3360128364
 11
3.7597344875
 21
6.3316759724
  0
LINE
  5
2A3
100
AcDbEntity
  8
0
100
AcDbLine
 62
7
  6
CONTINUOUS
 10
4.8628576667
 20
6.8390957415
 11
4.8733574867
 21
6.8434259724
  0
LINE
  5
2A4
100
AcDbEntity
  8
0
100
AcDbLine
 62
7
  6
CONTINUOUS
 10
5.5214766701
 20
7.0954657385
 11
5.5321434111
 21
7.099366733
  0
LINE
  5
2A5
100
AcDbEntity
  8
0
100
AcDbLine
 62
7
  6
CONTINUOUS
 10
3.6602441312
 20
6.3805090755
 11
3.6495909587
 21
6.3766443003
  0
LINE
  5
2A6
100
AcDbEntity
  8
0
100
AcDbLine
 62
7
  6
CONTINUOUS
 10
4.8752519418
 20
6.860277791
 11
4.8859306503
 21
6.8641459048
  0
LINE
  5
2A7
100
AcDbEntity
  8
0
100
AcDbLine
 62
7
  6
CONTINUOUS
 10
3.247275593
 20
6.2319587305
 11
3.2366010521
 21
6.2281533727
  0
LINE
  5
2A8
100
AcDbEntity
  8
0
100
AcDbLine
 62
7
  6
CONTINUOUS
 10
3.2098146451
 20
6.1205815228
 11
3.1991183676
 21
6.1167863775
  0
LINE
  5
2A9
100
AcDbEntity
  8
0
100
AcDbLine
 62
7
  6
CONTINUOUS
 10
3.7576333555
 20
6.3145669077
 11
3.7469324243
 21
6.310784904
  0
LINE
  5
2AA
100
AcDbEntity
  8
0
100
AcDbLine
 62
7
  6
CONTINUOUS
 10
5.0484537812
 20
6.7701258181
 11
5.0377231734
 21
6.766471573
  0
LINE
  5
2AB
100
AcDbEntity
  8
0
100
AcDbLine
 62
7
  6
CONTINUOUS
 10
5.4834620487
 20
6.9177795326
 11
5.4727243217
 21
6.9141462601
  0
LINE
  5
2AC
100
AcDbEntity
  8
0
100
AcDbLine
 62
7
  6
CONTINUOUS
 10
5.5444267881
 20
7.0876752232
 11
5.5552535357
 21
7.0911072281
  0
LINE
  5
2AD
100
AcDbEntity
  8
0
100
AcDbLine
 62
7
  6
CONTINUOUS
 10
4.8885583684
 20
6.8808990493
 11
4.8993956379
 21
6.8842976828
  0
LINE
  5
2AE
100
AcDbEntity
  8
0
100
AcDbLine
 62
7
  6
CONTINUOUS
 10
3.6467405942
 20
6.3598521282
 11
3.63584617
 21
6.3567315362
  0
LINE
  5
2AF
100
AcDbEntity
  8
0
100
AcDbLine
 62
7
  6
CONTINUOUS
 10
2.9491347095
 20
6.7996759724
 11
2.9476463784
 21
6.8109275656
  0
LINE
  5
2B0
100
AcDbEntity
  8
0
100
AcDbLine
 62
7
  6
CONTINUOUS
 10
3.024983134
 20
6.2234965859
 11
3.0235086249
 21
6.2347499988
  0
LINE
  5
2B1
100
AcDbEntity
  8
0
100
AcDbLine
 62
7
  6
CONTINUOUS
 10
3.6434454999
 20
6.7761016098
 11
3.6428904435
 21
6.7647826661
  0
LINE
  5
2B2
100
AcDbEntity
  8
0
100
AcDbLine
 62
7
  6
CONTINUOUS
 10
3.6207603271
 20
6.3378144876
 11
3.6201422124
 21
6.3264988123
  0
LINE
  5
2B3
100
AcDbEntity
  8
0
100
AcDbLine
 62
7
  6
CONTINUOUS
 10
3.7022263768
 20
6.2525228486
 11
3.7013428466
 21
6.2412076883
  0
LINE
  5
2B4
100
AcDbEntity
  8
0
100
AcDbLine
 62
7
  6
CONTINUOUS
 10
3.7478298528
 20
6.8318811073
 11
3.7469324243
 21
6.8205670408
  0
LINE
  5
2B5
100
AcDbEntity
  8
0
100
AcDbLine
 62
7
  6
CONTINUOUS
 10
3.6572743712
 20
6.7556610299
 11
3.6559397304
 21
6.7444073502
  0
LINE
  5
2B6
100
AcDbEntity
  8
0
100
AcDbLine
 62
7
  6
CONTINUOUS
 10
3.6044053208
 20
6.3199833026
 11
3.6030079975
 21
6.308737234
  0
LINE
  5
2B7
100
AcDbEntity
  8
0
100
AcDbLine
 62
7
  6
CONTINUOUS
 10
3.6853605721
 20
6.2347499988
 11
3.683886063
 21
6.2234965859
  0
LINE
  5
2B8
100
AcDbEntity
  8
0
100
AcDbLine
 62
7
  6
CONTINUOUS
 10
3.7612228186
 20
6.8109275656
 11
3.7597344875
 21
6.7996759724
  0
LINE
  5
2B9
100
AcDbEntity
  8
0
100
AcDbLine
 62
7
  6
CONTINUOUS
 10
3.6675877223
 20
6.2178841941
 11
3.6655262758
 21
6.2067233734
  0
LINE
  5
2BA
100
AcDbEntity
  8
0
100
AcDbLine
 62
7
  6
CONTINUOUS
 10
3.7735008061
 20
6.7893018064
 11
3.7714256518
 21
6.7781435263
  0
LINE
  5
2BB
100
AcDbEntity
  8
0
100
AcDbLine
 62
7
  6
CONTINUOUS
 10
3.669660073
 20
6.7343150848
 11
3.6675522081
 21
6.7231802979
  0
LINE
  5
2BC
100
AcDbEntity
  8
0
100
AcDbLine
 62
7
  6
CONTINUOUS
 10
3.5868590902
 20
6.3033229552
 11
3.5846892172
 21
6.2922000858
  0
LINE
  5
2BD
100
AcDbEntity
  8
0
100
AcDbLine
 62
7
  6
CONTINUOUS
 10
3.6489565415
 20
6.2019716624
 11
3.6463138079
 21
6.1909340251
  0
LINE
  5
2BE
100
AcDbEntity
  8
0
100
AcDbLine
 62
7
  6
CONTINUOUS
 10
3.7846301623
 20
6.7670631042
 11
3.7819738727
 21
6.7560287214
  0
LINE
  5
2BF
100
AcDbEntity
  8
0
100
AcDbLine
 62
7
  6
CONTINUOUS
 10
5.2819272987
 20
7.1164235929
 11
5.2899460176
 21
7.1244670541
  0
LINE
  5
2C0
100
AcDbEntity
  8
0
100
AcDbLine
 62
7
  6
CONTINUOUS
 10
4.7956435168
 20
6.6301645533
 11
4.803686978
 21
6.6381832722
  0
LINE
  5
2C1
100
AcDbEntity
  8
0
100
AcDbLine
 62
7
  6
CONTINUOUS
 10
5.3060195834
 20
7.1190621272
 11
5.3143815211
 21
7.1267481611
  0
LINE
  5
2C2
100
AcDbEntity
  8
0
100
AcDbLine
 62
7
  6
CONTINUOUS
 10
4.7989883145
 20
6.6544772991
 11
4.8073738917
 21
6.6621375351
  0
LINE
  5
2C3
100
AcDbEntity
  8
0
100
AcDbLine
 62
7
  6
CONTINUOUS
 10
5.3302040288
 20
7.1206472595
 11
5.3388932679
 21
7.1279612354
  0
LINE
  5
2C4
100
AcDbEntity
  8
0
100
AcDbLine
 62
7
  6
CONTINUOUS
 10
4.8033904358
 20
6.6786210065
 11
4.8121021665
 21
6.6859081779
  0
LINE
  5
2C5
100
AcDbEntity
  8
0
100
AcDbLine
 62
7
  6
CONTINUOUS
 10
5.3544345985
 20
7.1211759724
 11
5.3634345985
 21
7.1281039678
  0
LINE
  5
2C6
100
AcDbEntity
  8
0
100
AcDbLine
 62
7
  6
CONTINUOUS
 10
4.9989738944
 20
6.660921381
 11
4.9899873772
 21
6.6540118254
  0
LINE
  5
2C7
100
AcDbEntity
  8
0
100
AcDbLine
 62
7
  6
CONTINUOUS
 10
5.3634345985
 20
6.9405679568
 11
5.3544345985
 21
6.9336759724
  0
LINE
  5
2C8
100
AcDbEntity
  8
0
100
AcDbLine
 62
7
  6
CONTINUOUS
 10
4.8088415009
 20
6.7025497167
 11
4.817862802
 21
6.709449952
  0
LINE
  5
2C9
100
AcDbEntity
  8
0
100
AcDbLine
 62
7
  6
CONTINUOUS
 10
5.3786651682
 20
7.1206472595
 11
5.3879587971
 21
7.1271760865
  0
LINE
  5
2CA
100
AcDbEntity
  8
0
100
AcDbLine
 62
7
  6
CONTINUOUS
 10
4.8153311335
 20
6.7262178799
 11
4.8246448324
 21
6.732718044
  0
LINE
  5
2CB
100
AcDbEntity
  8
0
100
AcDbLine
 62
7
  6
CONTINUOUS
 10
5.0059643108
 20
6.6839656956
 11
4.9965451279
 21
6.6776586803
  0
LINE
  5
2CC
100
AcDbEntity
  8
0
100
AcDbLine
 62
7
  6
CONTINUOUS
 10
5.3879344377
 20
6.9391766562
 11
5.3785029501
 21
6.9328880561
  0
LINE
  5
2CD
100
AcDbEntity
  8
0
100
AcDbLine
 62
7
  6
CONTINUOUS
 10
5.4028496136
 20
7.1190621272
 11
5.4124191805
 21
7.1251793578
  0
LINE
  5
2CE
100
AcDbEntity
  8
0
100
AcDbLine
 62
7
  6
CONTINUOUS
 10
4.8228469802
 20
6.7495804424
 11
4.8324353476
 21
6.755668162
  0
LINE
  5
2CF
100
AcDbEntity
  8
0
100
AcDbLine
 62
7
  6
CONTINUOUS
 10
5.0144469305
 20
6.7065034755
 11
5.0046354163
 21
6.700826008
  0
LINE
  5
2D0
100
AcDbEntity
  8
0
100
AcDbLine
 62
7
  6
CONTINUOUS
 10
5.4122908255
 20
6.9361859682
 11
5.4024682372
 21
6.9305276814
  0
LINE
  5
2D1
100
AcDbEntity
  8
0
100
AcDbLine
 62
7
  6
CONTINUOUS
 10
5.0243854296
 20
6.7284382104
 11
5.0142235984
 21
6.7234146025
  0
LINE
  5
2D2
100
AcDbEntity
  8
0
100
AcDbLine
 62
7
  6
CONTINUOUS
 10
5.436399464
 20
6.9316086996
 11
5.426227837
 21
6.9266049556
  0
LINE
  5
2D3
100
AcDbEntity
  8
0
100
AcDbLine
 62
7
  6
CONTINUOUS
 10
5.0357372499
 20
6.7496759724
 11
5.0252686163
 21
6.745327736
  0
LINE
  5
2D4
100
AcDbEntity
  8
0
100
AcDbLine
 62
7
  6
CONTINUOUS
 10
5.4601571164
 20
6.9254644508
 11
5.4496800071
 21
6.9211366765
  0
LINE
  5
2D5
100
AcDbEntity
  8
0
100
AcDbLine
 62
7
  6
CONTINUOUS
 10
3.1867183981
 20
6.1287603328
 11
3.1758381569
 21
6.1255301885
  0
LINE
  5
2D6
100
AcDbEntity
  8
0
100
AcDbLine
 62
7
  6
CONTINUOUS
 10
3.7439387526
 20
6.2938092514
 11
3.7330545519
 21
6.2905924743
  0
LINE
  5
2D7
100
AcDbEntity
  8
0
100
AcDbLine
 62
7
  6
CONTINUOUS
 10
2.9268953243
 20
6.7560287214
 11
2.9242390347
 21
6.7670631042
  0
LINE
  5
2D8
100
AcDbEntity
  8
0
100
AcDbLine
 62
7
  6
CONTINUOUS
 10
3.0625553891
 20
6.1909340251
 11
3.0599126555
 21
6.2019716624
  0
LINE
  5
2D9
100
AcDbEntity
  8
0
100
AcDbLine
 62
7
  6
CONTINUOUS
 10
3.1241799798
 20
6.2922000858
 11
3.1220101068
 21
6.3033229552
  0
LINE
  5
2DA
100
AcDbEntity
  8
0
100
AcDbLine
 62
7
  6
CONTINUOUS
 10
3.0413169889
 20
6.7231802979
 11
3.039209124
 21
6.7343150848
  0
LINE
  5
2DB
100
AcDbEntity
  8
0
100
AcDbLine
 62
7
  6
CONTINUOUS
 10
2.9374435452
 20
6.7781435263
 11
2.9353683909
 21
6.7893018064
  0
LINE
  5
2DC
100
AcDbEntity
  8
0
100
AcDbLine
 62
7
  6
CONTINUOUS
 10
3.0433429212
 20
6.2067233734
 11
3.0412814747
 21
6.2178841941
  0
LINE
  5
2DD
100
AcDbEntity
  8
0
100
AcDbLine
 62
7
  6
CONTINUOUS
 10
3.1058611995
 20
6.308737234
 11
3.1044638762
 21
6.3199833026
  0
LINE
  5
2DE
100
AcDbEntity
  8
0
100
AcDbLine
 62
7
  6
CONTINUOUS
 10
3.0529294666
 20
6.7444073502
 11
3.0515948258
 21
6.7556610299
  0
LINE
  5
2DF
100
AcDbEntity
  8
0
100
AcDbLine
 62
7
  6
CONTINUOUS
 10
3.6117284159
 20
6.8138818175
 11
3.6127367357
 21
6.8025942197
  0
LINE
  5
2E0
100
AcDbEntity
  8
0
100
AcDbLine
 62
7
  6
CONTINUOUS
 10
3.6495909587
 20
6.3766443003
 11
3.6505363706
 21
6.3653512596
  0
LINE
  5
2E1
100
AcDbEntity
  8
0
100
AcDbLine
 62
7
  6
CONTINUOUS
 10
3.7469324243
 20
6.310784904
 11
3.7478298528
 21
6.2994708375
  0
LINE
  5
2E2
100
AcDbEntity
  8
0
100
AcDbLine
 62
7
  6
CONTINUOUS
 10
3.7013428466
 20
6.8901442565
 11
3.7022263768
 21
6.8788290962
  0
LINE
  5
2E3
100
AcDbEntity
  8
0
100
AcDbLine
 62
7
  6
CONTINUOUS
 10
3.7330545519
 20
6.2905924743
 11
3.733358618
 21
6.2792469455
  0
LINE
  5
2E4
100
AcDbEntity
  8
0
100
AcDbLine
 62
7
  6
CONTINUOUS
 10
3.7178487788
 20
6.8715438091
 11
3.7181389085
 21
6.8601979154
  0
LINE
  5
2E5
100
AcDbEntity
  8
0
100
AcDbLine
 62
7
  6
CONTINUOUS
 10
3.6282393601
 20
6.7955394156
 11
3.6284665331
 21
6.7842091479
  0
LINE
  5
2E6
100
AcDbEntity
  8
0
100
AcDbLine
 62
7
  6
CONTINUOUS
 10
3.63584617
 20
6.3567315362
 11
3.6360102095
 21
6.3454001787
  0
LINE
  5
2E7
100
AcDbEntity
  8
0
100
AcDbLine
 62
7
  6
CONTINUOUS
 10
3.7181389085
 20
6.2711540294
 11
3.7178487788
 21
6.2598081357
  0
LINE
  5
2E8
100
AcDbEntity
  8
0
100
AcDbLine
 62
7
  6
CONTINUOUS
 10
3.733358618
 20
6.8521049993
 11
3.7330545519
 21
6.8407594705
  0
LINE
  5
2E9
100
AcDbEntity
  8
0
100
AcDbLine
 62
7
  6
CONTINUOUS
 10
5.1873925269
 20
7.0954657385
 11
5.193892691
 21
7.1047794374
  0
LINE
  5
2EA
100
AcDbEntity
  8
0
100
AcDbLine
 62
7
  6
CONTINUOUS
 10
4.7929344844
 20
6.5321517738
 11
4.7994633114
 21
6.5414454027
  0
LINE
  5
2EB
100
AcDbEntity
  8
0
100
AcDbLine
 62
7
  6
CONTINUOUS
 10
5.2106606189
 20
7.1022477689
 11
5.2175608542
 21
7.11126907
  0
LINE
  5
2EC
100
AcDbEntity
  8
0
100
AcDbLine
 62
7
  6
CONTINUOUS
 10
4.7920066031
 20
6.5566759724
 11
4.7989345985
 21
6.5656759724
  0
LINE
  5
2ED
100
AcDbEntity
  8
0
100
AcDbLine
 62
7
  6
CONTINUOUS
 10
5.234202393
 20
7.1080084044
 11
5.2414895644
 21
7.1167201351
  0
LINE
  5
2EE
100
AcDbEntity
  8
0
100
AcDbLine
 62
7
  6
CONTINUOUS
 10
4.7921493354
 20
6.581217303
 11
4.7994633114
 21
6.5899065421
  0
LINE
  5
2EF
100
AcDbEntity
  8
0
100
AcDbLine
 62
7
  6
CONTINUOUS
 10
4.9872225147
 20
6.589744324
 11
4.9797566584
 21
6.581214351
  0
LINE
  5
2F0
100
AcDbEntity
  8
0
100
AcDbLine
 62
7
  6
CONTINUOUS
 10
5.2901238681
 20
6.9351203254
 11
5.28264136
 21
6.9266049556
  0
LINE
  5
2F1
100
AcDbEntity
  8
0
100
AcDbLine
 62
7
  6
CONTINUOUS
 10
5.2579730358
 20
7.1127366792
 11
5.2656332718
 21
7.1211222564
  0
LINE
  5
2F2
100
AcDbEntity
  8
0
100
AcDbLine
 62
7
  6
CONTINUOUS
 10
4.7933624097
 20
6.6057290498
 11
4.8010484437
 21
6.6140909875
  0
LINE
  5
2F3
100
AcDbEntity
  8
0
100
AcDbLine
 62
7
  6
CONTINUOUS
 10
4.9895828895
 20
6.6137096111
 11
4.9815751312
 21
6.6056861919
  0
LINE
  5
2F4
100
AcDbEntity
  8
0
100
AcDbLine
 62
7
  6
CONTINUOUS
 10
5.314424379
 20
6.9385354397
 11
5.3064009598
 21
6.9305276814
  0
LINE
  5
2F5
100
AcDbEntity
  8
0
100
AcDbLine
 62
7
  6
CONTINUOUS
 10
4.9935056153
 20
6.6374692109
 11
4.9849902455
 21
6.6299867028
  0
LINE
  5
2F6
100
AcDbEntity
  8
0
100
AcDbLine
 62
7
  6
CONTINUOUS
 10
5.3388962199
 20
6.9403539125
 11
5.3303662469
 21
6.9328880561
  0
LINE
  5
2F7
100
AcDbEntity
  8
0
100
AcDbLine
 62
7
  6
CONTINUOUS
 10
7.4990545519
 20
7.010770422
 11
7.5097508293
 21
7.0145655673
  0
LINE
  5
2F8
100
AcDbEntity
  8
0
100
AcDbLine
 62
7
  6
CONTINUOUS
 10
6.9512358415
 20
6.8167850371
 11
6.9619367727
 21
6.8205670408
  0
LINE
  5
2F9
100
AcDbEntity
  8
0
100
AcDbLine
 62
7
  6
CONTINUOUS
 10
5.6604154158
 20
6.3612261266
 11
5.6711460236
 21
6.3648803718
  0
LINE
  5
2FA
100
AcDbEntity
  8
0
100
AcDbLine
 62
7
  6
CONTINUOUS
 10
7.5221507989
 20
7.002591612
 11
7.53303104
 21
7.0058217563
  0
LINE
  5
2FB
100
AcDbEntity
  8
0
100
AcDbLine
 62
7
  6
CONTINUOUS
 10
6.9649304444
 20
6.8375426934
 11
6.9758146451
 21
6.8407594705
  0
LINE
  5
2FC
100
AcDbEntity
  8
0
100
AcDbLine
 62
7
  6
CONTINUOUS
 10
7.0621286028
 20
6.7714998166
 11
7.073023027
 21
6.7746204086
  0
LINE
  5
2FD
100
AcDbEntity
  8
0
100
AcDbLine
 62
7
  6
CONTINUOUS
 10
5.5731845985
 20
3.1906759724
 11
5.1356845985
 21
3.1906759724
  0
LINE
  5
2FE
100
AcDbEntity
  8
0
100
AcDbLine
 62
7
  6
CONTINUOUS
 10
3.1247714625
 20
6.1498877523
 11
3.1204345985
 21
6.1603760834
  0
LINE
  5
2FF
100
AcDbEntity
  8
0
100
AcDbLine
 62
7
  6
CONTINUOUS
 10
3.1033255338
 20
6.1624772154
 11
3.0995435301
 21
6.1731781466
  0
LINE
  5
300
100
AcDbEntity
  8
0
100
AcDbLine
 62
7
  6
CONTINUOUS
 10
3.1640168185
 20
6.2631080973
 11
3.1603364996
 21
6.2738263912
  0
LINE
  5
301
100
AcDbEntity
  8
0
100
AcDbLine
 62
7
  6
CONTINUOUS
 10
3.0226167056
 20
6.6785791872
 11
3.018996164
 21
6.6893178209
  0
LINE
  5
302
100
AcDbEntity
  8
0
100
AcDbLine
 62
7
  6
CONTINUOUS
 10
2.9151942666
 20
6.7412225391
 11
2.9142888146
 21
6.7442724139
  0
LINE
  5
303
100
AcDbEntity
  8
0
100
AcDbLine
 62
7
  6
CONTINUOUS
 10
3.0825678775
 20
6.1761718183
 11
3.0793511004
 21
6.187056019
  0
LINE
  5
304
100
AcDbEntity
  8
0
100
AcDbLine
 62
7
  6
CONTINUOUS
 10
3.1435960282
 20
6.2769661747
 11
3.140663946
 21
6.2879128393
  0
LINE
  5
305
100
AcDbEntity
  8
0
100
AcDbLine
 62
7
  6
CONTINUOUS
 10
3.0311966592
 20
6.7012026658
 11
3.0283256151
 21
6.7121654975
  0
LINE
  5
306
100
AcDbEntity
  8
0
100
AcDbLine
 62
7
  6
CONTINUOUS
 10
4.8135002437
 20
6.4114155633
 11
4.817862802
 21
6.4219019928
  0
LINE
  5
307
100
AcDbEntity
  8
0
100
AcDbLine
 62
7
  6
CONTINUOUS
 10
5.0979332438
 20
7.0584104902
 11
5.1027173491
 21
7.0687114347
  0
LINE
  5
308
100
AcDbEntity
  8
0
100
AcDbLine
 62
7
  6
CONTINUOUS
 10
4.8072863488
 20
6.4351576101
 11
4.8121021665
 21
6.4454437669
  0
LINE
  5
309
100
AcDbEntity
  8
0
100
AcDbLine
 62
7
  6
CONTINUOUS
 10
5.1196701541
 20
7.0691299481
 11
5.1248990268
 21
7.0792124086
  0
LINE
  5
30A
100
AcDbEntity
  8
0
100
AcDbLine
 62
7
  6
CONTINUOUS
 10
4.8021139817
 20
6.4591481062
 11
4.8073738917
 21
6.4692144097
  0
LINE
  5
30B
100
AcDbEntity
  8
0
100
AcDbLine
 62
7
  6
CONTINUOUS
 10
5.1418539518
 20
7.0788910527
 11
5.1475176386
 21
7.0887358367
  0
LINE
  5
30C
100
AcDbEntity
  8
0
100
AcDbLine
 62
7
  6
CONTINUOUS
 10
4.9895828895
 20
6.5176423337
 11
4.9839246027
 21
6.5078197454
  0
LINE
  5
30D
100
AcDbEntity
  8
0
100
AcDbLine
 62
7
  6
CONTINUOUS
 10
5.2192845629
 20
6.9154751546
 11
5.2136070954
 21
6.9056636404
  0
LINE
  5
30E
100
AcDbEntity
  8
0
100
AcDbLine
 62
7
  6
CONTINUOUS
 10
4.7979929883
 20
6.483341384
 11
4.803686978
 21
6.4931686726
  0
LINE
  5
30F
100
AcDbEntity
  8
0
100
AcDbLine
 62
7
  6
CONTINUOUS
 10
5.1644424089
 20
7.0876752232
 11
5.1705301285
 21
7.0972635907
  0
LINE
  5
310
100
AcDbEntity
  8
0
100
AcDbLine
 62
7
  6
CONTINUOUS
 10
4.7949312131
 20
6.5076913904
 11
4.8010484437
 21
6.5172609573
  0
LINE
  5
311
100
AcDbEntity
  8
0
100
AcDbLine
 62
7
  6
CONTINUOUS
 10
4.9872225147
 20
6.5416076208
 11
4.9809339147
 21
6.5321761332
  0
LINE
  5
312
100
AcDbEntity
  8
0
100
AcDbLine
 62
7
  6
CONTINUOUS
 10
5.2424518906
 20
6.923565443
 11
5.2361448753
 21
6.9141462601
  0
LINE
  5
313
100
AcDbEntity
  8
0
100
AcDbLine
 62
7
  6
CONTINUOUS
 10
4.9864345985
 20
6.5656759724
 11
4.9795426141
 21
6.5566759724
  0
LINE
  5
314
100
AcDbEntity
  8
0
100
AcDbLine
 62
7
  6
CONTINUOUS
 10
5.2660987455
 20
6.9301231936
 11
5.2591891899
 21
6.9211366765
  0
LINE
  5
315
100
AcDbEntity
  8
0
100
AcDbLine
 62
7
  6
CONTINUOUS
 10
5.7098953026
 20
6.4704305638
 11
5.7188818197
 21
6.4773401194
  0
LINE
  5
316
100
AcDbEntity
  8
0
100
AcDbLine
 62
7
  6
CONTINUOUS
 10
5.7029048861
 20
6.4473862492
 11
5.7123240691
 21
6.4536932645
  0
LINE
  5
317
100
AcDbEntity
  8
0
100
AcDbLine
 62
7
  6
CONTINUOUS
 10
5.6944222665
 20
6.4248484693
 11
5.7042337807
 21
6.4305259368
  0
LINE
  5
318
100
AcDbEntity
  8
0
100
AcDbLine
 62
7
  6
CONTINUOUS
 10
5.8774944628
 20
6.3587590125
 11
5.8676496788
 21
6.3530953257
  0
LINE
  5
319
100
AcDbEntity
  8
0
100
AcDbLine
 62
7
  6
CONTINUOUS
 10
5.8679710347
 20
6.3361404007
 11
5.8578885742
 21
6.330911528
  0
LINE
  5
31A
100
AcDbEntity
  8
0
100
AcDbLine
 62
7
  6
CONTINUOUS
 10
5.6844837674
 20
6.4029137344
 11
5.6946455986
 21
6.4079373423
  0
LINE
  5
31B
100
AcDbEntity
  8
0
100
AcDbLine
 62
7
  6
CONTINUOUS
 10
7.4517372698
 20
7.0234490495
 11
7.4619782512
 21
7.0283414701
  0
LINE
  5
31C
100
AcDbEntity
  8
0
100
AcDbLine
 62
7
  6
CONTINUOUS
 10
6.9271965619
 20
6.7732636889
 11
6.9374435452
 21
6.7781435263
  0
LINE
  5
31D
100
AcDbEntity
  8
0
100
AcDbLine
 62
7
  6
CONTINUOUS
 10
5.8574700608
 20
6.313958723
 11
5.8471691163
 21
6.3091746177
  0
LINE
  5
31E
100
AcDbEntity
  8
0
100
AcDbLine
 62
7
  6
CONTINUOUS
 10
7.0365788505
 20
6.7293035174
 11
7.0469400042
 21
6.7338940584
  0
LINE
  5
31F
100
AcDbEntity
  8
0
100
AcDbLine
 62
7
  6
CONTINUOUS
 10
7.4383147388
 20
6.9059910794
 11
7.4487013093
 21
6.9105238189
  0
LINE
  5
320
100
AcDbEntity
  8
0
100
AcDbLine
 62
7
  6
CONTINUOUS
 10
5.6731319471
 20
6.3816759724
 11
5.6836005807
 21
6.3860242088
  0
LINE
  5
321
100
AcDbEntity
  8
0
100
AcDbLine
 62
7
  6
CONTINUOUS
 10
7.4755619116
 20
7.0177292591
 11
7.4860449076
 21
7.0220790032
  0
LINE
  5
322
100
AcDbEntity
  8
0
100
AcDbLine
 62
7
  6
CONTINUOUS
 10
6.9386463784
 20
6.7953391084
 11
6.9491347095
 21
6.7996759724
  0
LINE
  5
323
100
AcDbEntity
  8
0
100
AcDbLine
 62
7
  6
CONTINUOUS
 10
5.8460115303
 20
6.2922562033
 11
5.8355117103
 21
6.2879259724
  0
LINE
  5
324
100
AcDbEntity
  8
0
100
AcDbLine
 62
7
  6
CONTINUOUS
 10
7.0486250658
 20
6.7508428693
 11
7.0592782383
 21
6.7547076445
  0
LINE
  5
325
100
AcDbEntity
  8
0
100
AcDbLine
 62
7
  6
CONTINUOUS
 10
5.8336172552
 20
6.2710741538
 11
5.8229385466
 21
6.26720604
  0
LINE
  5
326
100
AcDbEntity
  8
0
100
AcDbLine
 62
7
  6
CONTINUOUS
 10
7.461593604
 20
6.8993932143
 11
7.4722681449
 21
6.9031985721
  0
LINE
  5
327
100
AcDbEntity
  8
0
100
AcDbLine
 62
7
  6
CONTINUOUS
 10
5.8203108286
 20
6.2504528955
 11
5.8094735591
 21
6.247054262
  0
LINE
  5
328
100
AcDbEntity
  8
0
100
AcDbLine
 62
7
  6
CONTINUOUS
 10
3.1694912849
 20
6.128159149
 11
3.1640818495
 21
6.1381366982
  0
LINE
  5
329
100
AcDbEntity
  8
0
100
AcDbLine
 62
7
  6
CONTINUOUS
 10
3.2074790426
 20
6.2397767324
 11
3.2023583479
 21
6.2498863842
  0
LINE
  5
32A
100
AcDbEntity
  8
0
100
AcDbLine
 62
7
  6
CONTINUOUS
 10
3.146846882
 20
6.1384379358
 11
3.1419670446
 21
6.1486849191
  0
LINE
  5
32B
100
AcDbEntity
  8
0
100
AcDbLine
 62
7
  6
CONTINUOUS
 10
3.1853450362
 20
6.2506918936
 11
3.1809340191
 21
6.2611307394
  0
LINE
  5
32C
100
AcDbEntity
  8
0
100
AcDbLine
 62
7
  6
CONTINUOUS
 10
3.0123905119
 20
6.6631759724
 11
3.0112652299
 21
6.6658809345
  0
LINE
  5
32D
100
AcDbEntity
  8
0
100
AcDbLine
 62
7
  6
CONTINUOUS
 10
3.5751126861
 20
6.8469364063
 11
3.5776651847
 21
6.8358950602
  0
LINE
  5
32E
100
AcDbEntity
  8
0
100
AcDbLine
 62
7
  6
CONTINUOUS
 10
3.6728020752
 20
6.4190731082
 11
3.675293014
 21
6.4080177115
  0
LINE
  5
32F
100
AcDbEntity
  8
0
100
AcDbLine
 62
7
  6
CONTINUOUS
 10
3.7714256518
 20
6.3532084185
 11
3.7735008061
 21
6.3420501384
  0
LINE
  5
330
100
AcDbEntity
  8
0
100
AcDbLine
 62
7
  6
CONTINUOUS
 10
3.6655262758
 20
6.9246285714
 11
3.6675877223
 21
6.9134677507
  0
LINE
  5
331
100
AcDbEntity
  8
0
100
AcDbLine
 62
7
  6
CONTINUOUS
 10
3.5939913495
 20
6.8310414054
 11
3.5957760111
 21
6.8198502681
  0
LINE
  5
332
100
AcDbEntity
  8
0
100
AcDbLine
 62
7
  6
CONTINUOUS
 10
3.6619291928
 20
6.3974578864
 11
3.6636514719
 21
6.3862569789
  0
LINE
  5
333
100
AcDbEntity
  8
0
100
AcDbLine
 62
7
  6
CONTINUOUS
 10
3.7597344875
 20
6.3316759724
 11
3.7612228186
 21
6.3204243792
  0
LINE
  5
334
100
AcDbEntity
  8
0
100
AcDbLine
 62
7
  6
CONTINUOUS
 10
3.683886063
 20
6.9078553589
 11
3.6853605721
 21
6.896601946
  0
LINE
  5
335
100
AcDbEntity
  8
0
100
AcDbLine
 62
7
  6
CONTINUOUS
 10
5.0162676247
 20
7.0063837529
 11
5.0191903084
 21
7.0173589541
  0
LINE
  5
336
100
AcDbEntity
  8
0
100
AcDbLine
 62
7
  6
CONTINUOUS
 10
4.8382630359
 20
6.3421291809
 11
4.8412195182
 21
6.3530953257
  0
LINE
  5
337
100
AcDbEntity
  8
0
100
AcDbLine
 62
7
  6
CONTINUOUS
 10
5.0358128881
 20
7.020714933
 11
5.0392115216
 21
7.0315522025
  0
LINE
  5
338
100
AcDbEntity
  8
0
100
AcDbLine
 62
7
  6
CONTINUOUS
 10
4.8290033428
 20
6.3648570352
 11
4.8324353476
 21
6.3756837828
  0
LINE
  5
339
100
AcDbEntity
  8
0
100
AcDbLine
 62
7
  6
CONTINUOUS
 10
5.0059643108
 20
6.4473862492
 11
5.0023310383
 21
6.4366485222
  0
LINE
  5
33A
100
AcDbEntity
  8
0
100
AcDbLine
 62
7
  6
CONTINUOUS
 10
5.1536389979
 20
6.8823873975
 11
5.1499847527
 21
6.8716567897
  0
LINE
  5
33B
100
AcDbEntity
  8
0
100
AcDbLine
 62
7
  6
CONTINUOUS
 10
5.0559646661
 20
7.0341799205
 11
5.0598327799
 21
7.0448586291
  0
LINE
  5
33C
100
AcDbEntity
  8
0
100
AcDbLine
 62
7
  6
CONTINUOUS
 10
4.8207438379
 20
6.3879671598
 11
4.8246448324
 21
6.3986339008
  0
LINE
  5
33D
100
AcDbEntity
  8
0
100
AcDbLine
 62
7
  6
CONTINUOUS
 10
5.0766845985
 20
7.0467530842
 11
5.0810148294
 21
7.0572529042
  0
LINE
  5
33E
100
AcDbEntity
  8
0
100
AcDbLine
 62
7
  6
CONTINUOUS
 10
4.9989738944
 20
6.4704305638
 11
4.9946461201
 21
6.4599534545
  0
LINE
  5
33F
100
AcDbEntity
  8
0
100
AcDbLine
 62
7
  6
CONTINUOUS
 10
5.1747828349
 20
6.8948419546
 11
5.1704345985
 21
6.884373321
  0
LINE
  5
340
100
AcDbEntity
  8
0
100
AcDbLine
 62
7
  6
CONTINUOUS
 10
4.9935056153
 20
6.4938827339
 11
4.9885018713
 21
6.4837111069
  0
LINE
  5
341
100
AcDbEntity
  8
0
100
AcDbLine
 62
7
  6
CONTINUOUS
 10
5.1966959684
 20
6.9058869725
 11
5.1916723605
 21
6.8957251413
  0
LINE
  5
342
100
AcDbEntity
  8
0
100
AcDbLine
 62
7
  6
CONTINUOUS
 10
5.7216466822
 20
6.5416076208
 11
5.7291125386
 21
6.5501375938
  0
LINE
  5
343
100
AcDbEntity
  8
0
100
AcDbLine
 62
7
  6
CONTINUOUS
 10
5.7192863075
 20
6.5176423337
 11
5.7272940658
 21
6.5256657529
  0
LINE
  5
344
100
AcDbEntity
  8
0
100
AcDbLine
 62
7
  6
CONTINUOUS
 10
5.9132256801
 20
6.5011873915
 11
5.905182219
 21
6.4931686726
  0
LINE
  5
345
100
AcDbEntity
  8
0
100
AcDbLine
 62
7
  6
CONTINUOUS
 10
5.9098808825
 20
6.4768746457
 11
5.9014953053
 21
6.4692144097
  0
LINE
  5
346
100
AcDbEntity
  8
0
100
AcDbLine
 62
7
  6
CONTINUOUS
 10
5.7153635817
 20
6.4938827339
 11
5.7238789515
 21
6.501365242
  0
LINE
  5
347
100
AcDbEntity
  8
0
100
AcDbLine
 62
7
  6
CONTINUOUS
 10
5.9054787612
 20
6.4527309383
 11
5.8967670304
 21
6.4454437669
  0
LINE
  5
348
100
AcDbEntity
  8
0
100
AcDbLine
 62
7
  6
CONTINUOUS
 10
5.9000276961
 20
6.4288022281
 11
5.891006395
 21
6.4219019928
  0
LINE
  5
349
100
AcDbEntity
  8
0
100
AcDbLine
 62
7
  6
CONTINUOUS
 10
5.8935380635
 20
6.4051340649
 11
5.8842243646
 21
6.3986339008
  0
LINE
  5
34A
100
AcDbEntity
  8
0
100
AcDbLine
 62
7
  6
CONTINUOUS
 10
5.8860222168
 20
6.3817715024
 11
5.8764338493
 21
6.3756837828
  0
LINE
  5
34B
100
AcDbEntity
  8
0
100
AcDbLine
 62
7
  6
CONTINUOUS
 10
7.4033539193
 20
7.0311122194
 11
7.4130274024
 21
7.0370483128
  0
LINE
  5
34C
100
AcDbEntity
  8
0
100
AcDbLine
 62
7
  6
CONTINUOUS
 10
6.9078381915
 20
6.7274679663
 11
6.9175189589
 21
6.7333921728
  0
LINE
  5
34D
100
AcDbEntity
  8
0
100
AcDbLine
 62
7
  6
CONTINUOUS
 10
7.4276459281
 20
7.0279141158
 11
7.4376168252
 21
7.033335803
  0
LINE
  5
34E
100
AcDbEntity
  8
0
100
AcDbLine
 62
7
  6
CONTINUOUS
 10
6.9169177751
 20
6.750619286
 11
6.9268953243
 21
6.7560287214
  0
LINE
  5
34F
100
AcDbEntity
  8
0
100
AcDbLine
 62
7
  6
CONTINUOUS
 10
7.0260473626
 20
6.7069844057
 11
7.0360671218
 21
6.7122788366
  0
LINE
  5
350
100
AcDbEntity
  8
0
100
AcDbLine
 62
7
  6
CONTINUOUS
 10
7.4146361466
 20
6.910967188
 11
7.4246852498
 21
6.9162057086
  0
LINE
  5
351
100
AcDbEntity
  8
0
100
AcDbLine
 62
7
  6
CONTINUOUS
 10
7.6536706654
 20
6.3700640446
 11
7.6428904435
 21
6.3665692787
  0
LINE
  5
352
100
AcDbEntity
  8
0
100
AcDbLine
 62
7
  6
CONTINUOUS
 10
7.235820814
 20
6.2358562942
 11
7.2250212873
 21
6.2324216478
  0
LINE
  5
353
100
AcDbEntity
  8
0
100
AcDbLine
 62
7
  6
CONTINUOUS
 10
7.1867183981
 20
6.1287603328
 11
7.1758381569
 21
6.1255301885
  0
LINE
  5
354
100
AcDbEntity
  8
0
100
AcDbLine
 62
7
  6
CONTINUOUS
 10
7.7439387526
 20
6.2938092514
 11
7.7330545519
 21
6.2905924743
  0
LINE
  5
355
100
AcDbEntity
  8
0
100
AcDbLine
 62
7
  6
CONTINUOUS
 10
3.2162373849
 20
6.1112240716
 11
3.2098146451
 21
6.1205815228
  0
LINE
  5
356
100
AcDbEntity
  8
0
100
AcDbLine
 62
7
  6
CONTINUOUS
 10
3.1926426046
 20
6.1190795654
 11
3.1867183981
 21
6.1287603328
  0
LINE
  5
357
100
AcDbEntity
  8
0
100
AcDbLine
 62
7
  6
CONTINUOUS
 10
3.2303133592
 20
6.2304146296
 11
3.2245073893
 21
6.2401469102
  0
LINE
  5
358
100
AcDbEntity
  8
0
100
AcDbLine
 62
7
  6
CONTINUOUS
 10
3.5342954414
 20
6.8746360462
 11
3.5383435215
 21
6.8640511692
  0
LINE
  5
359
100
AcDbEntity
  8
0
100
AcDbLine
 62
7
  6
CONTINUOUS
 10
3.6899517577
 20
6.4642931045
 11
3.693940798
 21
6.4536858367
  0
LINE
  5
35A
100
AcDbEntity
  8
0
100
AcDbLine
 62
7
  6
CONTINUOUS
 10
3.7995290481
 20
6.421056019
 11
3.8033241934
 21
6.4103597416
  0
LINE
  5
35B
100
AcDbEntity
  8
0
100
AcDbLine
 62
7
  6
CONTINUOUS
 10
3.6055436632
 20
6.9688747294
 11
3.6093256669
 21
6.9581737982
  0
LINE
  5
35C
100
AcDbEntity
  8
0
100
AcDbLine
 62
7
  6
CONTINUOUS
 10
3.5551823911
 20
6.861491073
 11
3.5584905629
 21
6.8506521353
  0
LINE
  5
35D
100
AcDbEntity
  8
0
100
AcDbLine
 62
7
  6
CONTINUOUS
 10
3.6821577916
 20
6.4413869595
 11
3.6854055196
 21
6.4305297575
  0
LINE
  5
35E
100
AcDbEntity
  8
0
100
AcDbLine
 62
7
  6
CONTINUOUS
 10
3.7913502381
 20
6.397959772
 11
3.7945803824
 21
6.3870795308
  0
LINE
  5
35F
100
AcDbEntity
  8
0
100
AcDbLine
 62
7
  6
CONTINUOUS
 10
3.6263013195
 20
6.9551801265
 11
3.6295180966
 21
6.9442959258
  0
LINE
  5
360
100
AcDbEntity
  8
0
100
AcDbLine
 62
7
  6
CONTINUOUS
 10
3.7819738727
 20
6.3753232234
 11
3.7846301623
 21
6.3642888406
  0
LINE
  5
361
100
AcDbEntity
  8
0
100
AcDbLine
 62
7
  6
CONTINUOUS
 10
3.6463138079
 20
6.9404179197
 11
3.6489565415
 21
6.9293802824
  0
LINE
  5
362
100
AcDbEntity
  8
0
100
AcDbLine
 62
7
  6
CONTINUOUS
 10
4.9448770379
 20
6.9409663327
 11
4.9458494958
 21
6.9522823146
  0
LINE
  5
363
100
AcDbEntity
  8
0
100
AcDbLine
 62
7
  6
CONTINUOUS
 10
4.8849233348
 20
6.2558931077
 11
4.8859306503
 21
6.26720604
  0
LINE
  5
364
100
AcDbEntity
  8
0
100
AcDbLine
 62
7
  6
CONTINUOUS
 10
4.9616367815
 20
6.9584737893
 11
4.9631019101
 21
6.9697365829
  0
LINE
  5
365
100
AcDbEntity
  8
0
100
AcDbLine
 62
7
  6
CONTINUOUS
 10
4.8718576667
 20
6.2766677461
 11
4.8733574867
 21
6.2879259724
  0
LINE
  5
366
100
AcDbEntity
  8
0
100
AcDbLine
 62
7
  6
CONTINUOUS
 10
4.9791442382
 20
6.975233533
 11
4.9810992484
 21
6.9864216989
  0
LINE
  5
367
100
AcDbEntity
  8
0
100
AcDbLine
 62
7
  6
CONTINUOUS
 10
4.8597106112
 20
6.297992528
 11
4.8617000807
 21
6.3091746177
  0
LINE
  5
368
100
AcDbEntity
  8
0
100
AcDbLine
 62
7
  6
CONTINUOUS
 10
5.0243854296
 20
6.4029137344
 11
5.0221847948
 21
6.3917936329
  0
LINE
  5
369
100
AcDbEntity
  8
0
100
AcDbLine
 62
7
  6
CONTINUOUS
 10
5.1140176957
 20
6.8534688021
 11
5.1117953385
 21
6.8423530215
  0
LINE
  5
36A
100
AcDbEntity
  8
0
100
AcDbLine
 62
7
  6
CONTINUOUS
 10
4.9973660813
 20
6.9912136605
 11
4.9998072517
 21
7.0023059014
  0
LINE
  5
36B
100
AcDbEntity
  8
0
100
AcDbLine
 62
7
  6
CONTINUOUS
 10
4.848505291
 20
6.3198268605
 11
4.8509806228
 21
6.330911528
  0
LINE
  5
36C
100
AcDbEntity
  8
0
100
AcDbLine
 62
7
  6
CONTINUOUS
 10
5.0144469305
 20
6.4248484693
 11
5.0115237181
 21
6.4138961052
  0
LINE
  5
36D
100
AcDbEntity
  8
0
100
AcDbLine
 62
7
  6
CONTINUOUS
 10
5.1333549984
 20
6.8685766334
 11
5.1304103926
 21
6.8576300016
  0
LINE
  5
36E
100
AcDbEntity
  8
0
100
AcDbLine
 62
7
  6
CONTINUOUS
 10
5.7192863075
 20
6.6137096111
 11
5.7249445943
 21
6.6235321994
  0
LINE
  5
36F
100
AcDbEntity
  8
0
100
AcDbLine
 62
7
  6
CONTINUOUS
 10
5.9139379839
 20
6.6236605544
 11
5.9078207533
 21
6.6140909875
  0
LINE
  5
370
100
AcDbEntity
  8
0
100
AcDbLine
 62
7
  6
CONTINUOUS
 10
5.7216466822
 20
6.589744324
 11
5.7279352823
 21
6.5991758116
  0
LINE
  5
371
100
AcDbEntity
  8
0
100
AcDbLine
 62
7
  6
CONTINUOUS
 10
5.9159347126
 20
6.599200171
 11
5.9094058856
 21
6.5899065421
  0
LINE
  5
372
100
AcDbEntity
  8
0
100
AcDbLine
 62
7
  6
CONTINUOUS
 10
5.7224345985
 20
6.5656759724
 11
5.7293265829
 21
6.5746759724
  0
LINE
  5
373
100
AcDbEntity
  8
0
100
AcDbLine
 62
7
  6
CONTINUOUS
 10
5.9168625939
 20
6.5746759724
 11
5.9099345985
 21
6.5656759724
  0
LINE
  5
374
100
AcDbEntity
  8
0
100
AcDbLine
 62
7
  6
CONTINUOUS
 10
5.9167198615
 20
6.5501346418
 11
5.9094058856
 21
6.5414454027
  0
LINE
  5
375
100
AcDbEntity
  8
0
100
AcDbLine
 62
7
  6
CONTINUOUS
 10
5.9155067872
 20
6.525622895
 11
5.9078207533
 21
6.5172609573
  0
LINE
  5
376
100
AcDbEntity
  8
0
100
AcDbLine
 62
7
  6
CONTINUOUS
 10
7.3544345985
 20
7.0336759724
 11
7.3634345985
 21
7.0405907016
  0
LINE
  5
377
100
AcDbEntity
  8
0
100
AcDbLine
 62
7
  6
CONTINUOUS
 10
6.8933728249
 20
6.6798996167
 11
6.9023813118
 21
6.6868032855
  0
LINE
  5
378
100
AcDbEntity
  8
0
100
AcDbLine
 62
7
  6
CONTINUOUS
 10
7.0097218608
 20
6.660435555
 11
7.0189174393
 21
6.6670588403
  0
LINE
  5
379
100
AcDbEntity
  8
0
100
AcDbLine
 62
7
  6
CONTINUOUS
 10
7.3665325052
 20
6.9159671237
 11
7.3757648446
 21
6.9225390702
  0
LINE
  5
37A
100
AcDbEntity
  8
0
100
AcDbLine
 62
7
  6
CONTINUOUS
 10
7.378927826
 20
7.0330345947
 11
7.3882773808
 21
7.0394688238
  0
LINE
  5
37B
100
AcDbEntity
  8
0
100
AcDbLine
 62
7
  6
CONTINUOUS
 10
6.8999826977
 20
6.7038731859
 11
6.9093401489
 21
6.7102959258
  0
LINE
  5
37C
100
AcDbEntity
  8
0
100
AcDbLine
 62
7
  6
CONTINUOUS
 10
7.0170807895
 20
6.6839918949
 11
7.0267114054
 21
6.6899649853
  0
LINE
  5
37D
100
AcDbEntity
  8
0
100
AcDbLine
 62
7
  6
CONTINUOUS
 10
7.3906706666
 20
6.9142978268
 11
7.4003344139
 21
6.9202171646
  0
LINE
  5
37E
100
AcDbEntity
  8
0
100
AcDbLine
 62
7
  6
CONTINUOUS
 10
7.2823508025
 20
6.2226684268
 11
7.2721268736
 21
6.2177798838
  0
LINE
  5
37F
100
AcDbEntity
  8
0
100
AcDbLine
 62
7
  6
CONTINUOUS
 10
7.2333072854
 20
6.1136226857
 11
7.2228242893
 21
6.1092729416
  0
LINE
  5
380
100
AcDbEntity
  8
0
100
AcDbLine
 62
7
  6
CONTINUOUS
 10
7.7702228186
 20
6.3360128364
 11
7.7597344875
 21
6.3316759724
  0
LINE
  5
381
100
AcDbEntity
  8
0
100
AcDbLine
 62
7
  6
CONTINUOUS
 10
7.666453158
 20
6.3911747733
 11
7.6559397304
 21
6.3869445946
  0
LINE
  5
382
100
AcDbEntity
  8
0
100
AcDbLine
 62
7
  6
CONTINUOUS
 10
7.2588580754
 20
6.2284588639
 11
7.2483212413
 21
6.2242873296
  0
LINE
  5
383
100
AcDbEntity
  8
0
100
AcDbLine
 62
7
  6
CONTINUOUS
 10
7.2098146451
 20
6.1205815228
 11
7.1991183676
 21
6.1167863775
  0
LINE
  5
384
100
AcDbEntity
  8
0
100
AcDbLine
 62
7
  6
CONTINUOUS
 10
7.7576333555
 20
6.3145669077
 11
7.7469324243
 21
6.310784904
  0
LINE
  5
385
100
AcDbEntity
  8
0
100
AcDbLine
 62
7
  6
CONTINUOUS
 10
3.2644976026
 20
6.0992680643
 11
3.2571319272
 21
6.1079028953
  0
LINE
  5
386
100
AcDbEntity
  8
0
100
AcDbLine
 62
7
  6
CONTINUOUS
 10
3.2776448405
 20
6.2165204439
 11
3.2705544582
 21
6.2253608654
  0
LINE
  5
387
100
AcDbEntity
  8
0
100
AcDbLine
 62
7
  6
CONTINUOUS
 10
3.2402109542
 20
6.1046141988
 11
3.2333072854
 21
6.1136226857
  0
LINE
  5
388
100
AcDbEntity
  8
0
100
AcDbLine
 62
7
  6
CONTINUOUS
 10
3.25373917
 20
6.2226501998
 11
3.247275593
 21
6.2319587305
  0
LINE
  5
389
100
AcDbEntity
  8
0
100
AcDbLine
 62
7
  6
CONTINUOUS
 10
3.7007134914
 20
6.5114433406
 11
3.7061246855
 21
6.5014861547
  0
LINE
  5
38A
100
AcDbEntity
  8
0
100
AcDbLine
 62
7
  6
CONTINUOUS
 10
3.8122076756
 20
6.4683733011
 11
3.8171000962
 21
6.4581323197
  0
LINE
  5
38B
100
AcDbEntity
  8
0
100
AcDbLine
 62
7
  6
CONTINUOUS
 10
3.562022315
 20
6.992914009
 11
3.5669021524
 21
6.9826670257
  0
LINE
  5
38C
100
AcDbEntity
  8
0
100
AcDbLine
 62
7
  6
CONTINUOUS
 10
3.512551373
 20
6.8863086838
 11
3.5173200703
 21
6.8760283094
  0
LINE
  5
38D
100
AcDbEntity
  8
0
100
AcDbLine
 62
7
  6
CONTINUOUS
 10
3.6961468317
 20
6.487682385
 11
3.7008581748
 21
6.4773756
  0
LINE
  5
38E
100
AcDbEntity
  8
0
100
AcDbLine
 62
7
  6
CONTINUOUS
 10
3.8064878852
 20
6.4445486593
 11
3.8108376293
 21
6.4340656632
  0
LINE
  5
38F
100
AcDbEntity
  8
0
100
AcDbLine
 62
7
  6
CONTINUOUS
 10
3.5840977345
 20
6.9814641925
 11
3.5884345985
 21
6.9709758614
  0
LINE
  5
390
100
AcDbEntity
  8
0
100
AcDbLine
 62
7
  6
CONTINUOUS
 10
4.8859306503
 20
6.8641459048
 11
4.8849233348
 21
6.8754588371
  0
LINE
  5
391
100
AcDbEntity
  8
0
100
AcDbLine
 62
7
  6
CONTINUOUS
 10
4.9458494958
 20
6.1790696302
 11
4.9448770379
 21
6.1903856121
  0
LINE
  5
392
100
AcDbEntity
  8
0
100
AcDbLine
 62
7
  6
CONTINUOUS
 10
4.8993956379
 20
6.8842976828
 11
4.8988827442
 21
6.8956437861
  0
LINE
  5
393
100
AcDbEntity
  8
0
100
AcDbLine
 62
7
  6
CONTINUOUS
 10
4.9293748465
 20
6.1972598256
 11
4.9288969103
 21
6.2086074552
  0
LINE
  5
394
100
AcDbEntity
  8
0
100
AcDbLine
 62
7
  6
CONTINUOUS
 10
4.913726818
 20
6.9038429462
 11
4.9137093225
 21
6.9152006226
  0
LINE
  5
395
100
AcDbEntity
  8
0
100
AcDbLine
 62
7
  6
CONTINUOUS
 10
5.0624805693
 20
6.3416517665
 11
5.0624916432
 21
6.3303160122
  0
LINE
  5
396
100
AcDbEntity
  8
0
100
AcDbLine
 62
7
  6
CONTINUOUS
 10
5.0624916432
 20
6.8010359326
 11
5.0624805693
 21
6.7897001783
  0
LINE
  5
397
100
AcDbEntity
  8
0
100
AcDbLine
 62
7
  6
CONTINUOUS
 10
4.9137093225
 20
6.2161513221
 11
4.913726818
 21
6.2275089986
  0
LINE
  5
398
100
AcDbEntity
  8
0
100
AcDbLine
 62
7
  6
CONTINUOUS
 10
4.9288969103
 20
6.9227444896
 11
4.9293748465
 21
6.9340921192
  0
LINE
  5
399
100
AcDbEntity
  8
0
100
AcDbLine
 62
7
  6
CONTINUOUS
 10
4.8988827442
 20
6.2357081587
 11
4.8993956379
 21
6.247054262
  0
LINE
  5
39A
100
AcDbEntity
  8
0
100
AcDbLine
 62
7
  6
CONTINUOUS
 10
5.0484537812
 20
6.3612261266
 11
5.0477234376
 21
6.3499139187
  0
LINE
  5
39B
100
AcDbEntity
  8
0
100
AcDbLine
 62
7
  6
CONTINUOUS
 10
5.0785099934
 20
6.8196259917
 11
5.0777575493
 21
6.8083152324
  0
LINE
  5
39C
100
AcDbEntity
  8
0
100
AcDbLine
 62
7
  6
CONTINUOUS
 10
5.0357372499
 20
6.3816759724
 11
5.0342686163
 21
6.3704357515
  0
LINE
  5
39D
100
AcDbEntity
  8
0
100
AcDbLine
 62
7
  6
CONTINUOUS
 10
5.0957098951
 20
6.8371285978
 11
5.094219303
 21
6.8258912679
  0
LINE
  5
39E
100
AcDbEntity
  8
0
100
AcDbLine
 62
7
  6
CONTINUOUS
 10
5.7029048861
 20
6.6839656956
 11
5.7065381587
 21
6.6947034226
  0
LINE
  5
39F
100
AcDbEntity
  8
0
100
AcDbLine
 62
7
  6
CONTINUOUS
 10
5.6321845985
 20
6.0845988606
 11
5.6278543676
 21
6.0740990406
  0
LINE
  5
3A0
100
AcDbEntity
  8
0
100
AcDbLine
 62
7
  6
CONTINUOUS
 10
5.7098953026
 20
6.660921381
 11
5.7142230769
 21
6.6713984903
  0
LINE
  5
3A1
100
AcDbEntity
  8
0
100
AcDbLine
 62
7
  6
CONTINUOUS
 10
5.8953689533
 20
6.7199363815
 11
5.891006395
 21
6.709449952
  0
LINE
  5
3A2
100
AcDbEntity
  8
0
100
AcDbLine
 62
7
  6
CONTINUOUS
 10
5.6109359531
 20
6.0729414546
 11
5.6061518479
 21
6.0626405101
  0
LINE
  5
3A3
100
AcDbEntity
  8
0
100
AcDbLine
 62
7
  6
CONTINUOUS
 10
5.9015828482
 20
6.6961943347
 11
5.8967670304
 21
6.6859081779
  0
LINE
  5
3A4
100
AcDbEntity
  8
0
100
AcDbLine
 62
7
  6
CONTINUOUS
 10
5.7153635817
 20
6.6374692109
 11
5.7203673257
 21
6.6476408379
  0
LINE
  5
3A5
100
AcDbEntity
  8
0
100
AcDbLine
 62
7
  6
CONTINUOUS
 10
5.5891990429
 20
6.0622219967
 11
5.5839701702
 21
6.0521395362
  0
LINE
  5
3A6
100
AcDbEntity
  8
0
100
AcDbLine
 62
7
  6
CONTINUOUS
 10
5.9067552153
 20
6.6722038386
 11
5.9014953053
 21
6.6621375351
  0
LINE
  5
3A7
100
AcDbEntity
  8
0
100
AcDbLine
 62
7
  6
CONTINUOUS
 10
5.9108762087
 20
6.6480105608
 11
5.905182219
 21
6.6381832722
  0
LINE
  5
3A8
100
AcDbEntity
  8
0
100
AcDbLine
 62
7
  6
CONTINUOUS
 10
6.9999593835
 20
6.6120825659
 11
7.0081557056
 21
6.6199086042
  0
LINE
  5
3A9
100
AcDbEntity
  8
0
100
AcDbLine
 62
7
  6
CONTINUOUS
 10
7.3055152777
 20
7.0311122194
 11
7.3137431887
 21
7.0389298252
  0
LINE
  5
3AA
100
AcDbEntity
  8
0
100
AcDbLine
 62
7
  6
CONTINUOUS
 10
6.8839589475
 20
6.6310798089
 11
6.8921964551
 21
6.638887302
  0
LINE
  5
3AB
100
AcDbEntity
  8
0
100
AcDbLine
 62
7
  6
CONTINUOUS
 10
7.3181985304
 20
6.9142978268
 11
7.3264383305
 21
6.9220780753
  0
LINE
  5
3AC
100
AcDbEntity
  8
0
100
AcDbLine
 62
7
  6
CONTINUOUS
 10
7.329941371
 20
7.0330345947
 11
7.3385671478
 21
7.0404108711
  0
LINE
  5
3AD
100
AcDbEntity
  8
0
100
AcDbLine
 62
7
  6
CONTINUOUS
 10
6.8880266904
 20
6.6556129683
 11
6.8966615214
 21
6.6629786437
  0
LINE
  5
3AE
100
AcDbEntity
  8
0
100
AcDbLine
 62
7
  6
CONTINUOUS
 10
7.0040056454
 20
6.6364276424
 11
7.0127223653
 21
6.6436695597
  0
LINE
  5
3AF
100
AcDbEntity
  8
0
100
AcDbLine
 62
7
  6
CONTINUOUS
 10
7.3423366918
 20
6.9159671237
 11
7.3510936269
 21
6.9231603607
  0
LINE
  5
3B0
100
AcDbEntity
  8
0
100
AcDbLine
 62
7
  6
CONTINUOUS
 10
7.6875035833
 20
6.4357863986
 11
7.6776725378
 21
6.430149279
  0
LINE
  5
3B1
100
AcDbEntity
  8
0
100
AcDbLine
 62
7
  6
CONTINUOUS
 10
7.3061870416
 20
6.2185125768
 11
7.2963247398
 21
6.2129303214
  0
LINE
  5
3B2
100
AcDbEntity
  8
0
100
AcDbLine
 62
7
  6
CONTINUOUS
 10
7.2812232689
 20
6.103437829
 11
7.2712523718
 21
6.0980161418
  0
LINE
  5
3B3
100
AcDbEntity
  8
0
100
AcDbLine
 62
7
  6
CONTINUOUS
 10
7.7919514219
 20
6.3807326588
 11
7.7819738727
 21
6.3753232234
  0
LINE
  5
3B4
100
AcDbEntity
  8
0
100
AcDbLine
 62
7
  6
CONTINUOUS
 10
7.6777487402
 20
6.4131170796
 11
7.6675522081
 21
6.4081716469
  0
LINE
  5
3B5
100
AcDbEntity
  8
0
100
AcDbLine
 62
7
  6
CONTINUOUS
 10
7.2571319272
 20
6.1079028953
 11
7.2468909457
 21
6.1030104747
  0
LINE
  5
3B6
100
AcDbEntity
  8
0
100
AcDbLine
 62
7
  6
CONTINUOUS
 10
7.7816726351
 20
6.3580882559
 11
7.7714256518
 21
6.3532084185
  0
LINE
  5
3B7
100
AcDbEntity
  8
0
100
AcDbLine
 62
7
  6
CONTINUOUS
 10
3.3264383305
 20
6.2092738695
 11
3.3181985304
 21
6.217054118
  0
LINE
  5
3B8
100
AcDbEntity
  8
0
100
AcDbLine
 62
7
  6
CONTINUOUS
 10
3.3137431887
 20
6.0924221196
 11
3.3055152777
 21
6.1002397254
  0
LINE
  5
3B9
100
AcDbEntity
  8
0
100
AcDbLine
 62
7
  6
CONTINUOUS
 10
3.289030762
 20
6.0952003214
 11
3.2812232689
 21
6.103437829
  0
LINE
  5
3BA
100
AcDbEntity
  8
0
100
AcDbLine
 62
7
  6
CONTINUOUS
 10
3.301916449
 20
6.2120545732
 11
3.2942330504
 21
6.2203847567
  0
LINE
  5
3BB
100
AcDbEntity
  8
0
100
AcDbLine
 62
7
  6
CONTINUOUS
 10
3.4669099519
 20
6.9050217325
 11
3.473048383
 21
6.8954956506
  0
LINE
  5
3BC
100
AcDbEntity
  8
0
100
AcDbLine
 62
7
  6
CONTINUOUS
 10
3.7036299744
 20
6.5354627392
 11
3.7097152328
 21
6.5259026031
  0
LINE
  5
3BD
100
AcDbEntity
  8
0
100
AcDbLine
 62
7
  6
CONTINUOUS
 10
3.8198708455
 20
6.5167566516
 11
3.8258069389
 21
6.5070831685
  0
LINE
  5
3BE
100
AcDbEntity
  8
0
100
AcDbLine
 62
7
  6
CONTINUOUS
 10
3.5162265924
 20
7.0122723794
 11
3.5221507989
 21
7.002591612
  0
LINE
  5
3BF
100
AcDbEntity
  8
0
100
AcDbLine
 62
7
  6
CONTINUOUS
 10
3.4900538061
 20
6.8964533606
 11
3.4955203957
 21
6.8865264794
  0
LINE
  5
3C0
100
AcDbEntity
  8
0
100
AcDbLine
 62
7
  6
CONTINUOUS
 10
3.8166727419
 20
6.4924646428
 11
3.8220944291
 21
6.4824937457
  0
LINE
  5
3C1
100
AcDbEntity
  8
0
100
AcDbLine
 62
7
  6
CONTINUOUS
 10
3.5393779121
 20
7.0031927958
 11
3.5447873475
 21
6.9932152466
  0
LINE
  5
3C2
100
AcDbEntity
  8
0
100
AcDbLine
 62
7
  6
CONTINUOUS
 10
5.0777575493
 20
6.3230367124
 11
5.0785099934
 21
6.3117259531
  0
LINE
  5
3C3
100
AcDbEntity
  8
0
100
AcDbLine
 62
7
  6
CONTINUOUS
 10
5.0477234376
 20
6.7814380261
 11
5.0484537812
 21
6.7701258181
  0
LINE
  5
3C4
100
AcDbEntity
  8
0
100
AcDbLine
 62
7
  6
CONTINUOUS
 10
5.1356845985
 20
6.5656759724
 11
5.1356845985
 21
2.4406759724
  0
LINE
  5
3C5
100
AcDbEntity
  8
0
100
AcDbLine
 62
7
  6
CONTINUOUS
 10
5.6844837674
 20
6.7284382104
 11
5.6866844021
 21
6.7395583118
  0
LINE
  5
3C6
100
AcDbEntity
  8
0
100
AcDbLine
 62
7
  6
CONTINUOUS
 10
5.5948515013
 20
6.2778831427
 11
5.5970738585
 21
6.2889989232
  0
LINE
  5
3C7
100
AcDbEntity
  8
0
100
AcDbLine
 62
7
  6
CONTINUOUS
 10
5.7115031157
 20
6.1401382842
 11
5.7090619453
 21
6.1290460434
  0
LINE
  5
3C8
100
AcDbEntity
  8
0
100
AcDbLine
 62
7
  6
CONTINUOUS
 10
5.860363906
 20
6.8115250842
 11
5.8578885742
 21
6.8004404168
  0
LINE
  5
3C9
100
AcDbEntity
  8
0
100
AcDbLine
 62
7
  6
CONTINUOUS
 10
5.6926015723
 20
6.1249681919
 11
5.6896788886
 21
6.1139929907
  0
LINE
  5
3CA
100
AcDbEntity
  8
0
100
AcDbLine
 62
7
  6
CONTINUOUS
 10
5.6944222665
 20
6.7065034755
 11
5.6973454789
 21
6.7174558396
  0
LINE
  5
3CB
100
AcDbEntity
  8
0
100
AcDbLine
 62
7
  6
CONTINUOUS
 10
5.5755141986
 20
6.2627753114
 11
5.5784588044
 21
6.2737219432
  0
LINE
  5
3CC
100
AcDbEntity
  8
0
100
AcDbLine
 62
7
  6
CONTINUOUS
 10
5.8706061611
 20
6.7892227639
 11
5.8676496788
 21
6.7782566191
  0
LINE
  5
3CD
100
AcDbEntity
  8
0
100
AcDbLine
 62
7
  6
CONTINUOUS
 10
5.6730563089
 20
6.1106370118
 11
5.6696576754
 21
6.0997997423
  0
LINE
  5
3CE
100
AcDbEntity
  8
0
100
AcDbLine
 62
7
  6
CONTINUOUS
 10
5.8798658542
 20
6.7664949096
 11
5.8764338493
 21
6.755668162
  0
LINE
  5
3CF
100
AcDbEntity
  8
0
100
AcDbLine
 62
7
  6
CONTINUOUS
 10
5.6529045309
 20
6.0971720242
 11
5.6490364171
 21
6.0864933157
  0
LINE
  5
3D0
100
AcDbEntity
  8
0
100
AcDbLine
 62
7
  6
CONTINUOUS
 10
5.8881253591
 20
6.743384785
 11
5.8842243646
 21
6.732718044
  0
LINE
  5
3D1
100
AcDbEntity
  8
0
100
AcDbLine
 62
7
  6
CONTINUOUS
 10
7.2571319272
 20
7.0234490495
 11
7.2644976026
 21
7.0320838805
  0
LINE
  5
3D2
100
AcDbEntity
  8
0
100
AcDbLine
 62
7
  6
CONTINUOUS
 10
6.8796996998
 20
6.5815434231
 11
6.8870759762
 21
6.5901691999
  0
LINE
  5
3D3
100
AcDbEntity
  8
0
100
AcDbLine
 62
7
  6
CONTINUOUS
 10
6.9976023574
 20
6.5875163409
 11
7.0052392226
 21
6.5958892055
  0
LINE
  5
3D4
100
AcDbEntity
  8
0
100
AcDbLine
 62
7
  6
CONTINUOUS
 10
7.2942330504
 20
6.910967188
 11
7.301916449
 21
6.9192973716
  0
LINE
  5
3D5
100
AcDbEntity
  8
0
100
AcDbLine
 62
7
  6
CONTINUOUS
 10
7.2812232689
 20
7.0279141158
 11
7.289030762
 21
7.0361516234
  0
LINE
  5
3D6
100
AcDbEntity
  8
0
100
AcDbLine
 62
7
  6
CONTINUOUS
 10
6.8811807457
 20
6.6063673822
 11
6.8889983515
 21
6.6145952932
  0
LINE
  5
3D7
100
AcDbEntity
  8
0
100
AcDbLine
 62
7
  6
CONTINUOUS
 10
7.3544345985
 20
6.2151759724
 11
7.3454345985
 21
6.2082892771
  0
LINE
  5
3D8
100
AcDbEntity
  8
0
100
AcDbLine
 62
7
  6
CONTINUOUS
 10
7.329941371
 20
6.0983173501
 11
7.3205918162
 21
6.0918831209
  0
LINE
  5
3D9
100
AcDbEntity
  8
0
100
AcDbLine
 62
7
  6
CONTINUOUS
 10
7.6956712009
 20
6.4590747005
 11
7.6862524914
 21
6.4527727575
  0
LINE
  5
3DA
100
AcDbEntity
  8
0
100
AcDbLine
 62
7
  6
CONTINUOUS
 10
7.3302532024
 20
6.2160111185
 11
7.3207995259
 21
6.2097617525
  0
LINE
  5
3DB
100
AcDbEntity
  8
0
100
AcDbLine
 62
7
  6
CONTINUOUS
 10
7.3055152777
 20
6.1002397254
 11
7.2958417946
 21
6.094303632
  0
LINE
  5
3DC
100
AcDbEntity
  8
0
100
AcDbLine
 62
7
  6
CONTINUOUS
 10
3.3634345985
 20
6.0907612432
 11
3.3544345985
 21
6.0976759724
  0
LINE
  5
3DD
100
AcDbEntity
  8
0
100
AcDbLine
 62
7
  6
CONTINUOUS
 10
3.3510936269
 20
6.2081915841
 11
3.3423366918
 21
6.2153848211
  0
LINE
  5
3DE
100
AcDbEntity
  8
0
100
AcDbLine
 62
7
  6
CONTINUOUS
 10
3.3385671478
 20
6.0909410737
 11
3.329941371
 21
6.0983173501
  0
LINE
  5
3DF
100
AcDbEntity
  8
0
100
AcDbLine
 62
7
  6
CONTINUOUS
 10
3.4191270999
 20
6.9172739392
 11
3.4265183945
 21
6.908683518
  0
LINE
  5
3E0
100
AcDbEntity
  8
0
100
AcDbLine
 62
7
  6
CONTINUOUS
 10
3.7044647472
 20
6.5838183266
 11
3.7118080629
 21
6.5751868559
  0
LINE
  5
3E1
100
AcDbEntity
  8
0
100
AcDbLine
 62
7
  6
CONTINUOUS
 10
3.8224345985
 20
6.5656759724
 11
3.8293493277
 21
6.5566759724
  0
LINE
  5
3E2
100
AcDbEntity
  8
0
100
AcDbLine
 62
7
  6
CONTINUOUS
 10
3.4686582428
 20
7.026737746
 11
3.4755619116
 21
7.0177292591
  0
LINE
  5
3E3
100
AcDbEntity
  8
0
100
AcDbLine
 62
7
  6
CONTINUOUS
 10
3.4432301014
 20
6.9119729673
 11
3.4500111216
 21
6.9028930809
  0
LINE
  5
3E4
100
AcDbEntity
  8
0
100
AcDbLine
 62
7
  6
CONTINUOUS
 10
3.7048823824
 20
6.5596261178
 11
3.711612706
 21
6.5505085898
  0
LINE
  5
3E5
100
AcDbEntity
  8
0
100
AcDbLine
 62
7
  6
CONTINUOUS
 10
3.8217932208
 20
6.5411827449
 11
3.8282274499
 21
6.5318331901
  0
LINE
  5
3E6
100
AcDbEntity
  8
0
100
AcDbLine
 62
7
  6
CONTINUOUS
 10
3.492631812
 20
7.0201278732
 11
3.4990545519
 21
7.010770422
  0
LINE
  5
3E7
100
AcDbEntity
  8
0
100
AcDbLine
 62
7
  6
CONTINUOUS
 10
4.8509806228
 20
6.8004404168
 11
4.848505291
 21
6.8115250842
  0
LINE
  5
3E8
100
AcDbEntity
  8
0
100
AcDbLine
 62
7
  6
CONTINUOUS
 10
4.9998072517
 20
6.1290460434
 11
4.9973660813
 21
6.1401382842
  0
LINE
  5
3E9
100
AcDbEntity
  8
0
100
AcDbLine
 62
7
  6
CONTINUOUS
 10
4.8617000807
 20
6.822177327
 11
4.8597106112
 21
6.8333594168
  0
LINE
  5
3EA
100
AcDbEntity
  8
0
100
AcDbLine
 62
7
  6
CONTINUOUS
 10
4.9810992484
 20
6.1449302459
 11
4.9791442382
 21
6.1561184118
  0
LINE
  5
3EB
100
AcDbEntity
  8
0
100
AcDbLine
 62
7
  6
CONTINUOUS
 10
4.8733574867
 20
6.8434259724
 11
4.8718576667
 21
6.8546841987
  0
LINE
  5
3EC
100
AcDbEntity
  8
0
100
AcDbLine
 62
7
  6
CONTINUOUS
 10
5.094219303
 20
6.3054606769
 11
5.0957098951
 21
6.294223347
  0
LINE
  5
3ED
100
AcDbEntity
  8
0
100
AcDbLine
 62
7
  6
CONTINUOUS
 10
5.0342686163
 20
6.7609161933
 11
5.0357372499
 21
6.7496759724
  0
LINE
  5
3EE
100
AcDbEntity
  8
0
100
AcDbLine
 62
7
  6
CONTINUOUS
 10
4.9631019101
 20
6.1616153619
 11
4.9616367815
 21
6.1728781554
  0
LINE
  5
3EF
100
AcDbEntity
  8
0
100
AcDbLine
 62
7
  6
CONTINUOUS
 10
5.6463886277
 20
6.7897001783
 11
5.6463775537
 21
6.8010359326
  0
LINE
  5
3F0
100
AcDbEntity
  8
0
100
AcDbLine
 62
7
  6
CONTINUOUS
 10
5.5731845985
 20
6.5656759724
 11
5.5731845985
 21
2.4406759724
  0
LINE
  5
3F1
100
AcDbEntity
  8
0
100
AcDbLine
 62
7
  6
CONTINUOUS
 10
5.6463775537
 20
6.3303160122
 11
5.6463886277
 21
6.3416517665
  0
LINE
  5
3F2
100
AcDbEntity
  8
0
100
AcDbLine
 62
7
  6
CONTINUOUS
 10
5.6604154158
 20
6.7701258181
 11
5.6611457594
 21
6.7814380261
  0
LINE
  5
3F3
100
AcDbEntity
  8
0
100
AcDbLine
 62
7
  6
CONTINUOUS
 10
5.6303592036
 20
6.3117259531
 11
5.6311116476
 21
6.3230367124
  0
LINE
  5
3F4
100
AcDbEntity
  8
0
100
AcDbLine
 62
7
  6
CONTINUOUS
 10
5.7639921591
 20
6.1903856121
 11
5.7630197012
 21
6.1790696302
  0
LINE
  5
3F5
100
AcDbEntity
  8
0
100
AcDbLine
 62
7
  6
CONTINUOUS
 10
5.8239458622
 20
6.8754588371
 11
5.8229385466
 21
6.8641459048
  0
LINE
  5
3F6
100
AcDbEntity
  8
0
100
AcDbLine
 62
7
  6
CONTINUOUS
 10
5.7472324154
 20
6.1728781554
 11
5.7457672869
 21
6.1616153619
  0
LINE
  5
3F7
100
AcDbEntity
  8
0
100
AcDbLine
 62
7
  6
CONTINUOUS
 10
5.6731319471
 20
6.7496759724
 11
5.6746005807
 21
6.7609161933
  0
LINE
  5
3F8
100
AcDbEntity
  8
0
100
AcDbLine
 62
7
  6
CONTINUOUS
 10
5.6131593019
 20
6.294223347
 11
5.614649894
 21
6.3054606769
  0
LINE
  5
3F9
100
AcDbEntity
  8
0
100
AcDbLine
 62
7
  6
CONTINUOUS
 10
5.8370115303
 20
6.8546841987
 11
5.8355117103
 21
6.8434259724
  0
LINE
  5
3FA
100
AcDbEntity
  8
0
100
AcDbLine
 62
7
  6
CONTINUOUS
 10
5.7297249588
 20
6.1561184118
 11
5.7277699486
 21
6.1449302459
  0
LINE
  5
3FB
100
AcDbEntity
  8
0
100
AcDbLine
 62
7
  6
CONTINUOUS
 10
5.8491585858
 20
6.8333594168
 11
5.8471691163
 21
6.822177327
  0
LINE
  5
3FC
100
AcDbEntity
  8
0
100
AcDbLine
 62
7
  6
CONTINUOUS
 10
6.9979928384
 20
6.5381892182
 11
7.0044044498
 21
6.5475336182
  0
LINE
  5
3FD
100
AcDbEntity
  8
0
100
AcDbLine
 62
7
  6
CONTINUOUS
 10
7.2098146451
 20
7.010770422
 11
7.2162373849
 21
7.0201278732
  0
LINE
  5
3FE
100
AcDbEntity
  8
0
100
AcDbLine
 62
7
  6
CONTINUOUS
 10
6.880641747
 20
6.5318331901
 11
6.8870759762
 21
6.5411827449
  0
LINE
  5
3FF
100
AcDbEntity
  8
0
100
AcDbLine
 62
7
  6
CONTINUOUS
 10
7.247275593
 20
6.8993932143
 11
7.25373917
 21
6.908701745
  0
LINE
  5
400
100
AcDbEntity
  8
0
100
AcDbLine
 62
7
  6
CONTINUOUS
 10
7.2333072854
 20
7.0177292591
 11
7.2402109542
 21
7.026737746
  0
LINE
  5
401
100
AcDbEntity
  8
0
100
AcDbLine
 62
7
  6
CONTINUOUS
 10
6.8795198693
 20
6.5566759724
 11
6.8864345985
 21
6.5656759724
  0
LINE
  5
402
100
AcDbEntity
  8
0
100
AcDbLine
 62
7
  6
CONTINUOUS
 10
6.9969457994
 20
6.5628460366
 11
7.0039868146
 21
6.571725827
  0
LINE
  5
403
100
AcDbEntity
  8
0
100
AcDbLine
 62
7
  6
CONTINUOUS
 10
7.2705544582
 20
6.9059910794
 11
7.2776448405
 21
6.9148315009
  0
LINE
  5
404
100
AcDbEntity
  8
0
100
AcDbLine
 62
7
  6
CONTINUOUS
 10
7.3786159946
 20
6.2160111185
 11
7.3701125601
 21
6.2085199119
  0
LINE
  5
405
100
AcDbEntity
  8
0
100
AcDbLine
 62
7
  6
CONTINUOUS
 10
7.378927826
 20
6.0983173501
 11
7.3703020492
 21
6.0909410737
  0
LINE
  5
406
100
AcDbEntity
  8
0
100
AcDbLine
 62
7
  6
CONTINUOUS
 10
7.3544345985
 20
6.0976759724
 11
7.3454345985
 21
6.0907612432
  0
LINE
  5
407
100
AcDbEntity
  8
0
100
AcDbLine
 62
7
  6
CONTINUOUS
 10
2.9268953243
 20
6.3753232234
 11
2.9169177751
 21
6.3807326588
  0
LINE
  5
408
100
AcDbEntity
  8
0
100
AcDbLine
 62
7
  6
CONTINUOUS
 10
3.4376168252
 20
6.0980161418
 11
3.4276459281
 21
6.103437829
  0
LINE
  5
409
100
AcDbEntity
  8
0
100
AcDbLine
 62
7
  6
CONTINUOUS
 10
3.4003344139
 20
6.2111347802
 11
3.3906706666
 21
6.217054118
  0
LINE
  5
40A
100
AcDbEntity
  8
0
100
AcDbLine
 62
7
  6
CONTINUOUS
 10
3.4130274024
 20
6.094303632
 11
3.4033539193
 21
6.1002397254
  0
LINE
  5
40B
100
AcDbEntity
  8
0
100
AcDbLine
 62
7
  6
CONTINUOUS
 10
3.0267114054
 20
6.4413869595
 11
3.0170807895
 21
6.4473600499
  0
LINE
  5
40C
100
AcDbEntity
  8
0
100
AcDbLine
 62
7
  6
CONTINUOUS
 10
3.3882773808
 20
6.0918831209
 11
3.378927826
 21
6.0983173501
  0
LINE
  5
40D
100
AcDbEntity
  8
0
100
AcDbLine
 62
7
  6
CONTINUOUS
 10
3.3757648446
 20
6.2088128746
 11
3.3665325052
 21
6.2153848211
  0
LINE
  5
40E
100
AcDbEntity
  8
0
100
AcDbLine
 62
7
  6
CONTINUOUS
 10
3.0189174393
 20
6.4642931045
 11
3.0135265774
 21
6.4681759724
  0
LINE
  5
40F
100
AcDbEntity
  8
0
100
AcDbLine
 62
7
  6
CONTINUOUS
 10
3.3947158092
 20
6.9208993867
 11
3.4026821554
 21
6.912839368
  0
LINE
  5
410
100
AcDbEntity
  8
0
100
AcDbLine
 62
7
  6
CONTINUOUS
 10
3.7023790589
 20
6.6079240788
 11
3.7103003726
 21
6.5998197984
  0
LINE
  5
411
100
AcDbEntity
  8
0
100
AcDbLine
 62
7
  6
CONTINUOUS
 10
3.8198708455
 20
6.6145952932
 11
3.8276884513
 21
6.6063673822
  0
LINE
  5
412
100
AcDbEntity
  8
0
100
AcDbLine
 62
7
  6
CONTINUOUS
 10
3.419838435
 20
7.0361516234
 11
3.4276459281
 21
7.0279141158
  0
LINE
  5
413
100
AcDbEntity
  8
0
100
AcDbLine
 62
7
  6
CONTINUOUS
 10
3.8217932208
 20
6.5901691999
 11
3.8291694972
 21
6.5815434231
  0
LINE
  5
414
100
AcDbEntity
  8
0
100
AcDbLine
 62
7
  6
CONTINUOUS
 10
3.4443715944
 20
7.0320838805
 11
3.4517372698
 21
7.0234490495
  0
LINE
  5
415
100
AcDbEntity
  8
0
100
AcDbLine
 62
7
  6
CONTINUOUS
 10
4.817862802
 20
6.709449952
 11
4.8135002437
 21
6.7199363815
  0
LINE
  5
416
100
AcDbEntity
  8
0
100
AcDbLine
 62
7
  6
CONTINUOUS
 10
5.0810148294
 20
6.0740990406
 11
5.0766845985
 21
6.0845988606
  0
LINE
  5
417
100
AcDbEntity
  8
0
100
AcDbLine
 62
7
  6
CONTINUOUS
 10
4.8246448324
 20
6.732718044
 11
4.8207438379
 21
6.743384785
  0
LINE
  5
418
100
AcDbEntity
  8
0
100
AcDbLine
 62
7
  6
CONTINUOUS
 10
5.0598327799
 20
6.0864933157
 11
5.0559646661
 21
6.0971720242
  0
LINE
  5
419
100
AcDbEntity
  8
0
100
AcDbLine
 62
7
  6
CONTINUOUS
 10
5.0023310383
 20
6.6947034226
 11
5.0059643108
 21
6.6839656956
  0
LINE
  5
41A
100
AcDbEntity
  8
0
100
AcDbLine
 62
7
  6
CONTINUOUS
 10
4.8324353476
 20
6.755668162
 11
4.8290033428
 21
6.7664949096
  0
LINE
  5
41B
100
AcDbEntity
  8
0
100
AcDbLine
 62
7
  6
CONTINUOUS
 10
5.0392115216
 20
6.0997997423
 11
5.0358128881
 21
6.1106370118
  0
LINE
  5
41C
100
AcDbEntity
  8
0
100
AcDbLine
 62
7
  6
CONTINUOUS
 10
4.8412195182
 20
6.7782566191
 11
4.8382630359
 21
6.7892227639
  0
LINE
  5
41D
100
AcDbEntity
  8
0
100
AcDbLine
 62
7
  6
CONTINUOUS
 10
5.1304103926
 20
6.2737219432
 11
5.1333549984
 21
6.2627753114
  0
LINE
  5
41E
100
AcDbEntity
  8
0
100
AcDbLine
 62
7
  6
CONTINUOUS
 10
5.0115237181
 20
6.7174558396
 11
5.0144469305
 21
6.7065034755
  0
LINE
  5
41F
100
AcDbEntity
  8
0
100
AcDbLine
 62
7
  6
CONTINUOUS
 10
5.0191903084
 20
6.1139929907
 11
5.0162676247
 21
6.1249681919
  0
LINE
  5
420
100
AcDbEntity
  8
0
100
AcDbLine
 62
7
  6
CONTINUOUS
 10
5.1117953385
 20
6.2889989232
 11
5.1140176957
 21
6.2778831427
  0
LINE
  5
421
100
AcDbEntity
  8
0
100
AcDbLine
 62
7
  6
CONTINUOUS
 10
5.0221847948
 20
6.7395583118
 11
5.0243854296
 21
6.7284382104
  0
LINE
  5
422
100
AcDbEntity
  8
0
100
AcDbLine
 62
7
  6
CONTINUOUS
 10
5.8229385466
 20
6.26720604
 11
5.8239458622
 21
6.2558931077
  0
LINE
  5
423
100
AcDbEntity
  8
0
100
AcDbLine
 62
7
  6
CONTINUOUS
 10
5.7630197012
 20
6.9522823146
 11
5.7639921591
 21
6.9409663327
  0
LINE
  5
424
100
AcDbEntity
  8
0
100
AcDbLine
 62
7
  6
CONTINUOUS
 10
5.6311116476
 20
6.8083152324
 11
5.6303592036
 21
6.8196259917
  0
LINE
  5
425
100
AcDbEntity
  8
0
100
AcDbLine
 62
7
  6
CONTINUOUS
 10
5.6611457594
 20
6.3499139187
 11
5.6604154158
 21
6.3612261266
  0
LINE
  5
426
100
AcDbEntity
  8
0
100
AcDbLine
 62
7
  6
CONTINUOUS
 10
5.8094735591
 20
6.247054262
 11
5.8099864528
 21
6.2357081587
  0
LINE
  5
427
100
AcDbEntity
  8
0
100
AcDbLine
 62
7
  6
CONTINUOUS
 10
5.7794943505
 20
6.9340921192
 11
5.7799722866
 21
6.9227444896
  0
LINE
  5
428
100
AcDbEntity
  8
0
100
AcDbLine
 62
7
  6
CONTINUOUS
 10
5.795142379
 20
6.2275089986
 11
5.7951598745
 21
6.2161513221
  0
LINE
  5
429
100
AcDbEntity
  8
0
100
AcDbLine
 62
7
  6
CONTINUOUS
 10
5.7951598745
 20
6.9152006226
 11
5.795142379
 21
6.9038429462
  0
LINE
  5
42A
100
AcDbEntity
  8
0
100
AcDbLine
 62
7
  6
CONTINUOUS
 10
5.7799722866
 20
6.2086074552
 11
5.7794943505
 21
6.1972598256
  0
LINE
  5
42B
100
AcDbEntity
  8
0
100
AcDbLine
 62
7
  6
CONTINUOUS
 10
5.8099864528
 20
6.8956437861
 11
5.8094735591
 21
6.8842976828
  0
LINE
  5
42C
100
AcDbEntity
  8
0
100
AcDbLine
 62
7
  6
CONTINUOUS
 10
7.1419670446
 20
6.9826670257
 11
7.146846882
 21
6.992914009
  0
LINE
  5
42D
100
AcDbEntity
  8
0
100
AcDbLine
 62
7
  6
CONTINUOUS
 10
6.8917691008
 20
6.4581323197
 11
6.8966615214
 21
6.4683733011
  0
LINE
  5
42E
100
AcDbEntity
  8
0
100
AcDbLine
 62
7
  6
CONTINUOUS
 10
7.1640818495
 20
6.9932152466
 11
7.1694912849
 21
7.0031927958
  0
LINE
  5
42F
100
AcDbEntity
  8
0
100
AcDbLine
 62
7
  6
CONTINUOUS
 10
6.8867747679
 20
6.4824937457
 11
6.8921964551
 21
6.4924646428
  0
LINE
  5
430
100
AcDbEntity
  8
0
100
AcDbLine
 62
7
  6
CONTINUOUS
 10
7.0007384847
 20
6.5136633867
 11
7.0064901381
 21
6.523427866
  0
LINE
  5
431
100
AcDbEntity
  8
0
100
AcDbLine
 62
7
  6
CONTINUOUS
 10
7.2245073893
 20
6.8912050346
 11
7.2303133592
 21
6.9009373152
  0
LINE
  5
432
100
AcDbEntity
  8
0
100
AcDbLine
 62
7
  6
CONTINUOUS
 10
7.1867183981
 20
7.002591612
 11
7.1926426046
 21
7.0122723794
  0
LINE
  5
433
100
AcDbEntity
  8
0
100
AcDbLine
 62
7
  6
CONTINUOUS
 10
6.8830622581
 20
6.5070831685
 11
6.8889983515
 21
6.5167566516
  0
LINE
  5
434
100
AcDbEntity
  8
0
100
AcDbLine
 62
7
  6
CONTINUOUS
 10
7.4265183945
 20
6.2226684268
 11
7.4191270999
 21
6.2140780056
  0
LINE
  5
435
100
AcDbEntity
  8
0
100
AcDbLine
 62
7
  6
CONTINUOUS
 10
7.4276459281
 20
6.103437829
 11
7.419838435
 21
6.0952003214
  0
LINE
  5
436
100
AcDbEntity
  8
0
100
AcDbLine
 62
7
  6
CONTINUOUS
 10
7.4026821554
 20
6.2185125768
 11
7.3947158092
 21
6.2104525581
  0
LINE
  5
437
100
AcDbEntity
  8
0
100
AcDbLine
 62
7
  6
CONTINUOUS
 10
7.4033539193
 20
6.1002397254
 11
7.3951260083
 21
6.0924221196
  0
LINE
  5
438
100
AcDbEntity
  8
0
100
AcDbLine
 62
7
  6
CONTINUOUS
 10
2.9491347095
 20
6.3316759724
 11
2.9386463784
 21
6.3360128364
  0
LINE
  5
439
100
AcDbEntity
  8
0
100
AcDbLine
 62
7
  6
CONTINUOUS
 10
3.4860449076
 20
6.1092729416
 11
3.4755619116
 21
6.1136226857
  0
LINE
  5
43A
100
AcDbEntity
  8
0
100
AcDbLine
 62
7
  6
CONTINUOUS
 10
3.0469400042
 20
6.3974578864
 11
3.0365788505
 21
6.4020484274
  0
LINE
  5
43B
100
AcDbEntity
  8
0
100
AcDbLine
 62
7
  6
CONTINUOUS
 10
2.9374435452
 20
6.3532084185
 11
2.9271965619
 21
6.3580882559
  0
LINE
  5
43C
100
AcDbEntity
  8
0
100
AcDbLine
 62
7
  6
CONTINUOUS
 10
3.4619782512
 20
6.1030104747
 11
3.4517372698
 21
6.1079028953
  0
LINE
  5
43D
100
AcDbEntity
  8
0
100
AcDbLine
 62
7
  6
CONTINUOUS
 10
3.4246852498
 20
6.2151462361
 11
3.4146361466
 21
6.2203847567
  0
LINE
  5
43E
100
AcDbEntity
  8
0
100
AcDbLine
 62
7
  6
CONTINUOUS
 10
3.0360671218
 20
6.4190731082
 11
3.0260473626
 21
6.4243675391
  0
LINE
  5
43F
100
AcDbEntity
  8
0
100
AcDbLine
 62
7
  6
CONTINUOUS
 10
3.3454345985
 20
6.9230626677
 11
3.3544345985
 21
6.9161759724
  0
LINE
  5
440
100
AcDbEntity
  8
0
100
AcDbLine
 62
7
  6
CONTINUOUS
 10
3.6932511818
 20
6.6554176735
 11
3.7022126707
 21
6.6484809388
  0
LINE
  5
441
100
AcDbEntity
  8
0
100
AcDbLine
 62
7
  6
CONTINUOUS
 10
3.8122076756
 20
6.6629786437
 11
3.8208425066
 21
6.6556129683
  0
LINE
  5
442
100
AcDbEntity
  8
0
100
AcDbLine
 62
7
  6
CONTINUOUS
 10
3.3703020492
 20
7.0404108711
 11
3.378927826
 21
7.0330345947
  0
LINE
  5
443
100
AcDbEntity
  8
0
100
AcDbLine
 62
7
  6
CONTINUOUS
 10
3.3701125601
 20
6.9228320328
 11
3.3786159946
 21
6.9153408263
  0
LINE
  5
444
100
AcDbEntity
  8
0
100
AcDbLine
 62
7
  6
CONTINUOUS
 10
3.6986352568
 20
6.6318284996
 11
3.7070968197
 21
6.6242900299
  0
LINE
  5
445
100
AcDbEntity
  8
0
100
AcDbLine
 62
7
  6
CONTINUOUS
 10
3.8166727419
 20
6.638887302
 11
3.8249102495
 21
6.6310798089
  0
LINE
  5
446
100
AcDbEntity
  8
0
100
AcDbLine
 62
7
  6
CONTINUOUS
 10
3.3951260083
 20
7.0389298252
 11
3.4033539193
 21
7.0311122194
  0
LINE
  5
447
100
AcDbEntity
  8
0
100
AcDbLine
 62
7
  6
CONTINUOUS
 10
4.8010484437
 20
6.6140909875
 11
4.7949312131
 21
6.6236605544
  0
LINE
  5
448
100
AcDbEntity
  8
0
100
AcDbLine
 62
7
  6
CONTINUOUS
 10
4.803686978
 20
6.6381832722
 11
4.7979929883
 21
6.6480105608
  0
LINE
  5
449
100
AcDbEntity
  8
0
100
AcDbLine
 62
7
  6
CONTINUOUS
 10
4.8073738917
 20
6.6621375351
 11
4.8021139817
 21
6.6722038386
  0
LINE
  5
44A
100
AcDbEntity
  8
0
100
AcDbLine
 62
7
  6
CONTINUOUS
 10
5.1248990268
 20
6.0521395362
 11
5.1196701541
 21
6.0622219967
  0
LINE
  5
44B
100
AcDbEntity
  8
0
100
AcDbLine
 62
7
  6
CONTINUOUS
 10
4.9885018713
 20
6.6476408379
 11
4.9935056153
 21
6.6374692109
  0
LINE
  5
44C
100
AcDbEntity
  8
0
100
AcDbLine
 62
7
  6
CONTINUOUS
 10
4.8121021665
 20
6.6859081779
 11
4.8072863488
 21
6.6961943347
  0
LINE
  5
44D
100
AcDbEntity
  8
0
100
AcDbLine
 62
7
  6
CONTINUOUS
 10
5.1027173491
 20
6.0626405101
 11
5.0979332438
 21
6.0729414546
  0
LINE
  5
44E
100
AcDbEntity
  8
0
100
AcDbLine
 62
7
  6
CONTINUOUS
 10
4.9946461201
 20
6.6713984903
 11
4.9989738944
 21
6.660921381
  0
LINE
  5
44F
100
AcDbEntity
  8
0
100
AcDbLine
 62
7
  6
CONTINUOUS
 10
5.614649894
 20
6.8258912679
 11
5.6131593019
 21
6.8371285978
  0
LINE
  5
450
100
AcDbEntity
  8
0
100
AcDbLine
 62
7
  6
CONTINUOUS
 10
5.6746005807
 20
6.3704357515
 11
5.6731319471
 21
6.3816759724
  0
LINE
  5
451
100
AcDbEntity
  8
0
100
AcDbLine
 62
7
  6
CONTINUOUS
 10
7.0995435301
 20
6.9581737982
 11
7.1033255338
 21
6.9688747294
  0
LINE
  5
452
100
AcDbEntity
  8
0
100
AcDbLine
 62
7
  6
CONTINUOUS
 10
6.9055450036
 20
6.4103597416
 11
6.9093401489
 21
6.421056019
  0
LINE
  5
453
100
AcDbEntity
  8
0
100
AcDbLine
 62
7
  6
CONTINUOUS
 10
7.1204345985
 20
6.9709758614
 11
7.1247714625
 21
6.9814641925
  0
LINE
  5
454
100
AcDbEntity
  8
0
100
AcDbLine
 62
7
  6
CONTINUOUS
 10
6.8980315677
 20
6.4340656632
 11
6.9023813118
 21
6.4445486593
  0
LINE
  5
455
100
AcDbEntity
  8
0
100
AcDbLine
 62
7
  6
CONTINUOUS
 10
7.0112652299
 20
6.4654710103
 11
7.0156180152
 21
6.4759342713
  0
LINE
  5
456
100
AcDbEntity
  8
0
100
AcDbLine
 62
7
  6
CONTINUOUS
 10
7.1809340191
 20
6.8702212054
 11
7.1853450362
 21
6.8806600512
  0
LINE
  5
457
100
AcDbEntity
  8
0
100
AcDbLine
 62
7
  6
CONTINUOUS
 10
7.005169654
 20
6.4893854189
 11
7.0102339402
 21
6.4995234452
  0
LINE
  5
458
100
AcDbEntity
  8
0
100
AcDbLine
 62
7
  6
CONTINUOUS
 10
7.2023583479
 20
6.8814655606
 11
7.2074790426
 21
6.8915752123
  0
LINE
  5
459
100
AcDbEntity
  8
0
100
AcDbLine
 62
7
  6
CONTINUOUS
 10
7.473048383
 20
6.2358562942
 11
7.4669099519
 21
6.2263302123
  0
LINE
  5
45A
100
AcDbEntity
  8
0
100
AcDbLine
 62
7
  6
CONTINUOUS
 10
7.4500111216
 20
6.2284588639
 11
7.4432301014
 21
6.2193789775
  0
LINE
  5
45B
100
AcDbEntity
  8
0
100
AcDbLine
 62
7
  6
CONTINUOUS
 10
7.4755619116
 20
6.1136226857
 11
7.4686582428
 21
6.1046141988
  0
LINE
  5
45C
100
AcDbEntity
  8
0
100
AcDbLine
 62
7
  6
CONTINUOUS
 10
7.4517372698
 20
6.1079028953
 11
7.4443715944
 21
6.0992680643
  0
LINE
  5
45D
100
AcDbEntity
  8
0
100
AcDbLine
 62
7
  6
CONTINUOUS
 10
2.9758146451
 20
6.2905924743
 11
2.9649304444
 21
6.2938092514
  0
LINE
  5
45E
100
AcDbEntity
  8
0
100
AcDbLine
 62
7
  6
CONTINUOUS
 10
3.53303104
 20
6.1255301885
 11
3.5221507989
 21
6.1287603328
  0
LINE
  5
45F
100
AcDbEntity
  8
0
100
AcDbLine
 62
7
  6
CONTINUOUS
 10
2.9619367727
 20
6.310784904
 11
2.9512358415
 21
6.3145669077
  0
LINE
  5
460
100
AcDbEntity
  8
0
100
AcDbLine
 62
7
  6
CONTINUOUS
 10
3.5097508293
 20
6.1167863775
 11
3.4990545519
 21
6.1205815228
  0
LINE
  5
461
100
AcDbEntity
  8
0
100
AcDbLine
 62
7
  6
CONTINUOUS
 10
3.4722681449
 20
6.2281533727
 11
3.461593604
 21
6.2319587305
  0
LINE
  5
462
100
AcDbEntity
  8
0
100
AcDbLine
 62
7
  6
CONTINUOUS
 10
3.0592782383
 20
6.3766443003
 11
3.0486250658
 21
6.3805090755
  0
LINE
  5
463
100
AcDbEntity
  8
0
100
AcDbLine
 62
7
  6
CONTINUOUS
 10
3.4487013093
 20
6.2208281259
 11
3.4383147388
 21
6.2253608654
  0
LINE
  5
464
100
AcDbEntity
  8
0
100
AcDbLine
 62
7
  6
CONTINUOUS
 10
3.2963247398
 20
6.9184216234
 11
3.3061870416
 21
6.912839368
  0
LINE
  5
465
100
AcDbEntity
  8
0
100
AcDbLine
 62
7
  6
CONTINUOUS
 10
3.6776725378
 20
6.7012026658
 11
3.6875035833
 21
6.6955655462
  0
LINE
  5
466
100
AcDbEntity
  8
0
100
AcDbLine
 62
7
  6
CONTINUOUS
 10
3.7913502381
 20
6.7333921728
 11
3.8010310055
 21
6.7274679663
  0
LINE
  5
467
100
AcDbEntity
  8
0
100
AcDbLine
 62
7
  6
CONTINUOUS
 10
3.2958417946
 20
7.0370483128
 11
3.3055152777
 21
7.0311122194
  0
LINE
  5
468
100
AcDbEntity
  8
0
100
AcDbLine
 62
7
  6
CONTINUOUS
 10
3.3207995259
 20
6.9215901923
 11
3.3302532024
 21
6.9153408263
  0
LINE
  5
469
100
AcDbEntity
  8
0
100
AcDbLine
 62
7
  6
CONTINUOUS
 10
3.6862524914
 20
6.6785791872
 11
3.6956712009
 21
6.6722772443
  0
LINE
  5
46A
100
AcDbEntity
  8
0
100
AcDbLine
 62
7
  6
CONTINUOUS
 10
3.7995290481
 20
6.7102959258
 11
3.8088864993
 21
6.7038731859
  0
LINE
  5
46B
100
AcDbEntity
  8
0
100
AcDbLine
 62
7
  6
CONTINUOUS
 10
3.3205918162
 20
7.0394688238
 11
3.329941371
 21
7.0330345947
  0
LINE
  5
46C
100
AcDbEntity
  8
0
100
AcDbLine
 62
7
  6
CONTINUOUS
 10
3.8064878852
 20
6.6868032855
 11
3.8154963721
 21
6.6798996167
  0
LINE
  5
46D
100
AcDbEntity
  8
0
100
AcDbLine
 62
7
  6
CONTINUOUS
 10
3.3454345985
 20
7.0405907016
 11
3.3544345985
 21
7.0336759724
  0
LINE
  5
46E
100
AcDbEntity
  8
0
100
AcDbLine
 62
7
  6
CONTINUOUS
 10
4.803686978
 20
6.4931686726
 11
4.7956435168
 21
6.5011873915
  0
LINE
  5
46F
100
AcDbEntity
  8
0
100
AcDbLine
 62
7
  6
CONTINUOUS
 10
4.8010484437
 20
6.5172609573
 11
4.7933624097
 21
6.525622895
  0
LINE
  5
470
100
AcDbEntity
  8
0
100
AcDbLine
 62
7
  6
CONTINUOUS
 10
4.7994633114
 20
6.5414454027
 11
4.7921493354
 21
6.5501346418
  0
LINE
  5
471
100
AcDbEntity
  8
0
100
AcDbLine
 62
7
  6
CONTINUOUS
 10
4.7989345985
 20
6.5656759724
 11
4.7920066031
 21
6.5746759724
  0
LINE
  5
472
100
AcDbEntity
  8
0
100
AcDbLine
 62
7
  6
CONTINUOUS
 10
4.9795426141
 20
6.5746759724
 11
4.9864345985
 21
6.5656759724
  0
LINE
  5
473
100
AcDbEntity
  8
0
100
AcDbLine
 62
7
  6
CONTINUOUS
 10
4.7994633114
 20
6.5899065421
 11
4.7929344844
 21
6.599200171
  0
LINE
  5
474
100
AcDbEntity
  8
0
100
AcDbLine
 62
7
  6
CONTINUOUS
 10
4.9809339147
 20
6.5991758116
 11
4.9872225147
 21
6.589744324
  0
LINE
  5
475
100
AcDbEntity
  8
0
100
AcDbLine
 62
7
  6
CONTINUOUS
 10
4.9839246027
 20
6.6235321994
 11
4.9895828895
 21
6.6137096111
  0
LINE
  5
476
100
AcDbEntity
  8
0
100
AcDbLine
 62
7
  6
CONTINUOUS
 10
5.5588844442
 20
6.8716567897
 11
5.5552301991
 21
6.8823873975
  0
LINE
  5
477
100
AcDbEntity
  8
0
100
AcDbLine
 62
7
  6
CONTINUOUS
 10
5.7065381587
 20
6.4366485222
 11
5.7029048861
 21
6.4473862492
  0
LINE
  5
478
100
AcDbEntity
  8
0
100
AcDbLine
 62
7
  6
CONTINUOUS
 10
5.8676496788
 20
6.3530953257
 11
5.8706061611
 21
6.3421291809
  0
LINE
  5
479
100
AcDbEntity
  8
0
100
AcDbLine
 62
7
  6
CONTINUOUS
 10
5.5784588044
 20
6.8576300016
 11
5.5755141986
 21
6.8685766334
  0
LINE
  5
47A
100
AcDbEntity
  8
0
100
AcDbLine
 62
7
  6
CONTINUOUS
 10
5.6973454789
 20
6.4138961052
 11
5.6944222665
 21
6.4248484693
  0
LINE
  5
47B
100
AcDbEntity
  8
0
100
AcDbLine
 62
7
  6
CONTINUOUS
 10
5.6896788886
 20
7.0173589541
 11
5.6926015723
 21
7.0063837529
  0
LINE
  5
47C
100
AcDbEntity
  8
0
100
AcDbLine
 62
7
  6
CONTINUOUS
 10
5.8578885742
 20
6.330911528
 11
5.860363906
 21
6.3198268605
  0
LINE
  5
47D
100
AcDbEntity
  8
0
100
AcDbLine
 62
7
  6
CONTINUOUS
 10
5.7090619453
 20
7.0023059014
 11
5.7115031157
 21
6.9912136605
  0
LINE
  5
47E
100
AcDbEntity
  8
0
100
AcDbLine
 62
7
  6
CONTINUOUS
 10
5.5970738585
 20
6.8423530215
 11
5.5948515013
 21
6.8534688021
  0
LINE
  5
47F
100
AcDbEntity
  8
0
100
AcDbLine
 62
7
  6
CONTINUOUS
 10
5.6866844021
 20
6.3917936329
 11
5.6844837674
 21
6.4029137344
  0
LINE
  5
480
100
AcDbEntity
  8
0
100
AcDbLine
 62
7
  6
CONTINUOUS
 10
5.8471691163
 20
6.3091746177
 11
5.8491585858
 21
6.297992528
  0
LINE
  5
481
100
AcDbEntity
  8
0
100
AcDbLine
 62
7
  6
CONTINUOUS
 10
5.7277699486
 20
6.9864216989
 11
5.7297249588
 21
6.975233533
  0
LINE
  5
482
100
AcDbEntity
  8
0
100
AcDbLine
 62
7
  6
CONTINUOUS
 10
5.8355117103
 20
6.2879259724
 11
5.8370115303
 21
6.2766677461
  0
LINE
  5
483
100
AcDbEntity
  8
0
100
AcDbLine
 62
7
  6
CONTINUOUS
 10
5.7457672869
 20
6.9697365829
 11
5.7472324154
 21
6.9584737893
  0
LINE
  5
484
100
AcDbEntity
  8
0
100
AcDbLine
 62
7
  6
CONTINUOUS
 10
7.0599126555
 20
6.9293802824
 11
7.0625553891
 21
6.9404179197
  0
LINE
  5
485
100
AcDbEntity
  8
0
100
AcDbLine
 62
7
  6
CONTINUOUS
 10
6.9242390347
 20
6.3642888406
 11
6.9268953243
 21
6.3753232234
  0
LINE
  5
486
100
AcDbEntity
  8
0
100
AcDbLine
 62
7
  6
CONTINUOUS
 10
7.0283256151
 20
6.4191864473
 11
7.0311966592
 21
6.430149279
  0
LINE
  5
487
100
AcDbEntity
  8
0
100
AcDbLine
 62
7
  6
CONTINUOUS
 10
7.140663946
 20
6.8434391055
 11
7.1435960282
 21
6.8543857701
  0
LINE
  5
488
100
AcDbEntity
  8
0
100
AcDbLine
 62
7
  6
CONTINUOUS
 10
7.0793511004
 20
6.9442959258
 11
7.0825678775
 21
6.9551801265
  0
LINE
  5
489
100
AcDbEntity
  8
0
100
AcDbLine
 62
7
  6
CONTINUOUS
 10
6.9142888146
 20
6.3870795308
 11
6.9175189589
 21
6.397959772
  0
LINE
  5
48A
100
AcDbEntity
  8
0
100
AcDbLine
 62
7
  6
CONTINUOUS
 10
7.018996164
 20
6.4420341239
 11
7.0226167056
 21
6.4527727575
  0
LINE
  5
48B
100
AcDbEntity
  8
0
100
AcDbLine
 62
7
  6
CONTINUOUS
 10
7.1603364996
 20
6.8575255535
 11
7.1640168185
 21
6.8682438475
  0
LINE
  5
48C
100
AcDbEntity
  8
0
100
AcDbLine
 62
7
  6
CONTINUOUS
 10
7.5447873475
 20
6.1381366982
 11
7.5393779121
 21
6.128159149
  0
LINE
  5
48D
100
AcDbEntity
  8
0
100
AcDbLine
 62
7
  6
CONTINUOUS
 10
7.4955203957
 20
6.2448254654
 11
7.4900538061
 21
6.2348985842
  0
LINE
  5
48E
100
AcDbEntity
  8
0
100
AcDbLine
 62
7
  6
CONTINUOUS
 10
7.5221507989
 20
6.1287603328
 11
7.5162265924
 21
6.1190795654
  0
LINE
  5
48F
100
AcDbEntity
  8
0
100
AcDbLine
 62
7
  6
CONTINUOUS
 10
7.4990545519
 20
6.1205815228
 11
7.492631812
 21
6.1112240716
  0
LINE
  5
490
100
AcDbEntity
  8
0
100
AcDbLine
 62
7
  6
CONTINUOUS
 10
7.6394621765
 20
6.3498854959
 11
7.6284665331
 21
6.3471427968
  0
LINE
  5
491
100
AcDbEntity
  8
0
100
AcDbLine
 62
7
  6
CONTINUOUS
 10
7.2133488013
 20
6.2448254654
 11
7.2023380468
 21
6.2421440745
  0
LINE
  5
492
100
AcDbEntity
  8
0
100
AcDbLine
 62
7
  6
CONTINUOUS
 10
7.1640818495
 20
6.1381366982
 11
7.1530474667
 21
6.1354804086
  0
LINE
  5
493
100
AcDbEntity
  8
0
100
AcDbLine
 62
7
  6
CONTINUOUS
 10
7.7291765458
 20
6.273796763
 11
7.7181389085
 21
6.2711540294
  0
LINE
  5
494
100
AcDbEntity
  8
0
100
AcDbLine
 62
7
  6
CONTINUOUS
 10
7.1419670446
 20
6.1486849191
 11
7.1308087645
 21
6.1466097648
  0
LINE
  5
495
100
AcDbEntity
  8
0
100
AcDbLine
 62
7
  6
CONTINUOUS
 10
7.7133871975
 20
6.2545842951
 11
7.7022263768
 21
6.2525228486
  0
LINE
  5
496
100
AcDbEntity
  8
0
100
AcDbLine
 62
7
  6
CONTINUOUS
 10
7.6238954015
 20
6.330735287
 11
7.6127367357
 21
6.3287577251
  0
LINE
  5
497
100
AcDbEntity
  8
0
100
AcDbLine
 62
7
  6
CONTINUOUS
 10
7.1915491267
 20
6.2553236354
 11
7.1803796156
 21
6.2534082781
  0
LINE
  5
498
100
AcDbEntity
  8
0
100
AcDbLine
 62
7
  6
CONTINUOUS
 10
7.1204345985
 20
6.1603760834
 11
7.1091830053
 21
6.1588877523
  0
LINE
  5
499
100
AcDbEntity
  8
0
100
AcDbLine
 62
7
  6
CONTINUOUS
 10
7.696613985
 20
6.2362245079
 11
7.6853605721
 21
6.2347499988
  0
LINE
  5
49A
100
AcDbEntity
  8
0
100
AcDbLine
 62
7
  6
CONTINUOUS
 10
5.5731845985
 20
5.8156759724
 11
5.1356845985
 21
5.8156759724
  0
LINE
  5
49B
100
AcDbEntity
  8
0
100
AcDbLine
 62
7
  6
CONTINUOUS
 10
3.0235086249
 20
6.2347499988
 11
3.012255212
 21
6.2362245079
  0
LINE
  5
49C
100
AcDbEntity
  8
0
100
AcDbLine
 62
7
  6
CONTINUOUS
 10
3.5996861917
 20
6.1588877523
 11
3.5884345985
 21
6.1603760834
  0
LINE
  5
49D
100
AcDbEntity
  8
0
100
AcDbLine
 62
7
  6
CONTINUOUS
 10
3.0066428202
 20
6.2525228486
 11
2.9954819995
 21
6.2545842951
  0
LINE
  5
49E
100
AcDbEntity
  8
0
100
AcDbLine
 62
7
  6
CONTINUOUS
 10
3.5780604324
 20
6.1466097648
 11
3.5669021524
 21
6.1486849191
  0
LINE
  5
49F
100
AcDbEntity
  8
0
100
AcDbLine
 62
7
  6
CONTINUOUS
 10
3.517607594
 20
6.2475866398
 11
3.5065108491
 21
6.2498863842
  0
LINE
  5
4A0
100
AcDbEntity
  8
0
100
AcDbLine
 62
7
  6
CONTINUOUS
 10
3.0881088699
 20
6.3378144876
 11
3.0770251109
 21
6.3401760252
  0
LINE
  5
4A1
100
AcDbEntity
  8
0
100
AcDbLine
 62
7
  6
CONTINUOUS
 10
2.9907302885
 20
6.2711540294
 11
2.9796926511
 21
6.273796763
  0
LINE
  5
4A2
100
AcDbEntity
  8
0
100
AcDbLine
 62
7
  6
CONTINUOUS
 10
3.5558217303
 20
6.1354804086
 11
3.5447873475
 21
6.1381366982
  0
LINE
  5
4A3
100
AcDbEntity
  8
0
100
AcDbLine
 62
7
  6
CONTINUOUS
 10
3.4952734501
 20
6.2370870683
 11
3.4843618077
 21
6.2401469102
  0
LINE
  5
4A4
100
AcDbEntity
  8
0
100
AcDbLine
 62
7
  6
CONTINUOUS
 10
3.073023027
 20
6.3567315362
 11
3.0621286028
 21
6.3598521282
  0
LINE
  5
4A5
100
AcDbEntity
  8
0
100
AcDbLine
 62
7
  6
CONTINUOUS
 10
3.7714256518
 20
6.7781435263
 11
3.7816726351
 21
6.7732636889
  0
LINE
  5
4A6
100
AcDbEntity
  8
0
100
AcDbLine
 62
7
  6
CONTINUOUS
 10
3.2468909457
 20
7.0283414701
 11
3.2571319272
 21
7.0234490495
  0
LINE
  5
4A7
100
AcDbEntity
  8
0
100
AcDbLine
 62
7
  6
CONTINUOUS
 10
3.2721268736
 20
6.9135720609
 11
3.2823508025
 21
6.908683518
  0
LINE
  5
4A8
100
AcDbEntity
  8
0
100
AcDbLine
 62
7
  6
CONTINUOUS
 10
3.6675522081
 20
6.7231802979
 11
3.6777487402
 21
6.7182348652
  0
LINE
  5
4A9
100
AcDbEntity
  8
0
100
AcDbLine
 62
7
  6
CONTINUOUS
 10
4.8509806228
 20
6.330911528
 11
4.8408981623
 21
6.3361404007
  0
LINE
  5
4AA
100
AcDbEntity
  8
0
100
AcDbLine
 62
7
  6
CONTINUOUS
 10
3.7819738727
 20
6.7560287214
 11
3.7919514219
 21
6.750619286
  0
LINE
  5
4AB
100
AcDbEntity
  8
0
100
AcDbLine
 62
7
  6
CONTINUOUS
 10
3.2712523718
 20
7.033335803
 11
3.2812232689
 21
7.0279141158
  0
LINE
  5
4AC
100
AcDbEntity
  8
0
100
AcDbLine
 62
7
  6
CONTINUOUS
 10
4.8412195182
 20
6.3530953257
 11
4.8313747341
 21
6.3587590125
  0
LINE
  5
4AD
100
AcDbEntity
  8
0
100
AcDbLine
 62
7
  6
CONTINUOUS
 10
4.8324353476
 20
6.3756837828
 11
4.8228469802
 21
6.3817715024
  0
LINE
  5
4AE
100
AcDbEntity
  8
0
100
AcDbLine
 62
7
  6
CONTINUOUS
 10
4.8246448324
 20
6.3986339008
 11
4.8153311335
 21
6.4051340649
  0
LINE
  5
4AF
100
AcDbEntity
  8
0
100
AcDbLine
 62
7
  6
CONTINUOUS
 10
4.817862802
 20
6.4219019928
 11
4.8088415009
 21
6.4288022281
  0
LINE
  5
4B0
100
AcDbEntity
  8
0
100
AcDbLine
 62
7
  6
CONTINUOUS
 10
4.9899873772
 20
6.4773401194
 11
4.9989738944
 21
6.4704305638
  0
LINE
  5
4B1
100
AcDbEntity
  8
0
100
AcDbLine
 62
7
  6
CONTINUOUS
 10
4.8121021665
 20
6.4454437669
 11
4.8033904358
 21
6.4527309383
  0
LINE
  5
4B2
100
AcDbEntity
  8
0
100
AcDbLine
 62
7
  6
CONTINUOUS
 10
4.9849902455
 20
6.501365242
 11
4.9935056153
 21
6.4938827339
  0
LINE
  5
4B3
100
AcDbEntity
  8
0
100
AcDbLine
 62
7
  6
CONTINUOUS
 10
4.8073738917
 20
6.4692144097
 11
4.7989883145
 21
6.4768746457
  0
LINE
  5
4B4
100
AcDbEntity
  8
0
100
AcDbLine
 62
7
  6
CONTINUOUS
 10
4.9815751312
 20
6.5256657529
 11
4.9895828895
 21
6.5176423337
  0
LINE
  5
4B5
100
AcDbEntity
  8
0
100
AcDbLine
 62
7
  6
CONTINUOUS
 10
4.9797566584
 20
6.5501375938
 11
4.9872225147
 21
6.5416076208
  0
LINE
  5
4B6
100
AcDbEntity
  8
0
100
AcDbLine
 62
7
  6
CONTINUOUS
 10
5.4952621016
 20
6.9056636404
 11
5.4895846341
 21
6.9154751546
  0
LINE
  5
4B7
100
AcDbEntity
  8
0
100
AcDbLine
 62
7
  6
CONTINUOUS
 10
5.7249445943
 20
6.5078197454
 11
5.7192863075
 21
6.5176423337
  0
LINE
  5
4B8
100
AcDbEntity
  8
0
100
AcDbLine
 62
7
  6
CONTINUOUS
 10
5.5171968365
 20
6.8957251413
 11
5.5121732286
 21
6.9058869725
  0
LINE
  5
4B9
100
AcDbEntity
  8
0
100
AcDbLine
 62
7
  6
CONTINUOUS
 10
5.7203673257
 20
6.4837111069
 11
5.7153635817
 21
6.4938827339
  0
LINE
  5
4BA
100
AcDbEntity
  8
0
100
AcDbLine
 62
7
  6
CONTINUOUS
 10
5.8967670304
 20
6.4454437669
 11
5.9015828482
 21
6.4351576101
  0
LINE
  5
4BB
100
AcDbEntity
  8
0
100
AcDbLine
 62
7
  6
CONTINUOUS
 10
5.6061518479
 20
7.0687114347
 11
5.6109359531
 21
7.0584104902
  0
LINE
  5
4BC
100
AcDbEntity
  8
0
100
AcDbLine
 62
7
  6
CONTINUOUS
 10
5.891006395
 20
6.4219019928
 11
5.8953689533
 21
6.4114155633
  0
LINE
  5
4BD
100
AcDbEntity
  8
0
100
AcDbLine
 62
7
  6
CONTINUOUS
 10
5.5384345985
 20
6.884373321
 11
5.5340863621
 21
6.8948419546
  0
LINE
  5
4BE
100
AcDbEntity
  8
0
100
AcDbLine
 62
7
  6
CONTINUOUS
 10
5.7142230769
 20
6.4599534545
 11
5.7098953026
 21
6.4704305638
  0
LINE
  5
4BF
100
AcDbEntity
  8
0
100
AcDbLine
 62
7
  6
CONTINUOUS
 10
5.6278543676
 20
7.0572529042
 11
5.6321845985
 21
7.0467530842
  0
LINE
  5
4C0
100
AcDbEntity
  8
0
100
AcDbLine
 62
7
  6
CONTINUOUS
 10
5.8842243646
 20
6.3986339008
 11
5.8881253591
 21
6.3879671598
  0
LINE
  5
4C1
100
AcDbEntity
  8
0
100
AcDbLine
 62
7
  6
CONTINUOUS
 10
5.6490364171
 20
7.0448586291
 11
5.6529045309
 21
7.0341799205
  0
LINE
  5
4C2
100
AcDbEntity
  8
0
100
AcDbLine
 62
7
  6
CONTINUOUS
 10
5.8764338493
 20
6.3756837828
 11
5.8798658542
 21
6.3648570352
  0
LINE
  5
4C3
100
AcDbEntity
  8
0
100
AcDbLine
 62
7
  6
CONTINUOUS
 10
5.6696576754
 20
7.0315522025
 11
5.6730563089
 21
7.020714933
  0
LINE
  5
4C4
100
AcDbEntity
  8
0
100
AcDbLine
 62
7
  6
CONTINUOUS
 10
7.0066428202
 20
6.8788290962
 11
7.0075263504
 21
6.8901442565
  0
LINE
  5
4C5
100
AcDbEntity
  8
0
100
AcDbLine
 62
7
  6
CONTINUOUS
 10
6.9610393442
 20
6.2994708375
 11
6.9619367727
 21
6.310784904
  0
LINE
  5
4C6
100
AcDbEntity
  8
0
100
AcDbLine
 62
7
  6
CONTINUOUS
 10
7.0515948258
 20
6.3756909149
 11
7.0529294666
 21
6.3869445946
  0
LINE
  5
4C7
100
AcDbEntity
  8
0
100
AcDbLine
 62
7
  6
CONTINUOUS
 10
7.1044638762
 20
6.8113686422
 11
7.1058611995
 21
6.8226147108
  0
LINE
  5
4C8
100
AcDbEntity
  8
0
100
AcDbLine
 62
7
  6
CONTINUOUS
 10
7.0235086249
 20
6.896601946
 11
7.024983134
 21
6.9078553589
  0
LINE
  5
4C9
100
AcDbEntity
  8
0
100
AcDbLine
 62
7
  6
CONTINUOUS
 10
6.9476463784
 20
6.3204243792
 11
6.9491347095
 21
6.3316759724
  0
LINE
  5
4CA
100
AcDbEntity
  8
0
100
AcDbLine
 62
7
  6
CONTINUOUS
 10
7.0412814747
 20
6.9134677507
 11
7.0433429212
 21
6.9246285714
  0
LINE
  5
4CB
100
AcDbEntity
  8
0
100
AcDbLine
 62
7
  6
CONTINUOUS
 10
6.9353683909
 20
6.3420501384
 11
6.9374435452
 21
6.3532084185
  0
LINE
  5
4CC
100
AcDbEntity
  8
0
100
AcDbLine
 62
7
  6
CONTINUOUS
 10
7.039209124
 20
6.39703686
 11
7.0413169889
 21
6.4081716469
  0
LINE
  5
4CD
100
AcDbEntity
  8
0
100
AcDbLine
 62
7
  6
CONTINUOUS
 10
7.1220101068
 20
6.8280289896
 11
7.1241799798
 21
6.839151859
  0
LINE
  5
4CE
100
AcDbEntity
  8
0
100
AcDbLine
 62
7
  6
CONTINUOUS
 10
7.693940798
 20
6.6776661081
 11
7.6899517577
 21
6.6670588403
  0
LINE
  5
4CF
100
AcDbEntity
  8
0
100
AcDbLine
 62
7
  6
CONTINUOUS
 10
7.5383435215
 20
6.2673007756
 11
7.5342954414
 21
6.2567158986
  0
LINE
  5
4D0
100
AcDbEntity
  8
0
100
AcDbLine
 62
7
  6
CONTINUOUS
 10
7.5884345985
 20
6.1603760834
 11
7.5840977345
 21
6.1498877523
  0
LINE
  5
4D1
100
AcDbEntity
  8
0
100
AcDbLine
 62
7
  6
CONTINUOUS
 10
7.5173200703
 20
6.2553236354
 11
7.512551373
 21
6.245043261
  0
LINE
  5
4D2
100
AcDbEntity
  8
0
100
AcDbLine
 62
7
  6
CONTINUOUS
 10
7.5669021524
 20
6.1486849191
 11
7.562022315
 21
6.1384379358
  0
LINE
  5
4D3
100
AcDbEntity
  8
0
100
AcDbLine
 62
7
  6
CONTINUOUS
 10
5.1356845985
 20
6.050797629
 11
5.130887807
 21
6.0495044098
  0
LINE
  5
4D4
100
AcDbEntity
  8
0
100
AcDbLine
 62
7
  6
CONTINUOUS
 10
5.6463886277
 20
6.3416517665
 11
5.6573352595
 21
6.3445963723
  0
LINE
  5
4D5
100
AcDbEntity
  8
0
100
AcDbLine
 62
7
  6
CONTINUOUS
 10
5.8061175802
 20
6.2304316823
 11
5.795142379
 21
6.2275089986
  0
LINE
  5
4D6
100
AcDbEntity
  8
0
100
AcDbLine
 62
7
  6
CONTINUOUS
 10
5.1196701541
 20
6.0622219967
 11
5.1085854866
 21
6.0597466649
  0
LINE
  5
4D7
100
AcDbEntity
  8
0
100
AcDbLine
 62
7
  6
CONTINUOUS
 10
5.7910645275
 20
6.2110486256
 11
5.7799722866
 21
6.2086074552
  0
LINE
  5
4D8
100
AcDbEntity
  8
0
100
AcDbLine
 62
7
  6
CONTINUOUS
 10
5.0979332438
 20
6.0729414546
 11
5.0867511541
 21
6.0709519851
  0
LINE
  5
4D9
100
AcDbEntity
  8
0
100
AcDbLine
 62
7
  6
CONTINUOUS
 10
5.775180325
 20
6.1923406223
 11
5.7639921591
 21
6.1903856121
  0
LINE
  5
4DA
100
AcDbEntity
  8
0
100
AcDbLine
 62
7
  6
CONTINUOUS
 10
5.0766845985
 20
6.0845988606
 11
5.0654263722
 21
6.0830990406
  0
LINE
  5
4DB
100
AcDbEntity
  8
0
100
AcDbLine
 62
7
  6
CONTINUOUS
 10
5.758495209
 20
6.174343284
 11
5.7472324154
 21
6.1728781554
  0
LINE
  5
4DC
100
AcDbEntity
  8
0
100
AcDbLine
 62
7
  6
CONTINUOUS
 10
7.607044523
 20
6.3127046775
 11
7.5957760111
 21
6.3115016767
  0
LINE
  5
4DD
100
AcDbEntity
  8
0
100
AcDbLine
 62
7
  6
CONTINUOUS
 10
7.1705256755
 20
6.2673007756
 11
7.1592506356
 21
6.2661605794
  0
LINE
  5
4DE
100
AcDbEntity
  8
0
100
AcDbLine
 62
7
  6
CONTINUOUS
 10
5.0559646661
 20
6.0971720242
 11
5.0446517338
 21
6.0961647087
  0
LINE
  5
4DF
100
AcDbEntity
  8
0
100
AcDbLine
 62
7
  6
CONTINUOUS
 10
5.7410409407
 20
6.1570908697
 11
5.7297249588
 21
6.1561184118
  0
LINE
  5
4E0
100
AcDbEntity
  8
0
100
AcDbLine
 62
7
  6
CONTINUOUS
 10
7.0995435301
 20
6.1731781466
 11
7.0882294636
 21
6.1722807181
  0
LINE
  5
4E1
100
AcDbEntity
  8
0
100
AcDbLine
 62
7
  6
CONTINUOUS
 10
7.6789028826
 20
6.2187677243
 11
7.6675877223
 21
6.2178841941
  0
LINE
  5
4E2
100
AcDbEntity
  8
0
100
AcDbLine
 62
7
  6
CONTINUOUS
 10
5.0358128881
 20
6.1106370118
 11
5.0244667848
 21
6.1101241181
  0
LINE
  5
4E3
100
AcDbEntity
  8
0
100
AcDbLine
 62
7
  6
CONTINUOUS
 10
5.7228507453
 20
6.1406162204
 11
5.7115031157
 21
6.1401382842
  0
LINE
  5
4E4
100
AcDbEntity
  8
0
100
AcDbLine
 62
7
  6
CONTINUOUS
 10
7.5889898432
 20
6.2958795915
 11
7.5776651847
 21
6.2954568846
  0
LINE
  5
4E5
100
AcDbEntity
  8
0
100
AcDbLine
 62
7
  6
CONTINUOUS
 10
7.1503786341
 20
6.2806998095
 11
7.1390517961
 21
6.280340208
  0
LINE
  5
4E6
100
AcDbEntity
  8
0
100
AcDbLine
 62
7
  6
CONTINUOUS
 10
7.0793511004
 20
6.187056019
 11
7.0680055716
 21
6.1867519529
  0
LINE
  5
4E7
100
AcDbEntity
  8
0
100
AcDbLine
 62
7
  6
CONTINUOUS
 10
7.6603024352
 20
6.2022617921
 11
7.6489565415
 21
6.2019716624
  0
LINE
  5
4E8
100
AcDbEntity
  8
0
100
AcDbLine
 62
7
  6
CONTINUOUS
 10
5.0162676247
 20
6.1249681919
 11
5.0049099482
 21
6.1249506964
  0
LINE
  5
4E9
100
AcDbEntity
  8
0
100
AcDbLine
 62
7
  6
CONTINUOUS
 10
5.7039592487
 20
6.1249506964
 11
5.6926015723
 21
6.1249681919
  0
LINE
  5
4EA
100
AcDbEntity
  8
0
100
AcDbLine
 62
7
  6
CONTINUOUS
 10
3.0599126555
 20
6.2019716624
 11
3.0485667618
 21
6.2022617921
  0
LINE
  5
4EB
100
AcDbEntity
  8
0
100
AcDbLine
 62
7
  6
CONTINUOUS
 10
3.6408636254
 20
6.1867519529
 11
3.6295180966
 21
6.187056019
  0
LINE
  5
4EC
100
AcDbEntity
  8
0
100
AcDbLine
 62
7
  6
CONTINUOUS
 10
4.9973660813
 20
6.1401382842
 11
4.9860184517
 21
6.1406162204
  0
LINE
  5
4ED
100
AcDbEntity
  8
0
100
AcDbLine
 62
7
  6
CONTINUOUS
 10
5.6844024122
 20
6.1101241181
 11
5.6730563089
 21
6.1106370118
  0
LINE
  5
4EE
100
AcDbEntity
  8
0
100
AcDbLine
 62
7
  6
CONTINUOUS
 10
3.5598403741
 20
6.2730760453
 11
3.5485326974
 21
6.2738263912
  0
LINE
  5
4EF
100
AcDbEntity
  8
0
100
AcDbLine
 62
7
  6
CONTINUOUS
 10
3.1220101068
 20
6.3033229552
 11
3.1107067863
 21
6.3041362936
  0
LINE
  5
4F0
100
AcDbEntity
  8
0
100
AcDbLine
 62
7
  6
CONTINUOUS
 10
3.0412814747
 20
6.2178841941
 11
3.0299663144
 21
6.2187677243
  0
LINE
  5
4F1
100
AcDbEntity
  8
0
100
AcDbLine
 62
7
  6
CONTINUOUS
 10
3.6206397334
 20
6.1722807181
 11
3.6093256669
 21
6.1731781466
  0
LINE
  5
4F2
100
AcDbEntity
  8
0
100
AcDbLine
 62
7
  6
CONTINUOUS
 10
4.9791442382
 20
6.1561184118
 11
4.9678282563
 21
6.1570908697
  0
LINE
  5
4F3
100
AcDbEntity
  8
0
100
AcDbLine
 62
7
  6
CONTINUOUS
 10
5.6642174632
 20
6.0961647087
 11
5.6529045309
 21
6.0971720242
  0
LINE
  5
4F4
100
AcDbEntity
  8
0
100
AcDbLine
 62
7
  6
CONTINUOUS
 10
4.9616367815
 20
6.1728781554
 11
4.950373988
 21
6.174343284
  0
LINE
  5
4F5
100
AcDbEntity
  8
0
100
AcDbLine
 62
7
  6
CONTINUOUS
 10
5.6434428248
 20
6.0830990406
 11
5.6321845985
 21
6.0845988606
  0
LINE
  5
4F6
100
AcDbEntity
  8
0
100
AcDbLine
 62
7
  6
CONTINUOUS
 10
3.5391641443
 20
6.2596020517
 11
3.5279351778
 21
6.2611307394
  0
LINE
  5
4F7
100
AcDbEntity
  8
0
100
AcDbLine
 62
7
  6
CONTINUOUS
 10
3.1044638762
 20
6.3199833026
 11
3.0932436016
 21
6.3215745321
  0
LINE
  5
4F8
100
AcDbEntity
  8
0
100
AcDbLine
 62
7
  6
CONTINUOUS
 10
4.9448770379
 20
6.1903856121
 11
4.933688872
 21
6.1923406223
  0
LINE
  5
4F9
100
AcDbEntity
  8
0
100
AcDbLine
 62
7
  6
CONTINUOUS
 10
5.6221180429
 20
6.0709519851
 11
5.6109359531
 21
6.0729414546
  0
LINE
  5
4FA
100
AcDbEntity
  8
0
100
AcDbLine
 62
7
  6
CONTINUOUS
 10
4.9288969103
 20
6.2086074552
 11
4.9178046695
 21
6.2110486256
  0
LINE
  5
4FB
100
AcDbEntity
  8
0
100
AcDbLine
 62
7
  6
CONTINUOUS
 10
5.6002837103
 20
6.0597466649
 11
5.5891990429
 21
6.0622219967
  0
LINE
  5
4FC
100
AcDbEntity
  8
0
100
AcDbLine
 62
7
  6
CONTINUOUS
 10
4.913726818
 20
6.2275089986
 11
4.9027516168
 21
6.2304316823
  0
LINE
  5
4FD
100
AcDbEntity
  8
0
100
AcDbLine
 62
7
  6
CONTINUOUS
 10
5.0515339375
 20
6.3445963723
 11
5.0624805693
 21
6.3416517665
  0
LINE
  5
4FE
100
AcDbEntity
  8
0
100
AcDbLine
 62
7
  6
CONTINUOUS
 10
5.57798139
 20
6.0495044098
 11
5.5731845985
 21
6.050797629
  0
LINE
  5
4FF
100
AcDbEntity
  8
0
100
AcDbLine
 62
7
  6
CONTINUOUS
 10
4.8993956379
 20
6.247054262
 11
4.8885583684
 21
6.2504528955
  0
LINE
  5
500
100
AcDbEntity
  8
0
100
AcDbLine
 62
7
  6
CONTINUOUS
 10
3.2250212873
 20
6.898930297
 11
3.235820814
 21
6.8954956506
  0
LINE
  5
501
100
AcDbEntity
  8
0
100
AcDbLine
 62
7
  6
CONTINUOUS
 10
3.6428904435
 20
6.7647826661
 11
3.6536706654
 21
6.7612879002
  0
LINE
  5
502
100
AcDbEntity
  8
0
100
AcDbLine
 62
7
  6
CONTINUOUS
 10
5.0377231734
 20
6.3648803718
 11
5.0484537812
 21
6.3612261266
  0
LINE
  5
503
100
AcDbEntity
  8
0
100
AcDbLine
 62
7
  6
CONTINUOUS
 10
3.7469324243
 20
6.8205670408
 11
3.7576333555
 21
6.8167850371
  0
LINE
  5
504
100
AcDbEntity
  8
0
100
AcDbLine
 62
7
  6
CONTINUOUS
 10
3.1991183676
 20
7.0145655673
 11
3.2098146451
 21
7.010770422
  0
LINE
  5
505
100
AcDbEntity
  8
0
100
AcDbLine
 62
7
  6
CONTINUOUS
 10
4.8859306503
 20
6.26720604
 11
4.8752519418
 21
6.2710741538
  0
LINE
  5
506
100
AcDbEntity
  8
0
100
AcDbLine
 62
7
  6
CONTINUOUS
 10
3.2483212413
 20
6.9070646152
 11
3.2588580754
 21
6.9028930809
  0
LINE
  5
507
100
AcDbEntity
  8
0
100
AcDbLine
 62
7
  6
CONTINUOUS
 10
3.6559397304
 20
6.7444073502
 11
3.666453158
 21
6.7401771715
  0
LINE
  5
508
100
AcDbEntity
  8
0
100
AcDbLine
 62
7
  6
CONTINUOUS
 10
4.8733574867
 20
6.2879259724
 11
4.8628576667
 21
6.2922562033
  0
LINE
  5
509
100
AcDbEntity
  8
0
100
AcDbLine
 62
7
  6
CONTINUOUS
 10
3.7597344875
 20
6.7996759724
 11
3.7702228186
 21
6.7953391084
  0
LINE
  5
50A
100
AcDbEntity
  8
0
100
AcDbLine
 62
7
  6
CONTINUOUS
 10
3.2228242893
 20
7.0220790032
 11
3.2333072854
 21
7.0177292591
  0
LINE
  5
50B
100
AcDbEntity
  8
0
100
AcDbLine
 62
7
  6
CONTINUOUS
 10
5.0252686163
 20
6.3860242088
 11
5.0357372499
 21
6.3816759724
  0
LINE
  5
50C
100
AcDbEntity
  8
0
100
AcDbLine
 62
7
  6
CONTINUOUS
 10
4.8617000807
 20
6.3091746177
 11
4.8513991362
 21
6.313958723
  0
LINE
  5
50D
100
AcDbEntity
  8
0
100
AcDbLine
 62
7
  6
CONTINUOUS
 10
5.0142235984
 20
6.4079373423
 11
5.0243854296
 21
6.4029137344
  0
LINE
  5
50E
100
AcDbEntity
  8
0
100
AcDbLine
 62
7
  6
CONTINUOUS
 10
5.0046354163
 20
6.4305259368
 11
5.0144469305
 21
6.4248484693
  0
LINE
  5
50F
100
AcDbEntity
  8
0
100
AcDbLine
 62
7
  6
CONTINUOUS
 10
4.9965451279
 20
6.4536932645
 11
5.0059643108
 21
6.4473862492
  0
LINE
  5
510
100
AcDbEntity
  8
0
100
AcDbLine
 62
7
  6
CONTINUOUS
 10
5.426227837
 20
6.9266049556
 11
5.4187453289
 21
6.9351203254
  0
LINE
  5
511
100
AcDbEntity
  8
0
100
AcDbLine
 62
7
  6
CONTINUOUS
 10
5.7291125386
 20
6.581214351
 11
5.7216466822
 21
6.589744324
  0
LINE
  5
512
100
AcDbEntity
  8
0
100
AcDbLine
 62
7
  6
CONTINUOUS
 10
5.4496800071
 20
6.9211366765
 11
5.4427704515
 21
6.9301231936
  0
LINE
  5
513
100
AcDbEntity
  8
0
100
AcDbLine
 62
7
  6
CONTINUOUS
 10
5.7293265829
 20
6.5566759724
 11
5.7224345985
 21
6.5656759724
  0
LINE
  5
514
100
AcDbEntity
  8
0
100
AcDbLine
 62
7
  6
CONTINUOUS
 10
5.9094058856
 20
6.5414454027
 11
5.9159347126
 21
6.5321517738
  0
LINE
  5
515
100
AcDbEntity
  8
0
100
AcDbLine
 62
7
  6
CONTINUOUS
 10
5.514976506
 20
7.1047794374
 11
5.5214766701
 21
7.0954657385
  0
LINE
  5
516
100
AcDbEntity
  8
0
100
AcDbLine
 62
7
  6
CONTINUOUS
 10
5.4727243217
 20
6.9141462601
 11
5.4664173064
 21
6.923565443
  0
LINE
  5
517
100
AcDbEntity
  8
0
100
AcDbLine
 62
7
  6
CONTINUOUS
 10
5.7279352823
 20
6.5321761332
 11
5.7216466822
 21
6.5416076208
  0
LINE
  5
518
100
AcDbEntity
  8
0
100
AcDbLine
 62
7
  6
CONTINUOUS
 10
5.9078207533
 20
6.5172609573
 11
5.9139379839
 21
6.5076913904
  0
LINE
  5
519
100
AcDbEntity
  8
0
100
AcDbLine
 62
7
  6
CONTINUOUS
 10
5.5383390685
 20
7.0972635907
 11
5.5444267881
 21
7.0876752232
  0
LINE
  5
51A
100
AcDbEntity
  8
0
100
AcDbLine
 62
7
  6
CONTINUOUS
 10
5.905182219
 20
6.4931686726
 11
5.9108762087
 21
6.483341384
  0
LINE
  5
51B
100
AcDbEntity
  8
0
100
AcDbLine
 62
7
  6
CONTINUOUS
 10
5.5613515584
 20
7.0887358367
 11
5.5670152452
 21
7.0788910527
  0
LINE
  5
51C
100
AcDbEntity
  8
0
100
AcDbLine
 62
7
  6
CONTINUOUS
 10
5.9014953053
 20
6.4692144097
 11
5.9067552153
 21
6.4591481062
  0
LINE
  5
51D
100
AcDbEntity
  8
0
100
AcDbLine
 62
7
  6
CONTINUOUS
 10
5.5839701702
 20
7.0792124086
 11
5.5891990429
 21
7.0691299481
  0
LINE
  5
51E
100
AcDbEntity
  8
0
100
AcDbLine
 62
7
  6
CONTINUOUS
 10
6.9619367727
 20
6.8205670408
 11
6.9610393442
 21
6.8318811073
  0
LINE
  5
51F
100
AcDbEntity
  8
0
100
AcDbLine
 62
7
  6
CONTINUOUS
 10
7.0075263504
 20
6.2412076883
 11
7.0066428202
 21
6.2525228486
  0
LINE
  5
520
100
AcDbEntity
  8
0
100
AcDbLine
 62
7
  6
CONTINUOUS
 10
6.9758146451
 20
6.8407594705
 11
6.975510579
 21
6.8521049993
  0
LINE
  5
521
100
AcDbEntity
  8
0
100
AcDbLine
 62
7
  6
CONTINUOUS
 10
6.9910204182
 20
6.2598081357
 11
6.9907302885
 21
6.2711540294
  0
LINE
  5
522
100
AcDbEntity
  8
0
100
AcDbLine
 62
7
  6
CONTINUOUS
 10
7.0806298369
 20
6.3358125292
 11
7.0804026639
 21
6.3471427968
  0
LINE
  5
523
100
AcDbEntity
  8
0
100
AcDbLine
 62
7
  6
CONTINUOUS
 10
7.073023027
 20
6.7746204086
 11
7.0728589875
 21
6.7859517661
  0
LINE
  5
524
100
AcDbEntity
  8
0
100
AcDbLine
 62
7
  6
CONTINUOUS
 10
6.9907302885
 20
6.8601979154
 11
6.9910204182
 21
6.8715438091
  0
LINE
  5
525
100
AcDbEntity
  8
0
100
AcDbLine
 62
7
  6
CONTINUOUS
 10
6.975510579
 20
6.2792469455
 11
6.9758146451
 21
6.2905924743
  0
LINE
  5
526
100
AcDbEntity
  8
0
100
AcDbLine
 62
7
  6
CONTINUOUS
 10
7.0654236971
 20
6.355250335
 11
7.0659787535
 21
6.3665692787
  0
LINE
  5
527
100
AcDbEntity
  8
0
100
AcDbLine
 62
7
  6
CONTINUOUS
 10
7.0881088699
 20
6.7935374572
 11
7.0887269846
 21
6.8048531325
  0
LINE
  5
528
100
AcDbEntity
  8
0
100
AcDbLine
 62
7
  6
CONTINUOUS
 10
7.675293014
 20
6.7233342333
 11
7.6728020752
 21
6.7122788366
  0
LINE
  5
529
100
AcDbEntity
  8
0
100
AcDbLine
 62
7
  6
CONTINUOUS
 10
7.5776651847
 20
6.2954568846
 11
7.5751126861
 21
6.2844155385
  0
LINE
  5
52A
100
AcDbEntity
  8
0
100
AcDbLine
 62
7
  6
CONTINUOUS
 10
7.6295180966
 20
6.187056019
 11
7.6263013195
 21
6.1761718183
  0
LINE
  5
52B
100
AcDbEntity
  8
0
100
AcDbLine
 62
7
  6
CONTINUOUS
 10
7.7945803824
 20
6.7442724139
 11
7.7936749304
 21
6.7412225391
  0
LINE
  5
52C
100
AcDbEntity
  8
0
100
AcDbLine
 62
7
  6
CONTINUOUS
 10
7.6854055196
 20
6.7008221873
 11
7.6821577916
 21
6.6899649853
  0
LINE
  5
52D
100
AcDbEntity
  8
0
100
AcDbLine
 62
7
  6
CONTINUOUS
 10
7.5584905629
 20
6.2806998095
 11
7.5551823911
 21
6.2698608718
  0
LINE
  5
52E
100
AcDbEntity
  8
0
100
AcDbLine
 62
7
  6
CONTINUOUS
 10
7.6093256669
 20
6.1731781466
 11
7.6055436632
 21
6.1624772154
  0
LINE
  5
52F
100
AcDbEntity
  8
0
100
AcDbLine
 62
7
  6
CONTINUOUS
 10
7.4843618077
 20
6.8912050346
 11
7.4952734501
 21
6.8942648765
  0
LINE
  5
530
100
AcDbEntity
  8
0
100
AcDbLine
 62
7
  6
CONTINUOUS
 10
7.5447873475
 20
6.9932152466
 11
7.5558217303
 21
6.9958715362
  0
LINE
  5
531
100
AcDbEntity
  8
0
100
AcDbLine
 62
7
  6
CONTINUOUS
 10
6.9796926511
 20
6.8575551818
 11
6.9907302885
 21
6.8601979154
  0
LINE
  5
532
100
AcDbEntity
  8
0
100
AcDbLine
 62
7
  6
CONTINUOUS
 10
7.0770251109
 20
6.7911759196
 11
7.0881088699
 21
6.7935374572
  0
LINE
  5
533
100
AcDbEntity
  8
0
100
AcDbLine
 62
7
  6
CONTINUOUS
 10
7.5065108491
 20
6.8814655606
 11
7.517607594
 21
6.883765305
  0
LINE
  5
534
100
AcDbEntity
  8
0
100
AcDbLine
 62
7
  6
CONTINUOUS
 10
5.6311116476
 20
6.3230367124
 11
5.6422274282
 21
6.3252590696
  0
LINE
  5
535
100
AcDbEntity
  8
0
100
AcDbLine
 62
7
  6
CONTINUOUS
 10
5.614649894
 20
6.3054606769
 11
5.6258872239
 21
6.306951269
  0
LINE
  5
536
100
AcDbEntity
  8
0
100
AcDbLine
 62
7
  6
CONTINUOUS
 10
3.1204345985
 20
6.1603760834
 11
3.1091830053
 21
6.1588877523
  0
LINE
  5
537
100
AcDbEntity
  8
0
100
AcDbLine
 62
7
  6
CONTINUOUS
 10
3.696613985
 20
6.2362245079
 11
3.6853605721
 21
6.2347499988
  0
LINE
  5
538
100
AcDbEntity
  8
0
100
AcDbLine
 62
7
  6
CONTINUOUS
 10
3.0995435301
 20
6.1731781466
 11
3.0882294636
 21
6.1722807181
  0
LINE
  5
539
100
AcDbEntity
  8
0
100
AcDbLine
 62
7
  6
CONTINUOUS
 10
3.6789028826
 20
6.2187677243
 11
3.6675877223
 21
6.2178841941
  0
LINE
  5
53A
100
AcDbEntity
  8
0
100
AcDbLine
 62
7
  6
CONTINUOUS
 10
3.5981624107
 20
6.3041362936
 11
3.5868590902
 21
6.3033229552
  0
LINE
  5
53B
100
AcDbEntity
  8
0
100
AcDbLine
 62
7
  6
CONTINUOUS
 10
5.5970738585
 20
6.2889989232
 11
5.6083846178
 21
6.2897513673
  0
LINE
  5
53C
100
AcDbEntity
  8
0
100
AcDbLine
 62
7
  6
CONTINUOUS
 10
3.1603364996
 20
6.2738263912
 11
3.1490288229
 21
6.2730760453
  0
LINE
  5
53D
100
AcDbEntity
  8
0
100
AcDbLine
 62
7
  6
CONTINUOUS
 10
3.0793511004
 20
6.187056019
 11
3.0680055716
 21
6.1867519529
  0
LINE
  5
53E
100
AcDbEntity
  8
0
100
AcDbLine
 62
7
  6
CONTINUOUS
 10
3.6603024352
 20
6.2022617921
 11
3.6489565415
 21
6.2019716624
  0
LINE
  5
53F
100
AcDbEntity
  8
0
100
AcDbLine
 62
7
  6
CONTINUOUS
 10
3.5795377519
 20
6.2879444108
 11
3.568205251
 21
6.2879128393
  0
LINE
  5
540
100
AcDbEntity
  8
0
100
AcDbLine
 62
7
  6
CONTINUOUS
 10
5.5784588044
 20
6.2737219432
 11
5.5897945587
 21
6.2737330172
  0
LINE
  5
541
100
AcDbEntity
  8
0
100
AcDbLine
 62
7
  6
CONTINUOUS
 10
2.9019345985
 20
6.4156759724
 11
1.6119345985
 21
6.4156759724
  0
LINE
  5
542
100
AcDbEntity
  8
0
100
AcDbLine
 62
7
  6
CONTINUOUS
 10
7.8069345985
 20
6.4156759724
 11
9.0969345985
 21
6.4156759724
  0
LINE
  5
543
100
AcDbEntity
  8
0
100
AcDbLine
 62
7
  6
CONTINUOUS
 10
3.3544345985
 20
6.4681759724
 11
3.0019345985
 21
6.4681759724
  0
LINE
  5
544
100
AcDbEntity
  8
0
100
AcDbLine
 62
7
  6
CONTINUOUS
 10
7.3544345985
 20
6.4681759724
 11
7.7069345985
 21
6.4681759724
  0
LINE
  5
545
100
AcDbEntity
  8
0
100
AcDbLine
 62
7
  6
CONTINUOUS
 10
5.1190746383
 20
6.2737330172
 11
5.1304103926
 21
6.2737219432
  0
LINE
  5
546
100
AcDbEntity
  8
0
100
AcDbLine
 62
7
  6
CONTINUOUS
 10
3.140663946
 20
6.2879128393
 11
3.1293314451
 21
6.2879444108
  0
LINE
  5
547
100
AcDbEntity
  8
0
100
AcDbLine
 62
7
  6
CONTINUOUS
 10
7.0599126555
 20
6.2019716624
 11
7.0485667618
 21
6.2022617921
  0
LINE
  5
548
100
AcDbEntity
  8
0
100
AcDbLine
 62
7
  6
CONTINUOUS
 10
7.6408636254
 20
6.1867519529
 11
7.6295180966
 21
6.187056019
  0
LINE
  5
549
100
AcDbEntity
  8
0
100
AcDbLine
 62
7
  6
CONTINUOUS
 10
7.5698174009
 20
6.280340208
 11
7.5584905629
 21
6.2806998095
  0
LINE
  5
54A
100
AcDbEntity
  8
0
100
AcDbLine
 62
7
  6
CONTINUOUS
 10
7.1312040123
 20
6.2954568846
 11
7.1198793538
 21
6.2958795915
  0
LINE
  5
54B
100
AcDbEntity
  8
0
100
AcDbLine
 62
7
  6
CONTINUOUS
 10
5.1004845792
 20
6.2897513673
 11
5.1117953385
 21
6.2889989232
  0
LINE
  5
54C
100
AcDbEntity
  8
0
100
AcDbLine
 62
7
  6
CONTINUOUS
 10
7.0412814747
 20
6.2178841941
 11
7.0299663144
 21
6.2187677243
  0
LINE
  5
54D
100
AcDbEntity
  8
0
100
AcDbLine
 62
7
  6
CONTINUOUS
 10
7.6206397334
 20
6.1722807181
 11
7.6093256669
 21
6.1731781466
  0
LINE
  5
54E
100
AcDbEntity
  8
0
100
AcDbLine
 62
7
  6
CONTINUOUS
 10
7.5496185614
 20
6.2661605794
 11
7.5383435215
 21
6.2673007756
  0
LINE
  5
54F
100
AcDbEntity
  8
0
100
AcDbLine
 62
7
  6
CONTINUOUS
 10
7.1130931859
 20
6.3115016767
 11
7.101824674
 21
6.3127046775
  0
LINE
  5
550
100
AcDbEntity
  8
0
100
AcDbLine
 62
7
  6
CONTINUOUS
 10
7.0235086249
 20
6.2347499988
 11
7.012255212
 21
6.2362245079
  0
LINE
  5
551
100
AcDbEntity
  8
0
100
AcDbLine
 62
7
  6
CONTINUOUS
 10
7.5996861917
 20
6.1588877523
 11
7.5884345985
 21
6.1603760834
  0
LINE
  5
552
100
AcDbEntity
  8
0
100
AcDbLine
 62
7
  6
CONTINUOUS
 10
5.0829819731
 20
6.306951269
 11
5.094219303
 21
6.3054606769
  0
LINE
  5
553
100
AcDbEntity
  8
0
100
AcDbLine
 62
7
  6
CONTINUOUS
 10
3.1803796156
 20
6.8779436667
 11
3.1915491267
 21
6.8760283094
  0
LINE
  5
554
100
AcDbEntity
  8
0
100
AcDbLine
 62
7
  6
CONTINUOUS
 10
3.6127367357
 20
6.8025942197
 11
3.6238954015
 21
6.8006166578
  0
LINE
  5
555
100
AcDbEntity
  8
0
100
AcDbLine
 62
7
  6
CONTINUOUS
 10
5.0666417687
 20
6.3252590696
 11
5.0777575493
 21
6.3230367124
  0
LINE
  5
556
100
AcDbEntity
  8
0
100
AcDbLine
 62
7
  6
CONTINUOUS
 10
3.7181389085
 20
6.8601979154
 11
3.7291765458
 21
6.8575551818
  0
LINE
  5
557
100
AcDbEntity
  8
0
100
AcDbLine
 62
7
  6
CONTINUOUS
 10
3.1530474667
 20
6.9958715362
 11
3.1640818495
 21
6.9932152466
  0
LINE
  5
558
100
AcDbEntity
  8
0
100
AcDbLine
 62
7
  6
CONTINUOUS
 10
3.2023380468
 20
6.8892078703
 11
3.2133488013
 21
6.8865264794
  0
LINE
  5
559
100
AcDbEntity
  8
0
100
AcDbLine
 62
7
  6
CONTINUOUS
 10
3.6284665331
 20
6.7842091479
 11
3.6394621765
 21
6.7814664489
  0
LINE
  5
55A
100
AcDbEntity
  8
0
100
AcDbLine
 62
7
  6
CONTINUOUS
 10
3.7330545519
 20
6.8407594705
 11
3.7439387526
 21
6.8375426934
  0
LINE
  5
55B
100
AcDbEntity
  8
0
100
AcDbLine
 62
7
  6
CONTINUOUS
 10
3.1758381569
 20
7.0058217563
 11
3.1867183981
 21
7.002591612
  0
LINE
  5
55C
100
AcDbEntity
  8
0
100
AcDbLine
 62
7
  6
CONTINUOUS
 10
5.3544345985
 20
6.9336759724
 11
5.3454345985
 21
6.9405679568
  0
LINE
  5
55D
100
AcDbEntity
  8
0
100
AcDbLine
 62
7
  6
CONTINUOUS
 10
5.7188818197
 20
6.6540118254
 11
5.7098953026
 21
6.660921381
  0
LINE
  5
55E
100
AcDbEntity
  8
0
100
AcDbLine
 62
7
  6
CONTINUOUS
 10
5.3785029501
 20
6.9328880561
 11
5.3699729771
 21
6.9403539125
  0
LINE
  5
55F
100
AcDbEntity
  8
0
100
AcDbLine
 62
7
  6
CONTINUOUS
 10
5.7238789515
 20
6.6299867028
 11
5.7153635817
 21
6.6374692109
  0
LINE
  5
560
100
AcDbEntity
  8
0
100
AcDbLine
 62
7
  6
CONTINUOUS
 10
5.9014953053
 20
6.6621375351
 11
5.9098808825
 21
6.6544772991
  0
LINE
  5
561
100
AcDbEntity
  8
0
100
AcDbLine
 62
7
  6
CONTINUOUS
 10
5.3944876759
 20
7.1267481611
 11
5.4028496136
 21
7.1190621272
  0
LINE
  5
562
100
AcDbEntity
  8
0
100
AcDbLine
 62
7
  6
CONTINUOUS
 10
5.905182219
 20
6.6381832722
 11
5.9132256801
 21
6.6301645533
  0
LINE
  5
563
100
AcDbEntity
  8
0
100
AcDbLine
 62
7
  6
CONTINUOUS
 10
5.4024682372
 20
6.9305276814
 11
5.394444818
 21
6.9385354397
  0
LINE
  5
564
100
AcDbEntity
  8
0
100
AcDbLine
 62
7
  6
CONTINUOUS
 10
5.7272940658
 20
6.6056861919
 11
5.7192863075
 21
6.6137096111
  0
LINE
  5
565
100
AcDbEntity
  8
0
100
AcDbLine
 62
7
  6
CONTINUOUS
 10
5.4189231794
 20
7.1244670541
 11
5.4269418983
 21
7.1164235929
  0
LINE
  5
566
100
AcDbEntity
  8
0
100
AcDbLine
 62
7
  6
CONTINUOUS
 10
5.9078207533
 20
6.6140909875
 11
5.9155067872
 21
6.6057290498
  0
LINE
  5
567
100
AcDbEntity
  8
0
100
AcDbLine
 62
7
  6
CONTINUOUS
 10
5.4432359252
 20
7.1211222564
 11
5.4508961612
 21
7.1127366792
  0
LINE
  5
568
100
AcDbEntity
  8
0
100
AcDbLine
 62
7
  6
CONTINUOUS
 10
5.9094058856
 20
6.5899065421
 11
5.9167198615
 21
6.581217303
  0
LINE
  5
569
100
AcDbEntity
  8
0
100
AcDbLine
 62
7
  6
CONTINUOUS
 10
5.4673796326
 20
7.1167201351
 11
5.474666804
 21
7.1080084044
  0
LINE
  5
56A
100
AcDbEntity
  8
0
100
AcDbLine
 62
7
  6
CONTINUOUS
 10
5.9099345985
 20
6.5656759724
 11
5.9168625939
 21
6.5566759724
  0
LINE
  5
56B
100
AcDbEntity
  8
0
100
AcDbLine
 62
7
  6
CONTINUOUS
 10
5.4913083428
 20
7.11126907
 11
5.498208578
 21
7.1022477689
  0
LINE
  5
56C
100
AcDbEntity
  8
0
100
AcDbLine
 62
7
  6
CONTINUOUS
 10
7.0971407811
 20
6.3174701273
 11
7.0961324612
 21
6.3287577251
  0
LINE
  5
56D
100
AcDbEntity
  8
0
100
AcDbLine
 62
7
  6
CONTINUOUS
 10
7.0592782383
 20
6.7547076445
 11
7.0583328264
 21
6.7660006852
  0
LINE
  5
56E
100
AcDbEntity
  8
0
100
AcDbLine
 62
7
  6
CONTINUOUS
 10
7.6505363706
 20
6.7660006852
 11
7.6495909587
 21
6.7547076445
  0
LINE
  5
56F
100
AcDbEntity
  8
0
100
AcDbLine
 62
7
  6
CONTINUOUS
 10
7.6127367357
 20
6.3287577251
 11
7.6117284159
 21
6.3174701273
  0
LINE
  5
570
100
AcDbEntity
  8
0
100
AcDbLine
 62
7
  6
CONTINUOUS
 10
7.6853605721
 20
6.2347499988
 11
7.683886063
 21
6.2234965859
  0
LINE
  5
571
100
AcDbEntity
  8
0
100
AcDbLine
 62
7
  6
CONTINUOUS
 10
7.7612228186
 20
6.8109275656
 11
7.7597344875
 21
6.7996759724
  0
LINE
  5
572
100
AcDbEntity
  8
0
100
AcDbLine
 62
7
  6
CONTINUOUS
 10
7.6636514719
 20
6.7450949659
 11
7.6619291928
 21
6.7338940584
  0
LINE
  5
573
100
AcDbEntity
  8
0
100
AcDbLine
 62
7
  6
CONTINUOUS
 10
7.5957760111
 20
6.3115016767
 11
7.5939913495
 21
6.3003105394
  0
LINE
  5
574
100
AcDbEntity
  8
0
100
AcDbLine
 62
7
  6
CONTINUOUS
 10
7.6675877223
 20
6.2178841941
 11
7.6655262758
 21
6.2067233734
  0
LINE
  5
575
100
AcDbEntity
  8
0
100
AcDbLine
 62
7
  6
CONTINUOUS
 10
7.7735008061
 20
6.7893018064
 11
7.7714256518
 21
6.7781435263
  0
LINE
  5
576
100
AcDbEntity
  8
0
100
AcDbLine
 62
7
  6
CONTINUOUS
 10
7.6489565415
 20
6.2019716624
 11
7.6463138079
 21
6.1909340251
  0
LINE
  5
577
100
AcDbEntity
  8
0
100
AcDbLine
 62
7
  6
CONTINUOUS
 10
7.7846301623
 20
6.7670631042
 11
7.7819738727
 21
6.7560287214
  0
LINE
  5
578
100
AcDbEntity
  8
0
100
AcDbLine
 62
7
  6
CONTINUOUS
 10
3.2245073893
 20
6.2401469102
 11
3.2135957469
 21
6.2370870683
  0
LINE
  5
579
100
AcDbEntity
  8
0
100
AcDbLine
 62
7
  6
CONTINUOUS
 10
5.0624805693
 20
6.7897001783
 11
5.0515339375
 21
6.7867555725
  0
LINE
  5
57A
100
AcDbEntity
  8
0
100
AcDbLine
 62
7
  6
CONTINUOUS
 10
5.5062144657
 20
6.9085868528
 11
5.4952621016
 21
6.9056636404
  0
LINE
  5
57B
100
AcDbEntity
  8
0
100
AcDbLine
 62
7
  6
CONTINUOUS
 10
3.1640818495
 20
6.1381366982
 11
3.1530474667
 21
6.1354804086
  0
LINE
  5
57C
100
AcDbEntity
  8
0
100
AcDbLine
 62
7
  6
CONTINUOUS
 10
3.7291765458
 20
6.273796763
 11
3.7181389085
 21
6.2711540294
  0
LINE
  5
57D
100
AcDbEntity
  8
0
100
AcDbLine
 62
7
  6
CONTINUOUS
 10
3.6318440861
 20
6.3401760252
 11
3.6207603271
 21
6.3378144876
  0
LINE
  5
57E
100
AcDbEntity
  8
0
100
AcDbLine
 62
7
  6
CONTINUOUS
 10
3.2023583479
 20
6.2498863842
 11
3.191261603
 21
6.2475866398
  0
LINE
  5
57F
100
AcDbEntity
  8
0
100
AcDbLine
 62
7
  6
CONTINUOUS
 10
5.0777575493
 20
6.8083152324
 11
5.0666417687
 21
6.8060928752
  0
LINE
  5
580
100
AcDbEntity
  8
0
100
AcDbLine
 62
7
  6
CONTINUOUS
 10
5.5283169379
 20
6.8979257761
 11
5.5171968365
 21
6.8957251413
  0
LINE
  5
581
100
AcDbEntity
  8
0
100
AcDbLine
 62
7
  6
CONTINUOUS
 10
3.1419670446
 20
6.1486849191
 11
3.1308087645
 21
6.1466097648
  0
LINE
  5
582
100
AcDbEntity
  8
0
100
AcDbLine
 62
7
  6
CONTINUOUS
 10
7.5669021524
 20
6.9826670257
 11
7.5780604324
 21
6.98474218
  0
LINE
  5
583
100
AcDbEntity
  8
0
100
AcDbLine
 62
7
  6
CONTINUOUS
 10
3.7133871975
 20
6.2545842951
 11
3.7022263768
 21
6.2525228486
  0
LINE
  5
584
100
AcDbEntity
  8
0
100
AcDbLine
 62
7
  6
CONTINUOUS
 10
6.9954819995
 20
6.8767676497
 11
7.0066428202
 21
6.8788290962
  0
LINE
  5
585
100
AcDbEntity
  8
0
100
AcDbLine
 62
7
  6
CONTINUOUS
 10
7.0932436016
 20
6.8097774127
 11
7.1044638762
 21
6.8113686422
  0
LINE
  5
586
100
AcDbEntity
  8
0
100
AcDbLine
 62
7
  6
CONTINUOUS
 10
3.6156255954
 20
6.3215745321
 11
3.6044053208
 21
6.3199833026
  0
LINE
  5
587
100
AcDbEntity
  8
0
100
AcDbLine
 62
7
  6
CONTINUOUS
 10
3.1809340191
 20
6.2611307394
 11
3.1697050527
 21
6.2596020517
  0
LINE
  5
588
100
AcDbEntity
  8
0
100
AcDbLine
 62
7
  6
CONTINUOUS
 10
7.5279351778
 20
6.8702212054
 11
7.5391641443
 21
6.8717498931
  0
LINE
  5
589
100
AcDbEntity
  8
0
100
AcDbLine
 62
7
  6
CONTINUOUS
 10
7.5884345985
 20
6.9709758614
 11
7.5996861917
 21
6.9724641925
  0
LINE
  5
58A
100
AcDbEntity
  8
0
100
AcDbLine
 62
7
  6
CONTINUOUS
 10
7.012255212
 20
6.8951274369
 11
7.0235086249
 21
6.896601946
  0
LINE
  5
58B
100
AcDbEntity
  8
0
100
AcDbLine
 62
7
  6
CONTINUOUS
 10
7.6093256669
 20
6.9581737982
 11
7.6206397334
 21
6.9590712267
  0
LINE
  5
58C
100
AcDbEntity
  8
0
100
AcDbLine
 62
7
  6
CONTINUOUS
 10
7.0299663144
 20
6.9125842205
 11
7.0412814747
 21
6.9134677507
  0
LINE
  5
58D
100
AcDbEntity
  8
0
100
AcDbLine
 62
7
  6
CONTINUOUS
 10
7.1107067863
 20
6.8272156512
 11
7.1220101068
 21
6.8280289896
  0
LINE
  5
58E
100
AcDbEntity
  8
0
100
AcDbLine
 62
7
  6
CONTINUOUS
 10
7.5485326974
 20
6.8575255535
 11
7.5598403741
 21
6.8582758995
  0
LINE
  5
58F
100
AcDbEntity
  8
0
100
AcDbLine
 62
7
  6
CONTINUOUS
 10
3.3544345985
 20
6.6631759724
 11
3.0019345985
 21
6.6631759724
  0
LINE
  5
590
100
AcDbEntity
  8
0
100
AcDbLine
 62
7
  6
CONTINUOUS
 10
7.3544345985
 20
6.6631759724
 11
7.7069345985
 21
6.6631759724
  0
LINE
  5
591
100
AcDbEntity
  8
0
100
AcDbLine
 62
7
  6
CONTINUOUS
 10
2.9019345985
 20
6.7156759724
 11
1.6119345985
 21
6.7156759724
  0
LINE
  5
592
100
AcDbEntity
  8
0
100
AcDbLine
 62
7
  6
CONTINUOUS
 10
7.8069345985
 20
6.7156759724
 11
9.0969345985
 21
6.7156759724
  0
LINE
  5
593
100
AcDbEntity
  8
0
100
AcDbLine
 62
7
  6
CONTINUOUS
 10
3.1390517961
 20
6.8510117368
 11
3.1503786341
 21
6.8506521353
  0
LINE
  5
594
100
AcDbEntity
  8
0
100
AcDbLine
 62
7
  6
CONTINUOUS
 10
3.5776651847
 20
6.8358950602
 11
3.5889898432
 21
6.8354723533
  0
LINE
  5
595
100
AcDbEntity
  8
0
100
AcDbLine
 62
7
  6
CONTINUOUS
 10
3.6675877223
 20
6.9134677507
 11
3.6789028826
 21
6.9125842205
  0
LINE
  5
596
100
AcDbEntity
  8
0
100
AcDbLine
 62
7
  6
CONTINUOUS
 10
3.0882294636
 20
6.9590712267
 11
3.0995435301
 21
6.9581737982
  0
LINE
  5
597
100
AcDbEntity
  8
0
100
AcDbLine
 62
7
  6
CONTINUOUS
 10
3.1592506356
 20
6.8651913654
 11
3.1705256755
 21
6.8640511692
  0
LINE
  5
598
100
AcDbEntity
  8
0
100
AcDbLine
 62
7
  6
CONTINUOUS
 10
3.5957760111
 20
6.8198502681
 11
3.607044523
 21
6.8186472673
  0
LINE
  5
599
100
AcDbEntity
  8
0
100
AcDbLine
 62
7
  6
CONTINUOUS
 10
3.6853605721
 20
6.896601946
 11
3.696613985
 21
6.8951274369
  0
LINE
  5
59A
100
AcDbEntity
  8
0
100
AcDbLine
 62
7
  6
CONTINUOUS
 10
3.1091830053
 20
6.9724641925
 11
3.1204345985
 21
6.9709758614
  0
LINE
  5
59B
100
AcDbEntity
  8
0
100
AcDbLine
 62
7
  6
CONTINUOUS
 10
7.5284895814
 20
6.2534082781
 11
7.5173200703
 21
6.2553236354
  0
LINE
  5
59C
100
AcDbEntity
  8
0
100
AcDbLine
 62
7
  6
CONTINUOUS
 10
7.0961324612
 20
6.3287577251
 11
7.0849737955
 21
6.330735287
  0
LINE
  5
59D
100
AcDbEntity
  8
0
100
AcDbLine
 62
7
  6
CONTINUOUS
 10
7.0066428202
 20
6.2525228486
 11
6.9954819995
 21
6.2545842951
  0
LINE
  5
59E
100
AcDbEntity
  8
0
100
AcDbLine
 62
7
  6
CONTINUOUS
 10
3.7022263768
 20
6.8788290962
 11
3.7133871975
 21
6.8767676497
  0
LINE
  5
59F
100
AcDbEntity
  8
0
100
AcDbLine
 62
7
  6
CONTINUOUS
 10
7.5780604324
 20
6.1466097648
 11
7.5669021524
 21
6.1486849191
  0
LINE
  5
5A0
100
AcDbEntity
  8
0
100
AcDbLine
 62
7
  6
CONTINUOUS
 10
3.1308087645
 20
6.98474218
 11
3.1419670446
 21
6.9826670257
  0
LINE
  5
5A1
100
AcDbEntity
  8
0
100
AcDbLine
 62
7
  6
CONTINUOUS
 10
5.1916723605
 20
6.8957251413
 11
5.180552259
 21
6.8979257761
  0
LINE
  5
5A2
100
AcDbEntity
  8
0
100
AcDbLine
 62
7
  6
CONTINUOUS
 10
5.6422274282
 20
6.8060928752
 11
5.6311116476
 21
6.8083152324
  0
LINE
  5
5A3
100
AcDbEntity
  8
0
100
AcDbLine
 62
7
  6
CONTINUOUS
 10
6.9907302885
 20
6.2711540294
 11
6.9796926511
 21
6.273796763
  0
LINE
  5
5A4
100
AcDbEntity
  8
0
100
AcDbLine
 62
7
  6
CONTINUOUS
 10
7.5558217303
 20
6.1354804086
 11
7.5447873475
 21
6.1381366982
  0
LINE
  5
5A5
100
AcDbEntity
  8
0
100
AcDbLine
 62
7
  6
CONTINUOUS
 10
7.5065311502
 20
6.2421440745
 11
7.4955203957
 21
6.2448254654
  0
LINE
  5
5A6
100
AcDbEntity
  8
0
100
AcDbLine
 62
7
  6
CONTINUOUS
 10
7.0804026639
 20
6.3471427968
 11
7.0694070205
 21
6.3498854959
  0
LINE
  5
5A7
100
AcDbEntity
  8
0
100
AcDbLine
 62
7
  6
CONTINUOUS
 10
5.2136070954
 20
6.9056636404
 11
5.2026547313
 21
6.9085868528
  0
LINE
  5
5A8
100
AcDbEntity
  8
0
100
AcDbLine
 62
7
  6
CONTINUOUS
 10
5.6573352595
 20
6.7867555725
 11
5.6463886277
 21
6.7897001783
  0
LINE
  5
5A9
100
AcDbEntity
  8
0
100
AcDbLine
 62
7
  6
CONTINUOUS
 10
6.9758146451
 20
6.2905924743
 11
6.9649304444
 21
6.2938092514
  0
LINE
  5
5AA
100
AcDbEntity
  8
0
100
AcDbLine
 62
7
  6
CONTINUOUS
 10
7.53303104
 20
6.1255301885
 11
7.5221507989
 21
6.1287603328
  0
LINE
  5
5AB
100
AcDbEntity
  8
0
100
AcDbLine
 62
7
  6
CONTINUOUS
 10
7.4838479097
 20
6.2324216478
 11
7.473048383
 21
6.2358562942
  0
LINE
  5
5AC
100
AcDbEntity
  8
0
100
AcDbLine
 62
7
  6
CONTINUOUS
 10
7.0659787535
 20
6.3665692787
 11
7.0551985316
 21
6.3700640446
  0
LINE
  5
5AD
100
AcDbEntity
  8
0
100
AcDbLine
 62
7
  6
CONTINUOUS
 10
5.2361448753
 20
6.9141462601
 11
5.2254071483
 21
6.9177795326
  0
LINE
  5
5AE
100
AcDbEntity
  8
0
100
AcDbLine
 62
7
  6
CONTINUOUS
 10
5.6711460236
 20
6.766471573
 11
5.6604154158
 21
6.7701258181
  0
LINE
  5
5AF
100
AcDbEntity
  8
0
100
AcDbLine
 62
7
  6
CONTINUOUS
 10
6.9619367727
 20
6.310784904
 11
6.9512358415
 21
6.3145669077
  0
LINE
  5
5B0
100
AcDbEntity
  8
0
100
AcDbLine
 62
7
  6
CONTINUOUS
 10
7.5097508293
 20
6.1167863775
 11
7.4990545519
 21
6.1205815228
  0
LINE
  5
5B1
100
AcDbEntity
  8
0
100
AcDbLine
 62
7
  6
CONTINUOUS
 10
5.2591891899
 20
6.9211366765
 11
5.2487120806
 21
6.9254644508
  0
LINE
  5
5B2
100
AcDbEntity
  8
0
100
AcDbLine
 62
7
  6
CONTINUOUS
 10
6.9491347095
 20
6.3316759724
 11
6.9386463784
 21
6.3360128364
  0
LINE
  5
5B3
100
AcDbEntity
  8
0
100
AcDbLine
 62
7
  6
CONTINUOUS
 10
7.4860449076
 20
6.1092729416
 11
7.4755619116
 21
6.1136226857
  0
LINE
  5
5B4
100
AcDbEntity
  8
0
100
AcDbLine
 62
7
  6
CONTINUOUS
 10
5.6836005807
 20
6.745327736
 11
5.6731319471
 21
6.7496759724
  0
LINE
  5
5B5
100
AcDbEntity
  8
0
100
AcDbLine
 62
7
  6
CONTINUOUS
 10
5.28264136
 20
6.9266049556
 11
5.272469733
 21
6.9316086996
  0
LINE
  5
5B6
100
AcDbEntity
  8
0
100
AcDbLine
 62
7
  6
CONTINUOUS
 10
5.6946455986
 20
6.7234146025
 11
5.6844837674
 21
6.7284382104
  0
LINE
  5
5B7
100
AcDbEntity
  8
0
100
AcDbLine
 62
7
  6
CONTINUOUS
 10
5.8578885742
 20
6.8004404168
 11
5.8679710347
 21
6.7952115441
  0
LINE
  5
5B8
100
AcDbEntity
  8
0
100
AcDbLine
 62
7
  6
CONTINUOUS
 10
5.2479067322
 20
7.1179965892
 11
5.2579730358
 21
7.1127366792
  0
LINE
  5
5B9
100
AcDbEntity
  8
0
100
AcDbLine
 62
7
  6
CONTINUOUS
 10
5.8676496788
 20
6.7782566191
 11
5.8774944628
 21
6.7725929323
  0
LINE
  5
5BA
100
AcDbEntity
  8
0
100
AcDbLine
 62
7
  6
CONTINUOUS
 10
5.3064009598
 20
6.9305276814
 11
5.2965783715
 21
6.9361859682
  0
LINE
  5
5BB
100
AcDbEntity
  8
0
100
AcDbLine
 62
7
  6
CONTINUOUS
 10
5.7042337807
 20
6.700826008
 11
5.6944222665
 21
6.7065034755
  0
LINE
  5
5BC
100
AcDbEntity
  8
0
100
AcDbLine
 62
7
  6
CONTINUOUS
 10
5.2721000101
 20
7.1221175826
 11
5.2819272987
 21
7.1164235929
  0
LINE
  5
5BD
100
AcDbEntity
  8
0
100
AcDbLine
 62
7
  6
CONTINUOUS
 10
5.8764338493
 20
6.755668162
 11
5.8860222168
 21
6.7495804424
  0
LINE
  5
5BE
100
AcDbEntity
  8
0
100
AcDbLine
 62
7
  6
CONTINUOUS
 10
5.2964500165
 20
7.1251793578
 11
5.3060195834
 21
7.1190621272
  0
LINE
  5
5BF
100
AcDbEntity
  8
0
100
AcDbLine
 62
7
  6
CONTINUOUS
 10
5.3303662469
 20
6.9328880561
 11
5.3209347593
 21
6.9391766562
  0
LINE
  5
5C0
100
AcDbEntity
  8
0
100
AcDbLine
 62
7
  6
CONTINUOUS
 10
5.7123240691
 20
6.6776586803
 11
5.7029048861
 21
6.6839656956
  0
LINE
  5
5C1
100
AcDbEntity
  8
0
100
AcDbLine
 62
7
  6
CONTINUOUS
 10
5.8842243646
 20
6.732718044
 11
5.8935380635
 21
6.7262178799
  0
LINE
  5
5C2
100
AcDbEntity
  8
0
100
AcDbLine
 62
7
  6
CONTINUOUS
 10
5.3209103999
 20
7.1271760865
 11
5.3302040288
 21
7.1206472595
  0
LINE
  5
5C3
100
AcDbEntity
  8
0
100
AcDbLine
 62
7
  6
CONTINUOUS
 10
5.891006395
 20
6.709449952
 11
5.9000276961
 21
6.7025497167
  0
LINE
  5
5C4
100
AcDbEntity
  8
0
100
AcDbLine
 62
7
  6
CONTINUOUS
 10
5.3454345985
 20
7.1281039678
 11
5.3544345985
 21
7.1211759724
  0
LINE
  5
5C5
100
AcDbEntity
  8
0
100
AcDbLine
 62
7
  6
CONTINUOUS
 10
5.8967670304
 20
6.6859081779
 11
5.9054787612
 21
6.6786210065
  0
LINE
  5
5C6
100
AcDbEntity
  8
0
100
AcDbLine
 62
7
  6
CONTINUOUS
 10
5.3699759291
 20
7.1279612354
 11
5.3786651682
 21
7.1206472595
  0
LINE
  5
5C7
100
AcDbEntity
  8
0
100
AcDbLine
 62
7
  6
CONTINUOUS
 10
6.9093401489
 20
6.7102959258
 11
6.9055450036
 21
6.7209922032
  0
LINE
  5
5C8
100
AcDbEntity
  8
0
100
AcDbLine
 62
7
  6
CONTINUOUS
 10
7.1033255338
 20
6.1624772154
 11
7.0995435301
 21
6.1731781466
  0
LINE
  5
5C9
100
AcDbEntity
  8
0
100
AcDbLine
 62
7
  6
CONTINUOUS
 10
6.9175189589
 20
6.7333921728
 11
6.9142888146
 21
6.7442724139
  0
LINE
  5
5CA
100
AcDbEntity
  8
0
100
AcDbLine
 62
7
  6
CONTINUOUS
 10
7.0825678775
 20
6.1761718183
 11
7.0793511004
 21
6.187056019
  0
LINE
  5
5CB
100
AcDbEntity
  8
0
100
AcDbLine
 62
7
  6
CONTINUOUS
 10
6.9268953243
 20
6.7560287214
 11
6.9242390347
 21
6.7670631042
  0
LINE
  5
5CC
100
AcDbEntity
  8
0
100
AcDbLine
 62
7
  6
CONTINUOUS
 10
7.0625553891
 20
6.1909340251
 11
7.0599126555
 21
6.2019716624
  0
LINE
  5
5CD
100
AcDbEntity
  8
0
100
AcDbLine
 62
7
  6
CONTINUOUS
 10
7.1337565109
 20
6.2844155385
 11
7.1312040123
 21
6.2954568846
  0
LINE
  5
5CE
100
AcDbEntity
  8
0
100
AcDbLine
 62
7
  6
CONTINUOUS
 10
7.0360671218
 20
6.7122788366
 11
7.033576183
 21
6.7233342333
  0
LINE
  5
5CF
100
AcDbEntity
  8
0
100
AcDbLine
 62
7
  6
CONTINUOUS
 10
6.9374435452
 20
6.7781435263
 11
6.9353683909
 21
6.7893018064
  0
LINE
  5
5D0
100
AcDbEntity
  8
0
100
AcDbLine
 62
7
  6
CONTINUOUS
 10
7.0433429212
 20
6.2067233734
 11
7.0412814747
 21
6.2178841941
  0
LINE
  5
5D1
100
AcDbEntity
  8
0
100
AcDbLine
 62
7
  6
CONTINUOUS
 10
7.1148778475
 20
6.3003105394
 11
7.1130931859
 21
6.3115016767
  0
LINE
  5
5D2
100
AcDbEntity
  8
0
100
AcDbLine
 62
7
  6
CONTINUOUS
 10
7.0469400042
 20
6.7338940584
 11
7.0452177251
 21
6.7450949659
  0
LINE
  5
5D3
100
AcDbEntity
  8
0
100
AcDbLine
 62
7
  6
CONTINUOUS
 10
6.9491347095
 20
6.7996759724
 11
6.9476463784
 21
6.8109275656
  0
LINE
  5
5D4
100
AcDbEntity
  8
0
100
AcDbLine
 62
7
  6
CONTINUOUS
 10
7.024983134
 20
6.2234965859
 11
7.0235086249
 21
6.2347499988
  0
LINE
  5
5D5
100
AcDbEntity
  8
0
100
AcDbLine
 62
7
  6
CONTINUOUS
 10
7.6201422124
 20
6.8048531325
 11
7.6207603271
 21
6.7935374572
  0
LINE
  5
5D6
100
AcDbEntity
  8
0
100
AcDbLine
 62
7
  6
CONTINUOUS
 10
7.6428904435
 20
6.3665692787
 11
7.6434454999
 21
6.355250335
  0
LINE
  5
5D7
100
AcDbEntity
  8
0
100
AcDbLine
 62
7
  6
CONTINUOUS
 10
7.7330545519
 20
6.2905924743
 11
7.733358618
 21
6.2792469455
  0
LINE
  5
5D8
100
AcDbEntity
  8
0
100
AcDbLine
 62
7
  6
CONTINUOUS
 10
7.7178487788
 20
6.8715438091
 11
7.7181389085
 21
6.8601979154
  0
LINE
  5
5D9
100
AcDbEntity
  8
0
100
AcDbLine
 62
7
  6
CONTINUOUS
 10
7.5294345985
 20
6.6631759724
 11
7.5294345985
 21
6.4681759724
  0
LINE
  5
5DA
100
AcDbEntity
  8
0
100
AcDbLine
 62
7
  6
CONTINUOUS
 10
7.7069345985
 20
6.4486759724
 11
7.7069345985
 21
6.6826759724
  0
LINE
  5
5DB
100
AcDbEntity
  8
0
100
AcDbLine
 62
7
  6
CONTINUOUS
 10
7.7444345985
 20
6.7156759724
 11
7.7444345985
 21
6.4156759724
  0
LINE
  5
5DC
100
AcDbEntity
  8
0
100
AcDbLine
 62
7
  6
CONTINUOUS
 10
7.8069345985
 20
6.7156759724
 11
7.8069345985
 21
6.4156759724
  0
LINE
  5
5DD
100
AcDbEntity
  8
0
100
AcDbLine
 62
7
  6
CONTINUOUS
 10
7.6360102095
 20
6.7859517661
 11
7.63584617
 21
6.7746204086
  0
LINE
  5
5DE
100
AcDbEntity
  8
0
100
AcDbLine
 62
7
  6
CONTINUOUS
 10
7.6284665331
 20
6.3471427968
 11
7.6282393601
 21
6.3358125292
  0
LINE
  5
5DF
100
AcDbEntity
  8
0
100
AcDbLine
 62
7
  6
CONTINUOUS
 10
7.7181389085
 20
6.2711540294
 11
7.7178487788
 21
6.2598081357
  0
LINE
  5
5E0
100
AcDbEntity
  8
0
100
AcDbLine
 62
7
  6
CONTINUOUS
 10
7.733358618
 20
6.8521049993
 11
7.7330545519
 21
6.8407594705
  0
LINE
  5
5E1
100
AcDbEntity
  8
0
100
AcDbLine
 62
7
  6
CONTINUOUS
 10
7.7022263768
 20
6.2525228486
 11
7.7013428466
 21
6.2412076883
  0
LINE
  5
5E2
100
AcDbEntity
  8
0
100
AcDbLine
 62
7
  6
CONTINUOUS
 10
7.7478298528
 20
6.8318811073
 11
7.7469324243
 21
6.8205670408
  0
LINE
  5
5E3
100
AcDbEntity
  8
0
100
AcDbLine
 62
7
  6
CONTINUOUS
 10
5.5670152452
 20
7.0788910527
 11
5.57798139
 21
7.081847535
  0
LINE
  5
5E4
100
AcDbEntity
  8
0
100
AcDbLine
 62
7
  6
CONTINUOUS
 10
4.9027516168
 20
6.9009202625
 11
4.913726818
 21
6.9038429462
  0
LINE
  5
5E5
100
AcDbEntity
  8
0
100
AcDbLine
 62
7
  6
CONTINUOUS
 10
5.5891990429
 20
7.0691299481
 11
5.6002837103
 21
7.0716052799
  0
LINE
  5
5E6
100
AcDbEntity
  8
0
100
AcDbLine
 62
7
  6
CONTINUOUS
 10
4.9178046695
 20
6.9203033192
 11
4.9288969103
 21
6.9227444896
  0
LINE
  5
5E7
100
AcDbEntity
  8
0
100
AcDbLine
 62
7
  6
CONTINUOUS
 10
5.6109359531
 20
7.0584104902
 11
5.6221180429
 21
7.0603999597
  0
LINE
  5
5E8
100
AcDbEntity
  8
0
100
AcDbLine
 62
7
  6
CONTINUOUS
 10
4.933688872
 20
6.9390113225
 11
4.9448770379
 21
6.9409663327
  0
LINE
  5
5E9
100
AcDbEntity
  8
0
100
AcDbLine
 62
7
  6
CONTINUOUS
 10
5.6321845985
 20
7.0467530842
 11
5.6434428248
 21
7.0482529042
  0
LINE
  5
5EA
100
AcDbEntity
  8
0
100
AcDbLine
 62
7
  6
CONTINUOUS
 10
5.094219303
 20
6.8258912679
 11
5.0829819731
 21
6.8244006758
  0
LINE
  5
5EB
100
AcDbEntity
  8
0
100
AcDbLine
 62
7
  6
CONTINUOUS
 10
5.5496748194
 20
6.8858419546
 11
5.5384345985
 21
6.884373321
  0
LINE
  5
5EC
100
AcDbEntity
  8
0
100
AcDbLine
 62
7
  6
CONTINUOUS
 10
4.950373988
 20
6.9570086608
 11
4.9616367815
 21
6.9584737893
  0
LINE
  5
5ED
100
AcDbEntity
  8
0
100
AcDbLine
 62
7
  6
CONTINUOUS
 10
3.101824674
 20
6.8186472673
 11
3.1130931859
 21
6.8198502681
  0
LINE
  5
5EE
100
AcDbEntity
  8
0
100
AcDbLine
 62
7
  6
CONTINUOUS
 10
3.5383435215
 20
6.8640511692
 11
3.5496185614
 21
6.8651913654
  0
LINE
  5
5EF
100
AcDbEntity
  8
0
100
AcDbLine
 62
7
  6
CONTINUOUS
 10
5.6529045309
 20
7.0341799205
 11
5.6642174632
 21
7.0351872361
  0
LINE
  5
5F0
100
AcDbEntity
  8
0
100
AcDbLine
 62
7
  6
CONTINUOUS
 10
4.9678282563
 20
6.9742610751
 11
4.9791442382
 21
6.975233533
  0
LINE
  5
5F1
100
AcDbEntity
  8
0
100
AcDbLine
 62
7
  6
CONTINUOUS
 10
3.6093256669
 20
6.9581737982
 11
3.6206397334
 21
6.9590712267
  0
LINE
  5
5F2
100
AcDbEntity
  8
0
100
AcDbLine
 62
7
  6
CONTINUOUS
 10
3.0299663144
 20
6.9125842205
 11
3.0412814747
 21
6.9134677507
  0
LINE
  5
5F3
100
AcDbEntity
  8
0
100
AcDbLine
 62
7
  6
CONTINUOUS
 10
5.1117953385
 20
6.8423530215
 11
5.1004845792
 21
6.8416005775
  0
LINE
  5
5F4
100
AcDbEntity
  8
0
100
AcDbLine
 62
7
  6
CONTINUOUS
 10
5.5701966522
 20
6.8723871333
 11
5.5588844442
 21
6.8716567897
  0
LINE
  5
5F5
100
AcDbEntity
  8
0
100
AcDbLine
 62
7
  6
CONTINUOUS
 10
5.6730563089
 20
7.020714933
 11
5.6844024122
 21
7.0212278267
  0
LINE
  5
5F6
100
AcDbEntity
  8
0
100
AcDbLine
 62
7
  6
CONTINUOUS
 10
4.9860184517
 20
6.9907357244
 11
4.9973660813
 21
6.9912136605
  0
LINE
  5
5F7
100
AcDbEntity
  8
0
100
AcDbLine
 62
7
  6
CONTINUOUS
 10
3.1198793538
 20
6.8354723533
 11
3.1312040123
 21
6.8358950602
  0
LINE
  5
5F8
100
AcDbEntity
  8
0
100
AcDbLine
 62
7
  6
CONTINUOUS
 10
3.5584905629
 20
6.8506521353
 11
3.5698174009
 21
6.8510117368
  0
LINE
  5
5F9
100
AcDbEntity
  8
0
100
AcDbLine
 62
7
  6
CONTINUOUS
 10
7.6295180966
 20
6.9442959258
 11
7.6408636254
 21
6.9445999919
  0
LINE
  5
5FA
100
AcDbEntity
  8
0
100
AcDbLine
 62
7
  6
CONTINUOUS
 10
3.6295180966
 20
6.9442959258
 11
3.6408636254
 21
6.9445999919
  0
LINE
  5
5FB
100
AcDbEntity
  8
0
100
AcDbLine
 62
7
  6
CONTINUOUS
 10
7.0485667618
 20
6.9290901527
 11
7.0599126555
 21
6.9293802824
  0
LINE
  5
5FC
100
AcDbEntity
  8
0
100
AcDbLine
 62
7
  6
CONTINUOUS
 10
3.0485667618
 20
6.9290901527
 11
3.0599126555
 21
6.9293802824
  0
LINE
  5
5FD
100
AcDbEntity
  8
0
100
AcDbLine
 62
7
  6
CONTINUOUS
 10
7.1293314451
 20
6.843407534
 11
7.140663946
 21
6.8434391055
  0
LINE
  5
5FE
100
AcDbEntity
  8
0
100
AcDbLine
 62
7
  6
CONTINUOUS
 10
5.6926015723
 20
7.0063837529
 11
5.7039592487
 21
7.0064012484
  0
LINE
  5
5FF
100
AcDbEntity
  8
0
100
AcDbLine
 62
7
  6
CONTINUOUS
 10
5.1304103926
 20
6.8576300016
 11
5.1190746383
 21
6.8576189276
  0
LINE
  5
600
100
AcDbEntity
  8
0
100
AcDbLine
 62
7
  6
CONTINUOUS
 10
5.5897945587
 20
6.8576189276
 11
5.5784588044
 21
6.8576300016
  0
LINE
  5
601
100
AcDbEntity
  8
0
100
AcDbLine
 62
7
  6
CONTINUOUS
 10
5.0049099482
 20
7.0064012484
 11
5.0162676247
 21
7.0063837529
  0
LINE
  5
602
100
AcDbEntity
  8
0
100
AcDbLine
 62
7
  6
CONTINUOUS
 10
7.568205251
 20
6.8434391055
 11
7.5795377519
 21
6.843407534
  0
LINE
  5
603
100
AcDbEntity
  8
0
100
AcDbLine
 62
7
  6
CONTINUOUS
 10
3.6489565415
 20
6.9293802824
 11
3.6603024352
 21
6.9290901527
  0
LINE
  5
604
100
AcDbEntity
  8
0
100
AcDbLine
 62
7
  6
CONTINUOUS
 10
7.6489565415
 20
6.9293802824
 11
7.6603024352
 21
6.9290901527
  0
LINE
  5
605
100
AcDbEntity
  8
0
100
AcDbLine
 62
7
  6
CONTINUOUS
 10
3.0680055716
 20
6.9445999919
 11
3.0793511004
 21
6.9442959258
  0
LINE
  5
606
100
AcDbEntity
  8
0
100
AcDbLine
 62
7
  6
CONTINUOUS
 10
7.0680055716
 20
6.9445999919
 11
7.0793511004
 21
6.9442959258
  0
LINE
  5
607
100
AcDbEntity
  8
0
100
AcDbLine
 62
7
  6
CONTINUOUS
 10
5.7115031157
 20
6.9912136605
 11
5.7228507453
 21
6.9907357244
  0
LINE
  5
608
100
AcDbEntity
  8
0
100
AcDbLine
 62
7
  6
CONTINUOUS
 10
5.0244667848
 20
7.0212278267
 11
5.0358128881
 21
7.020714933
  0
LINE
  5
609
100
AcDbEntity
  8
0
100
AcDbLine
 62
7
  6
CONTINUOUS
 10
5.1499847527
 20
6.8716567897
 11
5.1386725448
 21
6.8723871333
  0
LINE
  5
60A
100
AcDbEntity
  8
0
100
AcDbLine
 62
7
  6
CONTINUOUS
 10
7.1490288229
 20
6.8582758995
 11
7.1603364996
 21
6.8575255535
  0
LINE
  5
60B
100
AcDbEntity
  8
0
100
AcDbLine
 62
7
  6
CONTINUOUS
 10
5.6083846178
 20
6.8416005775
 11
5.5970738585
 21
6.8423530215
  0
LINE
  5
60C
100
AcDbEntity
  8
0
100
AcDbLine
 62
7
  6
CONTINUOUS
 10
7.5868590902
 20
6.8280289896
 11
7.5981624107
 21
6.8272156512
  0
LINE
  5
60D
100
AcDbEntity
  8
0
100
AcDbLine
 62
7
  6
CONTINUOUS
 10
7.6675877223
 20
6.9134677507
 11
7.6789028826
 21
6.9125842205
  0
LINE
  5
60E
100
AcDbEntity
  8
0
100
AcDbLine
 62
7
  6
CONTINUOUS
 10
7.0882294636
 20
6.9590712267
 11
7.0995435301
 21
6.9581737982
  0
LINE
  5
60F
100
AcDbEntity
  8
0
100
AcDbLine
 62
7
  6
CONTINUOUS
 10
5.7297249588
 20
6.975233533
 11
5.7410409407
 21
6.9742610751
  0
LINE
  5
610
100
AcDbEntity
  8
0
100
AcDbLine
 62
7
  6
CONTINUOUS
 10
5.0446517338
 20
7.0351872361
 11
5.0559646661
 21
7.0341799205
  0
LINE
  5
611
100
AcDbEntity
  8
0
100
AcDbLine
 62
7
  6
CONTINUOUS
 10
5.7472324154
 20
6.9584737893
 11
5.758495209
 21
6.9570086608
  0
LINE
  5
612
100
AcDbEntity
  8
0
100
AcDbLine
 62
7
  6
CONTINUOUS
 10
5.1704345985
 20
6.884373321
 11
5.1591943776
 21
6.8858419546
  0
LINE
  5
613
100
AcDbEntity
  8
0
100
AcDbLine
 62
7
  6
CONTINUOUS
 10
5.6258872239
 20
6.8244006758
 11
5.614649894
 21
6.8258912679
  0
LINE
  5
614
100
AcDbEntity
  8
0
100
AcDbLine
 62
7
  6
CONTINUOUS
 10
5.0654263722
 20
7.0482529042
 11
5.0766845985
 21
7.0467530842
  0
LINE
  5
615
100
AcDbEntity
  8
0
100
AcDbLine
 62
7
  6
CONTINUOUS
 10
7.1697050527
 20
6.8717498931
 11
7.1809340191
 21
6.8702212054
  0
LINE
  5
616
100
AcDbEntity
  8
0
100
AcDbLine
 62
7
  6
CONTINUOUS
 10
7.6044053208
 20
6.8113686422
 11
7.6156255954
 21
6.8097774127
  0
LINE
  5
617
100
AcDbEntity
  8
0
100
AcDbLine
 62
7
  6
CONTINUOUS
 10
5.7639921591
 20
6.9409663327
 11
5.775180325
 21
6.9390113225
  0
LINE
  5
618
100
AcDbEntity
  8
0
100
AcDbLine
 62
7
  6
CONTINUOUS
 10
5.0867511541
 20
7.0603999597
 11
5.0979332438
 21
7.0584104902
  0
LINE
  5
619
100
AcDbEntity
  8
0
100
AcDbLine
 62
7
  6
CONTINUOUS
 10
5.7799722866
 20
6.9227444896
 11
5.7910645275
 21
6.9203033192
  0
LINE
  5
61A
100
AcDbEntity
  8
0
100
AcDbLine
 62
7
  6
CONTINUOUS
 10
5.1085854866
 20
7.0716052799
 11
5.1196701541
 21
7.0691299481
  0
LINE
  5
61B
100
AcDbEntity
  8
0
100
AcDbLine
 62
7
  6
CONTINUOUS
 10
5.795142379
 20
6.9038429462
 11
5.8061175802
 21
6.9009202625
  0
LINE
  5
61C
100
AcDbEntity
  8
0
100
AcDbLine
 62
7
  6
CONTINUOUS
 10
5.130887807
 20
7.081847535
 11
5.1418539518
 21
7.0788910527
  0
LINE
  5
61D
100
AcDbEntity
  8
0
100
AcDbLine
 62
7
  6
CONTINUOUS
 10
5.8094735591
 20
6.8842976828
 11
5.8203108286
 21
6.8808990493
  0
LINE
  5
61E
100
AcDbEntity
  8
0
100
AcDbLine
 62
7
  6
CONTINUOUS
 10
5.1536156613
 20
7.0911072281
 11
5.1644424089
 21
7.0876752232
  0
LINE
  5
61F
100
AcDbEntity
  8
0
100
AcDbLine
 62
7
  6
CONTINUOUS
 10
5.8229385466
 20
6.8641459048
 11
5.8336172552
 21
6.860277791
  0
LINE
  5
620
100
AcDbEntity
  8
0
100
AcDbLine
 62
7
  6
CONTINUOUS
 10
5.1767257859
 20
7.099366733
 11
5.1873925269
 21
7.0954657385
  0
LINE
  5
621
100
AcDbEntity
  8
0
100
AcDbLine
 62
7
  6
CONTINUOUS
 10
7.4605479557
 20
6.2242873296
 11
7.4500111216
 21
6.2284588639
  0
LINE
  5
622
100
AcDbEntity
  8
0
100
AcDbLine
 62
7
  6
CONTINUOUS
 10
7.0529294666
 20
6.3869445946
 11
7.0424160389
 21
6.3911747733
  0
LINE
  5
623
100
AcDbEntity
  8
0
100
AcDbLine
 62
7
  6
CONTINUOUS
 10
5.8355117103
 20
6.8434259724
 11
5.8460115303
 21
6.8390957415
  0
LINE
  5
624
100
AcDbEntity
  8
0
100
AcDbLine
 62
7
  6
CONTINUOUS
 10
5.2001741894
 20
7.1066103272
 11
5.2106606189
 21
7.1022477689
  0
LINE
  5
625
100
AcDbEntity
  8
0
100
AcDbLine
 62
7
  6
CONTINUOUS
 10
5.8471691163
 20
6.822177327
 11
5.8574700608
 21
6.8173932218
  0
LINE
  5
626
100
AcDbEntity
  8
0
100
AcDbLine
 62
7
  6
CONTINUOUS
 10
5.2239162362
 20
7.1128242221
 11
5.234202393
 21
7.1080084044
  0
LINE
  5
627
100
AcDbEntity
  8
0
100
AcDbLine
 62
7
  6
CONTINUOUS
 10
6.9374435452
 20
6.3532084185
 11
6.9271965619
 21
6.3580882559
  0
LINE
  5
628
100
AcDbEntity
  8
0
100
AcDbLine
 62
7
  6
CONTINUOUS
 10
7.4619782512
 20
6.1030104747
 11
7.4517372698
 21
6.1079028953
  0
LINE
  5
629
100
AcDbEntity
  8
0
100
AcDbLine
 62
7
  6
CONTINUOUS
 10
7.4367423233
 20
6.2177798838
 11
7.4265183945
 21
6.2226684268
  0
LINE
  5
62A
100
AcDbEntity
  8
0
100
AcDbLine
 62
7
  6
CONTINUOUS
 10
7.0413169889
 20
6.4081716469
 11
7.0311204568
 21
6.4131170796
  0
LINE
  5
62B
100
AcDbEntity
  8
0
100
AcDbLine
 62
7
  6
CONTINUOUS
 10
6.9268953243
 20
6.3753232234
 11
6.9169177751
 21
6.3807326588
  0
LINE
  5
62C
100
AcDbEntity
  8
0
100
AcDbLine
 62
7
  6
CONTINUOUS
 10
7.4376168252
 20
6.0980161418
 11
7.4276459281
 21
6.103437829
  0
LINE
  5
62D
100
AcDbEntity
  8
0
100
AcDbLine
 62
7
  6
CONTINUOUS
 10
7.4125444572
 20
6.2129303214
 11
7.4026821554
 21
6.2185125768
  0
LINE
  5
62E
100
AcDbEntity
  8
0
100
AcDbLine
 62
7
  6
CONTINUOUS
 10
7.0311966592
 20
6.430149279
 11
7.0213656137
 21
6.4357863986
  0
LINE
  5
62F
100
AcDbEntity
  8
0
100
AcDbLine
 62
7
  6
CONTINUOUS
 10
6.9175189589
 20
6.397959772
 11
6.9078381915
 21
6.4038839785
  0
LINE
  5
630
100
AcDbEntity
  8
0
100
AcDbLine
 62
7
  6
CONTINUOUS
 10
7.4130274024
 20
6.094303632
 11
7.4033539193
 21
6.1002397254
  0
LINE
  5
631
100
AcDbEntity
  8
0
100
AcDbLine
 62
7
  6
CONTINUOUS
 10
7.3880696711
 20
6.2097617525
 11
7.3786159946
 21
6.2160111185
  0
LINE
  5
632
100
AcDbEntity
  8
0
100
AcDbLine
 62
7
  6
CONTINUOUS
 10
7.0226167056
 20
6.4527727575
 11
7.0131979961
 21
6.4590747005
  0
LINE
  5
633
100
AcDbEntity
  8
0
100
AcDbLine
 62
7
  6
CONTINUOUS
 10
6.9093401489
 20
6.421056019
 11
6.8999826977
 21
6.4274787588
  0
LINE
  5
634
100
AcDbEntity
  8
0
100
AcDbLine
 62
7
  6
CONTINUOUS
 10
7.3882773808
 20
6.0918831209
 11
7.378927826
 21
6.0983173501
  0
LINE
  5
635
100
AcDbEntity
  8
0
100
AcDbLine
 62
7
  6
CONTINUOUS
 10
7.3634345985
 20
6.2082892771
 11
7.3544345985
 21
6.2151759724
  0
LINE
  5
636
100
AcDbEntity
  8
0
100
AcDbLine
 62
7
  6
CONTINUOUS
 10
6.9023813118
 20
6.4445486593
 11
6.8933728249
 21
6.4514523281
  0
LINE
  5
637
100
AcDbEntity
  8
0
100
AcDbLine
 62
7
  6
CONTINUOUS
 10
7.3634345985
 20
6.0907612432
 11
7.3544345985
 21
6.0976759724
  0
LINE
  5
638
100
AcDbEntity
  8
0
100
AcDbLine
 62
7
  6
CONTINUOUS
 10
7.0156180152
 20
6.4759342713
 11
7.0066565262
 21
6.482871006
  0
LINE
  5
639
100
AcDbEntity
  8
0
100
AcDbLine
 62
7
  6
CONTINUOUS
 10
6.8966615214
 20
6.4683733011
 11
6.8880266904
 21
6.4757389765
  0
LINE
  5
63A
100
AcDbEntity
  8
0
100
AcDbLine
 62
7
  6
CONTINUOUS
 10
7.3385671478
 20
6.0909410737
 11
7.329941371
 21
6.0983173501
  0
LINE
  5
63B
100
AcDbEntity
  8
0
100
AcDbLine
 62
7
  6
CONTINUOUS
 10
6.8921964551
 20
6.4924646428
 11
6.8839589475
 21
6.5002721359
  0
LINE
  5
63C
100
AcDbEntity
  8
0
100
AcDbLine
 62
7
  6
CONTINUOUS
 10
7.3137431887
 20
6.0924221196
 11
7.3055152777
 21
6.1002397254
  0
LINE
  5
63D
100
AcDbEntity
  8
0
100
AcDbLine
 62
7
  6
CONTINUOUS
 10
6.8889983515
 20
6.5167566516
 11
6.8811807457
 21
6.5249845626
  0
LINE
  5
63E
100
AcDbEntity
  8
0
100
AcDbLine
 62
7
  6
CONTINUOUS
 10
7.289030762
 20
6.0952003214
 11
7.2812232689
 21
6.103437829
  0
LINE
  5
63F
100
AcDbEntity
  8
0
100
AcDbLine
 62
7
  6
CONTINUOUS
 10
6.8870759762
 20
6.5411827449
 11
6.8796996998
 21
6.5498085217
  0
LINE
  5
640
100
AcDbEntity
  8
0
100
AcDbLine
 62
7
  6
CONTINUOUS
 10
7.2644976026
 20
6.0992680643
 11
7.2571319272
 21
6.1079028953
  0
LINE
  5
641
100
AcDbEntity
  8
0
100
AcDbLine
 62
7
  6
CONTINUOUS
 10
6.8864345985
 20
6.5656759724
 11
6.8795198693
 21
6.5746759724
  0
LINE
  5
642
100
AcDbEntity
  8
0
100
AcDbLine
 62
7
  6
CONTINUOUS
 10
7.2402109542
 20
6.1046141988
 11
7.2333072854
 21
6.1136226857
  0
LINE
  5
643
100
AcDbEntity
  8
0
100
AcDbLine
 62
7
  6
CONTINUOUS
 10
7.0039868146
 20
6.571725827
 11
6.997256491
 21
6.580843355
  0
LINE
  5
644
100
AcDbEntity
  8
0
100
AcDbLine
 62
7
  6
CONTINUOUS
 10
6.8870759762
 20
6.5901691999
 11
6.880641747
 21
6.5995187547
  0
LINE
  5
645
100
AcDbEntity
  8
0
100
AcDbLine
 62
7
  6
CONTINUOUS
 10
7.2162373849
 20
6.1112240716
 11
7.2098146451
 21
6.1205815228
  0
LINE
  5
646
100
AcDbEntity
  8
0
100
AcDbLine
 62
7
  6
CONTINUOUS
 10
7.2419592451
 20
6.2263302123
 11
7.235820814
 21
6.2358562942
  0
LINE
  5
647
100
AcDbEntity
  8
0
100
AcDbLine
 62
7
  6
CONTINUOUS
 10
7.0052392226
 20
6.5958892055
 11
6.9991539642
 21
6.6054493417
  0
LINE
  5
648
100
AcDbEntity
  8
0
100
AcDbLine
 62
7
  6
CONTINUOUS
 10
6.8889983515
 20
6.6145952932
 11
6.8830622581
 21
6.6242687763
  0
LINE
  5
649
100
AcDbEntity
  8
0
100
AcDbLine
 62
7
  6
CONTINUOUS
 10
7.1926426046
 20
6.1190795654
 11
7.1867183981
 21
6.1287603328
  0
LINE
  5
64A
100
AcDbEntity
  8
0
100
AcDbLine
 62
7
  6
CONTINUOUS
 10
7.2188153909
 20
6.2348985842
 11
7.2133488013
 21
6.2448254654
  0
LINE
  5
64B
100
AcDbEntity
  8
0
100
AcDbLine
 62
7
  6
CONTINUOUS
 10
6.8921964551
 20
6.638887302
 11
6.8867747679
 21
6.6488581991
  0
LINE
  5
64C
100
AcDbEntity
  8
0
100
AcDbLine
 62
7
  6
CONTINUOUS
 10
7.0081557056
 20
6.6199086042
 11
7.0027445115
 21
6.6298657901
  0
LINE
  5
64D
100
AcDbEntity
  8
0
100
AcDbLine
 62
7
  6
CONTINUOUS
 10
7.1694912849
 20
6.128159149
 11
7.1640818495
 21
6.1381366982
  0
LINE
  5
64E
100
AcDbEntity
  8
0
100
AcDbLine
 62
7
  6
CONTINUOUS
 10
6.8966615214
 20
6.6629786437
 11
6.8917691008
 21
6.6732196251
  0
LINE
  5
64F
100
AcDbEntity
  8
0
100
AcDbLine
 62
7
  6
CONTINUOUS
 10
7.146846882
 20
6.1384379358
 11
7.1419670446
 21
6.1486849191
  0
LINE
  5
650
100
AcDbEntity
  8
0
100
AcDbLine
 62
7
  6
CONTINUOUS
 10
7.196317824
 20
6.245043261
 11
7.1915491267
 21
6.2553236354
  0
LINE
  5
651
100
AcDbEntity
  8
0
100
AcDbLine
 62
7
  6
CONTINUOUS
 10
7.0127223653
 20
6.6436695597
 11
7.0080110222
 21
6.6539763448
  0
LINE
  5
652
100
AcDbEntity
  8
0
100
AcDbLine
 62
7
  6
CONTINUOUS
 10
6.9023813118
 20
6.6868032855
 11
6.8980315677
 21
6.6972862815
  0
LINE
  5
653
100
AcDbEntity
  8
0
100
AcDbLine
 62
7
  6
CONTINUOUS
 10
7.1247714625
 20
6.1498877523
 11
7.1204345985
 21
6.1603760834
  0
LINE
  5
654
100
AcDbEntity
  8
0
100
AcDbLine
 62
7
  6
CONTINUOUS
 10
7.1745737555
 20
6.2567158986
 11
7.1705256755
 21
6.2673007756
  0
LINE
  5
655
100
AcDbEntity
  8
0
100
AcDbLine
 62
7
  6
CONTINUOUS
 10
7.0189174393
 20
6.6670588403
 11
7.014928399
 21
6.6776661081
  0
LINE
  5
656
100
AcDbEntity
  8
0
100
AcDbLine
 62
7
  6
CONTINUOUS
 10
7.1536868059
 20
6.2698608718
 11
7.1503786341
 21
6.2806998095
  0
LINE
  5
657
100
AcDbEntity
  8
0
100
AcDbLine
 62
7
  6
CONTINUOUS
 10
7.0267114054
 20
6.6899649853
 11
7.0234636774
 21
6.7008221873
  0
LINE
  5
658
100
AcDbEntity
  8
0
100
AcDbLine
 62
7
  6
CONTINUOUS
 10
7.7469324243
 20
6.310784904
 11
7.7478298528
 21
6.2994708375
  0
LINE
  5
659
100
AcDbEntity
  8
0
100
AcDbLine
 62
7
  6
CONTINUOUS
 10
7.7013428466
 20
6.8901442565
 11
7.7022263768
 21
6.8788290962
  0
LINE
  5
65A
100
AcDbEntity
  8
0
100
AcDbLine
 62
7
  6
CONTINUOUS
 10
3.0694070205
 20
6.7814664489
 11
3.0804026639
 21
6.7842091479
  0
LINE
  5
65B
100
AcDbEntity
  8
0
100
AcDbLine
 62
7
  6
CONTINUOUS
 10
3.4955203957
 20
6.8865264794
 11
3.5065311502
 21
6.8892078703
  0
LINE
  5
65C
100
AcDbEntity
  8
0
100
AcDbLine
 62
7
  6
CONTINUOUS
 10
3.5447873475
 20
6.9932152466
 11
3.5558217303
 21
6.9958715362
  0
LINE
  5
65D
100
AcDbEntity
  8
0
100
AcDbLine
 62
7
  6
CONTINUOUS
 10
2.9796926511
 20
6.8575551818
 11
2.9907302885
 21
6.8601979154
  0
LINE
  5
65E
100
AcDbEntity
  8
0
100
AcDbLine
 62
7
  6
CONTINUOUS
 10
3.5669021524
 20
6.9826670257
 11
3.5780604324
 21
6.98474218
  0
LINE
  5
65F
100
AcDbEntity
  8
0
100
AcDbLine
 62
7
  6
CONTINUOUS
 10
2.9954819995
 20
6.8767676497
 11
3.0066428202
 21
6.8788290962
  0
LINE
  5
660
100
AcDbEntity
  8
0
100
AcDbLine
 62
7
  6
CONTINUOUS
 10
3.0849737955
 20
6.8006166578
 11
3.0961324612
 21
6.8025942197
  0
LINE
  5
661
100
AcDbEntity
  8
0
100
AcDbLine
 62
7
  6
CONTINUOUS
 10
3.5173200703
 20
6.8760283094
 11
3.5284895814
 21
6.8779436667
  0
LINE
  5
662
100
AcDbEntity
  8
0
100
AcDbLine
 62
7
  6
CONTINUOUS
 10
3.5884345985
 20
6.9709758614
 11
3.5996861917
 21
6.9724641925
  0
LINE
  5
663
100
AcDbEntity
  8
0
100
AcDbLine
 62
7
  6
CONTINUOUS
 10
3.012255212
 20
6.8951274369
 11
3.0235086249
 21
6.896601946
  0
LINE
  5
664
100
AcDbEntity
  8
0
100
AcDbLine
 62
7
  6
CONTINUOUS
 10
7.6853605721
 20
6.896601946
 11
7.696613985
 21
6.8951274369
  0
LINE
  5
665
100
AcDbEntity
  8
0
100
AcDbLine
 62
7
  6
CONTINUOUS
 10
7.1091830053
 20
6.9724641925
 11
7.1204345985
 21
6.9709758614
  0
LINE
  5
666
100
AcDbEntity
  8
0
100
AcDbLine
 62
7
  6
CONTINUOUS
 10
7.7022263768
 20
6.8788290962
 11
7.7133871975
 21
6.8767676497
  0
LINE
  5
667
100
AcDbEntity
  8
0
100
AcDbLine
 62
7
  6
CONTINUOUS
 10
7.1308087645
 20
6.98474218
 11
7.1419670446
 21
6.9826670257
  0
LINE
  5
668
100
AcDbEntity
  8
0
100
AcDbLine
 62
7
  6
CONTINUOUS
 10
7.191261603
 20
6.883765305
 11
7.2023583479
 21
6.8814655606
  0
LINE
  5
669
100
AcDbEntity
  8
0
100
AcDbLine
 62
7
  6
CONTINUOUS
 10
7.6207603271
 20
6.7935374572
 11
7.6318440861
 21
6.7911759196
  0
LINE
  5
66A
100
AcDbEntity
  8
0
100
AcDbLine
 62
7
  6
CONTINUOUS
 10
7.7181389085
 20
6.8601979154
 11
7.7291765458
 21
6.8575551818
  0
LINE
  5
66B
100
AcDbEntity
  8
0
100
AcDbLine
 62
7
  6
CONTINUOUS
 10
7.1530474667
 20
6.9958715362
 11
7.1640818495
 21
6.9932152466
  0
LINE
  5
66C
100
AcDbEntity
  8
0
100
AcDbLine
 62
7
  6
CONTINUOUS
 10
7.2135957469
 20
6.8942648765
 11
7.2245073893
 21
6.8912050346
  0
LINE
  5
66D
100
AcDbEntity
  8
0
100
AcDbLine
 62
7
  6
CONTINUOUS
 10
7.63584617
 20
6.7746204086
 11
7.6467405942
 21
6.7714998166
  0
LINE
  5
66E
100
AcDbEntity
  8
0
100
AcDbLine
 62
7
  6
CONTINUOUS
 10
7.7330545519
 20
6.8407594705
 11
7.7439387526
 21
6.8375426934
  0
LINE
  5
66F
100
AcDbEntity
  8
0
100
AcDbLine
 62
7
  6
CONTINUOUS
 10
7.1758381569
 20
7.0058217563
 11
7.1867183981
 21
7.002591612
  0
LINE
  5
670
100
AcDbEntity
  8
0
100
AcDbLine
 62
7
  6
CONTINUOUS
 10
7.2366010521
 20
6.9031985721
 11
7.247275593
 21
6.8993932143
  0
LINE
  5
671
100
AcDbEntity
  8
0
100
AcDbLine
 62
7
  6
CONTINUOUS
 10
7.6495909587
 20
6.7547076445
 11
7.6602441312
 21
6.7508428693
  0
LINE
  5
672
100
AcDbEntity
  8
0
100
AcDbLine
 62
7
  6
CONTINUOUS
 10
7.3387566368
 20
6.2085199119
 11
7.3302532024
 21
6.2160111185
  0
LINE
  5
673
100
AcDbEntity
  8
0
100
AcDbLine
 62
7
  6
CONTINUOUS
 10
7.0102339402
 20
6.4995234452
 11
7.0017723773
 21
6.5070619149
  0
LINE
  5
674
100
AcDbEntity
  8
0
100
AcDbLine
 62
7
  6
CONTINUOUS
 10
7.3141533878
 20
6.2104525581
 11
7.3061870416
 21
6.2185125768
  0
LINE
  5
675
100
AcDbEntity
  8
0
100
AcDbLine
 62
7
  6
CONTINUOUS
 10
7.0064901381
 20
6.523427866
 11
6.9985688244
 21
6.5315321464
  0
LINE
  5
676
100
AcDbEntity
  8
0
100
AcDbLine
 62
7
  6
CONTINUOUS
 10
7.2897420971
 20
6.2140780056
 11
7.2823508025
 21
6.2226684268
  0
LINE
  5
677
100
AcDbEntity
  8
0
100
AcDbLine
 62
7
  6
CONTINUOUS
 10
7.0044044498
 20
6.5475336182
 11
6.997061134
 21
6.5561650889
  0
LINE
  5
678
100
AcDbEntity
  8
0
100
AcDbLine
 62
7
  6
CONTINUOUS
 10
7.2656390956
 20
6.2193789775
 11
7.2588580754
 21
6.2284588639
  0
LINE
  5
679
100
AcDbEntity
  8
0
100
AcDbLine
 62
7
  6
CONTINUOUS
 10
7.5652731687
 20
6.8543857701
 11
7.568205251
 21
6.8434391055
  0
LINE
  5
67A
100
AcDbEntity
  8
0
100
AcDbLine
 62
7
  6
CONTINUOUS
 10
7.6776725378
 20
6.430149279
 11
7.6805435819
 21
6.4191864473
  0
LINE
  5
67B
100
AcDbEntity
  8
0
100
AcDbLine
 62
7
  6
CONTINUOUS
 10
7.5846892172
 20
6.839151859
 11
7.5868590902
 21
6.8280289896
  0
LINE
  5
67C
100
AcDbEntity
  8
0
100
AcDbLine
 62
7
  6
CONTINUOUS
 10
7.6675522081
 20
6.4081716469
 11
7.669660073
 21
6.39703686
  0
LINE
  5
67D
100
AcDbEntity
  8
0
100
AcDbLine
 62
7
  6
CONTINUOUS
 10
7.7714256518
 20
6.3532084185
 11
7.7735008061
 21
6.3420501384
  0
LINE
  5
67E
100
AcDbEntity
  8
0
100
AcDbLine
 62
7
  6
CONTINUOUS
 10
7.6655262758
 20
6.9246285714
 11
7.6675877223
 21
6.9134677507
  0
LINE
  5
67F
100
AcDbEntity
  8
0
100
AcDbLine
 62
7
  6
CONTINUOUS
 10
7.7597344875
 20
6.3316759724
 11
7.7612228186
 21
6.3204243792
  0
LINE
  5
680
100
AcDbEntity
  8
0
100
AcDbLine
 62
7
  6
CONTINUOUS
 10
7.683886063
 20
6.9078553589
 11
7.6853605721
 21
6.896601946
  0
LINE
  5
681
100
AcDbEntity
  8
0
100
AcDbLine
 62
7
  6
CONTINUOUS
 10
7.6030079975
 20
6.8226147108
 11
7.6044053208
 21
6.8113686422
  0
LINE
  5
682
100
AcDbEntity
  8
0
100
AcDbLine
 62
7
  6
CONTINUOUS
 10
7.6559397304
 20
6.3869445946
 11
7.6572743712
 21
6.3756909149
  0
LINE
  5
683
100
AcDbEntity
  8
0
100
AcDbLine
 62
7
  6
CONTINUOUS
 10
7.7469324243
 20
6.8205670408
 11
7.7576333555
 21
6.8167850371
  0
LINE
  5
684
100
AcDbEntity
  8
0
100
AcDbLine
 62
7
  6
CONTINUOUS
 10
7.1991183676
 20
7.0145655673
 11
7.2098146451
 21
7.010770422
  0
LINE
  5
685
100
AcDbEntity
  8
0
100
AcDbLine
 62
7
  6
CONTINUOUS
 10
7.7597344875
 20
6.7996759724
 11
7.7702228186
 21
6.7953391084
  0
LINE
  5
686
100
AcDbEntity
  8
0
100
AcDbLine
 62
7
  6
CONTINUOUS
 10
7.2228242893
 20
7.0220790032
 11
7.2333072854
 21
7.0177292591
  0
LINE
  5
687
100
AcDbEntity
  8
0
100
AcDbLine
 62
7
  6
CONTINUOUS
 10
7.2601678877
 20
6.9105238189
 11
7.2705544582
 21
6.9059910794
  0
LINE
  5
688
100
AcDbEntity
  8
0
100
AcDbLine
 62
7
  6
CONTINUOUS
 10
7.6619291928
 20
6.7338940584
 11
7.6722903465
 21
6.7293035174
  0
LINE
  5
689
100
AcDbEntity
  8
0
100
AcDbLine
 62
7
  6
CONTINUOUS
 10
7.7714256518
 20
6.7781435263
 11
7.7816726351
 21
6.7732636889
  0
LINE
  5
68A
100
AcDbEntity
  8
0
100
AcDbLine
 62
7
  6
CONTINUOUS
 10
7.2468909457
 20
7.0283414701
 11
7.2571319272
 21
7.0234490495
  0
LINE
  5
68B
100
AcDbEntity
  8
0
100
AcDbLine
 62
7
  6
CONTINUOUS
 10
7.2841839472
 20
6.9162057086
 11
7.2942330504
 21
6.910967188
  0
LINE
  5
68C
100
AcDbEntity
  8
0
100
AcDbLine
 62
7
  6
CONTINUOUS
 10
7.6728020752
 20
6.7122788366
 11
7.6828218344
 21
6.7069844057
  0
LINE
  5
68D
100
AcDbEntity
  8
0
100
AcDbLine
 62
7
  6
CONTINUOUS
 10
7.7819738727
 20
6.7560287214
 11
7.7919514219
 21
6.750619286
  0
LINE
  5
68E
100
AcDbEntity
  8
0
100
AcDbLine
 62
7
  6
CONTINUOUS
 10
7.2712523718
 20
7.033335803
 11
7.2812232689
 21
7.0279141158
  0
LINE
  5
68F
100
AcDbEntity
  8
0
100
AcDbLine
 62
7
  6
CONTINUOUS
 10
7.308534783
 20
6.9202171646
 11
7.3181985304
 21
6.9142978268
  0
LINE
  5
690
100
AcDbEntity
  8
0
100
AcDbLine
 62
7
  6
CONTINUOUS
 10
7.2958417946
 20
7.0370483128
 11
7.3055152777
 21
7.0311122194
  0
LINE
  5
691
100
AcDbEntity
  8
0
100
AcDbLine
 62
7
  6
CONTINUOUS
 10
7.6821577916
 20
6.6899649853
 11
7.6917884075
 21
6.6839918949
  0
LINE
  5
692
100
AcDbEntity
  8
0
100
AcDbLine
 62
7
  6
CONTINUOUS
 10
7.3331043524
 20
6.9225390702
 11
7.3423366918
 21
6.9159671237
  0
LINE
  5
693
100
AcDbEntity
  8
0
100
AcDbLine
 62
7
  6
CONTINUOUS
 10
7.6899517577
 20
6.6670588403
 11
7.6953426196
 21
6.6631759724
  0
LINE
  5
694
100
AcDbEntity
  8
0
100
AcDbLine
 62
7
  6
CONTINUOUS
 10
7.3577755701
 20
6.9231603607
 11
7.3665325052
 21
6.9159671237
  0
LINE
  5
695
100
AcDbEntity
  8
0
100
AcDbLine
 62
7
  6
CONTINUOUS
 10
7.3824308665
 20
6.9220780753
 11
7.3906706666
 21
6.9142978268
  0
LINE
  5
696
100
AcDbEntity
  8
0
100
AcDbLine
 62
7
  6
CONTINUOUS
 10
7.406952748
 20
6.9192973716
 11
7.4146361466
 21
6.910967188
  0
LINE
  5
697
100
AcDbEntity
  8
0
100
AcDbLine
 62
7
  6
CONTINUOUS
 10
7.4312243565
 20
6.9148315009
 11
7.4383147388
 21
6.9059910794
  0
LINE
  5
698
100
AcDbEntity
  8
0
100
AcDbLine
 62
7
  6
CONTINUOUS
 10
7.4551300269
 20
6.908701745
 11
7.461593604
 21
6.8993932143
  0
LINE
  5
699
100
AcDbEntity
  8
0
100
AcDbLine
 62
7
  6
CONTINUOUS
 10
7.4785558378
 20
6.9009373152
 11
7.4843618077
 21
6.8912050346
  0
LINE
  5
69A
100
AcDbEntity
  8
0
100
AcDbLine
 62
7
  6
CONTINUOUS
 10
7.5393779121
 20
7.0031927958
 11
7.5447873475
 21
6.9932152466
  0
LINE
  5
69B
100
AcDbEntity
  8
0
100
AcDbLine
 62
7
  6
CONTINUOUS
 10
7.5013901544
 20
6.8915752123
 11
7.5065108491
 21
6.8814655606
  0
LINE
  5
69C
100
AcDbEntity
  8
0
100
AcDbLine
 62
7
  6
CONTINUOUS
 10
7.562022315
 20
6.992914009
 11
7.5669021524
 21
6.9826670257
  0
LINE
  5
69D
100
AcDbEntity
  8
0
100
AcDbLine
 62
7
  6
CONTINUOUS
 10
7.5235241608
 20
6.8806600512
 11
7.5279351778
 21
6.8702212054
  0
LINE
  5
69E
100
AcDbEntity
  8
0
100
AcDbLine
 62
7
  6
CONTINUOUS
 10
7.6964786851
 20
6.4681759724
 11
7.6976039671
 21
6.4654710103
  0
LINE
  5
69F
100
AcDbEntity
  8
0
100
AcDbLine
 62
7
  6
CONTINUOUS
 10
7.5840977345
 20
6.9814641925
 11
7.5884345985
 21
6.9709758614
  0
LINE
  5
6A0
100
AcDbEntity
  8
0
100
AcDbLine
 62
7
  6
CONTINUOUS
 10
7.6055436632
 20
6.9688747294
 11
7.6093256669
 21
6.9581737982
  0
LINE
  5
6A1
100
AcDbEntity
  8
0
100
AcDbLine
 62
7
  6
CONTINUOUS
 10
7.5448523785
 20
6.8682438475
 11
7.5485326974
 21
6.8575255535
  0
LINE
  5
6A2
100
AcDbEntity
  8
0
100
AcDbLine
 62
7
  6
CONTINUOUS
 10
7.6862524914
 20
6.4527727575
 11
7.689873033
 21
6.4420341239
  0
LINE
  5
6A3
100
AcDbEntity
  8
0
100
AcDbLine
 62
7
  6
CONTINUOUS
 10
7.7936749304
 20
6.3901294057
 11
7.7945803824
 21
6.3870795308
  0
LINE
  5
6A4
100
AcDbEntity
  8
0
100
AcDbLine
 62
7
  6
CONTINUOUS
 10
7.6263013195
 20
6.9551801265
 11
7.6295180966
 21
6.9442959258
  0
LINE
  5
6A5
100
AcDbEntity
  8
0
100
AcDbLine
 62
7
  6
CONTINUOUS
 10
7.7819738727
 20
6.3753232234
 11
7.7846301623
 21
6.3642888406
  0
LINE
  5
6A6
100
AcDbEntity
  8
0
100
AcDbLine
 62
7
  6
CONTINUOUS
 10
7.6463138079
 20
6.9404179197
 11
7.6489565415
 21
6.9293802824
  0
LINE
  5
6A7
100
AcDbEntity
  8
0
100
AcDbLine
 62
7
  6
CONTINUOUS
 10
7.3205918162
 20
7.0394688238
 11
7.329941371
 21
7.0330345947
  0
LINE
  5
6A8
100
AcDbEntity
  8
0
100
AcDbLine
 62
7
  6
CONTINUOUS
 10
7.3454345985
 20
7.0405907016
 11
7.3544345985
 21
7.0336759724
  0
LINE
  5
6A9
100
AcDbEntity
  8
0
100
AcDbLine
 62
7
  6
CONTINUOUS
 10
7.3703020492
 20
7.0404108711
 11
7.378927826
 21
7.0330345947
  0
LINE
  5
6AA
100
AcDbEntity
  8
0
100
AcDbLine
 62
7
  6
CONTINUOUS
 10
7.3951260083
 20
7.0389298252
 11
7.4033539193
 21
7.0311122194
  0
LINE
  5
6AB
100
AcDbEntity
  8
0
100
AcDbLine
 62
7
  6
CONTINUOUS
 10
7.419838435
 20
7.0361516234
 11
7.4276459281
 21
7.0279141158
  0
LINE
  5
6AC
100
AcDbEntity
  8
0
100
AcDbLine
 62
7
  6
CONTINUOUS
 10
7.4443715944
 20
7.0320838805
 11
7.4517372698
 21
7.0234490495
  0
LINE
  5
6AD
100
AcDbEntity
  8
0
100
AcDbLine
 62
7
  6
CONTINUOUS
 10
7.4686582428
 20
7.026737746
 11
7.4755619116
 21
7.0177292591
  0
LINE
  5
6AE
100
AcDbEntity
  8
0
100
AcDbLine
 62
7
  6
CONTINUOUS
 10
7.492631812
 20
7.0201278732
 11
7.4990545519
 21
7.010770422
  0
LINE
  5
6AF
100
AcDbEntity
  8
0
100
AcDbLine
 62
7
  6
CONTINUOUS
 10
7.5162265924
 20
7.0122723794
 11
7.5221507989
 21
7.002591612
  0
LINE
  5
6B0
100
AcDbEntity
  8
0
100
AcDbLine
 62
7
  6
CONTINUOUS
 10
9.0969345985
 20
6.7269259724
 11
9.0969345985
 21
6.4044259724
  0
LINE
  5
6B1
100
AcDbEntity
  8
0
100
AcDbLine
 62
7
  6
CONTINUOUS
 10
9.1569345985
 20
6.7269259724
 11
9.1569345985
 21
6.4044259724
  0
ARC
  5
6B2
100
AcDbEntity
  8
0
100
AcDbCircle
 62
7
  6
CONTINUOUS
 10
1.5819345985
 20
6.4044259724
 40
0.03
100
AcDbArc
 50
180.0
 51
360.0
  0
ARC
  5
6B3
100
AcDbEntity
  8
0
100
AcDbCircle
 62
7
  6
CONTINUOUS
 10
1.5819345985
 20
6.7269259724
 40
0.03
100
AcDbArc
 50
0.0
 51
180.0
  0
ARC
  5
6B4
100
AcDbEntity
  8
0
100
AcDbCircle
 62
7
  6
CONTINUOUS
 10
3.0019345985
 20
6.4108691542
 40
0.0378068182
100
AcDbArc
 50
90.0
 51
172.6955544394
  0
ARC
  5
6B5
100
AcDbEntity
  8
0
100
AcDbCircle
 62
7
  6
CONTINUOUS
 10
2.9331845985
 20
6.4156759724
 40
0.03125
100
AcDbArc
 50
180.0
 51
360.0
  0
ARC
  5
6B6
100
AcDbEntity
  8
0
100
AcDbCircle
 62
7
  6
CONTINUOUS
 10
3.0019345985
 20
6.7204827906
 40
0.0378068182
100
AcDbArc
 50
187.3044455606
 51
270.0
  0
ARC
  5
6B7
100
AcDbEntity
  8
0
100
AcDbCircle
 62
7
  6
CONTINUOUS
 10
2.9331845985
 20
6.7156759724
 40
0.03125
100
AcDbArc
 50
0.0
 51
180.0
  0
ARC
  5
6B8
100
AcDbEntity
  8
0
100
AcDbCircle
 62
7
  6
CONTINUOUS
 10
3.3544345985
 20
6.5656759724
 40
0.475
100
AcDbArc
 50
201.3652778771
 51
158.6347221229
  0
ARC
  5
6B9
100
AcDbEntity
  8
0
100
AcDbCircle
 62
7
  6
CONTINUOUS
 10
3.3544345985
 20
6.5656759724
 40
0.41625
100
AcDbArc
 50
200.6628025452
 51
159.3371974548
  0
ARC
  5
6BA
100
AcDbEntity
  8
0
100
AcDbCircle
 62
7
  6
CONTINUOUS
 10
3.3544345985
 20
6.5656759724
 40
0.382862128
100
AcDbArc
 50
198.0749907032
 51
161.9250092968
  0
ARC
  5
6BB
100
AcDbEntity
  8
0
100
AcDbCircle
 62
7
  6
CONTINUOUS
 10
3.3544345985
 20
6.5656759724
 40
0.3685530399
100
AcDbArc
 50
196.9629641866
 51
163.0370357462
  0
ARC
  5
6BC
100
AcDbEntity
  8
0
100
AcDbCircle
 62
7
  6
CONTINUOUS
 10
3.3544345985
 20
6.5656759724
 40
0.3575
100
AcDbArc
 50
87.4865196799
 51
88.5574363641
  0
ARC
  5
6BD
100
AcDbEntity
  8
0
100
AcDbCircle
 62
7
  6
CONTINUOUS
 10
3.3544345985
 20
6.5656759724
 40
0.3575
100
AcDbArc
 50
83.5304757238
 51
84.6013924081
  0
ARC
  5
6BE
100
AcDbEntity
  8
0
100
AcDbCircle
 62
7
  6
CONTINUOUS
 10
3.3544345985
 20
6.5656759724
 40
0.3575
100
AcDbArc
 50
79.5744317678
 51
80.645348452
  0
ARC
  5
6BF
100
AcDbEntity
  8
0
100
AcDbCircle
 62
7
  6
CONTINUOUS
 10
3.3544345985
 20
6.5656759724
 40
0.3575
100
AcDbArc
 50
75.6183878117
 51
76.689304496
  0
ARC
  5
6C0
100
AcDbEntity
  8
0
100
AcDbCircle
 62
7
  6
CONTINUOUS
 10
3.3544345985
 20
6.5656759724
 40
0.3575
100
AcDbArc
 50
71.6623438557
 51
72.7332605399
  0
ARC
  5
6C1
100
AcDbEntity
  8
0
100
AcDbCircle
 62
7
  6
CONTINUOUS
 10
3.3544345985
 20
6.5656759724
 40
0.3575
100
AcDbArc
 50
67.7062998996
 51
68.7772165839
  0
ARC
  5
6C2
100
AcDbEntity
  8
0
100
AcDbCircle
 62
7
  6
CONTINUOUS
 10
3.3544345985
 20
6.5656759724
 40
0.3575
100
AcDbArc
 50
63.7502559436
 51
64.8211726278
  0
ARC
  5
6C3
100
AcDbEntity
  8
0
100
AcDbCircle
 62
7
  6
CONTINUOUS
 10
3.3544345985
 20
6.5656759724
 40
0.3575
100
AcDbArc
 50
59.7942119875
 51
60.8651286718
  0
ARC
  5
6C4
100
AcDbEntity
  8
0
100
AcDbCircle
 62
7
  6
CONTINUOUS
 10
3.3544345985
 20
6.5656759724
 40
0.3575
100
AcDbArc
 50
55.8381680315
 51
56.9090847157
  0
ARC
  5
6C5
100
AcDbEntity
  8
0
100
AcDbCircle
 62
7
  6
CONTINUOUS
 10
3.3544345985
 20
6.5656759724
 40
0.3575
100
AcDbArc
 50
51.8821240755
 51
52.9530407597
  0
ARC
  5
6C6
100
AcDbEntity
  8
0
100
AcDbCircle
 62
7
  6
CONTINUOUS
 10
3.3544345985
 20
6.5656759724
 40
0.3575
100
AcDbArc
 50
47.9260801194
 51
48.9969968037
  0
ARC
  5
6C7
100
AcDbEntity
  8
0
100
AcDbCircle
 62
7
  6
CONTINUOUS
 10
3.3544345985
 20
6.5656759724
 40
0.3575
100
AcDbArc
 50
43.9700361634
 51
45.0409528476
  0
ARC
  5
6C8
100
AcDbEntity
  8
0
100
AcDbCircle
 62
7
  6
CONTINUOUS
 10
3.3544345985
 20
6.5656759724
 40
0.3575
100
AcDbArc
 50
40.0139922073
 51
41.0849088916
  0
ARC
  5
6C9
100
AcDbEntity
  8
0
100
AcDbCircle
 62
7
  6
CONTINUOUS
 10
3.3544345985
 20
6.5656759724
 40
0.3575
100
AcDbArc
 50
36.0579482513
 51
37.1288649355
  0
ARC
  5
6CA
100
AcDbEntity
  8
0
100
AcDbCircle
 62
7
  6
CONTINUOUS
 10
3.3544345985
 20
6.5656759724
 40
0.3575
100
AcDbArc
 50
32.1019042952
 51
33.1728209795
  0
ARC
  5
6CB
100
AcDbEntity
  8
0
100
AcDbCircle
 62
7
  6
CONTINUOUS
 10
3.3544345985
 20
6.5656759724
 40
0.3575
100
AcDbArc
 50
28.1458603392
 51
29.2167770234
  0
ARC
  5
6CC
100
AcDbEntity
  8
0
100
AcDbCircle
 62
7
  6
CONTINUOUS
 10
3.3544345985
 20
6.5656759724
 40
0.3575
100
AcDbArc
 50
24.1898163832
 51
25.2607330674
  0
ARC
  5
6CD
100
AcDbEntity
  8
0
100
AcDbCircle
 62
7
  6
CONTINUOUS
 10
3.3544345985
 20
6.5656759724
 40
0.3575
100
AcDbArc
 50
20.2337724271
 51
21.3046891114
  0
ARC
  5
6CE
100
AcDbEntity
  8
0
100
AcDbCircle
 62
7
  6
CONTINUOUS
 10
3.3544345985
 20
6.5656759724
 40
0.3575
100
AcDbArc
 50
16.2777284711
 51
17.3486451553
  0
ARC
  5
6CF
100
AcDbEntity
  8
0
100
AcDbCircle
 62
7
  6
CONTINUOUS
 10
3.3544345985
 20
6.5656759724
 40
0.3575
100
AcDbArc
 50
12.321684515
 51
13.3926011993
  0
ARC
  5
6D0
100
AcDbEntity
  8
0
100
AcDbCircle
 62
7
  6
CONTINUOUS
 10
3.3544345985
 20
6.5656759724
 40
0.3575
100
AcDbArc
 50
8.365640559
 51
9.4365572432
  0
ARC
  5
6D1
100
AcDbEntity
  8
0
100
AcDbCircle
 62
7
  6
CONTINUOUS
 10
3.3544345985
 20
6.5656759724
 40
0.3575
100
AcDbArc
 50
4.4095966029
 51
5.4805132872
  0
ARC
  5
6D2
100
AcDbEntity
  8
0
100
AcDbCircle
 62
7
  6
CONTINUOUS
 10
3.3544345985
 20
6.5656759724
 40
0.3575
100
AcDbArc
 50
0.4535526469
 51
1.5244693311
  0
ARC
  5
6D3
100
AcDbEntity
  8
0
100
AcDbCircle
 62
7
  6
CONTINUOUS
 10
3.3544345985
 20
6.5656759724
 40
0.3575
100
AcDbArc
 50
356.4975086908
 51
357.5684253751
  0
ARC
  5
6D4
100
AcDbEntity
  8
0
100
AcDbCircle
 62
7
  6
CONTINUOUS
 10
3.3544345985
 20
6.5656759724
 40
0.3575
100
AcDbArc
 50
352.5414647348
 51
353.612381419
  0
ARC
  5
6D5
100
AcDbEntity
  8
0
100
AcDbCircle
 62
7
  6
CONTINUOUS
 10
3.3544345985
 20
6.5656759724
 40
0.3575
100
AcDbArc
 50
348.5854207788
 51
349.656337463
  0
ARC
  5
6D6
100
AcDbEntity
  8
0
100
AcDbCircle
 62
7
  6
CONTINUOUS
 10
3.3544345985
 20
6.5656759724
 40
0.3575
100
AcDbArc
 50
344.6293768227
 51
345.700293507
  0
ARC
  5
6D7
100
AcDbEntity
  8
0
100
AcDbCircle
 62
7
  6
CONTINUOUS
 10
3.3544345985
 20
6.5656759724
 40
0.3575
100
AcDbArc
 50
340.6733328667
 51
341.7442495509
  0
ARC
  5
6D8
100
AcDbEntity
  8
0
100
AcDbCircle
 62
7
  6
CONTINUOUS
 10
3.3544345985
 20
6.5656759724
 40
0.3575
100
AcDbArc
 50
336.7172889106
 51
337.7882055949
  0
ARC
  5
6D9
100
AcDbEntity
  8
0
100
AcDbCircle
 62
7
  6
CONTINUOUS
 10
3.3544345985
 20
6.5656759724
 40
0.3575
100
AcDbArc
 50
332.7612449546
 51
333.8321616388
  0
ARC
  5
6DA
100
AcDbEntity
  8
0
100
AcDbCircle
 62
7
  6
CONTINUOUS
 10
3.3544345985
 20
6.5656759724
 40
0.3575
100
AcDbArc
 50
328.8052009985
 51
329.8761176828
  0
ARC
  5
6DB
100
AcDbEntity
  8
0
100
AcDbCircle
 62
7
  6
CONTINUOUS
 10
3.3544345985
 20
6.5656759724
 40
0.3575
100
AcDbArc
 50
324.8491570425
 51
325.9200737267
  0
ARC
  5
6DC
100
AcDbEntity
  8
0
100
AcDbCircle
 62
7
  6
CONTINUOUS
 10
3.3544345985
 20
6.5656759724
 40
0.3575
100
AcDbArc
 50
320.8931130864
 51
321.9640297707
  0
ARC
  5
6DD
100
AcDbEntity
  8
0
100
AcDbCircle
 62
7
  6
CONTINUOUS
 10
3.3544345985
 20
6.5656759724
 40
0.3575
100
AcDbArc
 50
316.9370691304
 51
318.0079858147
  0
ARC
  5
6DE
100
AcDbEntity
  8
0
100
AcDbCircle
 62
7
  6
CONTINUOUS
 10
3.3544345985
 20
6.5656759724
 40
0.3575
100
AcDbArc
 50
312.9810251744
 51
314.0519418586
  0
ARC
  5
6DF
100
AcDbEntity
  8
0
100
AcDbCircle
 62
7
  6
CONTINUOUS
 10
3.3544345985
 20
6.5656759724
 40
0.3575
100
AcDbArc
 50
309.0249812183
 51
310.0958979026
  0
ARC
  5
6E0
100
AcDbEntity
  8
0
100
AcDbCircle
 62
7
  6
CONTINUOUS
 10
3.3544345985
 20
6.5656759724
 40
0.3575
100
AcDbArc
 50
305.0689372623
 51
306.1398539465
  0
ARC
  5
6E1
100
AcDbEntity
  8
0
100
AcDbCircle
 62
7
  6
CONTINUOUS
 10
3.3544345985
 20
6.5656759724
 40
0.3575
100
AcDbArc
 50
301.1128933062
 51
302.1838099905
  0
ARC
  5
6E2
100
AcDbEntity
  8
0
100
AcDbCircle
 62
7
  6
CONTINUOUS
 10
3.3544345985
 20
6.5656759724
 40
0.3575
100
AcDbArc
 50
297.1568493502
 51
298.2277660344
  0
ARC
  5
6E3
100
AcDbEntity
  8
0
100
AcDbCircle
 62
7
  6
CONTINUOUS
 10
3.3544345985
 20
6.5656759724
 40
0.3575
100
AcDbArc
 50
293.2008053941
 51
294.2717220784
  0
ARC
  5
6E4
100
AcDbEntity
  8
0
100
AcDbCircle
 62
7
  6
CONTINUOUS
 10
3.3544345985
 20
6.5656759724
 40
0.3575
100
AcDbArc
 50
289.2447614381
 51
290.3156781223
  0
ARC
  5
6E5
100
AcDbEntity
  8
0
100
AcDbCircle
 62
7
  6
CONTINUOUS
 10
3.3544345985
 20
6.5656759724
 40
0.3575
100
AcDbArc
 50
285.2887174821
 51
286.3596341663
  0
ARC
  5
6E6
100
AcDbEntity
  8
0
100
AcDbCircle
 62
7
  6
CONTINUOUS
 10
3.3544345985
 20
6.5656759724
 40
0.3575
100
AcDbArc
 50
281.332673526
 51
282.4035902103
  0
ARC
  5
6E7
100
AcDbEntity
  8
0
100
AcDbCircle
 62
7
  6
CONTINUOUS
 10
3.3544345985
 20
6.5656759724
 40
0.3575
100
AcDbArc
 50
277.37662957
 51
278.4475462542
  0
ARC
  5
6E8
100
AcDbEntity
  8
0
100
AcDbCircle
 62
7
  6
CONTINUOUS
 10
3.3544345985
 20
6.5656759724
 40
0.3575
100
AcDbArc
 50
273.4205856139
 51
274.4915022982
  0
ARC
  5
6E9
100
AcDbEntity
  8
0
100
AcDbCircle
 62
7
  6
CONTINUOUS
 10
3.3544345985
 20
6.5656759724
 40
0.3575
100
AcDbArc
 50
269.4645416579
 51
270.5354583421
  0
ARC
  5
6EA
100
AcDbEntity
  8
0
100
AcDbCircle
 62
7
  6
CONTINUOUS
 10
3.3544345985
 20
6.5656759724
 40
0.3575
100
AcDbArc
 50
265.5084977018
 51
266.5794143861
  0
ARC
  5
6EB
100
AcDbEntity
  8
0
100
AcDbCircle
 62
7
  6
CONTINUOUS
 10
3.3544345985
 20
6.5656759724
 40
0.3575
100
AcDbArc
 50
261.5524537458
 51
262.62337043
  0
ARC
  5
6EC
100
AcDbEntity
  8
0
100
AcDbCircle
 62
7
  6
CONTINUOUS
 10
3.3544345985
 20
6.5656759724
 40
0.3575
100
AcDbArc
 50
257.5964097897
 51
258.667326474
  0
ARC
  5
6ED
100
AcDbEntity
  8
0
100
AcDbCircle
 62
7
  6
CONTINUOUS
 10
3.3544345985
 20
6.5656759724
 40
0.3575
100
AcDbArc
 50
253.6403658337
 51
254.7112825179
  0
ARC
  5
6EE
100
AcDbEntity
  8
0
100
AcDbCircle
 62
7
  6
CONTINUOUS
 10
3.3544345985
 20
6.5656759724
 40
0.3575
100
AcDbArc
 50
249.6843218777
 51
250.7552385619
  0
ARC
  5
6EF
100
AcDbEntity
  8
0
100
AcDbCircle
 62
7
  6
CONTINUOUS
 10
3.3544345985
 20
6.5656759724
 40
0.3575
100
AcDbArc
 50
245.7282779216
 51
246.7991946059
  0
ARC
  5
6F0
100
AcDbEntity
  8
0
100
AcDbCircle
 62
7
  6
CONTINUOUS
 10
3.3544345985
 20
6.5656759724
 40
0.3575
100
AcDbArc
 50
241.7722339656
 51
242.8431506498
  0
ARC
  5
6F1
100
AcDbEntity
  8
0
100
AcDbCircle
 62
7
  6
CONTINUOUS
 10
3.3544345985
 20
6.5656759724
 40
0.3575
100
AcDbArc
 50
237.8161900095
 51
238.8871066938
  0
ARC
  5
6F2
100
AcDbEntity
  8
0
100
AcDbCircle
 62
7
  6
CONTINUOUS
 10
3.3544345985
 20
6.5656759724
 40
0.3575
100
AcDbArc
 50
233.8601460535
 51
234.9310627377
  0
ARC
  5
6F3
100
AcDbEntity
  8
0
100
AcDbCircle
 62
7
  6
CONTINUOUS
 10
3.3544345985
 20
6.5656759724
 40
0.3575
100
AcDbArc
 50
229.9041020974
 51
230.9750187817
  0
ARC
  5
6F4
100
AcDbEntity
  8
0
100
AcDbCircle
 62
7
  6
CONTINUOUS
 10
3.3544345985
 20
6.5656759724
 40
0.3575
100
AcDbArc
 50
225.9480581414
 51
227.0189748256
  0
ARC
  5
6F5
100
AcDbEntity
  8
0
100
AcDbCircle
 62
7
  6
CONTINUOUS
 10
3.3544345985
 20
6.5656759724
 40
0.3575
100
AcDbArc
 50
221.9920141853
 51
223.0629308696
  0
ARC
  5
6F6
100
AcDbEntity
  8
0
100
AcDbCircle
 62
7
  6
CONTINUOUS
 10
3.3544345985
 20
6.5656759724
 40
0.3575
100
AcDbArc
 50
218.0359702293
 51
219.1068869136
  0
ARC
  5
6F7
100
AcDbEntity
  8
0
100
AcDbCircle
 62
7
  6
CONTINUOUS
 10
3.3544345985
 20
6.5656759724
 40
0.3575
100
AcDbArc
 50
214.0799262733
 51
215.1508429575
  0
ARC
  5
6F8
100
AcDbEntity
  8
0
100
AcDbCircle
 62
7
  6
CONTINUOUS
 10
3.3544345985
 20
6.5656759724
 40
0.3575
100
AcDbArc
 50
210.1238823172
 51
211.1947990015
  0
ARC
  5
6F9
100
AcDbEntity
  8
0
100
AcDbCircle
 62
7
  6
CONTINUOUS
 10
3.3544345985
 20
6.5656759724
 40
0.3575
100
AcDbArc
 50
206.1678383612
 51
207.2387550454
  0
ARC
  5
6FA
100
AcDbEntity
  8
0
100
AcDbCircle
 62
7
  6
CONTINUOUS
 10
3.3544345985
 20
6.5656759724
 40
0.3575
100
AcDbArc
 50
202.2117944051
 51
203.2827110894
  0
ARC
  5
6FB
100
AcDbEntity
  8
0
100
AcDbCircle
 62
7
  6
CONTINUOUS
 10
3.3544345985
 20
6.5656759724
 40
0.3575
100
AcDbArc
 50
198.2557504491
 51
199.3266671333
  0
ARC
  5
6FC
100
AcDbEntity
  8
0
100
AcDbCircle
 62
7
  6
CONTINUOUS
 10
3.3544345985
 20
6.5656759724
 40
0.3575
100
AcDbArc
 50
162.6513548447
 51
163.7222715289
  0
ARC
  5
6FD
100
AcDbEntity
  8
0
100
AcDbCircle
 62
7
  6
CONTINUOUS
 10
3.3544345985
 20
6.5656759724
 40
0.3575
100
AcDbArc
 50
158.6953108886
 51
159.7662275729
  0
ARC
  5
6FE
100
AcDbEntity
  8
0
100
AcDbCircle
 62
7
  6
CONTINUOUS
 10
3.3544345985
 20
6.5656759724
 40
0.3575
100
AcDbArc
 50
154.7392669326
 51
155.8101836168
  0
ARC
  5
6FF
100
AcDbEntity
  8
0
100
AcDbCircle
 62
7
  6
CONTINUOUS
 10
3.3544345985
 20
6.5656759724
 40
0.3575
100
AcDbArc
 50
150.7832229766
 51
151.8541396608
  0
ARC
  5
700
100
AcDbEntity
  8
0
100
AcDbCircle
 62
7
  6
CONTINUOUS
 10
3.3544345985
 20
6.5656759724
 40
0.3575
100
AcDbArc
 50
146.8271790205
 51
147.8980957048
  0
ARC
  5
701
100
AcDbEntity
  8
0
100
AcDbCircle
 62
7
  6
CONTINUOUS
 10
3.3544345985
 20
6.5656759724
 40
0.3575
100
AcDbArc
 50
142.8711350645
 51
143.9420517487
  0
ARC
  5
702
100
AcDbEntity
  8
0
100
AcDbCircle
 62
7
  6
CONTINUOUS
 10
3.3544345985
 20
6.5656759724
 40
0.3575
100
AcDbArc
 50
138.9150911084
 51
139.9860077927
  0
ARC
  5
703
100
AcDbEntity
  8
0
100
AcDbCircle
 62
7
  6
CONTINUOUS
 10
3.3544345985
 20
6.5656759724
 40
0.3575
100
AcDbArc
 50
134.9590471524
 51
136.0299638366
  0
ARC
  5
704
100
AcDbEntity
  8
0
100
AcDbCircle
 62
7
  6
CONTINUOUS
 10
3.3544345985
 20
6.5656759724
 40
0.3575
100
AcDbArc
 50
131.0030031963
 51
132.0739198806
  0
ARC
  5
705
100
AcDbEntity
  8
0
100
AcDbCircle
 62
7
  6
CONTINUOUS
 10
3.3544345985
 20
6.5656759724
 40
0.3575
100
AcDbArc
 50
127.0469592403
 51
128.1178759245
  0
ARC
  5
706
100
AcDbEntity
  8
0
100
AcDbCircle
 62
7
  6
CONTINUOUS
 10
3.3544345985
 20
6.5656759724
 40
0.3575
100
AcDbArc
 50
123.0909152843
 51
124.1618319685
  0
ARC
  5
707
100
AcDbEntity
  8
0
100
AcDbCircle
 62
7
  6
CONTINUOUS
 10
3.3544345985
 20
6.5656759724
 40
0.3575
100
AcDbArc
 50
119.1348713282
 51
120.2057880125
  0
ARC
  5
708
100
AcDbEntity
  8
0
100
AcDbCircle
 62
7
  6
CONTINUOUS
 10
3.3544345985
 20
6.5656759724
 40
0.3575
100
AcDbArc
 50
115.1788273722
 51
116.2497440564
  0
ARC
  5
709
100
AcDbEntity
  8
0
100
AcDbCircle
 62
7
  6
CONTINUOUS
 10
3.3544345985
 20
6.5656759724
 40
0.3575
100
AcDbArc
 50
111.2227834161
 51
112.2937001004
  0
ARC
  5
70A
100
AcDbEntity
  8
0
100
AcDbCircle
 62
7
  6
CONTINUOUS
 10
3.3544345985
 20
6.5656759724
 40
0.3575
100
AcDbArc
 50
107.2667394601
 51
108.3376561443
  0
ARC
  5
70B
100
AcDbEntity
  8
0
100
AcDbCircle
 62
7
  6
CONTINUOUS
 10
3.3544345985
 20
6.5656759724
 40
0.3575
100
AcDbArc
 50
103.310695504
 51
104.3816121883
  0
ARC
  5
70C
100
AcDbEntity
  8
0
100
AcDbCircle
 62
7
  6
CONTINUOUS
 10
3.3544345985
 20
6.5656759724
 40
0.3575
100
AcDbArc
 50
99.354651548
 51
100.4255682322
  0
ARC
  5
70D
100
AcDbEntity
  8
0
100
AcDbCircle
 62
7
  6
CONTINUOUS
 10
3.3544345985
 20
6.5656759724
 40
0.3575
100
AcDbArc
 50
95.3986075919
 51
96.4695242762
  0
ARC
  5
70E
100
AcDbEntity
  8
0
100
AcDbCircle
 62
7
  6
CONTINUOUS
 10
3.3544345985
 20
6.5656759724
 40
0.3575
100
AcDbArc
 50
91.4425636359
 51
92.5134803201
  0
ARC
  5
70F
100
AcDbEntity
  8
0
100
AcDbCircle
 62
7
  6
CONTINUOUS
 10
3.3544345985
 20
6.5656759724
 40
0.3457531755
100
AcDbArc
 50
196.3793149097
 51
163.6206850903
  0
ARC
  5
710
100
AcDbEntity
  8
0
100
AcDbCircle
 62
7
  6
CONTINUOUS
 10
3.3544345985
 20
6.5656759724
 40
0.2416529628
100
AcDbArc
 50
203.7963584861
 51
156.2036415139
  0
ARC
  5
711
100
AcDbEntity
  8
0
100
AcDbCircle
 62
7
  6
CONTINUOUS
 10
3.3544345985
 20
6.5656759724
 40
0.2291609373
100
AcDbArc
 50
205.1815486785
 51
154.8184513219
  0
ARC
  5
712
100
AcDbEntity
  8
0
100
AcDbCircle
 62
7
  6
CONTINUOUS
 10
3.3544345985
 20
6.5656759724
 40
0.215
100
AcDbArc
 50
206.9705355113
 51
153.0294644803
  0
ARC
  5
713
100
AcDbEntity
  8
0
100
AcDbCircle
 62
7
  6
CONTINUOUS
 10
3.3544345985
 20
6.5656759724
 40
0.2
100
AcDbArc
 50
209.1767805197
 51
150.8232194803
  0
ARC
  5
714
100
AcDbEntity
  8
0
100
AcDbCircle
 62
7
  6
CONTINUOUS
 10
3.3544345985
 20
6.5656759724
 40
0.185
100
AcDbArc
 50
211.8068487836
 51
148.1931512132
  0
ARC
  5
715
100
AcDbEntity
  8
0
100
AcDbCircle
 62
7
  6
CONTINUOUS
 10
3.3544345985
 20
6.5656759724
 40
0.18375
100
AcDbArc
 50
212.0478782862
 51
147.9521217138
  0
ARC
  5
716
100
AcDbEntity
  8
0
100
AcDbCircle
 62
7
  6
CONTINUOUS
 10
3.3544345985
 20
6.5656759724
 40
0.15375
100
AcDbArc
 50
219.3616892745
 51
140.6383107255
  0
ARC
  5
717
100
AcDbEntity
  8
0
100
AcDbCircle
 62
7
  6
CONTINUOUS
 10
3.3544345985
 20
6.5656759724
 40
0.1075
100
AcDbArc
 50
245.1005771921
 51
114.8994227838
  0
ARC
  5
718
100
AcDbEntity
  8
0
100
AcDbCircle
 62
7
  6
CONTINUOUS
 10
3.3544345985
 20
6.5656759724
 40
0.0975
100
AcDbArc
 50
270.0
 51
90.0
  0
ARC
  5
719
100
AcDbEntity
  8
0
100
AcDbCircle
 62
7
  6
CONTINUOUS
 10
5.3544345985
 20
2.4406759724
 40
0.21875
100
AcDbArc
 50
180.0
 51
360.0
  0
ARC
  5
71A
100
AcDbEntity
  8
0
100
AcDbCircle
 62
7
  6
CONTINUOUS
 10
5.3544345985
 20
6.5656759724
 40
0.5625
100
AcDbArc
 50
11.5916003327
 51
13.4085459136
  0
ARC
  5
71B
100
AcDbEntity
  8
0
100
AcDbCircle
 62
7
  6
CONTINUOUS
 10
5.3544345985
 20
6.5656759724
 40
0.5625
100
AcDbArc
 50
16.591453333
 51
18.4084006569
  0
ARC
  5
71C
100
AcDbEntity
  8
0
100
AcDbCircle
 62
7
  6
CONTINUOUS
 10
5.3544345985
 20
6.5656759724
 40
0.5625
100
AcDbArc
 50
29.091764608
 51
30.908235405
  0
ARC
  5
71D
100
AcDbEntity
  8
0
100
AcDbCircle
 62
7
  6
CONTINUOUS
 10
5.3544345985
 20
6.5656759724
 40
0.5625
100
AcDbArc
 50
41.5916003793
 51
43.408545723
  0
ARC
  5
71E
100
AcDbEntity
  8
0
100
AcDbCircle
 62
7
  6
CONTINUOUS
 10
5.3544345985
 20
6.5656759724
 40
0.5625
100
AcDbArc
 50
46.5914529642
 51
48.4084008339
  0
ARC
  5
71F
100
AcDbEntity
  8
0
100
AcDbCircle
 62
7
  6
CONTINUOUS
 10
5.3544345985
 20
6.5656759724
 40
0.5625
100
AcDbArc
 50
54.0909668348
 51
59.0832284094
  0
ARC
  5
720
100
AcDbEntity
  8
0
100
AcDbCircle
 62
7
  6
CONTINUOUS
 10
5.3544345985
 20
6.5656759724
 40
0.5625
100
AcDbArc
 50
59.0917644811
 51
60.9082354784
  0
ARC
  5
721
100
AcDbEntity
  8
0
100
AcDbCircle
 62
7
  6
CONTINUOUS
 10
5.3544345985
 20
6.5656759724
 40
0.5625
100
AcDbArc
 50
60.9167715906
 51
65.9090350556
  0
ARC
  5
722
100
AcDbEntity
  8
0
100
AcDbCircle
 62
7
  6
CONTINUOUS
 10
5.3544345985
 20
6.5656759724
 40
0.5625
100
AcDbArc
 50
65.9167715906
 51
71.5832284094
  0
ARC
  5
723
100
AcDbEntity
  8
0
100
AcDbCircle
 62
7
  6
CONTINUOUS
 10
5.3544345985
 20
6.5656759724
 40
0.5625
100
AcDbArc
 50
71.5916000044
 51
73.4085461179
  0
ARC
  5
724
100
AcDbEntity
  8
0
100
AcDbCircle
 62
7
  6
CONTINUOUS
 10
5.3544345985
 20
6.5656759724
 40
0.5625
100
AcDbArc
 50
73.4167715906
 51
76.5832284094
  0
ARC
  5
725
100
AcDbEntity
  8
0
100
AcDbCircle
 62
7
  6
CONTINUOUS
 10
5.3544345985
 20
6.5656759724
 40
0.5625
100
AcDbArc
 50
76.5914532958
 51
78.4084004979
  0
ARC
  5
726
100
AcDbEntity
  8
0
100
AcDbCircle
 62
7
  6
CONTINUOUS
 10
5.3544345985
 20
6.5656759724
 40
0.5625
100
AcDbArc
 50
78.4167715906
 51
84.0832284094
  0
ARC
  5
727
100
AcDbEntity
  8
0
100
AcDbCircle
 62
7
  6
CONTINUOUS
 10
5.3544345985
 20
6.5656759724
 40
0.5625
100
AcDbArc
 50
84.0909659191
 51
89.0832284094
  0
ARC
  5
728
100
AcDbEntity
  8
0
100
AcDbCircle
 62
7
  6
CONTINUOUS
 10
5.3544345985
 20
6.5656759724
 40
0.5625
100
AcDbArc
 50
89.0917644596
 51
90.9082355404
  0
ARC
  5
729
100
AcDbEntity
  8
0
100
AcDbCircle
 62
7
  6
CONTINUOUS
 10
5.3544345985
 20
6.5656759724
 40
0.5625
100
AcDbArc
 50
90.9167715906
 51
95.9090340809
  0
ARC
  5
72A
100
AcDbEntity
  8
0
100
AcDbCircle
 62
7
  6
CONTINUOUS
 10
5.3544345985
 20
6.5656759724
 40
0.5625
100
AcDbArc
 50
95.9167715906
 51
101.5832284094
  0
ARC
  5
72B
100
AcDbEntity
  8
0
100
AcDbCircle
 62
7
  6
CONTINUOUS
 10
5.3544345985
 20
6.5656759724
 40
0.5625
100
AcDbArc
 50
101.5915995021
 51
103.4085467042
  0
ARC
  5
72C
100
AcDbEntity
  8
0
100
AcDbCircle
 62
7
  6
CONTINUOUS
 10
5.3544345985
 20
6.5656759724
 40
0.5625
100
AcDbArc
 50
103.4167715906
 51
106.5832284094
  0
ARC
  5
72D
100
AcDbEntity
  8
0
100
AcDbCircle
 62
7
  6
CONTINUOUS
 10
5.3544345985
 20
6.5656759724
 40
0.5625
100
AcDbArc
 50
106.5914538821
 51
108.4083999956
  0
ARC
  5
72E
100
AcDbEntity
  8
0
100
AcDbCircle
 62
7
  6
CONTINUOUS
 10
5.3544345985
 20
6.5656759724
 40
0.5625
100
AcDbArc
 50
108.4167715906
 51
114.0832284094
  0
ARC
  5
72F
100
AcDbEntity
  8
0
100
AcDbCircle
 62
7
  6
CONTINUOUS
 10
5.3544345985
 20
6.5656759724
 40
0.5625
100
AcDbArc
 50
114.0909649444
 51
119.0832284094
  0
ARC
  5
730
100
AcDbEntity
  8
0
100
AcDbCircle
 62
7
  6
CONTINUOUS
 10
5.3544345985
 20
6.5656759724
 40
0.5625
100
AcDbArc
 50
119.0917645216
 51
120.9082355189
  0
ARC
  5
731
100
AcDbEntity
  8
0
100
AcDbCircle
 62
7
  6
CONTINUOUS
 10
5.3544345985
 20
6.5656759724
 40
0.5625
100
AcDbArc
 50
120.9167715906
 51
125.9090331652
  0
ARC
  5
732
100
AcDbEntity
  8
0
100
AcDbCircle
 62
7
  6
CONTINUOUS
 10
5.3544345985
 20
6.5656759724
 40
0.5625
100
AcDbArc
 50
125.9167715906
 51
131.5832284094
  0
ARC
  5
733
100
AcDbEntity
  8
0
100
AcDbCircle
 62
7
  6
CONTINUOUS
 10
5.3544345985
 20
6.5656759724
 40
0.5625
100
AcDbArc
 50
131.5915991661
 51
133.4085470358
  0
ARC
  5
734
100
AcDbEntity
  8
0
100
AcDbCircle
 62
7
  6
CONTINUOUS
 10
5.3544345985
 20
6.5656759724
 40
0.5625
100
AcDbArc
 50
133.4167715906
 51
136.5832284094
  0
ARC
  5
735
100
AcDbEntity
  8
0
100
AcDbCircle
 62
7
  6
CONTINUOUS
 10
5.3544345985
 20
6.5656759724
 40
0.5625
100
AcDbArc
 50
136.591454277
 51
138.4083996207
  0
ARC
  5
736
100
AcDbEntity
  8
0
100
AcDbCircle
 62
7
  6
CONTINUOUS
 10
5.3544345985
 20
6.5656759724
 40
0.5625
100
AcDbArc
 50
138.4167715906
 51
144.0832284094
  0
ARC
  5
737
100
AcDbEntity
  8
0
100
AcDbCircle
 62
7
  6
CONTINUOUS
 10
5.3544345985
 20
6.5656759724
 40
0.5625
100
AcDbArc
 50
144.0909645701
 51
149.0832284094
  0
ARC
  5
738
100
AcDbEntity
  8
0
100
AcDbCircle
 62
7
  6
CONTINUOUS
 10
5.3544345985
 20
6.5656759724
 40
0.5625
100
AcDbArc
 50
149.091764595
 51
150.908235392
  0
ARC
  5
739
100
AcDbEntity
  8
0
100
AcDbCircle
 62
7
  6
CONTINUOUS
 10
5.3544345985
 20
6.5656759724
 40
0.5625
100
AcDbArc
 50
150.9167715906
 51
155.9090330136
  0
ARC
  5
73A
100
AcDbEntity
  8
0
100
AcDbCircle
 62
7
  6
CONTINUOUS
 10
5.3544345985
 20
6.5656759724
 40
0.5625
100
AcDbArc
 50
155.9167715906
 51
161.5832284094
  0
ARC
  5
73B
100
AcDbEntity
  8
0
100
AcDbCircle
 62
7
  6
CONTINUOUS
 10
5.3544345985
 20
6.5656759724
 40
0.5625
100
AcDbArc
 50
161.5915993431
 51
163.408546667
  0
ARC
  5
73C
100
AcDbEntity
  8
0
100
AcDbCircle
 62
7
  6
CONTINUOUS
 10
5.3544345985
 20
6.5656759724
 40
0.5625
100
AcDbArc
 50
163.4167715906
 51
166.5832284094
  0
ARC
  5
73D
100
AcDbEntity
  8
0
100
AcDbCircle
 62
7
  6
CONTINUOUS
 10
5.3544345985
 20
6.5656759724
 40
0.5625
100
AcDbArc
 50
166.5914540864
 51
168.4083996673
  0
ARC
  5
73E
100
AcDbEntity
  8
0
100
AcDbCircle
 62
7
  6
CONTINUOUS
 10
5.3544345985
 20
6.5656759724
 40
0.5625
100
AcDbArc
 50
168.4167715906
 51
174.0832284094
  0
ARC
  5
73F
100
AcDbEntity
  8
0
100
AcDbCircle
 62
7
  6
CONTINUOUS
 10
5.3544345985
 20
6.5656759724
 40
0.5625
100
AcDbArc
 50
174.0909654543
 51
179.0832284094
  0
ARC
  5
740
100
AcDbEntity
  8
0
100
AcDbCircle
 62
7
  6
CONTINUOUS
 10
5.3544345985
 20
6.5656759724
 40
0.5625
100
AcDbArc
 50
48.4167715906
 51
54.0832284094
  0
ARC
  5
741
100
AcDbEntity
  8
0
100
AcDbCircle
 62
7
  6
CONTINUOUS
 10
5.3544345985
 20
6.5656759724
 40
0.5625
100
AcDbArc
 50
43.4167715906
 51
46.5832284094
  0
ARC
  5
742
100
AcDbEntity
  8
0
100
AcDbCircle
 62
7
  6
CONTINUOUS
 10
5.3544345985
 20
6.5656759724
 40
0.5625
100
AcDbArc
 50
35.9167715906
 51
41.5832284094
  0
ARC
  5
743
100
AcDbEntity
  8
0
100
AcDbCircle
 62
7
  6
CONTINUOUS
 10
5.3544345985
 20
6.5656759724
 40
0.5625
100
AcDbArc
 50
359.0917646188
 51
0.9082353812
  0
ARC
  5
744
100
AcDbEntity
  8
0
100
AcDbCircle
 62
7
  6
CONTINUOUS
 10
5.3544345985
 20
6.5656759724
 40
0.5625
100
AcDbArc
 50
346.5914540864
 51
348.4083996673
  0
ARC
  5
745
100
AcDbEntity
  8
0
100
AcDbCircle
 62
7
  6
CONTINUOUS
 10
5.3544345985
 20
6.5656759724
 40
0.5625
100
AcDbArc
 50
341.5915993431
 51
343.408546667
  0
ARC
  5
746
100
AcDbEntity
  8
0
100
AcDbCircle
 62
7
  6
CONTINUOUS
 10
5.3544345985
 20
6.5656759724
 40
0.5625
100
AcDbArc
 50
329.091764595
 51
330.908235392
  0
ARC
  5
747
100
AcDbEntity
  8
0
100
AcDbCircle
 62
7
  6
CONTINUOUS
 10
5.3544345985
 20
6.5656759724
 40
0.5625
100
AcDbArc
 50
316.591454277
 51
318.4083996207
  0
ARC
  5
748
100
AcDbEntity
  8
0
100
AcDbCircle
 62
7
  6
CONTINUOUS
 10
5.3544345985
 20
6.5656759724
 40
0.5625
100
AcDbArc
 50
311.5915991661
 51
313.4085470358
  0
ARC
  5
749
100
AcDbEntity
  8
0
100
AcDbCircle
 62
7
  6
CONTINUOUS
 10
5.3544345985
 20
6.5656759724
 40
0.5625
100
AcDbArc
 50
299.0917645216
 51
300.9082355189
  0
ARC
  5
74A
100
AcDbEntity
  8
0
100
AcDbCircle
 62
7
  6
CONTINUOUS
 10
5.3544345985
 20
6.5656759724
 40
0.5625
100
AcDbArc
 50
239.0917644811
 51
240.9082354784
  0
ARC
  5
74B
100
AcDbEntity
  8
0
100
AcDbCircle
 62
7
  6
CONTINUOUS
 10
5.3544345985
 20
6.5656759724
 40
0.5625
100
AcDbArc
 50
226.5914529642
 51
228.4084008339
  0
ARC
  5
74C
100
AcDbEntity
  8
0
100
AcDbCircle
 62
7
  6
CONTINUOUS
 10
5.3544345985
 20
6.5656759724
 40
0.5625
100
AcDbArc
 50
223.4167715906
 51
226.5832284094
  0
ARC
  5
74D
100
AcDbEntity
  8
0
100
AcDbCircle
 62
7
  6
CONTINUOUS
 10
5.3544345985
 20
6.5656759724
 40
0.5625
100
AcDbArc
 50
221.5916003793
 51
223.408545723
  0
ARC
  5
74E
100
AcDbEntity
  8
0
100
AcDbCircle
 62
7
  6
CONTINUOUS
 10
5.3544345985
 20
6.5656759724
 40
0.5625
100
AcDbArc
 50
215.9167715906
 51
221.5832284094
  0
ARC
  5
74F
100
AcDbEntity
  8
0
100
AcDbCircle
 62
7
  6
CONTINUOUS
 10
5.3544345985
 20
6.5656759724
 40
0.5625
100
AcDbArc
 50
210.9167715906
 51
215.9090354299
  0
ARC
  5
750
100
AcDbEntity
  8
0
100
AcDbCircle
 62
7
  6
CONTINUOUS
 10
5.3544345985
 20
6.5656759724
 40
0.5625
100
AcDbArc
 50
209.091764608
 51
210.908235405
  0
ARC
  5
751
100
AcDbEntity
  8
0
100
AcDbCircle
 62
7
  6
CONTINUOUS
 10
5.3544345985
 20
6.5656759724
 40
0.5625
100
AcDbArc
 50
204.0909669864
 51
209.0832284094
  0
ARC
  5
752
100
AcDbEntity
  8
0
100
AcDbCircle
 62
7
  6
CONTINUOUS
 10
5.3544345985
 20
6.5656759724
 40
0.5625
100
AcDbArc
 50
198.4167715906
 51
204.0832284094
  0
ARC
  5
753
100
AcDbEntity
  8
0
100
AcDbCircle
 62
7
  6
CONTINUOUS
 10
5.3544345985
 20
6.5656759724
 40
0.5625
100
AcDbArc
 50
196.591453333
 51
198.4084006569
  0
ARC
  5
754
100
AcDbEntity
  8
0
100
AcDbCircle
 62
7
  6
CONTINUOUS
 10
5.3544345985
 20
6.5656759724
 40
0.5625
100
AcDbArc
 50
193.4167715906
 51
196.5832284094
  0
ARC
  5
755
100
AcDbEntity
  8
0
100
AcDbCircle
 62
7
  6
CONTINUOUS
 10
5.3544345985
 20
6.5656759724
 40
0.5625
100
AcDbArc
 50
191.5916003327
 51
193.4085459136
  0
ARC
  5
756
100
AcDbEntity
  8
0
100
AcDbCircle
 62
7
  6
CONTINUOUS
 10
5.3544345985
 20
6.5656759724
 40
0.5625
100
AcDbArc
 50
185.9167715906
 51
191.5832284094
  0
ARC
  5
757
100
AcDbEntity
  8
0
100
AcDbCircle
 62
7
  6
CONTINUOUS
 10
5.3544345985
 20
6.5656759724
 40
0.5625
100
AcDbArc
 50
180.9167715906
 51
185.9090345458
  0
ARC
  5
758
100
AcDbEntity
  8
0
100
AcDbCircle
 62
7
  6
CONTINUOUS
 10
5.3544345985
 20
6.5656759724
 40
0.5625
100
AcDbArc
 50
179.0917646188
 51
180.9082353812
  0
ARC
  5
759
100
AcDbEntity
  8
0
100
AcDbCircle
 62
7
  6
CONTINUOUS
 10
5.3544345985
 20
6.5656759724
 40
0.5625
100
AcDbArc
 50
30.9167715906
 51
35.9090354299
  0
ARC
  5
75A
100
AcDbEntity
  8
0
100
AcDbCircle
 62
7
  6
CONTINUOUS
 10
5.3544345985
 20
6.5656759724
 40
0.5625
100
AcDbArc
 50
24.0909669864
 51
29.0832284094
  0
ARC
  5
75B
100
AcDbEntity
  8
0
100
AcDbCircle
 62
7
  6
CONTINUOUS
 10
5.3544345985
 20
6.5656759724
 40
0.5625
100
AcDbArc
 50
18.4167715906
 51
24.0832284094
  0
ARC
  5
75C
100
AcDbEntity
  8
0
100
AcDbCircle
 62
7
  6
CONTINUOUS
 10
5.3544345985
 20
6.5656759724
 40
0.5625
100
AcDbArc
 50
13.4167715906
 51
16.5832284094
  0
ARC
  5
75D
100
AcDbEntity
  8
0
100
AcDbCircle
 62
7
  6
CONTINUOUS
 10
5.3544345985
 20
6.5656759724
 40
0.5625
100
AcDbArc
 50
5.9167715906
 51
11.5832284094
  0
ARC
  5
75E
100
AcDbEntity
  8
0
100
AcDbCircle
 62
7
  6
CONTINUOUS
 10
5.3544345985
 20
6.5656759724
 40
0.5625
100
AcDbArc
 50
0.9167715906
 51
5.9090345458
  0
ARC
  5
75F
100
AcDbEntity
  8
0
100
AcDbCircle
 62
7
  6
CONTINUOUS
 10
5.3544345985
 20
6.5656759724
 40
0.5625
100
AcDbArc
 50
354.0909654543
 51
359.0832284094
  0
ARC
  5
760
100
AcDbEntity
  8
0
100
AcDbCircle
 62
7
  6
CONTINUOUS
 10
5.3544345985
 20
6.5656759724
 40
0.5625
100
AcDbArc
 50
348.4167715906
 51
354.0832284094
  0
ARC
  5
761
100
AcDbEntity
  8
0
100
AcDbCircle
 62
7
  6
CONTINUOUS
 10
5.3544345985
 20
6.5656759724
 40
0.5625
100
AcDbArc
 50
343.4167715906
 51
346.5832284094
  0
ARC
  5
762
100
AcDbEntity
  8
0
100
AcDbCircle
 62
7
  6
CONTINUOUS
 10
5.3544345985
 20
6.5656759724
 40
0.5625
100
AcDbArc
 50
335.9167715906
 51
341.5832284094
  0
ARC
  5
763
100
AcDbEntity
  8
0
100
AcDbCircle
 62
7
  6
CONTINUOUS
 10
5.3544345985
 20
6.5656759724
 40
0.5625
100
AcDbArc
 50
330.9167715906
 51
335.9090330136
  0
ARC
  5
764
100
AcDbEntity
  8
0
100
AcDbCircle
 62
7
  6
CONTINUOUS
 10
5.3544345985
 20
6.5656759724
 40
0.5625
100
AcDbArc
 50
324.0909645701
 51
329.0832284094
  0
ARC
  5
765
100
AcDbEntity
  8
0
100
AcDbCircle
 62
7
  6
CONTINUOUS
 10
5.3544345985
 20
6.5656759724
 40
0.5625
100
AcDbArc
 50
318.4167715906
 51
324.0832284094
  0
ARC
  5
766
100
AcDbEntity
  8
0
100
AcDbCircle
 62
7
  6
CONTINUOUS
 10
5.3544345985
 20
6.5656759724
 40
0.5625
100
AcDbArc
 50
313.4167715906
 51
316.5832284094
  0
ARC
  5
767
100
AcDbEntity
  8
0
100
AcDbCircle
 62
7
  6
CONTINUOUS
 10
5.3544345985
 20
6.5656759724
 40
0.5625
100
AcDbArc
 50
305.9167715906
 51
311.5832284094
  0
ARC
  5
768
100
AcDbEntity
  8
0
100
AcDbCircle
 62
7
  6
CONTINUOUS
 10
5.3544345985
 20
6.5656759724
 40
0.5625
100
AcDbArc
 50
300.9167715906
 51
305.9090331652
  0
ARC
  5
769
100
AcDbEntity
  8
0
100
AcDbCircle
 62
7
  6
CONTINUOUS
 10
5.3544345985
 20
6.5656759724
 40
0.5625
100
AcDbArc
 50
294.0909649444
 51
299.0832284094
  0
ARC
  5
76A
100
AcDbEntity
  8
0
100
AcDbCircle
 62
7
  6
CONTINUOUS
 10
5.3544345985
 20
6.5656759724
 40
0.5625
100
AcDbArc
 50
292.8857209252
 51
294.0832284094
  0
ARC
  5
76B
100
AcDbEntity
  8
0
100
AcDbCircle
 62
7
  6
CONTINUOUS
 10
5.3544345985
 20
6.5656759724
 40
0.5625
100
AcDbArc
 50
245.9167715906
 51
247.1142790748
  0
ARC
  5
76C
100
AcDbEntity
  8
0
100
AcDbCircle
 62
7
  6
CONTINUOUS
 10
5.3544345985
 20
6.5656759724
 40
0.5625
100
AcDbArc
 50
240.9167715906
 51
245.9090350556
  0
ARC
  5
76D
100
AcDbEntity
  8
0
100
AcDbCircle
 62
7
  6
CONTINUOUS
 10
5.3544345985
 20
6.5656759724
 40
0.5625
100
AcDbArc
 50
234.0909668348
 51
239.0832284094
  0
ARC
  5
76E
100
AcDbEntity
  8
0
100
AcDbCircle
 62
7
  6
CONTINUOUS
 10
5.3544345985
 20
6.5656759724
 40
0.5625
100
AcDbArc
 50
228.4167715906
 51
234.0832284094
  0
ARC
  5
76F
100
AcDbEntity
  8
0
100
AcDbCircle
 62
7
  6
CONTINUOUS
 10
5.3544345985
 20
6.5656759724
 40
0.5171622918
100
AcDbArc
 50
295.0252187171
 51
244.9747812829
  0
ARC
  5
770
100
AcDbEntity
  8
0
100
AcDbCircle
 62
7
  6
CONTINUOUS
 10
5.3544345985
 20
6.5656759724
 40
0.4718576034
100
AcDbArc
 50
297.6224080166
 51
242.3775919834
  0
ARC
  5
771
100
AcDbEntity
  8
0
100
AcDbCircle
 62
7
  6
CONTINUOUS
 10
5.3544345985
 20
6.5656759724
 40
0.4582661969
100
AcDbArc
 50
298.5143681507
 51
241.48563185
  0
ARC
  5
772
100
AcDbEntity
  8
0
100
AcDbCircle
 62
7
  6
CONTINUOUS
 10
5.3544345985
 20
6.5656759724
 40
0.375
100
AcDbArc
 50
181.375230752
 51
182.374769248
  0
ARC
  5
773
100
AcDbEntity
  8
0
100
AcDbCircle
 62
7
  6
CONTINUOUS
 10
5.3544345985
 20
6.5656759724
 40
0.375
100
AcDbArc
 50
185.125230752
 51
186.124769248
  0
ARC
  5
774
100
AcDbEntity
  8
0
100
AcDbCircle
 62
7
  6
CONTINUOUS
 10
5.3544345985
 20
6.5656759724
 40
0.375
100
AcDbArc
 50
188.875230752
 51
189.874769248
  0
ARC
  5
775
100
AcDbEntity
  8
0
100
AcDbCircle
 62
7
  6
CONTINUOUS
 10
5.3544345985
 20
6.5656759724
 40
0.375
100
AcDbArc
 50
192.625230752
 51
193.624769248
  0
ARC
  5
776
100
AcDbEntity
  8
0
100
AcDbCircle
 62
7
  6
CONTINUOUS
 10
5.3544345985
 20
6.5656759724
 40
0.375
100
AcDbArc
 50
196.375230752
 51
197.374769248
  0
ARC
  5
777
100
AcDbEntity
  8
0
100
AcDbCircle
 62
7
  6
CONTINUOUS
 10
5.3544345985
 20
6.5656759724
 40
0.375
100
AcDbArc
 50
200.125230752
 51
201.124769248
  0
ARC
  5
778
100
AcDbEntity
  8
0
100
AcDbCircle
 62
7
  6
CONTINUOUS
 10
5.3544345985
 20
6.5656759724
 40
0.375
100
AcDbArc
 50
203.875230752
 51
204.874769248
  0
ARC
  5
779
100
AcDbEntity
  8
0
100
AcDbCircle
 62
7
  6
CONTINUOUS
 10
5.3544345985
 20
6.5656759724
 40
0.375
100
AcDbArc
 50
207.625230752
 51
208.624769248
  0
ARC
  5
77A
100
AcDbEntity
  8
0
100
AcDbCircle
 62
7
  6
CONTINUOUS
 10
5.3544345985
 20
6.5656759724
 40
0.375
100
AcDbArc
 50
211.375230752
 51
212.374769248
  0
ARC
  5
77B
100
AcDbEntity
  8
0
100
AcDbCircle
 62
7
  6
CONTINUOUS
 10
5.3544345985
 20
6.5656759724
 40
0.375
100
AcDbArc
 50
215.125230752
 51
216.124769248
  0
ARC
  5
77C
100
AcDbEntity
  8
0
100
AcDbCircle
 62
7
  6
CONTINUOUS
 10
5.3544345985
 20
6.5656759724
 40
0.375
100
AcDbArc
 50
218.875230752
 51
219.874769248
  0
ARC
  5
77D
100
AcDbEntity
  8
0
100
AcDbCircle
 62
7
  6
CONTINUOUS
 10
5.3544345985
 20
6.5656759724
 40
0.375
100
AcDbArc
 50
222.625230752
 51
223.624769248
  0
ARC
  5
77E
100
AcDbEntity
  8
0
100
AcDbCircle
 62
7
  6
CONTINUOUS
 10
5.3544345985
 20
6.5656759724
 40
0.375
100
AcDbArc
 50
226.375230752
 51
227.374769248
  0
ARC
  5
77F
100
AcDbEntity
  8
0
100
AcDbCircle
 62
7
  6
CONTINUOUS
 10
5.3544345985
 20
6.5656759724
 40
0.375
100
AcDbArc
 50
230.125230752
 51
231.124769248
  0
ARC
  5
780
100
AcDbEntity
  8
0
100
AcDbCircle
 62
7
  6
CONTINUOUS
 10
5.3544345985
 20
6.5656759724
 40
0.375
100
AcDbArc
 50
233.875230752
 51
234.3146620692
  0
ARC
  5
781
100
AcDbEntity
  8
0
100
AcDbCircle
 62
7
  6
CONTINUOUS
 10
5.3544345985
 20
6.5656759724
 40
0.375
100
AcDbArc
 50
305.6853379308
 51
306.124769248
  0
ARC
  5
782
100
AcDbEntity
  8
0
100
AcDbCircle
 62
7
  6
CONTINUOUS
 10
5.3544345985
 20
6.5656759724
 40
0.375
100
AcDbArc
 50
308.875230752
 51
309.874769248
  0
ARC
  5
783
100
AcDbEntity
  8
0
100
AcDbCircle
 62
7
  6
CONTINUOUS
 10
5.3544345985
 20
6.5656759724
 40
0.375
100
AcDbArc
 50
312.625230752
 51
313.624769248
  0
ARC
  5
784
100
AcDbEntity
  8
0
100
AcDbCircle
 62
7
  6
CONTINUOUS
 10
5.3544345985
 20
6.5656759724
 40
0.375
100
AcDbArc
 50
316.375230752
 51
317.374769248
  0
ARC
  5
785
100
AcDbEntity
  8
0
100
AcDbCircle
 62
7
  6
CONTINUOUS
 10
5.3544345985
 20
6.5656759724
 40
0.375
100
AcDbArc
 50
320.125230752
 51
321.124769248
  0
ARC
  5
786
100
AcDbEntity
  8
0
100
AcDbCircle
 62
7
  6
CONTINUOUS
 10
5.3544345985
 20
6.5656759724
 40
0.375
100
AcDbArc
 50
323.875230752
 51
324.874769248
  0
ARC
  5
787
100
AcDbEntity
  8
0
100
AcDbCircle
 62
7
  6
CONTINUOUS
 10
5.3544345985
 20
6.5656759724
 40
0.375
100
AcDbArc
 50
327.625230752
 51
328.624769248
  0
ARC
  5
788
100
AcDbEntity
  8
0
100
AcDbCircle
 62
7
  6
CONTINUOUS
 10
5.3544345985
 20
6.5656759724
 40
0.375
100
AcDbArc
 50
331.375230752
 51
332.374769248
  0
ARC
  5
789
100
AcDbEntity
  8
0
100
AcDbCircle
 62
7
  6
CONTINUOUS
 10
5.3544345985
 20
6.5656759724
 40
0.375
100
AcDbArc
 50
335.125230752
 51
336.124769248
  0
ARC
  5
78A
100
AcDbEntity
  8
0
100
AcDbCircle
 62
7
  6
CONTINUOUS
 10
5.3544345985
 20
6.5656759724
 40
0.375
100
AcDbArc
 50
338.875230752
 51
339.874769248
  0
ARC
  5
78B
100
AcDbEntity
  8
0
100
AcDbCircle
 62
7
  6
CONTINUOUS
 10
5.3544345985
 20
6.5656759724
 40
0.375
100
AcDbArc
 50
342.625230752
 51
343.624769248
  0
ARC
  5
78C
100
AcDbEntity
  8
0
100
AcDbCircle
 62
7
  6
CONTINUOUS
 10
5.3544345985
 20
6.5656759724
 40
0.375
100
AcDbArc
 50
346.375230752
 51
347.374769248
  0
ARC
  5
78D
100
AcDbEntity
  8
0
100
AcDbCircle
 62
7
  6
CONTINUOUS
 10
5.3544345985
 20
6.5656759724
 40
0.375
100
AcDbArc
 50
350.125230752
 51
351.124769248
  0
ARC
  5
78E
100
AcDbEntity
  8
0
100
AcDbCircle
 62
7
  6
CONTINUOUS
 10
5.3544345985
 20
6.5656759724
 40
0.375
100
AcDbArc
 50
353.875230752
 51
354.874769248
  0
ARC
  5
78F
100
AcDbEntity
  8
0
100
AcDbCircle
 62
7
  6
CONTINUOUS
 10
5.3544345985
 20
6.5656759724
 40
0.375
100
AcDbArc
 50
357.625230752
 51
358.624769248
  0
ARC
  5
790
100
AcDbEntity
  8
0
100
AcDbCircle
 62
7
  6
CONTINUOUS
 10
5.3544345985
 20
6.5656759724
 40
0.375
100
AcDbArc
 50
1.375230752
 51
2.374769248
  0
ARC
  5
791
100
AcDbEntity
  8
0
100
AcDbCircle
 62
7
  6
CONTINUOUS
 10
5.3544345985
 20
6.5656759724
 40
0.375
100
AcDbArc
 50
5.125230752
 51
6.124769248
  0
ARC
  5
792
100
AcDbEntity
  8
0
100
AcDbCircle
 62
7
  6
CONTINUOUS
 10
5.3544345985
 20
6.5656759724
 40
0.375
100
AcDbArc
 50
8.875230752
 51
9.874769248
  0
ARC
  5
793
100
AcDbEntity
  8
0
100
AcDbCircle
 62
7
  6
CONTINUOUS
 10
5.3544345985
 20
6.5656759724
 40
0.375
100
AcDbArc
 50
12.625230752
 51
13.624769248
  0
ARC
  5
794
100
AcDbEntity
  8
0
100
AcDbCircle
 62
7
  6
CONTINUOUS
 10
5.3544345985
 20
6.5656759724
 40
0.375
100
AcDbArc
 50
16.375230752
 51
17.374769248
  0
ARC
  5
795
100
AcDbEntity
  8
0
100
AcDbCircle
 62
7
  6
CONTINUOUS
 10
5.3544345985
 20
6.5656759724
 40
0.375
100
AcDbArc
 50
20.125230752
 51
21.124769248
  0
ARC
  5
796
100
AcDbEntity
  8
0
100
AcDbCircle
 62
7
  6
CONTINUOUS
 10
5.3544345985
 20
6.5656759724
 40
0.375
100
AcDbArc
 50
23.875230752
 51
24.874769248
  0
ARC
  5
797
100
AcDbEntity
  8
0
100
AcDbCircle
 62
7
  6
CONTINUOUS
 10
5.3544345985
 20
6.5656759724
 40
0.375
100
AcDbArc
 50
27.625230752
 51
28.624769248
  0
ARC
  5
798
100
AcDbEntity
  8
0
100
AcDbCircle
 62
7
  6
CONTINUOUS
 10
5.3544345985
 20
6.5656759724
 40
0.375
100
AcDbArc
 50
31.375230752
 51
32.374769248
  0
ARC
  5
799
100
AcDbEntity
  8
0
100
AcDbCircle
 62
7
  6
CONTINUOUS
 10
5.3544345985
 20
6.5656759724
 40
0.375
100
AcDbArc
 50
35.125230752
 51
36.124769248
  0
ARC
  5
79A
100
AcDbEntity
  8
0
100
AcDbCircle
 62
7
  6
CONTINUOUS
 10
5.3544345985
 20
6.5656759724
 40
0.375
100
AcDbArc
 50
38.875230752
 51
39.874769248
  0
ARC
  5
79B
100
AcDbEntity
  8
0
100
AcDbCircle
 62
7
  6
CONTINUOUS
 10
5.3544345985
 20
6.5656759724
 40
0.375
100
AcDbArc
 50
42.625230752
 51
43.624769248
  0
ARC
  5
79C
100
AcDbEntity
  8
0
100
AcDbCircle
 62
7
  6
CONTINUOUS
 10
5.3544345985
 20
6.5656759724
 40
0.375
100
AcDbArc
 50
46.375230752
 51
47.374769248
  0
ARC
  5
79D
100
AcDbEntity
  8
0
100
AcDbCircle
 62
7
  6
CONTINUOUS
 10
5.3544345985
 20
6.5656759724
 40
0.375
100
AcDbArc
 50
50.125230752
 51
51.124769248
  0
ARC
  5
79E
100
AcDbEntity
  8
0
100
AcDbCircle
 62
7
  6
CONTINUOUS
 10
5.3544345985
 20
6.5656759724
 40
0.375
100
AcDbArc
 50
53.875230752
 51
54.874769248
  0
ARC
  5
79F
100
AcDbEntity
  8
0
100
AcDbCircle
 62
7
  6
CONTINUOUS
 10
5.3544345985
 20
6.5656759724
 40
0.375
100
AcDbArc
 50
57.625230752
 51
58.624769248
  0
ARC
  5
7A0
100
AcDbEntity
  8
0
100
AcDbCircle
 62
7
  6
CONTINUOUS
 10
5.3544345985
 20
6.5656759724
 40
0.375
100
AcDbArc
 50
61.375230752
 51
62.374769248
  0
ARC
  5
7A1
100
AcDbEntity
  8
0
100
AcDbCircle
 62
7
  6
CONTINUOUS
 10
5.3544345985
 20
6.5656759724
 40
0.375
100
AcDbArc
 50
65.125230752
 51
66.124769248
  0
ARC
  5
7A2
100
AcDbEntity
  8
0
100
AcDbCircle
 62
7
  6
CONTINUOUS
 10
5.3544345985
 20
6.5656759724
 40
0.375
100
AcDbArc
 50
68.875230752
 51
69.874769248
  0
ARC
  5
7A3
100
AcDbEntity
  8
0
100
AcDbCircle
 62
7
  6
CONTINUOUS
 10
5.3544345985
 20
6.5656759724
 40
0.375
100
AcDbArc
 50
72.625230752
 51
73.624769248
  0
ARC
  5
7A4
100
AcDbEntity
  8
0
100
AcDbCircle
 62
7
  6
CONTINUOUS
 10
5.3544345985
 20
6.5656759724
 40
0.375
100
AcDbArc
 50
76.375230752
 51
77.374769248
  0
ARC
  5
7A5
100
AcDbEntity
  8
0
100
AcDbCircle
 62
7
  6
CONTINUOUS
 10
5.3544345985
 20
6.5656759724
 40
0.375
100
AcDbArc
 50
80.125230752
 51
81.124769248
  0
ARC
  5
7A6
100
AcDbEntity
  8
0
100
AcDbCircle
 62
7
  6
CONTINUOUS
 10
5.3544345985
 20
6.5656759724
 40
0.375
100
AcDbArc
 50
83.875230752
 51
84.874769248
  0
ARC
  5
7A7
100
AcDbEntity
  8
0
100
AcDbCircle
 62
7
  6
CONTINUOUS
 10
5.3544345985
 20
6.5656759724
 40
0.375
100
AcDbArc
 50
87.625230752
 51
88.624769248
  0
ARC
  5
7A8
100
AcDbEntity
  8
0
100
AcDbCircle
 62
7
  6
CONTINUOUS
 10
5.3544345985
 20
6.5656759724
 40
0.375
100
AcDbArc
 50
91.375230752
 51
92.374769248
  0
ARC
  5
7A9
100
AcDbEntity
  8
0
100
AcDbCircle
 62
7
  6
CONTINUOUS
 10
5.3544345985
 20
6.5656759724
 40
0.375
100
AcDbArc
 50
95.125230752
 51
96.124769248
  0
ARC
  5
7AA
100
AcDbEntity
  8
0
100
AcDbCircle
 62
7
  6
CONTINUOUS
 10
5.3544345985
 20
6.5656759724
 40
0.375
100
AcDbArc
 50
98.875230752
 51
99.874769248
  0
ARC
  5
7AB
100
AcDbEntity
  8
0
100
AcDbCircle
 62
7
  6
CONTINUOUS
 10
5.3544345985
 20
6.5656759724
 40
0.375
100
AcDbArc
 50
102.625230752
 51
103.624769248
  0
ARC
  5
7AC
100
AcDbEntity
  8
0
100
AcDbCircle
 62
7
  6
CONTINUOUS
 10
5.3544345985
 20
6.5656759724
 40
0.375
100
AcDbArc
 50
106.375230752
 51
107.374769248
  0
ARC
  5
7AD
100
AcDbEntity
  8
0
100
AcDbCircle
 62
7
  6
CONTINUOUS
 10
5.3544345985
 20
6.5656759724
 40
0.375
100
AcDbArc
 50
110.125230752
 51
111.124769248
  0
ARC
  5
7AE
100
AcDbEntity
  8
0
100
AcDbCircle
 62
7
  6
CONTINUOUS
 10
5.3544345985
 20
6.5656759724
 40
0.375
100
AcDbArc
 50
113.875230752
 51
114.874769248
  0
ARC
  5
7AF
100
AcDbEntity
  8
0
100
AcDbCircle
 62
7
  6
CONTINUOUS
 10
5.3544345985
 20
6.5656759724
 40
0.375
100
AcDbArc
 50
117.625230752
 51
118.624769248
  0
ARC
  5
7B0
100
AcDbEntity
  8
0
100
AcDbCircle
 62
7
  6
CONTINUOUS
 10
5.3544345985
 20
6.5656759724
 40
0.375
100
AcDbArc
 50
121.375230752
 51
122.374769248
  0
ARC
  5
7B1
100
AcDbEntity
  8
0
100
AcDbCircle
 62
7
  6
CONTINUOUS
 10
5.3544345985
 20
6.5656759724
 40
0.375
100
AcDbArc
 50
125.125230752
 51
126.124769248
  0
ARC
  5
7B2
100
AcDbEntity
  8
0
100
AcDbCircle
 62
7
  6
CONTINUOUS
 10
5.3544345985
 20
6.5656759724
 40
0.375
100
AcDbArc
 50
128.875230752
 51
129.874769248
  0
ARC
  5
7B3
100
AcDbEntity
  8
0
100
AcDbCircle
 62
7
  6
CONTINUOUS
 10
5.3544345985
 20
6.5656759724
 40
0.375
100
AcDbArc
 50
132.625230752
 51
133.624769248
  0
ARC
  5
7B4
100
AcDbEntity
  8
0
100
AcDbCircle
 62
7
  6
CONTINUOUS
 10
5.3544345985
 20
6.5656759724
 40
0.375
100
AcDbArc
 50
136.375230752
 51
137.374769248
  0
ARC
  5
7B5
100
AcDbEntity
  8
0
100
AcDbCircle
 62
7
  6
CONTINUOUS
 10
5.3544345985
 20
6.5656759724
 40
0.375
100
AcDbArc
 50
140.125230752
 51
141.124769248
  0
ARC
  5
7B6
100
AcDbEntity
  8
0
100
AcDbCircle
 62
7
  6
CONTINUOUS
 10
5.3544345985
 20
6.5656759724
 40
0.375
100
AcDbArc
 50
143.875230752
 51
144.874769248
  0
ARC
  5
7B7
100
AcDbEntity
  8
0
100
AcDbCircle
 62
7
  6
CONTINUOUS
 10
5.3544345985
 20
6.5656759724
 40
0.375
100
AcDbArc
 50
147.625230752
 51
148.624769248
  0
ARC
  5
7B8
100
AcDbEntity
  8
0
100
AcDbCircle
 62
7
  6
CONTINUOUS
 10
5.3544345985
 20
6.5656759724
 40
0.375
100
AcDbArc
 50
151.375230752
 51
152.374769248
  0
ARC
  5
7B9
100
AcDbEntity
  8
0
100
AcDbCircle
 62
7
  6
CONTINUOUS
 10
5.3544345985
 20
6.5656759724
 40
0.375
100
AcDbArc
 50
155.125230752
 51
156.124769248
  0
ARC
  5
7BA
100
AcDbEntity
  8
0
100
AcDbCircle
 62
7
  6
CONTINUOUS
 10
5.3544345985
 20
6.5656759724
 40
0.375
100
AcDbArc
 50
158.875230752
 51
159.874769248
  0
ARC
  5
7BB
100
AcDbEntity
  8
0
100
AcDbCircle
 62
7
  6
CONTINUOUS
 10
5.3544345985
 20
6.5656759724
 40
0.375
100
AcDbArc
 50
162.625230752
 51
163.624769248
  0
ARC
  5
7BC
100
AcDbEntity
  8
0
100
AcDbCircle
 62
7
  6
CONTINUOUS
 10
5.3544345985
 20
6.5656759724
 40
0.375
100
AcDbArc
 50
166.375230752
 51
167.374769248
  0
ARC
  5
7BD
100
AcDbEntity
  8
0
100
AcDbCircle
 62
7
  6
CONTINUOUS
 10
5.3544345985
 20
6.5656759724
 40
0.375
100
AcDbArc
 50
170.125230752
 51
171.124769248
  0
ARC
  5
7BE
100
AcDbEntity
  8
0
100
AcDbCircle
 62
7
  6
CONTINUOUS
 10
5.3544345985
 20
6.5656759724
 40
0.375
100
AcDbArc
 50
173.875230752
 51
174.874769248
  0
ARC
  5
7BF
100
AcDbEntity
  8
0
100
AcDbCircle
 62
7
  6
CONTINUOUS
 10
5.3544345985
 20
6.5656759724
 40
0.375
100
AcDbArc
 50
177.625230752
 51
178.624769248
  0
ARC
  5
7C0
100
AcDbEntity
  8
0
100
AcDbCircle
 62
7
  6
CONTINUOUS
 10
5.3544345985
 20
6.5656759724
 40
0.3552009973
100
AcDbArc
 50
308.0190837732
 51
231.9809162268
  0
ARC
  5
7C1
100
AcDbEntity
  8
0
100
AcDbCircle
 62
7
  6
CONTINUOUS
 10
5.3544345985
 20
6.5656759724
 40
0.2837879285
100
AcDbArc
 50
320.4311840431
 51
219.5688159568
  0
ARC
  5
7C2
100
AcDbEntity
  8
0
100
AcDbCircle
 62
7
  6
CONTINUOUS
 10
5.3544345985
 20
6.5656759724
 40
0.2695053148
100
AcDbArc
 50
324.2716835155
 51
215.7283164677
  0
ARC
  5
7C3
100
AcDbEntity
  8
0
100
AcDbCircle
 62
7
  6
CONTINUOUS
 10
5.3544345985
 20
6.5656759724
 40
0.265
100
AcDbArc
 50
325.6444983116
 51
214.3555016245
  0
ARC
  5
7C4
100
AcDbEntity
  8
0
100
AcDbCircle
 62
7
  6
CONTINUOUS
 10
5.3544345985
 20
6.5656759724
 40
0.25
100
AcDbArc
 50
331.0473182677
 51
208.9526817322
  0
ARC
  5
7C5
100
AcDbEntity
  8
0
100
AcDbCircle
 62
7
  6
CONTINUOUS
 10
5.3544345985
 20
6.5656759724
 40
0.235
100
AcDbArc
 50
338.5858868146
 51
201.4141132598
  0
ARC
  5
7C6
100
AcDbEntity
  8
0
100
AcDbCircle
 62
7
  6
CONTINUOUS
 10
5.3544345985
 20
6.5656759724
 40
0.21875
100
AcDbArc
 50
0.0
 51
180.0
  0
ARC
  5
7C7
100
AcDbEntity
  8
0
100
AcDbCircle
 62
7
  6
CONTINUOUS
 10
7.7069345985
 20
6.4108691542
 40
0.0378068182
100
AcDbArc
 50
7.3044455606
 51
90.0
  0
ARC
  5
7C8
100
AcDbEntity
  8
0
100
AcDbCircle
 62
7
  6
CONTINUOUS
 10
7.7756845985
 20
6.4156759724
 40
0.03125
100
AcDbArc
 50
180.0
 51
360.0
  0
ARC
  5
7C9
100
AcDbEntity
  8
0
100
AcDbCircle
 62
7
  6
CONTINUOUS
 10
9.1269345985
 20
6.4044259724
 40
0.03
100
AcDbArc
 50
180.0
 51
360.0
  0
ARC
  5
7CA
100
AcDbEntity
  8
0
100
AcDbCircle
 62
7
  6
CONTINUOUS
 10
7.3544345985
 20
6.5656759724
 40
0.475
100
AcDbArc
 50
21.3669544659
 51
338.6330455341
  0
ARC
  5
7CB
100
AcDbEntity
  8
0
100
AcDbCircle
 62
7
  6
CONTINUOUS
 10
7.3544345985
 20
6.5656759724
 40
0.41625
100
AcDbArc
 50
20.6637347883
 51
339.3362652117
  0
ARC
  5
7CC
100
AcDbEntity
  8
0
100
AcDbCircle
 62
7
  6
CONTINUOUS
 10
7.3544345985
 20
6.5656759724
 40
0.382862128
100
AcDbArc
 50
18.0749956171
 51
341.9250043829
  0
ARC
  5
7CD
100
AcDbEntity
  8
0
100
AcDbCircle
 62
7
  6
CONTINUOUS
 10
7.3544345985
 20
6.5656759724
 40
0.3685530399
100
AcDbArc
 50
16.9629031586
 51
343.0370969157
  0
ARC
  5
7CE
100
AcDbEntity
  8
0
100
AcDbCircle
 62
7
  6
CONTINUOUS
 10
7.3544345985
 20
6.5656759724
 40
0.3575
100
AcDbArc
 50
267.4865196799
 51
268.5574363641
  0
ARC
  5
7CF
100
AcDbEntity
  8
0
100
AcDbCircle
 62
7
  6
CONTINUOUS
 10
7.3544345985
 20
6.5656759724
 40
0.3575
100
AcDbArc
 50
263.5304757238
 51
264.6013924081
  0
ARC
  5
7D0
100
AcDbEntity
  8
0
100
AcDbCircle
 62
7
  6
CONTINUOUS
 10
7.3544345985
 20
6.5656759724
 40
0.3575
100
AcDbArc
 50
259.5744317678
 51
260.645348452
  0
ARC
  5
7D1
100
AcDbEntity
  8
0
100
AcDbCircle
 62
7
  6
CONTINUOUS
 10
7.3544345985
 20
6.5656759724
 40
0.3575
100
AcDbArc
 50
255.6183878117
 51
256.689304496
  0
ARC
  5
7D2
100
AcDbEntity
  8
0
100
AcDbCircle
 62
7
  6
CONTINUOUS
 10
7.3544345985
 20
6.5656759724
 40
0.3575
100
AcDbArc
 50
251.6623438557
 51
252.7332605399
  0
ARC
  5
7D3
100
AcDbEntity
  8
0
100
AcDbCircle
 62
7
  6
CONTINUOUS
 10
7.3544345985
 20
6.5656759724
 40
0.3575
100
AcDbArc
 50
247.7062998996
 51
248.7772165839
  0
ARC
  5
7D4
100
AcDbEntity
  8
0
100
AcDbCircle
 62
7
  6
CONTINUOUS
 10
7.3544345985
 20
6.5656759724
 40
0.3575
100
AcDbArc
 50
243.7502559436
 51
244.8211726278
  0
ARC
  5
7D5
100
AcDbEntity
  8
0
100
AcDbCircle
 62
7
  6
CONTINUOUS
 10
7.3544345985
 20
6.5656759724
 40
0.3575
100
AcDbArc
 50
239.7942119875
 51
240.8651286718
  0
ARC
  5
7D6
100
AcDbEntity
  8
0
100
AcDbCircle
 62
7
  6
CONTINUOUS
 10
7.3544345985
 20
6.5656759724
 40
0.3575
100
AcDbArc
 50
235.8381680315
 51
236.9090847157
  0
ARC
  5
7D7
100
AcDbEntity
  8
0
100
AcDbCircle
 62
7
  6
CONTINUOUS
 10
7.3544345985
 20
6.5656759724
 40
0.3575
100
AcDbArc
 50
231.8821240755
 51
232.9530407597
  0
ARC
  5
7D8
100
AcDbEntity
  8
0
100
AcDbCircle
 62
7
  6
CONTINUOUS
 10
7.3544345985
 20
6.5656759724
 40
0.3575
100
AcDbArc
 50
227.9260801194
 51
228.9969968037
  0
ARC
  5
7D9
100
AcDbEntity
  8
0
100
AcDbCircle
 62
7
  6
CONTINUOUS
 10
7.3544345985
 20
6.5656759724
 40
0.3575
100
AcDbArc
 50
223.9700361634
 51
225.0409528476
  0
ARC
  5
7DA
100
AcDbEntity
  8
0
100
AcDbCircle
 62
7
  6
CONTINUOUS
 10
7.3544345985
 20
6.5656759724
 40
0.3575
100
AcDbArc
 50
220.0139922073
 51
221.0849088916
  0
ARC
  5
7DB
100
AcDbEntity
  8
0
100
AcDbCircle
 62
7
  6
CONTINUOUS
 10
7.3544345985
 20
6.5656759724
 40
0.3575
100
AcDbArc
 50
216.0579482513
 51
217.1288649355
  0
ARC
  5
7DC
100
AcDbEntity
  8
0
100
AcDbCircle
 62
7
  6
CONTINUOUS
 10
7.3544345985
 20
6.5656759724
 40
0.3575
100
AcDbArc
 50
212.1019042952
 51
213.1728209795
  0
ARC
  5
7DD
100
AcDbEntity
  8
0
100
AcDbCircle
 62
7
  6
CONTINUOUS
 10
7.3544345985
 20
6.5656759724
 40
0.3575
100
AcDbArc
 50
208.1458603392
 51
209.2167770234
  0
ARC
  5
7DE
100
AcDbEntity
  8
0
100
AcDbCircle
 62
7
  6
CONTINUOUS
 10
7.3544345985
 20
6.5656759724
 40
0.3575
100
AcDbArc
 50
204.1898163832
 51
205.2607330674
  0
ARC
  5
7DF
100
AcDbEntity
  8
0
100
AcDbCircle
 62
7
  6
CONTINUOUS
 10
7.3544345985
 20
6.5656759724
 40
0.3575
100
AcDbArc
 50
200.2337724271
 51
201.3046891114
  0
ARC
  5
7E0
100
AcDbEntity
  8
0
100
AcDbCircle
 62
7
  6
CONTINUOUS
 10
7.3544345985
 20
6.5656759724
 40
0.3575
100
AcDbArc
 50
196.2777284711
 51
197.3486451553
  0
ARC
  5
7E1
100
AcDbEntity
  8
0
100
AcDbCircle
 62
7
  6
CONTINUOUS
 10
7.3544345985
 20
6.5656759724
 40
0.3575
100
AcDbArc
 50
192.321684515
 51
193.3926011993
  0
ARC
  5
7E2
100
AcDbEntity
  8
0
100
AcDbCircle
 62
7
  6
CONTINUOUS
 10
7.3544345985
 20
6.5656759724
 40
0.3575
100
AcDbArc
 50
188.365640559
 51
189.4365572432
  0
ARC
  5
7E3
100
AcDbEntity
  8
0
100
AcDbCircle
 62
7
  6
CONTINUOUS
 10
7.3544345985
 20
6.5656759724
 40
0.3575
100
AcDbArc
 50
184.4095966029
 51
185.4805132872
  0
ARC
  5
7E4
100
AcDbEntity
  8
0
100
AcDbCircle
 62
7
  6
CONTINUOUS
 10
7.3544345985
 20
6.5656759724
 40
0.3575
100
AcDbArc
 50
180.4535526469
 51
181.5244693311
  0
ARC
  5
7E5
100
AcDbEntity
  8
0
100
AcDbCircle
 62
7
  6
CONTINUOUS
 10
7.3544345985
 20
6.5656759724
 40
0.3575
100
AcDbArc
 50
176.4975086908
 51
177.5684253751
  0
ARC
  5
7E6
100
AcDbEntity
  8
0
100
AcDbCircle
 62
7
  6
CONTINUOUS
 10
7.3544345985
 20
6.5656759724
 40
0.3575
100
AcDbArc
 50
172.5414647348
 51
173.612381419
  0
ARC
  5
7E7
100
AcDbEntity
  8
0
100
AcDbCircle
 62
7
  6
CONTINUOUS
 10
7.3544345985
 20
6.5656759724
 40
0.3575
100
AcDbArc
 50
168.5854207788
 51
169.656337463
  0
ARC
  5
7E8
100
AcDbEntity
  8
0
100
AcDbCircle
 62
7
  6
CONTINUOUS
 10
7.3544345985
 20
6.5656759724
 40
0.3575
100
AcDbArc
 50
164.6293768227
 51
165.700293507
  0
ARC
  5
7E9
100
AcDbEntity
  8
0
100
AcDbCircle
 62
7
  6
CONTINUOUS
 10
7.3544345985
 20
6.5656759724
 40
0.3575
100
AcDbArc
 50
160.6733328667
 51
161.7442495509
  0
ARC
  5
7EA
100
AcDbEntity
  8
0
100
AcDbCircle
 62
7
  6
CONTINUOUS
 10
7.3544345985
 20
6.5656759724
 40
0.3575
100
AcDbArc
 50
156.7172889106
 51
157.7882055949
  0
ARC
  5
7EB
100
AcDbEntity
  8
0
100
AcDbCircle
 62
7
  6
CONTINUOUS
 10
7.3544345985
 20
6.5656759724
 40
0.3575
100
AcDbArc
 50
152.7612449546
 51
153.8321616388
  0
ARC
  5
7EC
100
AcDbEntity
  8
0
100
AcDbCircle
 62
7
  6
CONTINUOUS
 10
7.3544345985
 20
6.5656759724
 40
0.3575
100
AcDbArc
 50
148.8052009985
 51
149.8761176828
  0
ARC
  5
7ED
100
AcDbEntity
  8
0
100
AcDbCircle
 62
7
  6
CONTINUOUS
 10
7.3544345985
 20
6.5656759724
 40
0.3575
100
AcDbArc
 50
144.8491570425
 51
145.9200737267
  0
ARC
  5
7EE
100
AcDbEntity
  8
0
100
AcDbCircle
 62
7
  6
CONTINUOUS
 10
7.3544345985
 20
6.5656759724
 40
0.3575
100
AcDbArc
 50
140.8931130864
 51
141.9640297707
  0
ARC
  5
7EF
100
AcDbEntity
  8
0
100
AcDbCircle
 62
7
  6
CONTINUOUS
 10
7.3544345985
 20
6.5656759724
 40
0.3575
100
AcDbArc
 50
136.9370691304
 51
138.0079858147
  0
ARC
  5
7F0
100
AcDbEntity
  8
0
100
AcDbCircle
 62
7
  6
CONTINUOUS
 10
7.3544345985
 20
6.5656759724
 40
0.3575
100
AcDbArc
 50
132.9810251744
 51
134.0519418586
  0
ARC
  5
7F1
100
AcDbEntity
  8
0
100
AcDbCircle
 62
7
  6
CONTINUOUS
 10
7.3544345985
 20
6.5656759724
 40
0.3575
100
AcDbArc
 50
129.0249812183
 51
130.0958979026
  0
ARC
  5
7F2
100
AcDbEntity
  8
0
100
AcDbCircle
 62
7
  6
CONTINUOUS
 10
7.3544345985
 20
6.5656759724
 40
0.3575
100
AcDbArc
 50
125.0689372623
 51
126.1398539465
  0
ARC
  5
7F3
100
AcDbEntity
  8
0
100
AcDbCircle
 62
7
  6
CONTINUOUS
 10
7.3544345985
 20
6.5656759724
 40
0.3575
100
AcDbArc
 50
121.1128933062
 51
122.1838099905
  0
ARC
  5
7F4
100
AcDbEntity
  8
0
100
AcDbCircle
 62
7
  6
CONTINUOUS
 10
7.3544345985
 20
6.5656759724
 40
0.3575
100
AcDbArc
 50
117.1568493502
 51
118.2277660344
  0
ARC
  5
7F5
100
AcDbEntity
  8
0
100
AcDbCircle
 62
7
  6
CONTINUOUS
 10
7.3544345985
 20
6.5656759724
 40
0.3575
100
AcDbArc
 50
113.2008053941
 51
114.2717220784
  0
ARC
  5
7F6
100
AcDbEntity
  8
0
100
AcDbCircle
 62
7
  6
CONTINUOUS
 10
7.3544345985
 20
6.5656759724
 40
0.3575
100
AcDbArc
 50
109.2447614381
 51
110.3156781223
  0
ARC
  5
7F7
100
AcDbEntity
  8
0
100
AcDbCircle
 62
7
  6
CONTINUOUS
 10
7.3544345985
 20
6.5656759724
 40
0.3575
100
AcDbArc
 50
105.2887174821
 51
106.3596341663
  0
ARC
  5
7F8
100
AcDbEntity
  8
0
100
AcDbCircle
 62
7
  6
CONTINUOUS
 10
7.3544345985
 20
6.5656759724
 40
0.3575
100
AcDbArc
 50
101.332673526
 51
102.4035902103
  0
ARC
  5
7F9
100
AcDbEntity
  8
0
100
AcDbCircle
 62
7
  6
CONTINUOUS
 10
7.3544345985
 20
6.5656759724
 40
0.3575
100
AcDbArc
 50
97.37662957
 51
98.4475462542
  0
ARC
  5
7FA
100
AcDbEntity
  8
0
100
AcDbCircle
 62
7
  6
CONTINUOUS
 10
7.3544345985
 20
6.5656759724
 40
0.3575
100
AcDbArc
 50
93.4205856139
 51
94.4915022982
  0
ARC
  5
7FB
100
AcDbEntity
  8
0
100
AcDbCircle
 62
7
  6
CONTINUOUS
 10
7.3544345985
 20
6.5656759724
 40
0.3575
100
AcDbArc
 50
89.4645416579
 51
90.5354583421
  0
ARC
  5
7FC
100
AcDbEntity
  8
0
100
AcDbCircle
 62
7
  6
CONTINUOUS
 10
7.3544345985
 20
6.5656759724
 40
0.3575
100
AcDbArc
 50
85.5084977018
 51
86.5794143861
  0
ARC
  5
7FD
100
AcDbEntity
  8
0
100
AcDbCircle
 62
7
  6
CONTINUOUS
 10
7.3544345985
 20
6.5656759724
 40
0.3575
100
AcDbArc
 50
81.5524537458
 51
82.62337043
  0
ARC
  5
7FE
100
AcDbEntity
  8
0
100
AcDbCircle
 62
7
  6
CONTINUOUS
 10
7.3544345985
 20
6.5656759724
 40
0.3575
100
AcDbArc
 50
77.5964097897
 51
78.667326474
  0
ARC
  5
7FF
100
AcDbEntity
  8
0
100
AcDbCircle
 62
7
  6
CONTINUOUS
 10
7.3544345985
 20
6.5656759724
 40
0.3575
100
AcDbArc
 50
73.6403658337
 51
74.7112825179
  0
ARC
  5
800
100
AcDbEntity
  8
0
100
AcDbCircle
 62
7
  6
CONTINUOUS
 10
7.3544345985
 20
6.5656759724
 40
0.3575
100
AcDbArc
 50
69.6843218777
 51
70.7552385619
  0
ARC
  5
801
100
AcDbEntity
  8
0
100
AcDbCircle
 62
7
  6
CONTINUOUS
 10
7.3544345985
 20
6.5656759724
 40
0.3575
100
AcDbArc
 50
65.7282779216
 51
66.7991946059
  0
ARC
  5
802
100
AcDbEntity
  8
0
100
AcDbCircle
 62
7
  6
CONTINUOUS
 10
7.3544345985
 20
6.5656759724
 40
0.3575
100
AcDbArc
 50
61.7722339656
 51
62.8431506498
  0
ARC
  5
803
100
AcDbEntity
  8
0
100
AcDbCircle
 62
7
  6
CONTINUOUS
 10
7.3544345985
 20
6.5656759724
 40
0.3575
100
AcDbArc
 50
57.8161900095
 51
58.8871066938
  0
ARC
  5
804
100
AcDbEntity
  8
0
100
AcDbCircle
 62
7
  6
CONTINUOUS
 10
7.3544345985
 20
6.5656759724
 40
0.3575
100
AcDbArc
 50
53.8601460535
 51
54.9310627377
  0
ARC
  5
805
100
AcDbEntity
  8
0
100
AcDbCircle
 62
7
  6
CONTINUOUS
 10
7.3544345985
 20
6.5656759724
 40
0.3575
100
AcDbArc
 50
49.9041020974
 51
50.9750187817
  0
ARC
  5
806
100
AcDbEntity
  8
0
100
AcDbCircle
 62
7
  6
CONTINUOUS
 10
7.3544345985
 20
6.5656759724
 40
0.3575
100
AcDbArc
 50
45.9480581414
 51
47.0189748256
  0
ARC
  5
807
100
AcDbEntity
  8
0
100
AcDbCircle
 62
7
  6
CONTINUOUS
 10
7.3544345985
 20
6.5656759724
 40
0.3575
100
AcDbArc
 50
41.9920141853
 51
43.0629308696
  0
ARC
  5
808
100
AcDbEntity
  8
0
100
AcDbCircle
 62
7
  6
CONTINUOUS
 10
7.3544345985
 20
6.5656759724
 40
0.3575
100
AcDbArc
 50
38.0359702293
 51
39.1068869136
  0
ARC
  5
809
100
AcDbEntity
  8
0
100
AcDbCircle
 62
7
  6
CONTINUOUS
 10
7.3544345985
 20
6.5656759724
 40
0.3575
100
AcDbArc
 50
34.0799262733
 51
35.1508429575
  0
ARC
  5
80A
100
AcDbEntity
  8
0
100
AcDbCircle
 62
7
  6
CONTINUOUS
 10
7.3544345985
 20
6.5656759724
 40
0.3575
100
AcDbArc
 50
30.1238823172
 51
31.1947990015
  0
ARC
  5
80B
100
AcDbEntity
  8
0
100
AcDbCircle
 62
7
  6
CONTINUOUS
 10
7.3544345985
 20
6.5656759724
 40
0.3575
100
AcDbArc
 50
26.1678383612
 51
27.2387550454
  0
ARC
  5
80C
100
AcDbEntity
  8
0
100
AcDbCircle
 62
7
  6
CONTINUOUS
 10
7.3544345985
 20
6.5656759724
 40
0.3575
100
AcDbArc
 50
22.2117944051
 51
23.2827110894
  0
ARC
  5
80D
100
AcDbEntity
  8
0
100
AcDbCircle
 62
7
  6
CONTINUOUS
 10
7.3544345985
 20
6.5656759724
 40
0.3575
100
AcDbArc
 50
18.2557504491
 51
19.3266671333
  0
ARC
  5
80E
100
AcDbEntity
  8
0
100
AcDbCircle
 62
7
  6
CONTINUOUS
 10
7.3544345985
 20
6.5656759724
 40
0.3575
100
AcDbArc
 50
342.6513548447
 51
343.7222715289
  0
ARC
  5
80F
100
AcDbEntity
  8
0
100
AcDbCircle
 62
7
  6
CONTINUOUS
 10
7.3544345985
 20
6.5656759724
 40
0.3575
100
AcDbArc
 50
338.6953108886
 51
339.7662275729
  0
ARC
  5
810
100
AcDbEntity
  8
0
100
AcDbCircle
 62
7
  6
CONTINUOUS
 10
7.3544345985
 20
6.5656759724
 40
0.3575
100
AcDbArc
 50
334.7392669326
 51
335.8101836168
  0
ARC
  5
811
100
AcDbEntity
  8
0
100
AcDbCircle
 62
7
  6
CONTINUOUS
 10
7.3544345985
 20
6.5656759724
 40
0.3575
100
AcDbArc
 50
330.7832229766
 51
331.8541396608
  0
ARC
  5
812
100
AcDbEntity
  8
0
100
AcDbCircle
 62
7
  6
CONTINUOUS
 10
7.3544345985
 20
6.5656759724
 40
0.3575
100
AcDbArc
 50
326.8271790205
 51
327.8980957048
  0
ARC
  5
813
100
AcDbEntity
  8
0
100
AcDbCircle
 62
7
  6
CONTINUOUS
 10
7.3544345985
 20
6.5656759724
 40
0.3575
100
AcDbArc
 50
322.8711350645
 51
323.9420517487
  0
ARC
  5
814
100
AcDbEntity
  8
0
100
AcDbCircle
 62
7
  6
CONTINUOUS
 10
7.3544345985
 20
6.5656759724
 40
0.3575
100
AcDbArc
 50
318.9150911084
 51
319.9860077927
  0
ARC
  5
815
100
AcDbEntity
  8
0
100
AcDbCircle
 62
7
  6
CONTINUOUS
 10
7.3544345985
 20
6.5656759724
 40
0.3575
100
AcDbArc
 50
314.9590471524
 51
316.0299638366
  0
ARC
  5
816
100
AcDbEntity
  8
0
100
AcDbCircle
 62
7
  6
CONTINUOUS
 10
7.3544345985
 20
6.5656759724
 40
0.3575
100
AcDbArc
 50
311.0030031963
 51
312.0739198806
  0
ARC
  5
817
100
AcDbEntity
  8
0
100
AcDbCircle
 62
7
  6
CONTINUOUS
 10
7.3544345985
 20
6.5656759724
 40
0.3575
100
AcDbArc
 50
307.0469592403
 51
308.1178759245
  0
ARC
  5
818
100
AcDbEntity
  8
0
100
AcDbCircle
 62
7
  6
CONTINUOUS
 10
7.3544345985
 20
6.5656759724
 40
0.3575
100
AcDbArc
 50
303.0909152843
 51
304.1618319685
  0
ARC
  5
819
100
AcDbEntity
  8
0
100
AcDbCircle
 62
7
  6
CONTINUOUS
 10
7.3544345985
 20
6.5656759724
 40
0.3575
100
AcDbArc
 50
299.1348713282
 51
300.2057880125
  0
ARC
  5
81A
100
AcDbEntity
  8
0
100
AcDbCircle
 62
7
  6
CONTINUOUS
 10
7.3544345985
 20
6.5656759724
 40
0.3575
100
AcDbArc
 50
295.1788273722
 51
296.2497440564
  0
ARC
  5
81B
100
AcDbEntity
  8
0
100
AcDbCircle
 62
7
  6
CONTINUOUS
 10
7.3544345985
 20
6.5656759724
 40
0.3575
100
AcDbArc
 50
291.2227834161
 51
292.2937001004
  0
ARC
  5
81C
100
AcDbEntity
  8
0
100
AcDbCircle
 62
7
  6
CONTINUOUS
 10
7.3544345985
 20
6.5656759724
 40
0.3575
100
AcDbArc
 50
287.2667394601
 51
288.3376561443
  0
ARC
  5
81D
100
AcDbEntity
  8
0
100
AcDbCircle
 62
7
  6
CONTINUOUS
 10
7.3544345985
 20
6.5656759724
 40
0.3575
100
AcDbArc
 50
283.310695504
 51
284.3816121883
  0
ARC
  5
81E
100
AcDbEntity
  8
0
100
AcDbCircle
 62
7
  6
CONTINUOUS
 10
7.3544345985
 20
6.5656759724
 40
0.3575
100
AcDbArc
 50
279.354651548
 51
280.4255682322
  0
ARC
  5
81F
100
AcDbEntity
  8
0
100
AcDbCircle
 62
7
  6
CONTINUOUS
 10
7.3544345985
 20
6.5656759724
 40
0.3575
100
AcDbArc
 50
275.3986075919
 51
276.4695242762
  0
ARC
  5
820
100
AcDbEntity
  8
0
100
AcDbCircle
 62
7
  6
CONTINUOUS
 10
7.3544345985
 20
6.5656759724
 40
0.3575
100
AcDbArc
 50
271.4425636359
 51
272.5134803201
  0
ARC
  5
821
100
AcDbEntity
  8
0
100
AcDbCircle
 62
7
  6
CONTINUOUS
 10
7.3544345985
 20
6.5656759724
 40
0.3457531755
100
AcDbArc
 50
16.3796626128
 51
343.6203373872
  0
ARC
  5
822
100
AcDbEntity
  8
0
100
AcDbCircle
 62
7
  6
CONTINUOUS
 10
7.3544345985
 20
6.5656759724
 40
0.2416529628
100
AcDbArc
 50
23.795743668
 51
336.2042563321
  0
ARC
  5
823
100
AcDbEntity
  8
0
100
AcDbCircle
 62
7
  6
CONTINUOUS
 10
7.3544345985
 20
6.5656759724
 40
0.2291609373
100
AcDbArc
 50
25.1821828138
 51
334.8178171864
  0
ARC
  5
824
100
AcDbEntity
  8
0
100
AcDbCircle
 62
7
  6
CONTINUOUS
 10
7.3544345985
 20
6.5656759724
 40
0.215
100
AcDbArc
 50
26.9698378901
 51
333.0301621233
  0
ARC
  5
825
100
AcDbEntity
  8
0
100
AcDbCircle
 62
7
  6
CONTINUOUS
 10
7.3544345985
 20
6.5656759724
 40
0.2
100
AcDbArc
 50
29.1769980524
 51
330.8230019476
  0
ARC
  5
826
100
AcDbEntity
  8
0
100
AcDbCircle
 62
7
  6
CONTINUOUS
 10
7.3544345985
 20
6.5656759724
 40
0.185
100
AcDbArc
 50
31.8067374052
 51
328.1932625927
  0
ARC
  5
827
100
AcDbEntity
  8
0
100
AcDbCircle
 62
7
  6
CONTINUOUS
 10
7.3544345985
 20
6.5656759724
 40
0.18375
100
AcDbArc
 50
32.0478782862
 51
327.9521217138
  0
ARC
  5
828
100
AcDbEntity
  8
0
100
AcDbCircle
 62
7
  6
CONTINUOUS
 10
7.3544345985
 20
6.5656759724
 40
0.15375
100
AcDbArc
 50
39.3576134418
 51
320.6423865582
  0
ARC
  5
829
100
AcDbEntity
  8
0
100
AcDbCircle
 62
7
  6
CONTINUOUS
 10
7.3544345985
 20
6.5656759724
 40
0.1075
100
AcDbArc
 50
65.0921090837
 51
294.907890883
  0
ARC
  5
82A
100
AcDbEntity
  8
0
100
AcDbCircle
 62
7
  6
CONTINUOUS
 10
7.3544345985
 20
6.5656759724
 40
0.0975
100
AcDbArc
 50
90.0
 51
270.0
  0
ARC
  5
82B
100
AcDbEntity
  8
0
100
AcDbCircle
 62
7
  6
CONTINUOUS
 10
7.7069345985
 20
6.7204827906
 40
0.0378068182
100
AcDbArc
 50
270.0
 51
352.6955544394
  0
ARC
  5
82C
100
AcDbEntity
  8
0
100
AcDbCircle
 62
7
  6
CONTINUOUS
 10
7.7756845985
 20
6.7156759724
 40
0.03125
100
AcDbArc
 50
0.0
 51
180.0
  0
ARC
  5
82D
100
AcDbEntity
  8
0
100
AcDbCircle
 62
7
  6
CONTINUOUS
 10
9.1269345985
 20
6.7269259724
 40
0.03
100
AcDbArc
 50
0.0
 51
180.0
  0
ENDSEC
  0
SECTION
  2
OBJECTS
  0
DICTIONARY
  5
C
100
AcDbDictionary
280
0
281
1
  3
ACAD_GROUP
350
D
  3
ACAD_MLINESTYLE
350
17
  3
ACAD_LAYOUT
350
1A
  3
ACAD_PLOTSETTINGS
350
19
  3
ACAD_PLOTSTYLENAME
350
E
  0
DICTIONARY
  5
D
102
{ACAD_REACTORS
330
C
102
}
100
AcDbDictionary
280
0
281
1
  0
ACDBDICTIONARYWDFLT
  5
E
102
{ACAD_REACTORS
330
C
102
}
100
AcDbDictionary
281
1
  3
Normal
350
F
100
AcDbDictionaryWithDefault
340
F
  0
DICTIONARY
  5
17
102
{ACAD_REACTORS
330
C
102
}
100
AcDbDictionary
280
0
281
1
  3
Standard
350
18
  0
DICTIONARY
  5
19
102
{ACAD_REACTORS
330
C
102
}
100
AcDbDictionary
281
1
  0
DICTIONARY
  5
1A
102
{ACAD_REACTORS
330
C
102
}
100
AcDbDictionary
281
1
  3
Model
350
82E
  3
Layout1
350
82F
  0
ACDBPLACEHOLDER
  5
F
102
{ACAD_REACTORS
330
E
102
}
  0
MLINESTYLE
  5
18
102
{ACAD_REACTORS
330
17
102
}
100
AcDbMlineStyle
  2
STANDARD
 70
0
  3

 62
256
 51
90.0
 52
90.0
 71
2
 49
0.5
 62
256
  6
BYLAYER
 49
-0.5
 62
256
  6
BYLAYER
  0
LAYOUT
  5
82E
102
{ACAD_REACTORS
330
1A
102
}
100
AcDbPlotSettings
  1

  2
none_device
  4
ANSI_A_(11.00_x_8.50_Inches)
  6

 40
0.0
 41
0.0
 42
0.0
 43
0.0
 44
279.4
 45
215.9
 46
0.0
 47
0.0
 48
0.0
 49
0.0
140
0.0
141
0.0
142
1.0
143
1.0
 70
1024
 72
0
 73
0
 74
0
  7

 75
0
147
1.0
148
0.0
149
0.0
100
AcDbLayout
  1
Model
 70
0
 71
0
 10
0.0
 20
0.0
 11
11.0
 21
8.5
 12
0.0
 22
0.0
 32
0.0
 14
0.0
 24
0.0
 34
0.0
 15
0.0
 25
0.0
 35
0.0
146
0.0
 13
0.0
 23
0.0
 33
0.0
 16
1.0
 26
0.0
 36
0.0
 17
0.0
 27
1.0
 37
0.0
 76
0
330
202
345
0
346
0
  0
LAYOUT
  5
82F
102
{ACAD_REACTORS
330
1A
102
}
100
AcDbPlotSettings
  1

  2
none_device
  4
ANSI_A_(11.00_x_8.50_Inches)
  6

 40
0.0
 41
0.0
 42
0.0
 43
0.0
 44
279.4
 45
215.9
 46
0.0
 47
0.0
 48
0.0
 49
0.0
140
0.0
141
0.0
142
1.0
143
1.0
 70
0
 72
0
 73
0
 74
0
  7

 75
0
147
1.0
148
0.0
149
0.0
100
AcDbLayout
  1
Layout1
 70
0
 71
1
 10
0.0
 20
0.0
 11
11.0
 21
8.5
 12
0.0
 22
0.0
 32
0.0
 14
0.0
 24
0.0
 34
0.0
 15
0.0
 25
0.0
 35
0.0
146
0.0
 13
0.0
 23
0.0
 33
0.0
 16
1.0
 26
0.0
 36
0.0
 17
0.0
 27
1.0
 37
0.0
 76
0
330
203
345
0
346
0
  0
ENDSEC
  0
EOF
