999
DXF file: E:\BT Custom\CADOUTPUT\_TOP.dxf
999
Pro/ENGINEER 2018400 by Parametric Technology Corporation
  0
SECTION
  2
HEADER
  9
$ACADVER
  1
AC1018
  9
$DWGCODEPAGE
  3
ANSI_1252
  9
$EXTMAX
 10
22.0
 20
17.0
 30
0.0
  9
$EXTMIN
 10
0.0
 20
0.0
 30
0.0
  9
$LIMMIN
 10
0.0
 20
0.0
  9
$LIMMAX
 10
22.0
 20
17.0
  9
$VIEWCTR
 10
11.0
 20
8.5
  9
$VIEWSIZE
 40
17.0
  9
$CLAYER
  8
0
  9
$LTSCALE
 40
1.21
  9
$CELTYPE
  6
BYLAYER
  9
$DIMSCALE
 40
1.0
  9
$DIMASZ
 40
0.1
  9
$DIMEXO
 40
0.0625
  9
$DIMDLI
 40
0.836
  9
$DIMEXE
 40
0.125
  9
$DIMCEN
 40
0.198
  9
$DIMLFAC
 40
1.0
  9
$DIMBLK
  1
_FILLED
  9
$DIMALT
 70
1
  9
$DIMALTD
 70
2
  9
$DIMALTTD
 70
2
  9
$DIMALTF
 40
25.4
  9
$DIMTXT
 40
0.08
  9
$DIMTOL
 70
1
  9
$DIMLIM
 70
0
  9
$DIMTFAC
 40
1.0
  9
$DIMTP
 40
0.001
  9
$DIMTM
 40
0.001
  9
$DIMGAP
 40
0.09
  9
$DIMDSEP
 70
46
  9
$AUNITS
 70
0
  9
$PDMODE
 70
3
  9
$PDSIZE
 40
0.06
  9
$HANDSEED
  5
2E0
  9
$TILEMODE
 70
1
  9
$MEASUREMENT
 70
0
  9
$INSUNITS
 70
1
  0
ENDSEC
  0
SECTION
  2
CLASSES
  0
CLASS
  1
ACDBDICTIONARYWDFLT
  2
AcDbDictionaryWithDefault
  3
AutoCAD 2000
 90
0
 91
1
280
0
281
0
  0
CLASS
  1
ACDBPLACEHOLDER
  2
AcDbPlaceHolder
  3
AutoCAD 2000
 90
0
 91
1
280
0
281
0
  0
CLASS
  1
LAYOUT
  2
AcDbLayout
  3
AutoCAD 2000
 90
0
 91
0
280
0
281
0
  0
ENDSEC
  0
SECTION
  2
TABLES
  0
TABLE
  2
VPORT
  5
8
100
AcDbSymbolTable
 70
2
  0
VPORT
  5
1F4
100
AcDbSymbolTableRecord
100
AcDbViewportTableRecord
  2
*ACTIVE
 70
0
 10
0.0
 20
0.0
 11
1.0
 21
1.0
 12
11.0
 22
8.5
 13
0.0
 23
0.0
 14
1.0
 24
1.0
 15
0.0
 25
0.0
 16
0.0
 26
0.0
 36
1.0
 17
0.0
 27
0.0
 37
0.0
 40
17.0
 41
1.2941176471
 42
50.0
 43
0.0
 44
0.0
 50
0.0
 51
0.0
 71
0
 72
100
 73
1
 74
1
 75
0
 76
0
 77
0
 78
0
  0
ENDTAB
  0
TABLE
  2
LTYPE
  5
5
100
AcDbSymbolTable
 70
6
  0
LTYPE
  5
14
100
AcDbSymbolTableRecord
100
AcDbLinetypeTableRecord
  2
BYBLOCK
 70
0
  3

 72
65
 73
0
 40
0.0
  0
LTYPE
  5
15
100
AcDbSymbolTableRecord
100
AcDbLinetypeTableRecord
  2
BYLAYER
 70
0
  3

 72
65
 73
0
 40
0.0
  0
LTYPE
  5
16
100
AcDbSymbolTableRecord
100
AcDbLinetypeTableRecord
  2
CONTINUOUS
 70
64
  3
Solid line
 72
65
 73
0
 40
0.0
  0
LTYPE
  5
1F5
100
AcDbSymbolTableRecord
100
AcDbLinetypeTableRecord
  2
CENTER
 70
64
  3
____ _ ____ _ ____ _ ____ _ ____ _ ____ _ ____
 72
65
 73
4
 40
0.6
 49
0.375
 74
0
 49
-0.075
 74
0
 49
0.075
 74
0
 49
-0.075
 74
0
  0
LTYPE
  5
1F6
100
AcDbSymbolTableRecord
100
AcDbLinetypeTableRecord
  2
HIDDEN
 70
64
  3
- - - - - - - - - - - - - - - - - - - -
 72
65
 73
2
 40
0.2
 49
0.1
 74
0
 49
-0.1
 74
0
  0
LTYPE
  5
1F7
100
AcDbSymbolTableRecord
100
AcDbLinetypeTableRecord
  2
PHANTOM
 70
64
  3
_____ _ _ _____ _ _ _____ _ _ _____
 72
65
 73
6
 40
0.8
 49
0.45
 74
0
 49
-0.05
 74
0
 49
0.1
 74
0
 49
-0.05
 74
0
 49
0.1
 74
0
 49
-0.05
 74
0
  0
LTYPE
  5
1F8
100
AcDbSymbolTableRecord
100
AcDbLinetypeTableRecord
  2
DOT
 70
64
  3
. . . . . . . . . . . . . . . . . . . .
 72
65
 73
2
 40
0.2
 49
0.1
 74
0
 49
-0.1
 74
0
  0
LTYPE
  5
1F9
100
AcDbSymbolTableRecord
100
AcDbLinetypeTableRecord
  2
DASHED
 70
64
  3
- - - - - - - - - - - - - - - - - - - -
 72
65
 73
2
 40
0.2
 49
0.1
 74
0
 49
-0.1
 74
0
  0
ENDTAB
  0
TABLE
  2
LAYER
  5
2
100
AcDbSymbolTable
 70
36
  0
LAYER
  5
10
100
AcDbSymbolTableRecord
100
AcDbLayerTableRecord
  2
0
 70
0
 62
7
  6
CONTINUOUS
370
-3
390
F
  0
LAYER
  5
1FA
100
AcDbSymbolTableRecord
100
AcDbLayerTableRecord
  2
DEFAULT_1
 70
0
 62
7
  6
CENTER
370
-3
390
F
  0
LAYER
  5
1FB
100
AcDbSymbolTableRecord
100
AcDbLayerTableRecord
  2
DEFAULT_2
 70
0
 62
8
  6
HIDDEN
370
-3
390
F
  0
LAYER
  5
1FC
100
AcDbSymbolTableRecord
100
AcDbLayerTableRecord
  2
DEFAULT_3
 70
0
 62
7
  6
PHANTOM
370
-3
390
F
  0
LAYER
  5
1FD
100
AcDbSymbolTableRecord
100
AcDbLayerTableRecord
  2
ALL_FEATURES
 70
0
 62
7
  6
CONTINUOUS
370
-3
390
F
  0
LAYER
  5
1FE
100
AcDbSymbolTableRecord
100
AcDbLayerTableRecord
  2
AXES_FEATURES
 70
0
 62
7
  6
CONTINUOUS
370
-3
390
F
  0
LAYER
  5
1FF
100
AcDbSymbolTableRecord
100
AcDbLayerTableRecord
  2
DEFAULT_COORDINATE_SYSTEM
 70
0
 62
7
  6
CONTINUOUS
370
-3
390
F
  0
LAYER
  5
200
100
AcDbSymbolTableRecord
100
AcDbLayerTableRecord
  2
DEFAULT_DATUM_AXES
 70
0
 62
7
  6
CONTINUOUS
370
-3
390
F
  0
LAYER
  5
201
100
AcDbSymbolTableRecord
100
AcDbLayerTableRecord
  2
DEFAULT_DATUM_PLANES
 70
0
 62
7
  6
CONTINUOUS
370
-3
390
F
  0
LAYER
  5
202
100
AcDbSymbolTableRecord
100
AcDbLayerTableRecord
  2
DIMENSIONS
 70
0
 62
7
  6
CONTINUOUS
370
-3
390
F
  0
ENDTAB
  0
TABLE
  2
STYLE
  5
3
100
AcDbSymbolTable
 70
1
  0
STYLE
  5
11
100
AcDbSymbolTableRecord
100
AcDbTextStyleTableRecord
  2
STANDARD
 70
0
 40
0.0
 41
0.8
 50
0.0
 71
0
 42
0.2
  3
txt
  4

  0
STYLE
  5
203
100
AcDbSymbolTableRecord
100
AcDbTextStyleTableRecord
  2
TEXTSTYLE_1
 70
0
 40
0.0
 41
0.8
 50
0.0
 71
0
 42
0.2
  3
gdt
  4

  0
ENDTAB
  0
TABLE
  2
VIEW
  5
6
100
AcDbSymbolTable
 70
0
  0
ENDTAB
  0
TABLE
  2
UCS
  5
7
100
AcDbSymbolTable
 70
0
  0
ENDTAB
  0
TABLE
  2
APPID
  5
9
100
AcDbSymbolTable
 70
1
  0
APPID
  5
204
100
AcDbSymbolTableRecord
100
AcDbRegAppTableRecord
  2
ACAD
 70
0
  0
ENDTAB
  0
TABLE
  2
BLOCK_RECORD
  5
1
100
AcDbSymbolTable
 70
0
  0
BLOCK_RECORD
  5
205
100
AcDbSymbolTableRecord
100
AcDbBlockTableRecord
  2
*Model_Space
  0
BLOCK_RECORD
  5
206
100
AcDbSymbolTableRecord
100
AcDbBlockTableRecord
  2
*Paper_Space
  0
BLOCK_RECORD
  5
207
100
AcDbSymbolTableRecord
100
AcDbBlockTableRecord
  2
_FILLED
  0
ENDTAB
  0
TABLE
  2
DIMSTYLE
  5
A
100
AcDbSymbolTable
 70
1
100
AcDbDimStyleTable
 71
0
  0
DIMSTYLE
105
208
100
AcDbSymbolTableRecord
100
AcDbDimStyleTableRecord
  2
STANDARD
 70
0
  3

  4

 40
1.0
 41
0.1
 42
0.0625
 43
0.38
 44
0.125
 45
0.0
 46
0.0
 47
0.001
 48
0.001
140
0.08
141
0.09
142
0.0
143
25.4
144
1.0
145
0.0
146
1.0
147
0.09
 71
1.0
 72
0.0
 73
1
 74
1
 75
0
 76
0
 77
0
 78
4
 79
1
170
1
171
2
172
0
173
0
174
0
175
0
176
0
177
0
178
0
270
2
179
3
271
3
272
3
273
2
274
2
275
0
280
0
281
0
282
0
283
1
284
4
285
0
286
0
287
3
288
0
340
11
278
46
341
207
342
207
343
207
344
207
  0
ENDTAB
  0
ENDSEC
  0
SECTION
  2
BLOCKS
  0
BLOCK
  5
20
100
AcDbEntity
  8
0
100
AcDbBlockBegin
  2
*Model_Space
 70
0
 10
0.0
 20
0.0
 30
0.0
  3
*Model_Space
  1

  0
ENDBLK
  5
21
100
AcDbEntity
  8
0
100
AcDbBlockEnd
  0
BLOCK
  5
1C
100
AcDbEntity
  8
0
100
AcDbBlockBegin
  2
*Paper_Space
 70
0
 10
0.0
 20
0.0
 30
0.0
  3
*Paper_Space
  1

  0
ENDBLK
  5
1D
100
AcDbEntity
  8
0
100
AcDbBlockEnd
  0
BLOCK
  5
209
100
AcDbEntity
  8
0
100
AcDbBlockBegin
  2
_FILLED
 70
64
 10
0.0
 20
0.0
  3
_FILLED
  1

  0
SOLID
  5
20A
100
AcDbEntity
  8
0
  6
BYBLOCK
 62
0
100
AcDbTrace
 10
0.0
 20
0.0
 11
-1.0
 21
0.2
 12
-1.0
 22
-0.2
 13
-1.0
 23
-0.2
  0
ENDBLK
  5
20B
100
AcDbEntity
  8
0
  6
BYBLOCK
 62
0
100
AcDbBlockEnd
  0
ENDSEC
  0
SECTION
  2
ENTITIES
  0
LINE
  5
20C
100
AcDbEntity
  8
0
100
AcDbLine
 62
7
  6
CONTINUOUS
 10
7.7973183383
 20
11.4303077147
 11
7.7973183383
 21
11.5697709751
  0
LINE
  5
20D
100
AcDbEntity
  8
0
100
AcDbLine
 62
7
  6
CONTINUOUS
 10
9.0473183383
 20
5.4293944618
 11
9.0473183383
 21
4.8325377656
  0
LINE
  5
20E
100
AcDbEntity
  8
0
100
AcDbLine
 62
7
  6
CONTINUOUS
 10
9.8573183383
 20
11.3375977279
 11
9.8573183383
 21
11.5697709751
  0
LINE
  5
20F
100
AcDbEntity
  8
0
100
AcDbLine
 62
7
  6
CONTINUOUS
 10
9.9473183383
 20
11.2567709751
 11
9.9473183383
 21
11.0997709751
  0
LINE
  5
210
100
AcDbEntity
  8
0
100
AcDbLine
 62
7
  6
CONTINUOUS
 10
10.2973183383
 20
11.01309703
 11
10.2973183383
 21
11.0597709751
  0
LINE
  5
211
100
AcDbEntity
  8
0
100
AcDbLine
 62
7
  6
CONTINUOUS
 10
11.0463785112
 20
6.4967729338
 11
11.0483363447
 21
6.49677307
  0
LINE
  5
212
100
AcDbEntity
  8
0
100
AcDbLine
 62
7
  6
CONTINUOUS
 10
10.377808164
 20
10.9025629349
 11
10.4358095941
 21
9.2416192917
  0
LINE
  5
213
100
AcDbEntity
  8
0
100
AcDbLine
 62
7
  6
CONTINUOUS
 10
10.4098183383
 20
11.0697709751
 11
10.4098183383
 21
11.0597709751
  0
LINE
  5
214
100
AcDbEntity
  8
0
100
AcDbLine
 62
7
  6
CONTINUOUS
 10
10.4723183383
 20
6.5833927287
 11
10.4723183383
 21
5.9187123544
  0
LINE
  5
215
100
AcDbEntity
  8
0
100
AcDbLine
 62
7
  6
CONTINUOUS
 10
10.5873183383
 20
8.7317709751
 11
10.5873183383
 21
8.4167709751
  0
LINE
  5
216
100
AcDbEntity
  8
0
100
AcDbLine
 62
7
  6
CONTINUOUS
 10
10.5948183383
 20
7.099580679
 11
10.5948183383
 21
6.8718018917
  0
LINE
  5
217
100
AcDbEntity
  8
0
100
AcDbLine
 62
7
  6
CONTINUOUS
 10
10.6410683383
 20
11.1529138728
 11
10.6410683383
 21
7.3050312398
  0
LINE
  5
218
100
AcDbEntity
  8
0
100
AcDbLine
 62
7
  6
CONTINUOUS
 10
10.6410683383
 20
7.2229198375
 11
10.6410683383
 21
7.2055226075
  0
LINE
  5
219
100
AcDbEntity
  8
0
100
AcDbLine
 62
7
  6
CONTINUOUS
 10
10.6410683383
 20
7.1716912649
 11
10.6410683383
 21
7.1558051891
  0
LINE
  5
21A
100
AcDbEntity
  8
0
100
AcDbLine
 62
7
  6
CONTINUOUS
 10
10.6410683383
 20
7.1203914145
 11
10.6410683383
 21
7.1060759891
  0
LINE
  5
21B
100
AcDbEntity
  8
0
100
AcDbLine
 62
7
  6
CONTINUOUS
 10
10.6410685839
 20
7.2745153568
 11
10.6410683383
 21
7.2553113224
  0
LINE
  5
21C
100
AcDbEntity
  8
0
100
AcDbLine
 62
9
  6
CONTINUOUS
 10
10.6410685839
 20
7.2745153568
 11
10.6434646634
 21
7.2754916899
  0
LINE
  5
21D
100
AcDbEntity
  8
0
100
AcDbLine
 62
7
  6
CONTINUOUS
 10
11.1568904109
 20
6.70074893
 11
11.1568904109
 21
6.5613584903
  0
LINE
  5
21E
100
AcDbEntity
  8
0
100
AcDbLine
 62
7
  6
CONTINUOUS
 10
11.1770814628
 20
6.187295183
 11
11.1770814628
 21
5.9398078096
  0
LINE
  5
21F
100
AcDbEntity
  8
0
100
AcDbLine
 62
7
  6
CONTINUOUS
 10
11.3727462656
 20
6.7888717137
 11
11.3727462656
 21
6.649481274
  0
LINE
  5
220
100
AcDbEntity
  8
0
100
AcDbLine
 62
7
  6
CONTINUOUS
 10
11.4535683383
 20
7.248564301
 11
11.4535683383
 21
7.2304236074
  0
LINE
  5
221
100
AcDbEntity
  8
0
100
AcDbLine
 62
7
  6
CONTINUOUS
 10
11.4535683383
 20
7.1972989
 11
11.4535683383
 21
7.1807444905
  0
LINE
  5
222
100
AcDbEntity
  8
0
100
AcDbLine
 62
7
  6
CONTINUOUS
 10
11.4535683383
 20
7.1459607326
 11
11.4535683383
 21
7.1309424461
  0
LINE
  5
223
100
AcDbEntity
  8
0
100
AcDbLine
 62
7
  6
CONTINUOUS
 10
11.4675552138
 20
6.3058805952
 11
11.4675552138
 21
6.0583932218
  0
LINE
  5
224
100
AcDbEntity
  8
0
100
AcDbLine
 62
7
  6
CONTINUOUS
 10
11.4998183383
 20
7.099580679
 11
11.4998183383
 21
6.8718018917
  0
LINE
  5
225
100
AcDbEntity
  8
0
100
AcDbLine
 62
7
  6
CONTINUOUS
 10
11.5073183383
 20
8.7317709751
 11
11.5073183383
 21
8.4167709751
  0
LINE
  5
226
100
AcDbEntity
  8
0
100
AcDbLine
 62
7
  6
CONTINUOUS
 10
11.6223183383
 20
6.5833927287
 11
11.6223183383
 21
5.9187123544
  0
LINE
  5
227
100
AcDbEntity
  8
0
100
AcDbLine
 62
7
  6
CONTINUOUS
 10
11.6848183383
 20
11.0697709751
 11
11.6848183383
 21
11.0597709751
  0
LINE
  5
228
100
AcDbEntity
  8
0
100
AcDbLine
 62
7
  6
CONTINUOUS
 10
11.4535683383
 20
11.1529138728
 11
11.4535680927
 21
7.304715385
  0
LINE
  5
229
100
AcDbEntity
  8
0
100
AcDbLine
 62
7
  6
CONTINUOUS
 10
11.7168285125
 20
10.9025629349
 11
11.6588270824
 21
9.2416192917
  0
LINE
  5
22A
100
AcDbEntity
  8
0
100
AcDbLine
 62
7
  6
CONTINUOUS
 10
11.7973183383
 20
11.01309703
 11
11.7973183383
 21
11.0597709751
  0
LINE
  5
22B
100
AcDbEntity
  8
0
100
AcDbLine
 62
7
  6
CONTINUOUS
 10
11.4773199223
 20
8.3867709751
 11
11.4535683383
 21
8.3867709751
  0
LINE
  5
22C
100
AcDbEntity
  8
0
100
AcDbLine
 62
7
  6
CONTINUOUS
 10
10.6410683383
 20
8.3867709751
 11
10.6173167543
 21
8.3867709751
  0
LINE
  5
22D
100
AcDbEntity
  8
0
100
AcDbLine
 62
9
  6
CONTINUOUS
 10
11.5073183383
 20
8.4167709751
 11
11.4535683383
 21
8.4167709751
  0
LINE
  5
22E
100
AcDbEntity
  8
0
100
AcDbLine
 62
9
  6
CONTINUOUS
 10
10.6410683383
 20
8.4167709751
 11
10.5873183383
 21
8.4167709751
  0
LINE
  5
22F
100
AcDbEntity
  8
0
100
AcDbLine
 62
7
  6
CONTINUOUS
 10
12.1473183383
 20
11.2567709751
 11
12.1473183383
 21
11.0997709751
  0
LINE
  5
230
100
AcDbEntity
  8
0
100
AcDbLine
 62
7
  6
CONTINUOUS
 10
12.2373183383
 20
11.3375977279
 11
12.2373183383
 21
11.5697709751
  0
LINE
  5
231
100
AcDbEntity
  8
0
100
AcDbLine
 62
7
  6
CONTINUOUS
 10
11.4675552138
 20
6.3058805952
 11
11.1770814628
 21
6.187295183
  0
LINE
  5
232
100
AcDbEntity
  8
0
100
AcDbLine
 62
9
  6
CONTINUOUS
 10
10.5873183383
 20
8.7317709751
 11
10.6410683383
 21
8.7317709751
  0
LINE
  5
233
100
AcDbEntity
  8
0
100
AcDbLine
 62
9
  6
CONTINUOUS
 10
11.4535683383
 20
8.7317709751
 11
11.5073183383
 21
8.7317709751
  0
LINE
  5
234
100
AcDbEntity
  8
0
100
AcDbLine
 62
7
  6
CONTINUOUS
 10
10.6173167543
 20
8.7617709751
 11
10.6410683383
 21
8.7617709751
  0
LINE
  5
235
100
AcDbEntity
  8
0
100
AcDbLine
 62
7
  6
CONTINUOUS
 10
11.4535683383
 20
8.7617709751
 11
11.4773199223
 21
8.7617709751
  0
LINE
  5
236
100
AcDbEntity
  8
0
100
AcDbLine
 62
7
  6
CONTINUOUS
 10
11.4675552138
 20
6.0583932218
 11
11.1770814628
 21
5.9398078096
  0
LINE
  5
237
100
AcDbEntity
  8
0
100
AcDbLine
 62
7
  6
CONTINUOUS
 10
11.6258471852
 20
9.2097709751
 11
11.4535683383
 21
9.2097709751
  0
LINE
  5
238
100
AcDbEntity
  8
0
100
AcDbLine
 62
7
  6
CONTINUOUS
 10
10.6410683383
 20
9.2097709751
 11
10.4687894914
 21
9.2097709751
  0
LINE
  5
239
100
AcDbEntity
  8
0
100
AcDbLine
 62
9
  6
CONTINUOUS
 10
11.6588270824
 20
9.2416192917
 11
11.4535683383
 21
9.2416192917
  0
LINE
  5
23A
100
AcDbEntity
  8
0
100
AcDbLine
 62
9
  6
CONTINUOUS
 10
10.6410683383
 20
9.2416192917
 11
10.4358095941
 21
9.2416192917
  0
LINE
  5
23B
100
AcDbEntity
  8
0
100
AcDbLine
 62
7
  6
CONTINUOUS
 10
13.0473183383
 20
5.4293944618
 11
13.0473183383
 21
4.8325377656
  0
LINE
  5
23C
100
AcDbEntity
  8
0
100
AcDbLine
 62
9
  6
CONTINUOUS
 10
11.4535683383
 20
9.3197709751
 11
10.6410683383
 21
9.3197709751
  0
LINE
  5
23D
100
AcDbEntity
  8
0
100
AcDbLine
 62
7
  6
CONTINUOUS
 10
14.2973183383
 20
11.4303077147
 11
14.2973183383
 21
11.5697709751
  0
LINE
  5
23E
100
AcDbEntity
  8
0
100
AcDbLine
 62
9
  6
CONTINUOUS
 10
11.7168285125
 20
10.9025629349
 11
11.4535683383
 21
10.9025629349
  0
LINE
  5
23F
100
AcDbEntity
  8
0
100
AcDbLine
 62
9
  6
CONTINUOUS
 10
10.6410683383
 20
10.9025629349
 11
10.377808164
 21
10.9025629349
  0
LINE
  5
240
100
AcDbEntity
  8
0
100
AcDbLine
 62
9
  6
CONTINUOUS
 10
11.7704721518
 20
10.9753216784
 11
11.4535683383
 21
10.9753216784
  0
LINE
  5
241
100
AcDbEntity
  8
0
100
AcDbLine
 62
9
  6
CONTINUOUS
 10
10.6410683383
 20
10.9753216784
 11
10.3241645248
 21
10.9753216784
  0
LINE
  5
242
100
AcDbEntity
  8
0
100
AcDbLine
 62
7
  6
CONTINUOUS
 10
11.4945333056
 20
11.1529138728
 11
11.4978849088
 21
11.1531016814
  0
LINE
  5
243
100
AcDbEntity
  8
0
100
AcDbLine
 62
9
  6
CONTINUOUS
 10
11.7973183383
 20
11.01309703
 11
11.4535683383
 21
11.01309703
  0
LINE
  5
244
100
AcDbEntity
  8
0
100
AcDbLine
 62
9
  6
CONTINUOUS
 10
10.6410683383
 20
11.01309703
 11
10.2973183383
 21
11.01309703
  0
LINE
  5
245
100
AcDbEntity
  8
0
100
AcDbLine
 62
7
  6
CONTINUOUS
 10
10.297319376
 20
11.0597709751
 11
10.6410683383
 21
11.0597709751
  0
LINE
  5
246
100
AcDbEntity
  8
0
100
AcDbLine
 62
7
  6
CONTINUOUS
 10
11.4535683383
 20
11.0597709751
 11
11.7973173005
 21
11.0597709751
  0
LINE
  5
247
100
AcDbEntity
  8
0
100
AcDbLine
 62
7
  6
CONTINUOUS
 10
12.1173178365
 20
11.0697709751
 11
11.4535683383
 21
11.0697709751
  0
LINE
  5
248
100
AcDbEntity
  8
0
100
AcDbLine
 62
7
  6
CONTINUOUS
 10
10.6410683383
 20
11.0697709751
 11
9.9773188401
 21
11.0697709751
  0
LINE
  5
249
100
AcDbEntity
  8
0
100
AcDbLine
 62
9
  6
CONTINUOUS
 10
12.1473183383
 20
11.0997709751
 11
11.4535683383
 21
11.0997709751
  0
LINE
  5
24A
100
AcDbEntity
  8
0
100
AcDbLine
 62
9
  6
CONTINUOUS
 10
10.6410683383
 20
11.0997709751
 11
9.9473183383
 21
11.0997709751
  0
LINE
  5
24B
100
AcDbEntity
  8
0
100
AcDbLine
 62
7
  6
CONTINUOUS
 10
10.6004660631
 20
11.1529138728
 11
11.4945333056
 21
11.1529138728
  0
LINE
  5
24C
100
AcDbEntity
  8
0
100
AcDbLine
 62
9
  6
CONTINUOUS
 10
11.4978849088
 20
11.1531016814
 11
10.5967517678
 21
11.1531016814
  0
LINE
  5
24D
100
AcDbEntity
  8
0
100
AcDbLine
 62
7
  6
CONTINUOUS
 10
14.130161828
 20
11.2567709751
 11
12.0735231461
 21
11.2567709751
  0
LINE
  5
24E
100
AcDbEntity
  8
0
100
AcDbLine
 62
7
  6
CONTINUOUS
 10
10.0211135305
 20
11.2567709751
 11
7.9644748485
 21
11.2567709751
  0
LINE
  5
24F
100
AcDbEntity
  8
0
100
AcDbLine
 62
9
  6
CONTINUOUS
 10
12.2007135508
 20
11.2894254508
 11
9.8939231258
 21
11.2894254508
  0
LINE
  5
250
100
AcDbEntity
  8
0
100
AcDbLine
 62
9
  6
CONTINUOUS
 10
14.1895364896
 20
11.2987079848
 11
12.2186189924
 21
11.2987079848
  0
LINE
  5
251
100
AcDbEntity
  8
0
100
AcDbLine
 62
9
  6
CONTINUOUS
 10
9.8760176842
 20
11.2987079848
 11
7.9051001869
 21
11.2987079848
  0
LINE
  5
252
100
AcDbEntity
  8
0
100
AcDbLine
 62
9
  6
CONTINUOUS
 10
12.2373183383
 20
11.3375977279
 11
9.8573183383
 21
11.3375977279
  0
LINE
  5
253
100
AcDbEntity
  8
0
100
AcDbLine
 62
7
  6
CONTINUOUS
 10
10.600103371
 20
11.1529138728
 11
10.5967517678
 21
11.1531016814
  0
LINE
  5
254
100
AcDbEntity
  8
0
100
AcDbLine
 62
9
  6
CONTINUOUS
 10
14.2588700226
 20
11.3722886248
 11
12.2373183383
 21
11.3722886248
  0
LINE
  5
255
100
AcDbEntity
  8
0
100
AcDbLine
 62
9
  6
CONTINUOUS
 10
9.8573183383
 20
11.3722886248
 11
7.8357666539
 21
11.3722886248
  0
LINE
  5
256
100
AcDbEntity
  8
0
100
AcDbLine
 62
9
  6
CONTINUOUS
 10
14.2973183383
 20
11.4303077147
 11
12.2373183383
 21
11.4303077147
  0
LINE
  5
257
100
AcDbEntity
  8
0
100
AcDbLine
 62
9
  6
CONTINUOUS
 10
9.8573183383
 20
11.4303077147
 11
7.7973183383
 21
11.4303077147
  0
LINE
  5
258
100
AcDbEntity
  8
0
100
AcDbLine
 62
7
  6
CONTINUOUS
 10
7.7973192759
 20
11.5697709751
 11
14.2973174007
 21
11.5697709751
  0
ARC
  5
259
100
AcDbEntity
  8
0
100
AcDbCircle
 62
9
  6
CONTINUOUS
 10
10.9949769893
 20
6.5585114342
 40
2.4248642409
100
AcDbArc
 50
251.3244657744
 51
257.2387444723
  0
ARC
  5
25A
100
AcDbEntity
  8
0
100
AcDbCircle
 62
9
  6
CONTINUOUS
 10
10.975475316
 20
4.9454569955
 40
1.3576940838
100
AcDbArc
 50
111.7594445237
 51
112.207510662
  0
ARC
  5
25B
100
AcDbEntity
  8
0
100
AcDbCircle
 62
7
  6
CONTINUOUS
 10
11.0472642278
 20
6.4164820592
 40
0.4890635349
100
AcDbArc
 50
28.6910676086
 51
34.8927312273
  0
ARC
  5
25C
100
AcDbEntity
  8
0
100
AcDbCircle
 62
7
  6
CONTINUOUS
 10
10.8182791273
 20
6.5337360079
 40
0.2334670666
100
AcDbArc
 50
171.3459188065
 51
175.2338868558
  0
ARC
  5
25D
100
AcDbEntity
  8
0
100
AcDbCircle
 62
7
  6
CONTINUOUS
 10
10.8452398042
 20
7.3050668889
 40
0.2041714687
100
AcDbArc
 50
180.010004066
 51
188.5676655965
  0
ARC
  5
25E
100
AcDbEntity
  8
0
100
AcDbCircle
 62
7
  6
CONTINUOUS
 10
10.8345614898
 20
7.1558604384
 40
0.1934931594
100
AcDbArc
 50
180.0163600272
 51
190.3696030885
  0
ARC
  5
25F
100
AcDbEntity
  8
0
100
AcDbCircle
 62
7
  6
CONTINUOUS
 10
10.8344450778
 20
7.2055711096
 40
0.1933767456
100
AcDbArc
 50
180.0143707382
 51
189.9126155278
  0
ARC
  5
260
100
AcDbEntity
  8
0
100
AcDbCircle
 62
7
  6
CONTINUOUS
 10
10.8343416719
 20
7.2553543176
 40
0.1932733238
100
AcDbArc
 50
180.0127459137
 51
189.4851648151
  0
ARC
  5
261
100
AcDbEntity
  8
0
100
AcDbCircle
 62
7
  6
CONTINUOUS
 10
10.8334048684
 20
7.1203741654
 40
0.1923365197
100
AcDbArc
 50
174.3126702357
 51
179.9948616113
  0
ARC
  5
262
100
AcDbEntity
  8
0
100
AcDbCircle
 62
7
  6
CONTINUOUS
 10
10.8333179589
 20
7.2229339381
 40
0.1922496211
100
AcDbArc
 50
180.0042023513
 51
185.179379479
  0
ARC
  5
263
100
AcDbEntity
  8
0
100
AcDbCircle
 62
7
  6
CONTINUOUS
 10
10.8332349299
 20
7.1717024531
 40
0.192166592
100
AcDbArc
 50
180.0033358436
 51
184.7303695692
  0
ARC
  5
264
100
AcDbEntity
  8
0
100
AcDbCircle
 62
7
  6
CONTINUOUS
 10
10.8330737387
 20
7.1716875819
 40
0.1920054004
100
AcDbArc
 50
174.9421989493
 51
179.9989009716
  0
ARC
  5
265
100
AcDbEntity
  8
0
100
AcDbCircle
 62
7
  6
CONTINUOUS
 10
10.8330664541
 20
7.2229163568
 40
0.1919981158
100
AcDbArc
 50
175.0609916043
 51
179.9989612772
  0
ARC
  5
266
100
AcDbEntity
  8
0
100
AcDbCircle
 62
7
  6
CONTINUOUS
 10
10.8330222426
 20
7.2742045635
 40
0.1919539104
100
AcDbArc
 50
175.492808519
 51
179.9072321517
  0
ARC
  5
267
100
AcDbEntity
  8
0
100
AcDbCircle
 62
7
  6
CONTINUOUS
 10
10.8329509823
 20
7.1203920154
 40
0.1918826328
100
AcDbArc
 50
180.0001794223
 51
184.2617308497
  0
ARC
  5
268
100
AcDbEntity
  8
0
100
AcDbCircle
 62
7
  6
CONTINUOUS
 10
10.4687894914
 20
9.2427709751
 40
0.033
100
AcDbArc
 50
182.0
 51
270.0
  0
ARC
  5
269
100
AcDbEntity
  8
0
100
AcDbCircle
 62
7
  6
CONTINUOUS
 10
10.6173183383
 20
8.7317709751
 40
0.03
100
AcDbArc
 50
90.0
 51
180.0
  0
ARC
  5
26A
100
AcDbEntity
  8
0
100
AcDbCircle
 62
7
  6
CONTINUOUS
 10
10.6173183383
 20
8.4167709751
 40
0.03
100
AcDbArc
 50
180.0
 51
270.0
  0
ARC
  5
26B
100
AcDbEntity
  8
0
100
AcDbCircle
 62
7
  6
CONTINUOUS
 10
10.9951444261
 20
15.6249303909
 40
4.5
100
AcDbArc
 50
276.4144817261
 51
285.5395954904
  0
ARC
  5
26C
100
AcDbEntity
  8
0
100
AcDbCircle
 62
7
  6
CONTINUOUS
 10
7.7868835557
 20
11.2567709751
 40
0.1254347826
100
AcDbArc
 50
19.5319940446
 51
67.0635891141
  0
ARC
  5
26D
100
AcDbEntity
  8
0
100
AcDbCircle
 62
7
  6
CONTINUOUS
 10
10.2978568979
 20
10.8997709751
 40
0.08
100
AcDbArc
 50
2.0
 51
70.8012928747
  0
ARC
  5
26E
100
AcDbEntity
  8
0
100
AcDbCircle
 62
7
  6
CONTINUOUS
 10
7.8603183383
 20
11.4303077147
 40
0.063
100
AcDbArc
 50
180.0
 51
247.0635891141
  0
ARC
  5
26F
100
AcDbEntity
  8
0
100
AcDbCircle
 62
7
  6
CONTINUOUS
 10
7.9644748485
 20
11.3197709751
 40
0.063
100
AcDbArc
 50
199.5319940446
 51
270.0
  0
ARC
  5
270
100
AcDbEntity
  8
0
100
AcDbCircle
 62
7
  6
CONTINUOUS
 10
9.9073183383
 20
11.3375977279
 40
0.05
100
AcDbArc
 50
180.0
 51
254.4604045096
  0
ARC
  5
271
100
AcDbEntity
  8
0
100
AcDbCircle
 62
7
  6
CONTINUOUS
 10
10.3373183383
 20
11.01309703
 40
0.04
100
AcDbArc
 50
180.0
 51
250.8012928747
  0
ARC
  5
272
100
AcDbEntity
  8
0
100
AcDbCircle
 62
7
  6
CONTINUOUS
 10
9.9773183383
 20
11.0997709751
 40
0.03
100
AcDbArc
 50
180.0
 51
270.0
  0
ARC
  5
273
100
AcDbEntity
  8
0
100
AcDbCircle
 62
7
  6
CONTINUOUS
 10
11.076163334
 20
6.808226256
 40
0.5619887315
100
AcDbArc
 50
291.1911642796
 51
292.2069087366
  0
ARC
  5
274
100
AcDbEntity
  8
0
100
AcDbCircle
 62
7
  6
CONTINUOUS
 10
11.078341017
 20
6.7765360555
 40
0.5298007149
100
AcDbArc
 50
292.2054901858
 51
293.284330534
  0
ARC
  5
275
100
AcDbEntity
  8
0
100
AcDbCircle
 62
7
  6
CONTINUOUS
 10
11.0473546817
 20
6.416492978
 40
0.4890427073
100
AcDbArc
 50
145.1044821318
 51
151.3090552304
  0
ARC
  5
276
100
AcDbEntity
  8
0
100
AcDbCircle
 62
7
  6
CONTINUOUS
 10
11.2160957902
 20
7.3164055041
 40
0.2395301983
100
AcDbArc
 50
332.6993954711
 51
332.9171822949
  0
ARC
  5
277
100
AcDbEntity
  8
0
100
AcDbCircle
 62
7
  6
CONTINUOUS
 10
11.2760950281
 20
6.5337106187
 40
0.2337304733
100
AcDbArc
 50
4.002492231
 51
8.6811620395
  0
ARC
  5
278
100
AcDbEntity
  8
0
100
AcDbCircle
 62
7
  6
CONTINUOUS
 10
11.2378892964
 20
7.2485391456
 40
0.2156790433
100
AcDbArc
 50
0.0066826064
 51
7.6278646757
  0
ARC
  5
279
100
AcDbEntity
  8
0
100
AcDbCircle
 62
7
  6
CONTINUOUS
 10
11.2379570466
 20
7.1807859062
 40
0.2156112957
100
AcDbArc
 50
350.8478542558
 51
359.9889943564
  0
ARC
  5
27A
100
AcDbEntity
  8
0
100
AcDbCircle
 62
7
  6
CONTINUOUS
 10
11.2379943631
 20
7.2304597295
 40
0.2155739782
100
AcDbArc
 50
351.281040643
 51
359.9903993889
  0
ARC
  5
27B
100
AcDbEntity
  8
0
100
AcDbCircle
 62
7
  6
CONTINUOUS
 10
11.2382415107
 20
7.1459491891
 40
0.2153268279
100
AcDbArc
 50
0.0030715667
 51
4.6393217561
  0
ARC
  5
27C
100
AcDbEntity
  8
0
100
AcDbCircle
 62
7
  6
CONTINUOUS
 10
11.2383508952
 20
7.1972886917
 40
0.2152174434
100
AcDbArc
 50
0.0027176828
 51
4.4246916637
  0
ARC
  5
27D
100
AcDbEntity
  8
0
100
AcDbCircle
 62
7
  6
CONTINUOUS
 10
11.2384733145
 20
7.2485678939
 40
0.2150950238
100
AcDbArc
 50
355.1747229062
 51
359.9990429457
  0
ARC
  5
27E
100
AcDbEntity
  8
0
100
AcDbCircle
 62
7
  6
CONTINUOUS
 10
11.238517285
 20
7.1459629993
 40
0.2150510533
100
AcDbArc
 50
356.0056081754
 51
359.9993960887
  0
ARC
  5
27F
100
AcDbEntity
  8
0
100
AcDbCircle
 62
7
  6
CONTINUOUS
 10
11.2385425081
 20
7.1973017874
 40
0.2150258303
100
AcDbArc
 50
355.5959048196
 51
359.9992306284
  0
ARC
  5
280
100
AcDbEntity
  8
0
100
AcDbCircle
 62
7
  6
CONTINUOUS
 10
11.6258471852
 20
9.2427709751
 40
0.033
100
AcDbArc
 50
270.0
 51
358.0
  0
ARC
  5
281
100
AcDbEntity
  8
0
100
AcDbCircle
 62
7
  6
CONTINUOUS
 10
11.4773183383
 20
8.7317709751
 40
0.03
100
AcDbArc
 50
0.0
 51
90.0
  0
ARC
  5
282
100
AcDbEntity
  8
0
100
AcDbCircle
 62
7
  6
CONTINUOUS
 10
11.4773183383
 20
8.4167709751
 40
0.03
100
AcDbArc
 50
270.0
 51
360.0
  0
ARC
  5
283
100
AcDbEntity
  8
0
100
AcDbCircle
 62
7
  6
CONTINUOUS
 10
11.0994922504
 20
15.6249303909
 40
4.5
100
AcDbArc
 50
254.4604045096
 51
263.5855182739
  0
ARC
  5
284
100
AcDbEntity
  8
0
100
AcDbCircle
 62
7
  6
CONTINUOUS
 10
14.3077531209
 20
11.2567709751
 40
0.1254347826
100
AcDbArc
 50
112.9364108859
 51
160.4680059554
  0
ARC
  5
285
100
AcDbEntity
  8
0
100
AcDbCircle
 62
7
  6
CONTINUOUS
 10
11.7967797787
 20
10.8997709751
 40
0.08
100
AcDbArc
 50
109.1987071253
 51
178.0
  0
ARC
  5
286
100
AcDbEntity
  8
0
100
AcDbCircle
 62
7
  6
CONTINUOUS
 10
14.2343183383
 20
11.4303077147
 40
0.063
100
AcDbArc
 50
292.9364108859
 51
360.0
  0
ARC
  5
287
100
AcDbEntity
  8
0
100
AcDbCircle
 62
7
  6
CONTINUOUS
 10
14.130161828
 20
11.3197709751
 40
0.063
100
AcDbArc
 50
270.0
 51
340.4680059554
  0
ARC
  5
288
100
AcDbEntity
  8
0
100
AcDbCircle
 62
7
  6
CONTINUOUS
 10
12.1873183383
 20
11.3375977279
 40
0.05
100
AcDbArc
 50
285.5395954904
 51
360.0
  0
ARC
  5
289
100
AcDbEntity
  8
0
100
AcDbCircle
 62
7
  6
CONTINUOUS
 10
11.7573183383
 20
11.01309703
 40
0.04
100
AcDbArc
 50
289.1987071253
 51
360.0
  0
ARC
  5
28A
100
AcDbEntity
  8
0
100
AcDbCircle
 62
7
  6
CONTINUOUS
 10
12.1173183383
 20
11.0997709751
 40
0.03
100
AcDbArc
 50
270.0
 51
360.0
  0
SPLINE
  5
28B
100
AcDbEntity
  8
0
100
AcDbSpline
 62
7
  6
CONTINUOUS
 70
0
 71
3
 72
26
 73
22
 74
0
 42
0.0000001
 43
0.0000001
 44
0.0000000001
 40
0.0
 40
0.0
 40
0.0
 40
0.0
 40
0.0253240162
 40
0.050714097
 40
0.076235142
 40
0.1019498618
 40
0.1279177802
 40
0.1541942619
 40
0.1808300141
 40
0.207870297
 40
0.2632923003
 40
0.3207319629
 40
0.3803374212
 40
0.4421643318
 40
0.5061838674
 40
0.5722920381
 40
0.6403202065
 40
0.7100451344
 40
0.7811990356
 40
0.8534796793
 40
1.0
 40
1.0
 40
1.0
 40
1.0
 10
10.6410683901
 20
7.1060759891
 30
0.0
 10
10.6410683727
 20
7.1015042138
 30
0.0
 10
10.6413957083
 20
7.0923453835
 30
0.0
 10
10.6428669506
 20
7.0786503461
 30
0.0
 10
10.6453148764
 20
7.0650235623
 30
0.0
 10
10.648733128
 20
7.0515000994
 30
0.0
 10
10.6531134618
 20
7.0381136312
 30
0.0
 10
10.6584443276
 20
7.0248975749
 30
0.0
 10
10.664713286
 20
7.0118845735
 30
0.0
 10
10.6743779447
 20
6.9947104644
 30
0.0
 10
10.6888004098
 20
6.9738956928
 30
0.0
 10
10.7094028479
 20
6.9504683491
 30
0.0
 10
10.7332433578
 20
6.9286015455
 30
0.0
 10
10.7600880287
 20
6.9085089045
 30
0.0
 10
10.7896786179
 20
6.8903837123
 30
0.0
 10
10.8217313849
 20
6.8744027205
 30
0.0
 10
10.8559402763
 20
6.8607229085
 30
0.0
 10
10.8919774906
 20
6.8494804651
 30
0.0
 10
10.9295031872
 20
6.8407883419
 30
0.0
 10
10.9812492967
 20
6.8326858387
 30
0.0
 10
11.0208718664
 20
6.8307337847
 30
0.0
 10
11.0473183383
 20
6.8312490384
 30
0.0
  0
SPLINE
  5
28C
100
AcDbEntity
  8
0
100
AcDbSpline
 62
7
  6
CONTINUOUS
 70
0
 71
3
 72
14
 73
10
 74
0
 42
0.0000001
 43
0.0000001
 44
0.0000000001
 40
0.0
 40
0.0
 40
0.0
 40
0.0
 40
0.1195400711
 40
0.2401547325
 40
0.3621191401
 40
0.4856858253
 40
0.6110792087
 40
0.7385060778
 40
1.0
 40
1.0
 40
1.0
 40
1.0
 10
10.6442286344
 20
7.1210321903
 30
0.0
 10
10.6450703659
 20
7.1164201174
 30
0.0
 10
10.6470931997
 20
7.1072117204
 30
0.0
 10
10.6511087108
 20
7.0935779343
 30
0.0
 10
10.6561063241
 20
7.0801037235
 30
0.0
 10
10.6620732304
 20
7.0668250135
 30
0.0
 10
10.6689945209
 20
7.0537743411
 30
0.0
 10
10.6795589012
 20
7.0365799249
 30
0.0
 10
10.6887417046
 20
7.0243412149
 30
0.0
 10
10.6953467171
 20
7.0164958174
 30
0.0
  0
SPLINE
  5
28D
100
AcDbEntity
  8
0
100
AcDbSpline
 62
7
  6
CONTINUOUS
 70
0
 71
3
 72
26
 73
22
 74
0
 42
0.0000001
 43
0.0000001
 44
0.0000000001
 40
0.0
 40
0.0
 40
0.0
 40
0.0
 40
0.0251992874
 40
0.050594344
 40
0.0762341435
 40
0.1021644167
 40
0.1284269941
 40
0.1550596923
 40
0.2095426217
 40
0.265845808
 40
0.3241040209
 40
0.3539962914
 40
0.3843948404
 40
0.44668191
 40
0.5109146671
 40
0.5769735795
 40
0.6446930396
 40
0.7138686107
 40
0.784264185
 40
0.8556188485
 40
1.0
 40
1.0
 40
1.0
 40
1.0
 10
10.6439551673
 20
7.1722820763
 30
0.0
 10
10.6446883724
 20
7.1680764926
 30
0.0
 10
10.6464362481
 20
7.1596781784
 30
0.0
 10
10.6498757132
 20
7.1472211652
 30
0.0
 10
10.654133693
 20
7.1348882162
 30
0.0
 10
10.6592015154
 20
7.1227065863
 30
0.0
 10
10.6650682152
 20
7.1107013393
 30
0.0
 10
10.6740052383
 20
7.0948470475
 30
0.0
 10
10.6871718098
 20
7.0755838775
 30
0.0
 10
10.7058025399
 20
7.0537705357
 30
0.0
 10
10.7235097182
 20
7.0368185587
 30
0.0
 10
10.7389539064
 20
7.023971465
 30
0.0
 10
10.755509914
 20
7.011425999
 30
0.0
 10
10.7777459396
 20
6.9967929534
 30
0.0
 10
10.8064143334
 20
6.9811496949
 30
0.0
 10
10.8370521079
 20
6.9674098582
 30
0.0
 10
10.8694078141
 20
6.9556908637
 30
0.0
 10
10.9032168017
 20
6.9460929421
 30
0.0
 10
10.9382062872
 20
6.938699303
 30
0.0
 10
10.9862168587
 20
6.9318436408
 30
0.0
 10
11.0228633397
 20
6.9302278927
 30
0.0
 10
11.0473183383
 20
6.9307051892
 30
0.0
  0
SPLINE
  5
28E
100
AcDbEntity
  8
0
100
AcDbSpline
 62
7
  6
CONTINUOUS
 70
0
 71
3
 72
22
 73
18
 74
0
 42
0.0000001
 43
0.0000001
 44
0.0000000001
 40
0.0
 40
0.0
 40
0.0
 40
0.0
 40
0.0615567206
 40
0.1231196789
 40
0.1847036724
 40
0.2463195157
 40
0.3079878995
 40
0.3697339875
 40
0.4315895735
 40
0.4935927201
 40
0.5557869451
 40
0.6182184225
 40
0.6809337153
 40
0.7439773093
 40
0.8073877588
 40
0.8711927265
 40
1.0
 40
1.0
 40
1.0
 40
1.0
 10
11.4998183383
 20
6.8718018917
 30
0.0
 10
11.4998183383
 20
6.8626889991
 30
0.0
 10
11.4990391835
 20
6.8444527215
 30
0.0
 10
11.4955457298
 20
6.8173015611
 30
0.0
 10
11.4897668166
 20
6.7905330319
 30
0.0
 10
11.481763929
 20
6.7643283526
 30
0.0
 10
11.4716197758
 20
6.7388510249
 30
0.0
 10
11.459432539
 20
6.7142471774
 30
0.0
 10
11.4453123478
 20
6.6906431666
 30
0.0
 10
11.4293764711
 20
6.6681453311
 30
0.0
 10
11.4117455821
 20
6.6468407598
 30
0.0
 10
11.3925405286
 20
6.6267993291
 30
0.0
 10
11.3718798355
 20
6.6080762547
 30
0.0
 10
11.3498794636
 20
6.5907152557
 30
0.0
 10
11.3266494839
 20
6.5747501587
 30
0.0
 10
11.2940939305
 20
6.5553070608
 30
0.0
 10
11.2682798481
 20
6.5429824961
 30
0.0
 10
11.2506256592
 20
6.5357752037
 30
0.0
  0
SPLINE
  5
28F
100
AcDbEntity
  8
0
100
AcDbSpline
 62
7
  6
CONTINUOUS
 70
0
 71
3
 72
29
 73
25
 74
0
 42
0.0000001
 43
0.0000001
 44
0.0000000001
 40
0.0
 40
0.0
 40
0.0
 40
0.0
 40
0.0654533296
 40
0.1307389728
 40
0.1957058829
 40
0.2602285233
 40
0.3242158096
 40
0.3876165733
 40
0.4504243694
 40
0.5126704262
 40
0.5744201214
 40
0.6357607631
 40
0.6663177888
 40
0.6968082953
 40
0.7272434765
 40
0.7576339954
 40
0.7879889599
 40
0.818316137
 40
0.8486220827
 40
0.878912408
 40
0.9091923858
 40
0.9394657865
 40
0.9697319695
 40
1.0
 40
1.0
 40
1.0
 40
1.0
 10
11.046378511
 20
6.4967729565
 30
0.0
 10
11.032165325
 20
6.496796715
 30
0.0
 10
11.0037652886
 20
6.497921089
 30
0.0
 10
10.9615127672
 20
6.5028337031
 30
0.0
 10
10.9199595321
 20
6.5109521337
 30
0.0
 10
10.8794459913
 20
6.5222459104
 30
0.0
 10
10.8402997595
 20
6.536675565
 30
0.0
 10
10.8028419321
 20
6.5541942262
 30
0.0
 10
10.767390628
 20
6.5747465861
 30
0.0
 10
10.7342663438
 20
6.5982662018
 30
0.0
 10
10.7038019817
 20
6.6246628732
 30
0.0
 10
10.6808813917
 20
6.6489988282
 30
0.0
 10
10.6642507172
 20
6.6697427007
 30
0.0
 10
10.6526764016
 20
6.685900781
 30
0.0
 10
10.642032807
 20
6.7026435904
 30
0.0
 10
10.6323642452
 20
6.7199346249
 30
0.0
 10
10.623713906
 20
6.7377311463
 30
0.0
 10
10.6161225198
 20
6.755984981
 30
0.0
 10
10.6096284883
 20
6.7746428446
 30
0.0
 10
10.6042652519
 20
6.7936462498
 30
0.0
 10
10.6000618428
 20
6.812932327
 30
0.0
 10
10.5970424667
 20
6.8324339178
 30
0.0
 10
10.5952233138
 20
6.8520805656
 30
0.0
 10
10.5948183383
 20
6.8652291817
 30
0.0
 10
10.5948183383
 20
6.8718018917
 30
0.0
  0
SPLINE
  5
290
100
AcDbEntity
  8
0
100
AcDbSpline
 62
7
  6
CONTINUOUS
 70
0
 71
3
 72
13
 73
9
 74
0
 42
0.0000001
 43
0.0000001
 44
0.0000000001
 40
0.0
 40
0.0
 40
0.0
 40
0.0
 40
0.1277958054
 40
0.2553105093
 40
0.4454499008
 40
0.6334816399
 40
0.8185791952
 40
1.0
 40
1.0
 40
1.0
 40
1.0
 10
11.048336345
 20
6.4967730705
 30
0.0
 10
11.0569604381
 20
6.4967886992
 30
0.0
 10
11.074191777
 20
6.4972163973
 30
0.0
 10
11.1041858483
 20
6.4993477155
 30
0.0
 10
11.1380578175
 20
6.5037365837
 30
0.0
 10
11.1753459767
 20
6.5112817231
 30
0.0
 10
11.2114207363
 20
6.5213570719
 30
0.0
 10
11.234701644
 20
6.5297956096
 30
0.0
 10
11.2460363757
 20
6.5344229945
 30
0.0
  0
SPLINE
  5
291
100
AcDbEntity
  8
0
100
AcDbSpline
 62
7
  6
CONTINUOUS
 70
0
 71
3
 72
11
 73
7
 74
0
 42
0.0000001
 43
0.0000001
 44
0.0000000001
 40
0.0
 40
0.0
 40
0.0
 40
0.0
 40
0.2470634912
 40
0.4965271273
 40
0.747783925
 40
1.0
 40
1.0
 40
1.0
 40
1.0
 10
11.2506256592
 20
6.5357752037
 30
0.0
 10
11.2348270767
 20
6.5293254594
 30
0.0
 10
11.2023835851
 20
6.5180000214
 30
0.0
 10
11.1521061509
 20
6.5058446492
 30
0.0
 10
11.1005496653
 20
6.4984841946
 30
0.0
 10
11.0657566195
 20
6.4968046457
 30
0.0
 10
11.048336345
 20
6.4967730933
 30
0.0
  0
SPLINE
  5
292
100
AcDbEntity
  8
0
100
AcDbSpline
 62
7
  6
CONTINUOUS
 70
0
 71
3
 72
15
 73
11
 74
0
 42
0.0000001
 43
0.0000001
 44
0.0000000001
 40
0.0
 40
0.0
 40
0.0
 40
0.0
 40
0.1211615122
 40
0.2427131108
 40
0.3650361109
 40
0.4884948475
 40
0.6134292388
 40
0.7401487539
 40
0.8689273403
 40
1.0
 40
1.0
 40
1.0
 40
1.0
 10
11.4998182951
 20
7.099580679
 30
0.0
 10
11.499818325
 20
7.105649408
 30
0.0
 10
11.4993281973
 20
7.1178120464
 30
0.0
 10
11.4971267586
 20
7.1359816072
 30
0.0
 10
11.4934658717
 20
7.1540324582
 30
0.0
 10
11.4883582881
 20
7.1719038499
 30
0.0
 10
11.4818214982
 20
7.1895377758
 30
0.0
 10
11.4738772188
 20
7.2068769232
 30
0.0
 10
11.4645527709
 20
7.2238642102
 30
0.0
 10
11.4575013327
 20
7.2348182924
 30
0.0
 10
11.4537653763
 20
7.240216804
 30
0.0
  0
SPLINE
  5
293
100
AcDbEntity
  8
0
100
AcDbSpline
 62
7
  6
CONTINUOUS
 70
0
 71
3
 72
15
 73
11
 74
0
 42
0.0000001
 43
0.0000001
 44
0.0000000001
 40
0.0
 40
0.0
 40
0.0
 40
0.0
 40
0.1210890972
 40
0.2425761966
 40
0.3648500475
 40
0.4882817888
 40
0.6132173666
 40
0.7399707816
 40
0.8688192403
 40
1.0
 40
1.0
 40
1.0
 40
1.0
 10
10.5948183815
 20
7.099580679
 30
0.0
 10
10.5948184116
 20
7.1057125474
 30
0.0
 10
10.5953186405
 20
7.1180022641
 30
0.0
 10
10.5975664105
 20
7.1363600454
 30
0.0
 10
10.6013037643
 20
7.1545953486
 30
0.0
 10
10.6065176103
 20
7.1726455255
 30
0.0
 10
10.6131899516
 20
7.1904506661
 30
0.0
 10
10.6212978812
 20
7.2079517666
 30
0.0
 10
10.6308128278
 20
7.2250901222
 30
0.0
 10
10.6380063318
 20
7.236134025
 30
0.0
 10
10.6418170089
 20
7.2415752476
 30
0.0
  0
SPLINE
  5
294
100
AcDbEntity
  8
0
100
AcDbSpline
 62
7
  6
CONTINUOUS
 70
0
 71
3
 72
21
 73
17
 74
0
 42
0.0000001
 43
0.0000001
 44
0.0000000001
 40
0.0
 40
0.0
 40
0.0
 40
0.0
 40
0.0554311947
 40
0.1110880252
 40
0.1671896977
 40
0.223943114
 40
0.281537726
 40
0.340141411
 40
0.3998974852
 40
0.4609228428
 40
0.5233071043
 40
0.5871127477
 40
0.7190391935
 40
0.7872245051
 40
0.8568274433
 40
1.0
 40
1.0
 40
1.0
 40
1.0
 10
11.5098182941
 20
6.5692505931
 30
0.0
 10
11.5098182598
 20
6.562270963
 30
0.0
 10
11.5091835725
 20
6.5482750812
 30
0.0
 10
11.506333161
 20
6.5273900298
 30
0.0
 10
11.5015965016
 20
6.5066785339
 30
0.0
 10
11.4949944408
 20
6.4862290615
 30
0.0
 10
11.4865556911
 20
6.4661256018
 30
0.0
 10
11.4763165059
 20
6.4464510098
 30
0.0
 10
11.4643203085
 20
6.4272856459
 30
0.0
 10
11.4506179618
 20
6.4087076747
 30
0.0
 10
11.4352657196
 20
6.3907914943
 30
0.0
 10
11.4124344172
 20
6.3676314201
 30
0.0
 10
11.3867537935
 20
6.3463710421
 30
0.0
 10
11.3587333127
 20
6.3271568924
 30
0.0
 10
11.3284242303
 20
6.3088798606
 30
0.0
 10
11.3043274666
 20
6.2970116353
 30
0.0
 10
11.2877682238
 20
6.2898852129
 30
0.0
  0
SPLINE
  5
295
100
AcDbEntity
  8
0
100
AcDbSpline
 62
7
  6
CONTINUOUS
 70
0
 71
3
 72
21
 73
17
 74
0
 42
0.0000001
 43
0.0000001
 44
0.0000000001
 40
0.0
 40
0.0
 40
0.0
 40
0.0
 40
0.0552266298
 40
0.1106882316
 40
0.1666128565
 40
0.2232151426
 40
0.2806908132
 40
0.3392122508
 40
0.3989253808
 40
0.4599478736
 40
0.5223683246
 40
0.5862464063
 40
0.7184062926
 40
0.7867419064
 40
0.8565068019
 40
1.0
 40
1.0
 40
1.0
 40
1.0
 10
11.6223182928
 20
5.9187123544
 30
0.0
 10
11.6223183306
 20
5.9098388534
 30
0.0
 10
11.6214928179
 20
5.8920431884
 30
0.0
 10
11.6177867787
 20
5.8654944131
 30
0.0
 10
11.6116291282
 20
5.8391765514
 30
0.0
 10
11.6030482253
 20
5.8132072247
 30
0.0
 10
11.5920830986
 20
5.7876979915
 30
0.0
 10
11.5787831685
 20
5.7627587139
 30
0.0
 10
11.5632075469
 20
5.7384957585
 30
0.0
 10
11.5454251478
 20
5.715012543
 30
0.0
 10
11.5255122817
 20
5.6924073638
 30
0.0
 10
11.495910275
 20
5.6632433395
 30
0.0
 10
11.4626550775
 20
5.6365884105
 30
0.0
 10
11.4264195986
 20
5.6126251102
 30
0.0
 10
11.3872555414
 20
5.5899275186
 30
0.0
 10
11.3561637424
 20
5.5753124286
 30
0.0
 10
11.3348183383
 20
5.5665982039
 30
0.0
  0
SPLINE
  5
296
100
AcDbEntity
  8
0
100
AcDbSpline
 62
7
  6
CONTINUOUS
 70
0
 71
3
 72
19
 73
15
 74
0
 42
0.0000001
 43
0.0000001
 44
0.0000000001
 40
0.0
 40
0.0
 40
0.0
 40
0.0
 40
0.0587113078
 40
0.1175256283
 40
0.176544661
 40
0.2358677286
 40
0.2955903965
 40
0.3558036659
 40
0.4779910354
 40
0.6030811989
 40
0.6668908749
 40
0.731596885
 40
0.8638151021
 40
1.0
 40
1.0
 40
1.0
 40
1.0
 10
10.4723183965
 20
6.5833927287
 30
0.0
 10
10.4723183846
 20
6.5890781326
 30
0.0
 10
10.472656241
 20
6.6004618024
 30
0.0
 10
10.4741757011
 20
6.6174996361
 30
0.0
 10
10.4767047615
 20
6.6344775407
 30
0.0
 10
10.4802391678
 20
6.6513644017
 30
0.0
 10
10.4847724622
 20
6.6681310603
 30
0.0
 10
10.492171941
 20
6.6903904759
 30
0.0
 10
10.5039351234
 20
6.7178149512
 30
0.0
 10
10.5187328431
 20
6.7441204339
 30
0.0
 10
10.5323648829
 20
6.7645581102
 30
0.0
 10
10.5474026144
 20
6.784851724
 30
0.0
 10
10.5684712975
 20
6.8093434106
 30
0.0
 10
10.5871645929
 20
6.8274567195
 30
0.0
 10
10.5970132861
 20
6.8362270239
 30
0.0
  0
SPLINE
  5
297
100
AcDbEntity
  8
0
100
AcDbSpline
 62
7
  6
CONTINUOUS
 70
0
 71
3
 72
35
 73
31
 74
0
 42
0.0000001
 43
0.0000001
 44
0.0000000001
 40
0.0
 40
0.0
 40
0.0
 40
0.0
 40
0.0620027496
 40
0.093989151
 40
0.1265712934
 40
0.1932810295
 40
0.2273074303
 40
0.26167681
 40
0.3311029323
 40
0.4009115086
 40
0.4704029831
 40
0.5388855983
 40
0.5725553906
 40
0.6057358514
 40
0.6383590536
 40
0.6703645103
 40
0.701700433
 40
0.7323251986
 40
0.7622085183
 40
0.7913328856
 40
0.8196948681
 40
0.8473062713
 40
0.8741952218
 40
0.8873853003
 40
0.9004132309
 40
0.9260106161
 40
0.9510733789
 40
0.9634373309
 40
0.9757048321
 40
1.0
 40
1.0
 40
1.0
 40
1.0
 10
11.3431286757
 20
7.0773044706
 30
0.0
 10
11.3296638838
 20
7.0668072171
 30
0.0
 10
11.3081245679
 20
7.0522881871
 30
0.0
 10
11.2775463446
 20
7.035536893
 30
0.0
 10
11.2448488195
 20
7.0200775696
 30
0.0
 10
11.2103428495
 20
7.0072865315
 30
0.0
 10
11.1745222405
 20
6.9971922642
 30
0.0
 10
11.1374871654
 20
6.9888335538
 30
0.0
 10
11.0900915106
 20
6.9819450282
 30
0.0
 10
11.0325772927
 20
6.9794244717
 30
0.0
 10
10.9753581718
 20
6.9826443236
 30
0.0
 10
10.9285897747
 20
6.9900853643
 30
0.0
 10
10.8923536429
 20
6.9988474433
 30
0.0
 10
10.8661032996
 20
7.0067200473
 30
0.0
 10
10.8407633791
 20
7.0158872116
 30
0.0
 10
10.8164602137
 20
7.0263006869
 30
0.0
 10
10.7933159956
 20
7.0379058288
 30
0.0
 10
10.7714468937
 20
7.0506422033
 30
0.0
 10
10.750962757
 20
7.0644437859
 30
0.0
 10
10.7319667067
 20
7.0792393227
 30
0.0
 10
10.7145544201
 20
7.0949530692
 30
0.0
 10
10.6988148048
 20
7.1115035768
 30
0.0
 10
10.6870828173
 20
7.1260174885
 30
0.0
 10
10.6786331413
 20
7.1379578171
 30
0.0
 10
10.6709024642
 20
7.1499545328
 30
0.0
 10
10.6623885926
 20
7.1653155564
 30
0.0
 10
10.655412005
 20
7.1812363847
 30
0.0
 10
10.650845146
 20
7.1941411234
 30
0.0
 10
10.646977812
 20
7.2070505322
 30
0.0
 10
10.6448109012
 20
7.2169055077
 30
0.0
 10
10.6437107224
 20
7.2235043758
 30
0.0
  0
SPLINE
  5
298
100
AcDbEntity
  8
0
100
AcDbSpline
 62
7
  6
CONTINUOUS
 70
0
 71
3
 72
17
 73
13
 74
0
 42
0.0000001
 43
0.0000001
 44
0.0000000001
 40
0.0
 40
0.0
 40
0.0
 40
0.0
 40
0.0580935173
 40
0.1164628309
 40
0.1751928802
 40
0.2343645797
 40
0.35428922
 40
0.4768178041
 40
0.6023853354
 40
0.7313135695
 40
0.8638192612
 40
1.0
 40
1.0
 40
1.0
 40
1.0
 10
11.4449584438
 20
7.2462139436
 30
0.0
 10
11.4445017535
 20
7.2423238872
 30
0.0
 10
11.4433651564
 20
7.2345494675
 30
0.0
 10
11.4410034341
 20
7.2229703011
 30
0.0
 10
11.4379864603
 20
7.2114685848
 30
0.0
 10
11.433076751
 20
7.1961971306
 30
0.0
 10
11.42529502
 20
7.1773641673
 30
0.0
 10
11.4134939023
 20
7.155491456
 30
0.0
 10
11.3992723783
 20
7.134375554
 30
0.0
 10
11.3827314112
 20
7.1141501221
 30
0.0
 10
11.363986689
 20
7.0949415872
 30
0.0
 10
11.3502891446
 20
7.0830515282
 30
0.0
 10
11.3431286757
 20
7.0773044706
 30
0.0
  0
SPLINE
  5
299
100
AcDbEntity
  8
0
100
AcDbSpline
 62
7
  6
CONTINUOUS
 70
0
 71
3
 72
11
 73
7
 74
0
 42
0.0000001
 43
0.0000001
 44
0.0000000001
 40
0.0
 40
0.0
 40
0.0
 40
0.0
 40
0.2455681559
 40
0.4929737388
 40
0.743935664
 40
1.0
 40
1.0
 40
1.0
 40
1.0
 10
11.4535680927
 20
7.304715385
 30
0.0
 10
11.4535552102
 20
7.2964306697
 30
0.0
 10
11.4525074117
 20
7.279783284
 30
0.0
 10
11.4478891606
 20
7.2550542054
 30
0.0
 10
11.4402633513
 20
7.2307119435
 30
0.0
 10
11.4332944176
 20
7.215044277
 30
0.0
 10
11.429361353
 20
7.207352693
 30
0.0
  0
SPLINE
  5
29A
100
AcDbEntity
  8
0
100
AcDbSpline
 62
7
  6
CONTINUOUS
 70
0
 71
3
 72
21
 73
17
 74
0
 42
0.0000001
 43
0.0000001
 44
0.0000000001
 40
0.0
 40
0.0
 40
0.0
 40
0.0
 40
0.0525274617
 40
0.1063574089
 40
0.1616111619
 40
0.2183692498
 40
0.3364412647
 40
0.3978086346
 40
0.4606287286
 40
0.5248096281
 40
0.5902345728
 40
0.6567650596
 40
0.7242442466
 40
0.7925007725
 40
0.8613492734
 40
1.0
 40
1.0
 40
1.0
 40
1.0
 10
11.428945293
 20
7.2065428396
 30
0.0
 10
11.4253631358
 20
7.1996027035
 30
0.0
 10
11.4174186248
 20
7.1858969029
 30
0.0
 10
11.4034876008
 20
7.1662809362
 30
0.0
 10
11.3874858114
 20
7.1474785521
 30
0.0
 10
11.3632082269
 20
7.1233320064
 30
0.0
 10
11.3354135784
 20
7.101609597
 30
0.0
 10
11.3048545175
 20
7.0825068985
 30
0.0
 10
11.2801393072
 20
7.0692838175
 30
0.0
 10
11.2540777855
 20
7.0574331389
 30
0.0
 10
11.2268180113
 20
7.0470206042
 30
0.0
 10
11.19851854
 20
7.0381066096
 30
0.0
 10
11.1693435395
 20
7.0307422182
 30
0.0
 10
11.1394601017
 20
7.0249698323
 30
0.0
 10
11.0988212219
 20
7.0194285911
 30
0.0
 10
11.0679337105
 20
7.0177691099
 30
0.0
 10
11.0473183383
 20
7.0177691099
 30
0.0
  0
SPLINE
  5
29B
100
AcDbEntity
  8
0
100
AcDbSpline
 62
7
  6
CONTINUOUS
 70
0
 71
3
 72
25
 73
21
 74
0
 42
0.0000001
 43
0.0000001
 44
0.0000000001
 40
0.0
 40
0.0
 40
0.0
 40
0.0
 40
0.1430933645
 40
0.2139357213
 40
0.2839047956
 40
0.3527395393
 40
0.4202045071
 40
0.4860969113
 40
0.5502538224
 40
0.6125591476
 40
0.6729510609
 40
0.7314287297
 40
0.7880585089
 40
0.842978212
 40
0.869871004
 40
0.8964213792
 40
0.9226667682
 40
0.9486481734
 40
0.9744097232
 40
1.0
 40
1.0
 40
1.0
 40
1.0
 10
11.0473183383
 20
7.0177691099
 30
0.0
 10
11.0226093468
 20
7.0177691099
 30
0.0
 10
10.9856057645
 20
7.0201501761
 30
0.0
 10
10.9372067021
 20
7.0281062966
 30
0.0
 10
10.9019295375
 20
7.0363662417
 30
0.0
 10
10.8678650099
 20
7.0468683748
 30
0.0
 10
10.8352929337
 20
7.0595266821
 30
0.0
 10
10.8044851579
 20
7.0742370667
 30
0.0
 10
10.7756978619
 20
7.0908790124
 30
0.0
 10
10.7491710339
 20
7.10931661
 30
0.0
 10
10.7251265974
 20
7.1293994004
 30
0.0
 10
10.7037665335
 20
7.1509646991
 30
0.0
 10
10.6852735914
 20
7.1738343506
 30
0.0
 10
10.6722910363
 20
7.193971893
 30
0.0
 10
10.6635354699
 20
7.2105189531
 30
0.0
 10
10.6578176978
 20
7.2230443418
 30
0.0
 10
10.6529166916
 20
7.2357426224
 30
0.0
 10
10.6488429163
 20
7.248587644
 30
0.0
 10
10.6456050312
 20
7.2615514617
 30
0.0
 10
10.6440040326
 20
7.2702802623
 30
0.0
 10
10.643346764
 20
7.2746499701
 30
0.0
  0
SPLINE
  5
29C
100
AcDbEntity
  8
0
100
AcDbSpline
 62
7
  6
CONTINUOUS
 70
0
 71
3
 72
30
 73
26
 74
0
 42
0.0000001
 43
0.0000001
 44
0.0000000001
 40
0.0
 40
0.0
 40
0.0
 40
0.0
 40
0.0281041271
 40
0.0562328322
 40
0.0844096675
 40
0.1126586602
 40
0.1410033164
 40
0.1694664542
 40
0.1980703376
 40
0.226836436
 40
0.2557853053
 40
0.2849365247
 40
0.34390611
 40
0.4038912032
 40
0.4343058087
 40
0.4650140445
 40
0.5273407584
 40
0.5909461192
 40
0.6232460682
 40
0.655878354
 40
0.7221347587
 40
0.7897158774
 40
0.858591324
 40
0.9287091249
 40
1.0
 40
1.0
 40
1.0
 40
1.0
 10
13.0473183383
 20
4.8325377656
 30
0.0
 10
13.0473183383
 20
4.8165697263
 30
0.0
 10
13.0465819339
 20
4.7846148037
 30
0.0
 10
13.0432710688
 20
4.7367537281
 30
0.0
 10
13.0377586711
 20
4.6890122028
 30
0.0
 10
13.0300536178
 20
4.6414513274
 30
0.0
 10
13.0201684403
 20
4.5941292703
 30
0.0
 10
13.0081179815
 20
4.5471038641
 30
0.0
 10
12.9939211157
 20
4.5004312484
 30
0.0
 10
12.9775989449
 20
4.4541665408
 30
0.0
 10
12.9591747845
 20
4.4083622682
 30
0.0
 10
12.9317412266
 20
4.3477485629
 30
0.0
 10
12.8922332632
 20
4.2733335807
 30
0.0
 10
12.8464722234
 20
4.2017500514
 30
0.0
 10
12.8061147775
 20
4.1459997293
 30
0.0
 10
12.762854147
 20
4.090769762
 30
0.0
 10
12.7040929889
 20
4.0238153922
 30
0.0
 10
12.6401022637
 20
3.9605593043
 30
0.0
 10
12.5856295442
 20
3.9118968341
 30
0.0
 10
12.5284204834
 20
3.8640970907
 30
0.0
 10
12.4529118237
 20
3.8070211615
 30
0.0
 10
12.3568529663
 20
3.7433500922
 30
0.0
 10
12.2552895583
 20
3.6843883999
 30
0.0
 10
12.1486568373
 20
3.6303636203
 30
0.0
 10
12.0750564266
 20
3.5980267718
 30
0.0
 10
12.0375554962
 20
3.5827170811
 30
0.0
  0
SPLINE
  5
29D
100
AcDbEntity
  8
0
100
AcDbSpline
 62
7
  6
CONTINUOUS
 70
0
 71
3
 72
45
 73
41
 74
0
 42
0.0000001
 43
0.0000001
 44
0.0000000001
 40
0.0
 40
0.0
 40
0.0
 40
0.0
 40
0.066289903
 40
0.1000611046
 40
0.1341669341
 40
0.1685452993
 40
0.2031305329
 40
0.2378544284
 40
0.2726470637
 40
0.3074376783
 40
0.3421555363
 40
0.37673079
 40
0.41109535
 40
0.4451837491
 40
0.4789340199
 40
0.5122885644
 40
0.5451950402
 40
0.5776072203
 40
0.6094858802
 40
0.6407996144
 40
0.6715256732
 40
0.701650676
 40
0.7164883145
 40
0.7311753183
 40
0.7600987621
 40
0.7884431749
 40
0.802409369
 40
0.8162426839
 40
0.8435274427
 40
0.8703529208
 40
0.8836148317
 40
0.8967852755
 40
0.9098730949
 40
0.9228876073
 40
0.93583851
 40
0.9487358708
 40
0.9615899983
 40
0.9744115357
 40
0.9872113364
 40
1.0
 40
1.0
 40
1.0
 40
1.0
 10
12.0375554962
 20
3.5827170811
 30
0.0
 10
11.9611972949
 20
3.5515439759
 30
0.0
 10
11.8433097001
 20
3.5106379749
 30
0.0
 10
11.6819310185
 20
3.4677970519
 30
0.0
 10
11.5574635538
 20
3.4411928818
 30
0.0
 10
11.430871301
 20
3.4204309514
 30
0.0
 10
11.3026739378
 20
3.4055908166
 30
0.0
 10
11.1734093641
 20
3.3967320972
 30
0.0
 10
11.0436173396
 20
3.3938898669
 30
0.0
 10
10.913840831
 20
3.3970755109
 30
0.0
 10
10.7846225207
 20
3.4062763233
 30
0.0
 10
10.6565026041
 20
3.4214556847
 30
0.0
 10
10.5300162834
 20
3.4425533276
 30
0.0
 10
10.4056914102
 20
3.4694857855
 30
0.0
 10
10.284046218
 20
3.5021469949
 30
0.0
 10
10.165587173
 20
3.5404090614
 30
0.0
 10
10.0508070541
 20
3.5841231248
 30
0.0
 10
9.9401831095
 20
3.6331204158
 30
0.0
 10
9.8341759134
 20
3.6872130205
 30
0.0
 10
9.7332270258
 20
3.7461958295
 30
0.0
 10
9.6377622709
 20
3.8098440212
 30
0.0
 10
9.5627316809
 20
3.8668646541
 30
0.0
 10
9.5058898954
 20
3.9145991447
 30
0.0
 10
9.4517684081
 20
3.9631859203
 30
0.0
 10
9.388195176
 20
4.0263241983
 30
0.0
 10
9.3298256859
 20
4.0931270544
 30
0.0
 10
9.2868564794
 20
4.1482191614
 30
0.0
 10
9.2467703668
 20
4.2038249843
 30
0.0
 10
9.2013203937
 20
4.2752097388
 30
0.0
 10
9.1620859494
 20
4.3493982776
 30
0.0
 10
9.1348430572
 20
4.4098193669
 30
0.0
 10
9.116547395
 20
4.4554756162
 30
0.0
 10
9.1003391581
 20
4.5015874197
 30
0.0
 10
9.0862420002
 20
4.5481029925
 30
0.0
 10
9.0742763209
 20
4.5949676346
 30
0.0
 10
9.0644608366
 20
4.6421258016
 30
0.0
 10
9.0568103311
 20
4.6895202963
 30
0.0
 10
9.0513368785
 20
4.7370935302
 30
0.0
 10
9.0480495614
 20
4.7847850514
 30
0.0
 10
9.0473183383
 20
4.8166264216
 30
0.0
 10
9.0473183383
 20
4.8325377656
 30
0.0
  0
SPLINE
  5
29E
100
AcDbEntity
  8
0
100
AcDbSpline
 62
7
  6
CONTINUOUS
 70
0
 71
3
 72
30
 73
26
 74
0
 42
0.0000001
 43
0.0000001
 44
0.0000000001
 40
0.0
 40
0.0
 40
0.0
 40
0.0
 40
0.0281041271
 40
0.0562328322
 40
0.0844096675
 40
0.1126586602
 40
0.1410033164
 40
0.1694664542
 40
0.1980703376
 40
0.226836436
 40
0.2557853053
 40
0.2849365247
 40
0.34390611
 40
0.4038912032
 40
0.4343058087
 40
0.4650140445
 40
0.5273407584
 40
0.5909461192
 40
0.6232460682
 40
0.655878354
 40
0.7221347587
 40
0.7897158774
 40
0.858591324
 40
0.9287091249
 40
1.0
 40
1.0
 40
1.0
 40
1.0
 10
9.0473183383
 20
5.4293944618
 30
0.0
 10
9.0473183383
 20
5.4453625011
 30
0.0
 10
9.0480547426
 20
5.4773174237
 30
0.0
 10
9.0513656077
 20
5.5251784993
 30
0.0
 10
9.0568780054
 20
5.5729200246
 30
0.0
 10
9.0645830588
 20
5.6204809
 30
0.0
 10
9.0744682363
 20
5.6678029571
 30
0.0
 10
9.0865186951
 20
5.7148283633
 30
0.0
 10
9.1007155608
 20
5.7615009791
 30
0.0
 10
9.1170377316
 20
5.8077656866
 30
0.0
 10
9.1354618921
 20
5.8535699592
 30
0.0
 10
9.1628954499
 20
5.9141836645
 30
0.0
 10
9.2024034133
 20
5.9885986468
 30
0.0
 10
9.2481644532
 20
6.060182176
 30
0.0
 10
9.2885218991
 20
6.1159324981
 30
0.0
 10
9.3317825295
 20
6.1711624655
 30
0.0
 10
9.3905436877
 20
6.2381168353
 30
0.0
 10
9.4545344129
 20
6.3013729232
 30
0.0
 10
9.5090071324
 20
6.3500353933
 30
0.0
 10
9.5662161932
 20
6.3978351368
 30
0.0
 10
9.6417248529
 20
6.454911066
 30
0.0
 10
9.7377837103
 20
6.5185821352
 30
0.0
 10
9.8393471183
 20
6.5775438275
 30
0.0
 10
9.9459798393
 20
6.6315686072
 30
0.0
 10
10.01958025
 20
6.6639054556
 30
0.0
 10
10.0570811804
 20
6.6792151464
 30
0.0
  0
SPLINE
  5
29F
100
AcDbEntity
  8
0
100
AcDbSpline
 62
7
  6
CONTINUOUS
 70
0
 71
3
 72
11
 73
7
 74
0
 42
0.0000001
 43
0.0000001
 44
0.0000000001
 40
0.0
 40
0.0
 40
0.0
 40
0.0
 40
0.2450814171
 40
0.49377164
 40
0.7455903109
 40
1.0
 40
1.0
 40
1.0
 40
1.0
 10
10.0570811804
 20
6.6792151464
 30
0.0
 10
10.0989836843
 20
6.6963217719
 30
0.0
 10
10.1844401254
 20
6.7283058528
 30
0.0
 10
10.3159812397
 20
6.7692243935
 30
0.0
 10
10.4512395164
 20
6.8032783093
 30
0.0
 10
10.5430413254
 20
6.8212182574
 30
0.0
 10
10.5893719899
 20
6.8290176185
 30
0.0
  0
SPLINE
  5
2A0
100
AcDbEntity
  8
0
100
AcDbSpline
 62
7
  6
CONTINUOUS
 70
0
 71
3
 72
30
 73
26
 74
0
 42
0.0000001
 43
0.0000001
 44
0.0000000001
 40
0.0
 40
0.0
 40
0.0
 40
0.0
 40
0.0722861682
 40
0.1436893196
 40
0.2140093632
 40
0.2830698063
 40
0.3507227006
 40
0.4168534234
 40
0.48138539
 40
0.5442841131
 40
0.6055607333
 40
0.6356152569
 40
0.6652905884
 40
0.6946017509
 40
0.7235667784
 40
0.7522065785
 40
0.7805448531
 40
0.8086079459
 40
0.8364245948
 40
0.8640257196
 40
0.8914442057
 40
0.9187145721
 40
0.9458725818
 40
0.97295534
 40
1.0
 40
1.0
 40
1.0
 40
1.0
 10
11.5052884444
 20
6.8290136158
 30
0.0
 10
11.5589507017
 20
6.8199796325
 30
0.0
 10
11.6651048789
 20
6.7987769835
 30
0.0
 10
11.8209159959
 20
6.7574067388
 30
0.0
 10
11.9714599332
 20
6.7068917843
 30
0.0
 10
12.1157063725
 20
6.64755235
 30
0.0
 10
12.2526775706
 20
6.5797589713
 30
0.0
 10
12.3814393151
 20
6.5039310506
 30
0.0
 10
12.5011102111
 20
6.420531408
 30
0.0
 10
12.6108521344
 20
6.3300735911
 30
0.0
 10
12.6939288283
 20
6.2487277381
 30
0.0
 10
12.7545267916
 20
6.1806758861
 30
0.0
 10
12.7967375404
 20
6.1285719934
 30
0.0
 10
12.8359151557
 20
6.0751645855
 30
0.0
 10
12.8719828371
 20
6.0205396393
 30
0.0
 10
12.9048666553
 20
5.9647883406
 30
0.0
 10
12.9344972321
 20
5.9080054912
 30
0.0
 10
12.9608096577
 20
5.850290148
 30
0.0
 10
12.9837443908
 20
5.7917458067
 30
0.0
 10
13.0032479326
 20
5.7324804667
 30
0.0
 10
13.019273185
 20
5.6726062652
 30
0.0
 10
13.0317800815
 20
5.6122396178
 30
0.0
 10
13.0407369794
 20
5.5514994525
 30
0.0
 10
13.0461205629
 20
5.490511302
 30
0.0
 10
13.0473183383
 20
5.4497538119
 30
0.0
 10
13.0473183383
 20
5.4293944618
 30
0.0
  0
SPLINE
  5
2A1
100
AcDbEntity
  8
0
100
AcDbSpline
 62
7
  6
CONTINUOUS
 70
0
 71
3
 72
17
 73
13
 74
0
 42
0.0000001
 43
0.0000001
 44
0.0000000001
 40
0.0
 40
0.0
 40
0.0
 40
0.0
 40
0.1086152977
 40
0.1650030214
 40
0.2227715339
 40
0.3423025564
 40
0.404022781
 40
0.466935479
 40
0.5959265189
 40
0.7284612626
 40
0.8635231818
 40
1.0
 40
1.0
 40
1.0
 40
1.0
 10
10.6953467171
 20
7.0164958174
 30
0.0
 10
10.704418804
 20
7.0057254777
 30
0.0
 10
10.7194839396
 20
6.9904023961
 30
0.0
 10
10.7417169915
 20
6.9719466169
 30
0.0
 10
10.7662520444
 20
6.9541380083
 30
0.0
 10
10.7930046336
 20
6.9383269357
 30
0.0
 10
10.8215282455
 20
6.9245710093
 30
0.0
 10
10.8518986641
 20
6.9119263606
 30
0.0
 10
10.891975111
 20
6.898887327
 30
0.0
 10
10.9422872408
 20
6.8879022909
 30
0.0
 10
10.9943753812
 20
6.8816456218
 30
0.0
 10
11.0296274621
 20
6.8807114485
 30
0.0
 10
11.0473183383
 20
6.8810576983
 30
0.0
  0
SPLINE
  5
2A2
100
AcDbEntity
  8
0
100
AcDbSpline
 62
7
  6
CONTINUOUS
 70
0
 71
3
 72
13
 73
9
 74
0
 42
0.0000001
 43
0.0000001
 44
0.0000000001
 40
0.0
 40
0.0
 40
0.0
 40
0.0
 40
0.2570951971
 40
0.3848606015
 40
0.5115309155
 40
0.6367249844
 40
0.7600927062
 40
1.0
 40
1.0
 40
1.0
 40
1.0
 10
11.0473183383
 20
6.8312490384
 30
0.0
 10
11.0692899182
 20
6.8316771082
 30
0.0
 10
11.1021863664
 20
6.8342034035
 30
0.0
 10
11.1453419648
 20
6.841338227
 30
0.0
 10
11.1770085762
 20
6.8485156841
 30
0.0
 10
11.2078248397
 20
6.8574879356
 30
0.0
 10
11.2471262322
 20
6.8716315921
 30
0.0
 10
11.2753194082
 20
6.8849342829
 30
0.0
 10
11.2931955768
 20
6.8949822838
 30
0.0
  0
SPLINE
  5
2A3
100
AcDbEntity
  8
0
100
AcDbSpline
 62
7
  6
CONTINUOUS
 70
0
 71
3
 72
21
 73
17
 74
0
 42
0.0000001
 43
0.0000001
 44
0.0000000001
 40
0.0
 40
0.0
 40
0.0
 40
0.0
 40
0.1403402164
 40
0.2087207492
 40
0.275857795
 40
0.4063344791
 40
0.4697714492
 40
0.5320448197
 40
0.5932207376
 40
0.6533841766
 40
0.7126383293
 40
0.7711040722
 40
0.8289179543
 40
0.886229953
 40
0.9432011285
 40
1.0
 40
1.0
 40
1.0
 40
1.0
 10
11.2931955768
 20
6.8949822838
 30
0.0
 10
11.305394012
 20
6.9018388921
 30
0.0
 10
11.323059316
 20
6.9129327513
 30
0.0
 10
11.3451118903
 20
6.9293908683
 30
0.0
 10
11.3654686277
 20
6.9464078424
 30
0.0
 10
11.3839992515
 20
6.9647925626
 30
0.0
 10
11.4003776997
 20
6.9844134912
 30
0.0
 10
11.411382015
 20
6.9994690894
 30
0.0
 10
11.4211813168
 20
7.0149504549
 30
0.0
 10
11.4297432995
 20
7.030808722
 30
0.0
 10
11.4370384082
 20
7.0469929759
 30
0.0
 10
11.443041935
 20
7.0634510268
 30
0.0
 10
11.4477332691
 20
7.0801294833
 30
0.0
 10
11.4510958164
 20
7.0969745755
 30
0.0
 10
11.4531181125
 20
7.1139298359
 30
0.0
 10
11.4535683382
 20
7.1252790044
 30
0.0
 10
11.4535683383
 20
7.1309424461
 30
0.0
  0
SPLINE
  5
2A4
100
AcDbEntity
  8
0
100
AcDbSpline
 62
7
  6
CONTINUOUS
 70
0
 71
3
 72
25
 73
21
 74
0
 42
0.0000001
 43
0.0000001
 44
0.0000000001
 40
0.0
 40
0.0
 40
0.0
 40
0.0
 40
0.1414382934
 40
0.2116060203
 40
0.2810138321
 40
0.3494080465
 40
0.4165598053
 40
0.482271613
 40
0.5463839535
 40
0.6087819792
 40
0.6694018887
 40
0.728237345
 40
0.7853444955
 40
0.8408459299
 40
0.8680618893
 40
0.8949531437
 40
0.9215536003
 40
0.9479006431
 40
0.9740349592
 40
1.0
 40
1.0
 40
1.0
 40
1.0
 10
11.0473183383
 20
6.8810576983
 30
0.0
 10
11.0718848135
 20
6.8815385189
 30
0.0
 10
11.1086528662
 20
6.8846129785
 30
0.0
 10
11.1566956781
 20
6.8934173618
 30
0.0
 10
11.1917503602
 20
6.9022846708
 30
0.0
 10
11.225617477
 20
6.913364577
 30
0.0
 10
11.2580226404
 20
6.9265735586
 30
0.0
 10
11.2886990439
 20
6.9418103531
 30
0.0
 10
11.3173950174
 20
6.9589577059
 30
0.0
 10
11.3438745164
 20
6.97788322
 30
0.0
 10
11.3679189857
 20
6.9984402538
 30
0.0
 10
11.3893291933
 20
7.0204700251
 30
0.0
 10
11.4079247199
 20
7.0437986359
 30
0.0
 10
11.4210325536
 20
7.0643104472
 30
0.0
 10
11.4299200484
 20
7.0811603229
 30
0.0
 10
11.4357528536
 20
7.0939190462
 30
0.0
 10
11.4407828411
 20
7.1068531033
 30
0.0
 10
11.4449991679
 20
7.1199372042
 30
0.0
 10
11.4483932108
 20
7.1331439919
 30
0.0
 10
11.4501073798
 20
7.1420379578
 30
0.0
 10
11.4508234931
 20
7.1464914932
 30
0.0
  0
SPLINE
  5
2A5
100
AcDbEntity
  8
0
100
AcDbSpline
 62
7
  6
CONTINUOUS
 70
0
 71
3
 72
25
 73
21
 74
0
 42
0.0000001
 43
0.0000001
 44
0.0000000001
 40
0.0
 40
0.0
 40
0.0
 40
0.0
 40
0.1415212556
 40
0.2117254806
 40
0.2811635468
 40
0.3495801342
 40
0.4167451071
 40
0.4824601662
 40
0.546565654
 40
0.6089471963
 40
0.6695423517
 40
0.7283469452
 40
0.7854202428
 40
0.8408888053
 40
0.8680902544
 40
0.8949690778
 40
0.9215598178
 40
0.9479005411
 40
0.9740325633
 40
1.0
 40
1.0
 40
1.0
 40
1.0
 10
11.0473183383
 20
6.9307051892
 30
0.0
 10
11.0719773677
 20
6.9311864679
 30
0.0
 10
11.1088835802
 20
6.9342799275
 30
0.0
 10
11.1570995987
 20
6.9431462066
 30
0.0
 10
11.1922730826
 20
6.9520768286
 30
0.0
 10
11.2262456971
 20
6.9632361485
 30
0.0
 10
11.258740132
 20
6.9765393744
 30
0.0
 10
11.2894868306
 20
6.9918837298
 30
0.0
 10
11.3182316371
 20
7.0091502197
 30
0.0
 10
11.3447363092
 20
7.0282045213
 30
0.0
 10
11.368780391
 20
7.0488978786
 30
0.0
 10
11.3901630911
 20
7.0710692534
 30
0.0
 10
11.4087027451
 20
7.0945422952
 30
0.0
 10
11.4217389937
 20
7.1151752286
 30
0.0
 10
11.4305539077
 20
7.1321198153
 30
0.0
 10
11.436325486
 20
7.1449483506
 30
0.0
 10
11.4412868605
 20
7.1579508821
 30
0.0
 10
11.4454274089
 20
7.1711017165
 30
0.0
 10
11.4487384137
 20
7.1843732061
 30
0.0
 10
11.4503922659
 20
7.1933079468
 30
0.0
 10
11.451077121
 20
7.1977813212
 30
0.0
  0
SPLINE
  5
2A6
100
AcDbEntity
  8
0
100
AcDbSpline
 62
7
  6
CONTINUOUS
 70
0
 71
3
 72
18
 73
14
 74
0
 42
0.0000001
 43
0.0000001
 44
0.0000000001
 40
0.0
 40
0.0
 40
0.0
 40
0.0
 40
0.1411924878
 40
0.2778736816
 40
0.4096887645
 40
0.5364900463
 40
0.6583817315
 40
0.7176257162
 40
0.7758076787
 40
0.8330194308
 40
0.8893696836
 40
0.9449834056
 40
1.0
 40
1.0
 40
1.0
 40
1.0
 10
11.2201279562
 20
6.44947808
 30
0.0
 10
11.2311390594
 20
6.4539733441
 30
0.0
 10
11.25243048
 20
6.463792137
 30
0.0
 10
11.2822871799
 20
6.4812065975
 30
0.0
 10
11.3092292117
 20
6.5008831939
 30
0.0
 10
11.3329132975
 20
6.5225809759
 30
0.0
 10
11.3498505778
 20
6.5423258708
 30
0.0
 10
11.3614169392
 20
6.5588521549
 30
0.0
 10
11.3690266377
 20
6.5714555675
 30
0.0
 10
11.3756268838
 20
6.5843425625
 30
0.0
 10
11.3811964883
 20
6.5974736777
 30
0.0
 10
11.3857171403
 20
6.6108062992
 30
0.0
 10
11.3880327604
 20
6.619844187
 30
0.0
 10
11.3890073754
 20
6.624374869
 30
0.0
  0
SPLINE
  5
2A7
100
AcDbEntity
  8
0
100
AcDbSpline
 62
7
  6
CONTINUOUS
 70
0
 71
3
 72
31
 73
27
 74
0
 42
0.0000001
 43
0.0000001
 44
0.0000000001
 40
0.0
 40
0.0
 40
0.0
 40
0.0
 40
0.0667240912
 40
0.1007584784
 40
0.135152901
 40
0.2047287173
 40
0.2749010119
 40
0.3450733168
 40
0.4146491551
 40
0.483058009
 40
0.5166708367
 40
0.5498036023
 40
0.6144034284
 40
0.645811761
 40
0.6765760641
 40
0.7360739637
 40
0.764831663
 40
0.7929331387
 40
0.8204052415
 40
0.8472878712
 40
0.8736340001
 40
0.8995093399
 40
0.9249914967
 40
0.9501685546
 40
0.9751371699
 40
1.0
 40
1.0
 40
1.0
 40
1.0
 10
11.2785683383
 20
6.2860283416
 30
0.0
 10
11.2608347094
 20
6.2787886179
 30
0.0
 10
11.2334460413
 20
6.2692826979
 30
0.0
 10
11.1959400354
 20
6.2593127806
 30
0.0
 10
11.1571880921
 20
6.2510096633
 30
0.0
 10
11.1076002857
 20
6.2440655125
 30
0.0
 10
11.0473189387
 20
6.2412838297
 30
0.0
 10
10.9870339977
 20
6.2440657932
 30
0.0
 10
10.9277710388
 20
6.2523648092
 30
0.0
 10
10.8797763208
 20
6.263833028
 30
0.0
 10
10.8428088065
 20
6.2756630091
 30
0.0
 10
10.8075219054
 20
6.2889838479
 30
0.0
 10
10.7738919119
 20
6.3047927935
 30
0.0
 10
10.7423888472
 20
6.3230499617
 30
0.0
 10
10.7132432525
 20
6.3423247988
 30
0.0
 10
10.6864944279
 20
6.3637646939
 30
0.0
 10
10.662684096
 20
6.3872226693
 30
0.0
 10
10.6466671704
 20
6.405405065
 30
0.0
 10
10.6323639551
 20
6.4242937552
 30
0.0
 10
10.6198357758
 20
6.4438096281
 30
0.0
 10
10.6091380267
 20
6.4638694864
 30
0.0
 10
10.6003182335
 20
6.4843877741
 30
0.0
 10
10.5934161607
 20
6.505276134
 30
0.0
 10
10.5884632818
 20
6.5264448562
 30
0.0
 10
10.5854823625
 20
6.547799307
 30
0.0
 10
10.5848183473
 20
6.5621132117
 30
0.0
 10
10.5848183824
 20
6.5692505931
 30
0.0
  0
SPLINE
  5
2A8
100
AcDbEntity
  8
0
100
AcDbSpline
 62
7
  6
CONTINUOUS
 70
0
 71
3
 72
35
 73
31
 74
0
 42
0.0000001
 43
0.0000001
 44
0.0000000001
 40
0.0
 40
0.0
 40
0.0
 40
0.0
 40
0.0667177232
 40
0.1007490956
 40
0.1351402813
 40
0.2047095931
 40
0.2397643549
 40
0.2748942156
 40
0.3450599536
 40
0.3799653395
 40
0.414648671
 40
0.4830511272
 40
0.5166608013
 40
0.5497904853
 40
0.5823881459
 40
0.6144084796
 40
0.6458138754
 40
0.6765752911
 40
0.7066732338
 40
0.7360986189
 40
0.764853625
 40
0.7929524747
 40
0.8204220168
 40
0.8473021333
 40
0.8736458015
 40
0.8995187206
 40
0.9249984882
 40
0.9501732089
 40
0.9751394901
 40
1.0
 40
1.0
 40
1.0
 40
1.0
 10
11.3348183383
 20
5.5665982039
 30
0.0
 10
11.3127711685
 20
5.5575974845
 30
0.0
 10
11.2787204858
 20
5.5457793297
 30
0.0
 10
11.2320911193
 20
5.5333842279
 30
0.0
 10
11.1839141282
 20
5.5230616375
 30
0.0
 10
11.13468833
 20
5.5161681711
 30
0.0
 10
11.0849118213
 20
5.5127053196
 30
0.0
 10
11.0348152114
 20
5.5115468955
 30
0.0
 10
10.9847411951
 20
5.513857679
 30
0.0
 10
10.9351790202
 20
5.5196375085
 30
0.0
 10
10.8865663782
 20
5.5276435777
 30
0.0
 10
10.8390212728
 20
5.5390045296
 30
0.0
 10
10.7930644694
 20
5.5537111718
 30
0.0
 10
10.7598770834
 20
5.5662394057
 30
0.0
 10
10.7279173888
 20
5.5802748258
 30
0.0
 10
10.6973205062
 20
5.595758412
 30
0.0
 10
10.668217409
 20
5.6126245411
 30
0.0
 10
10.6407323083
 20
5.6308018983
 30
0.0
 10
10.6149827463
 20
5.6502136787
 30
0.0
 10
10.5910790037
 20
5.6707779413
 30
0.0
 10
10.5691237501
 20
5.6924079284
 30
0.0
 10
10.5492116541
 20
5.7150123671
 30
0.0
 10
10.53142905
 20
5.7384957776
 30
0.0
 10
10.5158535187
 20
5.7627587016
 30
0.0
 10
10.5025536177
 20
5.787698006
 30
0.0
 10
10.4915885064
 20
5.8132072347
 30
0.0
 10
10.4830075478
 20
5.8391765471
 30
0.0
 10
10.4768498541
 20
5.865494401
 30
0.0
 10
10.4731437718
 20
5.8920431843
 30
0.0
 10
10.4723184215
 20
5.9098388523
 30
0.0
 10
10.4723183837
 20
5.9187123544
 30
0.0
  0
SPLINE
  5
2A9
100
AcDbEntity
  8
0
100
AcDbSpline
 62
7
  6
CONTINUOUS
 70
0
 71
3
 72
21
 73
17
 74
0
 42
0.0000001
 43
0.0000001
 44
0.0000000001
 40
0.0
 40
0.0
 40
0.0
 40
0.0
 40
0.1361621721
 40
0.268360829
 40
0.3330586047
 40
0.3968610247
 40
0.4598166795
 40
0.5219820121
 40
0.5834215162
 40
0.6442069043
 40
0.7044171918
 40
0.764137515
 40
0.8234588008
 40
0.8824764466
 40
0.9412896508
 40
1.0
 40
1.0
 40
1.0
 40
1.0
 10
11.4977877612
 20
6.8360805601
 30
0.0
 10
11.5076240288
 20
6.8273128797
 30
0.0
 10
11.5262937325
 20
6.809206293
 30
0.0
 10
11.5473348794
 20
6.7847255977
 30
0.0
 10
11.5623525672
 20
6.7644430549
 30
0.0
 10
11.5726320514
 20
6.7490191066
 30
0.0
 10
11.5819888421
 20
6.7333031058
 30
0.0
 10
11.5904062782
 20
6.717322163
 30
0.0
 10
11.5978696068
 20
6.7011045817
 30
0.0
 10
11.6043650526
 20
6.6846786482
 30
0.0
 10
11.6098814476
 20
6.6680734996
 30
0.0
 10
11.6144082721
 20
6.6513182113
 30
0.0
 10
11.6179379803
 20
6.634442629
 30
0.0
 10
11.6204634941
 20
6.6174762642
 30
0.0
 10
11.6219809279
 20
6.6004500838
 30
0.0
 10
11.6223182681
 20
6.5890742357
 30
0.0
 10
11.62231828
 20
6.5833927287
 30
0.0
  0
SPLINE
  5
2AA
100
AcDbEntity
  8
0
100
AcDbSpline
 62
7
  6
CONTINUOUS
 70
0
 71
3
 72
20
 73
16
 74
0
 42
0.0000001
 43
0.0000001
 44
0.0000000001
 40
0.0
 40
0.0
 40
0.0
 40
0.0
 40
0.0579629069
 40
0.1160531568
 40
0.174396111
 40
0.2331133411
 40
0.2923208859
 40
0.3521275229
 40
0.4126338115
 40
0.4739306783
 40
0.536098779
 40
0.5992078802
 40
0.7284271512
 40
0.8619704565
 40
1.0
 40
1.0
 40
1.0
 40
1.0
 10
11.62231828
 20
6.5833927287
 30
0.0
 10
11.6223182934
 20
6.5770281904
 30
0.0
 10
11.6218946415
 20
6.5642810906
 30
0.0
 10
11.619990145
 20
6.545213359
 30
0.0
 10
11.6168208685
 20
6.5262299835
 30
0.0
 10
11.6123942492
 20
6.5073743139
 30
0.0
 10
11.606720026
 20
6.4886880847
 30
0.0
 10
11.5998116526
 20
6.4702126706
 30
0.0
 10
11.5916843176
 20
6.451989059
 30
0.0
 10
11.58235679
 20
6.4340574917
 30
0.0
 10
11.5718495718
 20
6.4164569744
 30
0.0
 10
11.5561784781
 20
6.3933049147
 30
0.0
 10
11.5336771143
 20
6.3653859304
 30
0.0
 10
11.502627818
 20
6.3341025373
 30
0.0
 10
11.4796385324
 20
6.3150294854
 30
0.0
 10
11.4675552138
 20
6.3058805952
 30
0.0
  0
SPLINE
  5
2AB
100
AcDbEntity
  8
0
100
AcDbSpline
 62
7
  6
CONTINUOUS
 70
0
 71
3
 72
20
 73
16
 74
0
 42
0.0000001
 43
0.0000001
 44
0.0000000001
 40
0.0
 40
0.0
 40
0.0
 40
0.0
 40
0.1180875725
 40
0.1790528045
 40
0.2410825968
 40
0.3040084431
 40
0.3676479991
 40
0.4318089148
 40
0.4962917892
 40
0.5608936051
 40
0.6254110418
 40
0.7533433058
 40
0.8164313879
 40
0.8786819289
 40
1.0
 40
1.0
 40
1.0
 40
1.0
 10
10.8176995979
 20
6.9263898945
 30
0.0
 10
10.834018052
 20
6.9180167355
 30
0.0
 10
10.8596909249
 20
6.9070513889
 30
0.0
 10
10.8953644145
 20
6.8956264172
 30
0.0
 10
10.9233706512
 20
6.8885083383
 30
0.0
 10
10.9521541779
 20
6.8829853709
 30
0.0
 10
10.9815375696
 20
6.8790947098
 30
0.0
 10
11.0113355407
 20
6.8768650047
 30
0.0
 10
11.0413607096
 20
6.8763140149
 30
0.0
 10
11.0714263592
 20
6.8774493873
 30
0.0
 10
11.1111905464
 20
6.8811956862
 30
0.0
 10
11.1503524808
 20
6.8882609719
 30
0.0
 10
11.1883194831
 20
6.898633432
 30
0.0
 10
11.2246160661
 20
6.9109382248
 30
0.0
 10
11.2507552993
 20
6.9225822892
 30
0.0
 10
11.2674043733
 20
6.9314065504
 30
0.0
  0
SPLINE
  5
2AC
100
AcDbEntity
  8
0
100
AcDbSpline
 62
7
  6
CONTINUOUS
 70
0
 71
3
 72
15
 73
11
 74
0
 42
0.0000001
 43
0.0000001
 44
0.0000000001
 40
0.0
 40
0.0
 40
0.0
 40
0.0
 40
0.1194660709
 40
0.2397611975
 40
0.3613047285
 40
0.4844876245
 40
0.6096617907
 40
0.7371351545
 40
0.8671853757
 40
1.0
 40
1.0
 40
1.0
 40
1.0
 10
10.6415989067
 20
7.1061327051
 30
0.0
 10
10.6420076736
 20
7.1006432554
 30
0.0
 10
10.6433018122
 20
7.0896558426
 30
0.0
 10
10.6466476276
 20
7.0733285698
 30
0.0
 10
10.6513902882
 20
7.0571718062
 30
0.0
 10
10.6575120816
 20
7.0412456472
 30
0.0
 10
10.6649905851
 20
7.0256072098
 30
0.0
 10
10.6737990771
 20
7.0103119783
 30
0.0
 10
10.6839053085
 20
6.995416179
 30
0.0
 10
10.6914030373
 20
6.9858893199
 30
0.0
 10
10.6953467171
 20
6.9812097639
 30
0.0
  0
SPLINE
  5
2AD
100
AcDbEntity
  8
0
100
AcDbSpline
 62
7
  6
CONTINUOUS
 70
0
 71
3
 72
14
 73
10
 74
0
 42
0.0000001
 43
0.0000001
 44
0.0000000001
 40
0.0
 40
0.0
 40
0.0
 40
0.0
 40
0.2566776364
 40
0.3828535967
 40
0.5078126636
 40
0.6317713374
 40
0.7549601224
 40
0.8776201281
 40
1.0
 40
1.0
 40
1.0
 40
1.0
 10
11.4762810295
 20
6.6512749767
 30
0.0
 10
11.4812537358
 20
6.6421887387
 30
0.0
 10
11.4879165855
 20
6.6281977304
 30
0.0
 10
11.4950230901
 20
6.6089675862
 30
0.0
 10
11.4993957641
 20
6.5944656206
 30
0.0
 10
11.5028290575
 20
6.5798374921
 30
0.0
 10
11.5053166279
 20
6.5651126967
 30
0.0
 10
11.5068525771
 20
6.5503230703
 30
0.0
 10
11.5072403475
 20
6.540434245
 30
0.0
 10
11.5072746879
 20
6.535495847
 30
0.0
  0
SPLINE
  5
2AE
100
AcDbEntity
  8
0
100
AcDbSpline
 62
9
  6
CONTINUOUS
 70
0
 71
3
 72
38
 73
34
 74
0
 42
0.0000001
 43
0.0000001
 44
0.0000000001
 40
0.0
 40
0.0
 40
0.0
 40
0.0
 40
0.0362648686
 40
0.0718928329
 40
0.1068404827
 40
0.1410739308
 40
0.1745698609
 40
0.207316554
 40
0.2393148627
 40
0.2705790857
 40
0.3011376771
 40
0.3310337087
 40
0.3603249859
 40
0.389083711
 40
0.4173955921
 40
0.4453583232
 40
0.4730794113
 40
0.5006733989
 40
0.5282586129
 40
0.5559536433
 40
0.583873804
 40
0.6121278265
 40
0.6408150031
 40
0.6700229193
 40
0.699825838
 40
0.7302837211
 40
0.7614418147
 40
0.7933307028
 40
0.8259667279
 40
0.8593526803
 40
0.8934786338
 40
0.9283229216
 40
1.0
 40
1.0
 40
1.0
 40
1.0
 10
11.6224718686
 20
6.2064136911
 30
0.0
 10
11.64461616
 20
6.1975745671
 30
0.0
 10
11.6880662244
 20
6.1788967113
 30
0.0
 10
11.7510204811
 20
6.1476560465
 30
0.0
 10
11.810945668
 20
6.1135559363
 30
0.0
 10
11.8675811197
 20
6.0767428827
 30
0.0
 10
11.9206830641
 20
6.0373735792
 30
0.0
 10
11.9700218269
 20
5.9956158011
 30
0.0
 10
12.015383659
 20
5.9516473336
 30
0.0
 10
12.0565712647
 20
5.9056554202
 30
0.0
 10
12.0934045896
 20
5.8578361095
 30
0.0
 10
12.125721499
 20
5.8083936774
 30
0.0
 10
12.1533784922
 20
5.7575400761
 30
0.0
 10
12.1762514704
 20
5.7054943885
 30
0.0
 10
12.1942365975
 20
5.652482222
 30
0.0
 10
12.2072512445
 20
5.5987349525
 30
0.0
 10
12.2152349591
 20
5.5444887267
 30
0.0
 10
12.2181503399
 20
5.4899831642
 30
0.0
 10
12.2159836628
 20
5.4354597775
 30
0.0
 10
12.2087451309
 20
5.3811602112
 30
0.0
 10
12.1964686876
 20
5.3273244693
 30
0.0
 10
12.1792114386
 20
5.2741892991
 30
0.0
 10
12.1570528046
 20
5.2219868492
 30
0.0
 10
12.1300935577
 20
5.17094363
 30
0.0
 10
12.0984548654
 20
5.1212797255
 30
0.0
 10
12.0622774232
 20
5.0732081754
 30
0.0
 10
12.0217206479
 20
5.0269344124
 30
0.0
 10
11.9769620654
 20
4.9826557712
 30
0.0
 10
11.9281962158
 20
4.9405606922
 30
0.0
 10
11.8756354675
 20
4.9008289226
 30
0.0
 10
11.8195033339
 20
4.8636277152
 30
0.0
 10
11.7394936802
 20
4.8171881371
 30
0.0
 10
11.6759484105
 20
4.7872991569
 30
0.0
 10
11.6323183383
 20
4.7694872546
 30
0.0
  0
SPLINE
  5
2AF
100
AcDbEntity
  8
0
100
AcDbSpline
 62
9
  6
CONTINUOUS
 70
0
 71
3
 72
56
 73
52
 74
0
 42
0.0000001
 43
0.0000001
 44
0.0000000001
 40
0.0
 40
0.0
 40
0.0
 40
0.0
 40
0.0335631422
 40
0.0500062967
 40
0.0662079818
 40
0.0978473397
 40
0.1132834953
 40
0.128458473
 40
0.1580215784
 40
0.172429973
 40
0.1865975666
 40
0.2005364311
 40
0.21426151
 40
0.2277905584
 40
0.2411440341
 40
0.254344931
 40
0.2674185483
 40
0.2803921701
 40
0.2932946839
 40
0.3061561446
 40
0.3190072937
 40
0.3318790454
 40
0.344801969
 40
0.3578057852
 40
0.3709188903
 40
0.3841679418
 40
0.3975775036
 40
0.4111697552
 40
0.4249642643
 40
0.4389778503
 40
0.4532245049
 40
0.4677153572
 40
0.4824586799
 40
0.4974599627
 40
0.5127220039
 40
0.5440181619
 40
0.560054001
 40
0.5763372133
 40
0.609601628
 40
0.6437272078
 40
0.6785968462
 40
0.7140729783
 40
0.7500022152
 40
0.7862197439
 40
0.822553689
 40
0.8588293491
 40
0.8948734289
 40
0.9305182967
 40
0.94814428
 40
0.9656121603
 40
1.0
 40
1.0
 40
1.0
 40
1.0
 10
10.4623183383
 20
6.2024387541
 30
0.0
 10
10.4295889633
 20
6.1890770428
 30
0.0
 10
10.3815704277
 20
6.1672467525
 30
0.0
 10
10.3200167123
 20
6.1344347282
 30
0.0
 10
10.2616760603
 20
6.100037169
 30
0.0
 10
10.206526392
 20
6.0624157185
 30
0.0
 10
10.1551203164
 20
6.0216783043
 30
0.0
 10
10.1074154305
 20
5.9799198565
 30
0.0
 10
10.0636620305
 20
5.9353800217
 30
0.0
 10
10.0244579592
 20
5.8883039762
 30
0.0
 10
9.9977625282
 20
5.852318818
 30
0.0
 10
9.9735953517
 20
5.8154470195
 30
0.0
 10
9.9520141577
 20
5.7777757835
 30
0.0
 10
9.933072248
 20
5.7393959721
 30
0.0
 10
9.9168163159
 20
5.7003999161
 30
0.0
 10
9.9032868308
 20
5.6608817798
 30
0.0
 10
9.8925174104
 20
5.6209373186
 30
0.0
 10
9.8845349919
 20
5.580663557
 30
0.0
 10
9.8793596967
 20
5.5401585502
 30
0.0
 10
9.877004717
 20
5.4995211244
 30
0.0
 10
9.8774758845
 20
5.4588505731
 30
0.0
 10
9.8807719627
 20
5.418246274
 30
0.0
 10
9.8868846631
 20
5.3778073837
 30
0.0
 10
9.8957986941
 20
5.3376325422
 30
0.0
 10
9.9074915316
 20
5.2978194862
 30
0.0
 10
9.9219338872
 20
5.2584648117
 30
0.0
 10
9.9390898562
 20
5.2196637487
 30
0.0
 10
9.9589170596
 20
5.1815099716
 30
0.0
 10
9.9813665271
 20
5.1440952536
 30
0.0
 10
10.0063831734
 20
5.1075094042
 30
0.0
 10
10.0339059157
 20
5.071840139
 30
0.0
 10
10.0638679378
 20
5.0371728364
 30
0.0
 10
10.096196123
 20
5.0035905764
 30
0.0
 10
10.130813406
 20
4.9711726304
 30
0.0
 10
10.1803151709
 20
4.9292613988
 30
0.0
 10
10.2337029438
 20
4.8903807921
 30
0.0
 10
10.2904106637
 20
4.8546588504
 30
0.0
 10
10.350435232
 20
4.8204289624
 30
0.0
 10
10.4297390321
 20
4.7817295062
 30
0.0
 10
10.5301225802
 20
4.7423902349
 30
0.0
 10
10.6354530108
 20
4.7101864135
 30
0.0
 10
10.7447191656
 20
4.6854240747
 30
0.0
 10
10.8568783419
 20
4.6683373515
 30
0.0
 10
10.9708581589
 20
4.6590879109
 30
0.0
 10
11.0855688206
 20
4.657763874
 30
0.0
 10
11.1999145745
 20
4.6643775454
 30
0.0
 10
11.3127984138
 20
4.6788658987
 30
0.0
 10
11.4051078504
 20
4.6974587433
 30
0.0
 10
11.4772448783
 20
4.7161702015
 30
0.0
 10
11.5473634804
 20
4.7371703191
 30
0.0
 10
11.5987847527
 20
4.7557972255
 30
0.0
 10
11.6323183383
 20
4.7694872546
 30
0.0
  0
SPLINE
  5
2B0
100
AcDbEntity
  8
0
100
AcDbSpline
 62
9
  6
CONTINUOUS
 70
0
 71
3
 72
29
 73
25
 74
0
 42
0.0000001
 43
0.0000001
 44
0.0000000001
 40
0.0
 40
0.0
 40
0.0
 40
0.0
 40
0.0723997688
 40
0.1435167211
 40
0.213268363
 40
0.2815895866
 40
0.348437271
 40
0.4137911741
 40
0.4776561632
 40
0.5400638175
 40
0.6010737933
 40
0.6607746668
 40
0.6901759437
 40
0.7192964716
 40
0.7481553823
 40
0.7767734247
 40
0.805172968
 40
0.8333778017
 40
0.8614130876
 40
0.889305158
 40
0.9170813757
 40
0.9447699512
 40
0.9723997284
 40
1.0
 40
1.0
 40
1.0
 40
1.0
 10
12.0473183383
 20
3.6077928942
 30
0.0
 10
12.0847864287
 20
3.623089178
 30
0.0
 10
12.1582804429
 20
3.6553645855
 30
0.0
 10
12.2647015827
 20
3.709219615
 30
0.0
 10
12.3659303992
 20
3.7678845153
 30
0.0
 10
12.4615306528
 20
3.8311100456
 30
0.0
 10
12.5510944302
 20
3.8986292338
 30
0.0
 10
12.634237887
 20
3.9701571856
 30
0.0
 10
12.7106038311
 20
4.0453917658
 30
0.0
 10
12.7798636085
 20
4.1240166632
 30
0.0
 10
12.8417148623
 20
4.2056954391
 30
0.0
 10
12.8870957495
 20
4.2763894295
 30
0.0
 10
12.919353454
 20
4.334083703
 30
0.0
 10
12.941421743
 20
4.3776747435
 30
0.0
 10
12.9614611083
 20
4.4217541245
 30
0.0
 10
12.9794499076
 20
4.4662755531
 30
0.0
 10
12.9953690181
 20
4.5111908727
 30
0.0
 10
13.0092006193
 20
4.5564521428
 30
0.0
 10
13.0209301166
 20
4.6020105681
 30
0.0
 10
13.0305444073
 20
4.6478173021
 30
0.0
 10
13.0380331041
 20
4.6938229322
 30
0.0
 10
13.0433881439
 20
4.7399782782
 30
0.0
 10
13.046603329
 20
4.7862323534
 30
0.0
 10
13.0473183383
 20
4.8171097123
 30
0.0
 10
13.0473183383
 20
4.8325377656
 30
0.0
  0
SPLINE
  5
2B1
100
AcDbEntity
  8
0
100
AcDbSpline
 62
9
  6
CONTINUOUS
 70
0
 71
3
 72
11
 73
7
 74
0
 42
0.0000001
 43
0.0000001
 44
0.0000000001
 40
0.0
 40
0.0
 40
0.0
 40
0.0
 40
0.2450411335
 40
0.4936904562
 40
0.7455057292
 40
1.0
 40
1.0
 40
1.0
 40
1.0
 10
10.0873183383
 20
6.6617180809
 30
0.0
 10
10.1245859604
 20
6.676932524
 30
0.0
 10
10.2005165444
 20
6.7055517958
 30
0.0
 10
10.3172606332
 20
6.7427208073
 30
0.0
 10
10.4372418055
 20
6.7743093605
 30
0.0
 10
10.5186640694
 20
6.7914763777
 30
0.0
 10
10.5597683035
 20
6.7991070837
 30
0.0
  0
SPLINE
  5
2B2
100
AcDbEntity
  8
0
100
AcDbSpline
 62
9
  6
CONTINUOUS
 70
0
 71
3
 72
49
 73
45
 74
0
 42
0.0000001
 43
0.0000001
 44
0.0000000001
 40
0.0
 40
0.0
 40
0.0
 40
0.0
 40
0.0378912287
 40
0.0753990085
 40
0.1124556054
 40
0.148998432
 40
0.1849709599
 40
0.2203236531
 40
0.2550149191
 40
0.2890120716
 40
0.3222922932
 40
0.3548435821
 40
0.3866656528
 40
0.4177707516
 40
0.4481843284
 40
0.4779454969
 40
0.5071071935
 40
0.5214865761
 40
0.5357421531
 40
0.5498842338
 40
0.5639238657
 40
0.5778727686
 40
0.5917432681
 40
0.6055482386
 40
0.6193010006
 40
0.633015257
 40
0.6467049782
 40
0.6603843166
 40
0.6740674997
 40
0.6877687244
 40
0.7015020605
 40
0.7152813438
 40
0.7291200814
 40
0.7430313676
 40
0.7570277819
 40
0.7711213422
 40
0.7853233993
 40
0.8140887823
 40
0.8434063857
 40
0.8733391138
 40
0.903936175
 40
0.9352329638
 40
0.9672513104
 40
1.0
 40
1.0
 40
1.0
 40
1.0
 10
11.5348678664
 20
6.7991071796
 30
0.0
 10
11.5746303453
 20
6.7917255715
 30
0.0
 10
11.6534217059
 20
6.775178247
 30
0.0
 10
11.7696097793
 20
6.7448926594
 30
0.0
 10
11.8828041118
 20
6.709375619
 30
0.0
 10
11.9925317911
 20
6.6687743034
 30
0.0
 10
12.0983386005
 20
6.6232559614
 30
0.0
 10
12.1997853991
 20
6.5730081529
 30
0.0
 10
12.2964513184
 20
6.5182376839
 30
0.0
 10
12.3879350354
 20
6.4591697758
 30
0.0
 10
12.4738564055
 20
6.3960470755
 30
0.0
 10
12.5538578353
 20
6.3291287144
 30
0.0
 10
12.6276056469
 20
6.2586891604
 30
0.0
 10
12.6947910273
 20
6.18501775
 30
0.0
 10
12.7551319533
 20
6.1084158575
 30
0.0
 10
12.8083712315
 20
6.0292027899
 30
0.0
 10
12.8468152133
 20
5.960956851
 30
0.0
 10
12.8737270703
 20
5.9054330966
 30
0.0
 10
12.8919181473
 20
5.8635418035
 30
0.0
 10
12.9081881439
 20
5.8212563359
 30
0.0
 10
12.9225205673
 20
5.7786201361
 30
0.0
 10
12.9349001202
 20
5.735677859
 30
0.0
 10
12.9453135723
 20
5.692474255
 30
0.0
 10
12.9537502223
 20
5.6490545607
 30
0.0
 10
12.9602006316
 20
5.6054640844
 30
0.0
 10
12.9646585331
 20
5.5617485243
 30
0.0
 10
12.9671185811
 20
5.5179535762
 30
0.0
 10
12.9675787185
 20
5.4741251375
 30
0.0
 10
12.9660380165
 20
5.4303090946
 30
0.0
 10
12.9624983859
 20
5.3865513336
 30
0.0
 10
12.9569635137
 20
5.3428976627
 30
0.0
 10
12.949439152
 20
5.2993937939
 30
0.0
 10
12.9399336059
 20
5.2560851804
 30
0.0
 10
12.9284564624
 20
5.2130171515
 30
0.0
 10
12.9150205473
 20
5.1702347462
 30
0.0
 10
12.899639027
 20
5.1277820141
 30
0.0
 10
12.8764640279
 20
5.0714451655
 30
0.0
 10
12.8426182282
 20
5.0020074484
 30
0.0
 10
12.7947064294
 20
4.9210919708
 30
0.0
 10
12.7395245074
 20
4.8425499238
 30
0.0
 10
12.6773091831
 20
4.7667097359
 30
0.0
 10
12.6083217371
 20
4.6938812099
 30
0.0
 10
12.5328560844
 20
4.6243667473
 30
0.0
 10
12.479031621
 20
4.5809038024
 30
0.0
 10
12.451174872
 20
4.559791636
 30
0.0
  0
SPLINE
  5
2B3
100
AcDbEntity
  8
0
100
AcDbSpline
 62
9
  6
CONTINUOUS
 70
0
 71
3
 72
11
 73
7
 74
0
 42
0.0000001
 43
0.0000001
 44
0.0000000001
 40
0.0
 40
0.0
 40
0.0
 40
0.0
 40
0.2414975742
 40
0.4888567574
 40
0.7418112954
 40
1.0
 40
1.0
 40
1.0
 40
1.0
 10
12.451174872
 20
4.559791636
 30
0.0
 10
12.4184191332
 20
4.5349666069
 30
0.0
 10
12.3502730184
 20
4.4870988357
 30
0.0
 10
12.2421956605
 20
4.4216760568
 30
0.0
 10
12.1275856808
 20
4.3620924957
 30
0.0
 10
12.0479995839
 20
4.3268159767
 30
0.0
 10
12.0073183383
 20
4.3102079278
 30
0.0
  0
SPLINE
  5
2B4
100
AcDbEntity
  8
0
100
AcDbSpline
 62
9
  6
CONTINUOUS
 70
0
 71
3
 72
38
 73
34
 74
0
 42
0.0000001
 43
0.0000001
 44
0.0000000001
 40
0.0
 40
0.0
 40
0.0
 40
0.0
 40
0.0733867008
 40
0.1092234944
 40
0.1444448123
 40
0.1790302321
 40
0.2129665519
 40
0.2462481818
 40
0.2788777116
 40
0.3108663603
 40
0.3422343641
 40
0.3730112402
 40
0.4032359036
 40
0.4329565871
 40
0.4622305242
 40
0.4911233563
 40
0.5197082419
 40
0.5480646596
 40
0.5762769271
 40
0.604432484
 40
0.6326200125
 40
0.660927493
 40
0.6894402973
 40
0.7182394166
 40
0.7473999087
 40
0.7769896186
 40
0.8070682014
 40
0.8376864483
 40
0.8688858955
 40
0.9006986824
 40
0.9331476167
 40
0.9662464036
 40
1.0
 40
1.0
 40
1.0
 40
1.0
 10
10.0873183383
 20
6.6617180809
 30
0.0
 10
10.0259717568
 20
6.636673444
 30
0.0
 10
9.9362482122
 20
6.5952817162
 30
0.0
 10
9.8220760084
 20
6.5321605065
 30
0.0
 10
9.7409634324
 20
6.48188354
 30
0.0
 10
9.6639662547
 20
6.428463813
 30
0.0
 10
9.591323357
 20
6.372066226
 30
0.0
 10
9.5232651242
 20
6.3128673404
 30
0.0
 10
9.4600065522
 20
6.2510518116
 30
0.0
 10
9.4017482798
 20
6.1868126422
 30
0.0
 10
9.3486755946
 20
6.1203504825
 30
0.0
 10
9.3009580121
 20
6.0518731839
 30
0.0
 10
9.2587487216
 20
5.9815953079
 30
0.0
 10
9.2221840614
 20
5.909737649
 30
0.0
 10
9.1913829615
 20
5.836526739
 30
0.0
 10
9.1664463599
 20
5.7621943037
 30
0.0
 10
9.1474565977
 20
5.6869766355
 30
0.0
 10
9.1344768214
 20
5.6111138441
 30
0.0
 10
9.1275504438
 20
5.5348489651
 30
0.0
 10
9.126700723
 20
5.4584269284
 30
0.0
 10
9.1319305169
 20
5.3820934204
 30
0.0
 10
9.1432222524
 20
5.3060937001
 30
0.0
 10
9.1605381134
 20
5.230671442
 30
0.0
 10
9.1838204173
 20
5.1560676696
 30
0.0
 10
9.2129921287
 20
5.0825198232
 30
0.0
 10
9.2479574443
 20
5.0102609734
 30
0.0
 10
9.288602405
 20
4.9395191589
 30
0.0
 10
9.3347954679
 20
4.8705168382
 30
0.0
 10
9.3863881455
 20
4.8034703275
 30
0.0
 10
9.4432152498
 20
4.7385895388
 30
0.0
 10
9.5050965455
 20
4.6760766586
 30
0.0
 10
9.5718329416
 20
4.6161288967
 30
0.0
 10
9.6189667031
 20
4.5783619788
 30
0.0
 10
9.643252927
 20
4.5599499664
 30
0.0
  0
SPLINE
  5
2B5
100
AcDbEntity
  8
0
100
AcDbSpline
 62
9
  6
CONTINUOUS
 70
0
 71
3
 72
13
 73
9
 74
0
 42
0.0000001
 43
0.0000001
 44
0.0000000001
 40
0.0
 40
0.0
 40
0.0
 40
0.0
 40
0.2396723773
 40
0.3622662619
 40
0.4866132697
 40
0.6126475542
 40
0.7402914996
 40
1.0
 40
1.0
 40
1.0
 40
1.0
 10
9.643252927
 20
4.5599499664
 30
0.0
 10
9.6845536806
 20
4.5286388003
 30
0.0
 10
9.7491801553
 20
4.4841328198
 30
0.0
 10
9.8394401381
 20
4.4300046235
 30
0.0
 10
9.910274832
 20
4.3913856444
 30
0.0
 10
9.9835719556
 20
4.3551425309
 30
0.0
 10
10.0849442464
 20
4.3098338315
 30
0.0
 10
10.1633416916
 20
4.2800473301
 30
0.0
 10
10.2165230715
 20
4.2619983265
 30
0.0
  0
LINE
  5
2B6
100
AcDbEntity
  8
0
100
AcDbLine
 62
9
  6
CONTINUOUS
 10
10.2165230715
 20
4.2619983265
 11
10.2185148609
 21
4.2613233379
  0
SPLINE
  5
2B7
100
AcDbEntity
  8
0
100
AcDbSpline
 62
9
  6
CONTINUOUS
 70
0
 71
3
 72
20
 73
16
 74
0
 42
0.0000001
 43
0.0000001
 44
0.0000000001
 40
0.0
 40
0.0
 40
0.0
 40
0.0
 40
0.1249932983
 40
0.1880469067
 40
0.2513544443
 40
0.3783697113
 40
0.4419268442
 40
0.5053945462
 40
0.5686870299
 40
0.6317197012
 40
0.6944097844
 40
0.7566768386
 40
0.8184436424
 40
0.8796359604
 40
1.0
 40
1.0
 40
1.0
 40
1.0
 10
10.4593510723
 20
4.1935438945
 30
0.0
 10
10.5233677488
 20
4.1789821112
 30
0.0
 10
10.6205812489
 20
4.160815758
 30
0.0
 10
10.7515375084
 20
4.1439017477
 30
0.0
 10
10.8840953825
 20
4.1317876487
 30
0.0
 10
11.0175046502
 20
4.1270471084
 30
0.0
 10
11.1509343036
 20
4.1296799526
 30
0.0
 10
11.2507612074
 20
4.1353418774
 30
0.0
 10
11.3500335802
 20
4.1446749809
 30
0.0
 10
11.4484841688
 20
4.1576539803
 30
0.0
 10
11.5458451928
 20
4.1742438073
 30
0.0
 10
11.6418513686
 20
4.1943991059
 30
0.0
 10
11.7362458083
 20
4.2180666992
 30
0.0
 10
11.8589117298
 20
4.2540142571
 30
0.0
 10
11.9487875523
 20
4.2863128344
 30
0.0
 10
12.0073183383
 20
4.3102079278
 30
0.0
  0
SPLINE
  5
2B8
100
AcDbEntity
  8
0
100
AcDbSpline
 62
9
  6
CONTINUOUS
 70
0
 71
3
 72
39
 73
35
 74
0
 42
0.0000001
 43
0.0000001
 44
0.0000000001
 40
0.0
 40
0.0
 40
0.0
 40
0.0
 40
0.0714852419
 40
0.1062293184
 40
0.1402568663
 40
0.1735494249
 40
0.1899196226
 40
0.2061045035
 40
0.2379186829
 40
0.2690150863
 40
0.2994261879
 40
0.3291986015
 40
0.3583930643
 40
0.387083966
 40
0.4153583341
 40
0.4433142189
 40
0.4710584711
 40
0.4987039779
 40
0.5263664969
 40
0.5541612885
 40
0.5821997843
 40
0.6105865202
 40
0.6394165196
 40
0.6687732465
 40
0.6987271688
 40
0.7293349113
 40
0.7606389282
 40
0.7926675999
 40
0.8089610246
 40
0.8254400257
 40
0.8589492254
 40
0.8931891807
 40
0.9281381454
 40
1.0
 40
1.0
 40
1.0
 40
1.0
 10
11.6223781975
 20
6.1767388143
 30
0.0
 10
11.6628754657
 20
6.159472075
 30
0.0
 10
11.7218023601
 20
6.1306529718
 30
0.0
 10
11.7958836786
 20
6.0861630447
 30
0.0
 10
11.8477940416
 20
6.0506484049
 30
0.0
 10
11.8884832817
 20
6.0189513981
 30
0.0
 10
11.9192277441
 20
5.9924970247
 30
0.0
 10
11.9484105931
 20
5.9656577782
 30
0.0
 10
11.9825859116
 20
5.930888022
 30
0.0
 10
12.019904655
 20
5.8871147494
 30
0.0
 10
12.0531407584
 20
5.841709917
 30
0.0
 10
12.0821505067
 20
5.7948635093
 30
0.0
 10
12.1068085743
 20
5.7467709449
 30
0.0
 10
12.1270069999
 20
5.6976342217
 30
0.0
 10
12.1426564143
 20
5.6476609132
 30
0.0
 10
12.153686764
 20
5.5970635514
 30
0.0
 10
12.1600481775
 20
5.5460586454
 30
0.0
 10
12.1617116772
 20
5.4948654765
 30
0.0
 10
12.1586696577
 20
5.4437046574
 30
0.0
 10
12.1509360181
 20
5.3927965694
 30
0.0
 10
12.138545922
 20
5.3423598221
 30
0.0
 10
12.1215552358
 20
5.2926098714
 30
0.0
 10
12.1000397691
 20
5.2437578903
 30
0.0
 10
12.0740943982
 20
5.19600986
 30
0.0
 10
12.0438323535
 20
5.1495660028
 30
0.0
 10
12.0093840206
 20
5.1046198202
 30
0.0
 10
11.9708979692
 20
5.0613591957
 30
0.0
 10
11.9357962611
 20
5.027056886
 30
0.0
 10
11.905897346
 20
5.0006147055
 30
0.0
 10
11.8744493027
 20
4.9745797677
 30
0.0
 10
11.832919666
 20
4.9434380309
 30
0.0
 10
11.7800666702
 20
4.9086284149
 30
0.0
 10
11.7048217282
 20
4.8651518622
 30
0.0
 10
11.6451223366
 20
4.8371223579
 30
0.0
 10
11.604148705
 20
4.8203949429
 30
0.0
  0
SPLINE
  5
2B9
100
AcDbEntity
  8
0
100
AcDbSpline
 62
9
  6
CONTINUOUS
 70
0
 71
3
 72
52
 73
48
 74
0
 42
0.0000001
 43
0.0000001
 44
0.0000000001
 40
0.0
 40
0.0
 40
0.0
 40
0.0
 40
0.0334111979
 40
0.0497736414
 40
0.0658926638
 40
0.0973642635
 40
0.112717117
 40
0.1278103252
 40
0.1572178957
 40
0.1715542904
 40
0.185654808
 40
0.1995322871
 40
0.2132023796
 40
0.2266834769
 40
0.2399965784
 40
0.2531651119
 40
0.2662146891
 40
0.2791727688
 40
0.2920682682
 40
0.3049311264
 40
0.3177918231
 40
0.3306808734
 40
0.3436283251
 40
0.356663268
 40
0.3698133885
 40
0.3831045789
 40
0.3965606009
 40
0.410202807
 40
0.4240499598
 40
0.4381181059
 40
0.4524204922
 40
0.4817566063
 40
0.5121200604
 40
0.5435191888
 40
0.5759241203
 40
0.6092711361
 40
0.6434674497
 40
0.6783958484
 40
0.7139193536
 40
0.7498856504
 40
0.7861314353
 40
0.8224866358
 40
0.8587785589
 40
0.8948360301
 40
0.9304935206
 40
0.9655951502
 40
1.0
 40
1.0
 40
1.0
 40
1.0
 10
10.472055111
 20
6.1766520175
 30
0.0
 10
10.4414497436
 20
6.1635963992
 30
0.0
 10
10.3965877741
 20
6.142343438
 30
0.0
 10
10.3391685355
 20
6.1105424881
 30
0.0
 10
10.2848246966
 20
6.0772995854
 30
0.0
 10
10.2335495816
 20
6.0410591078
 30
0.0
 10
10.1858642512
 20
6.001930205
 30
0.0
 10
10.1416860586
 20
5.9618872355
 30
0.0
 10
10.1012828595
 20
5.919270183
 30
0.0
 10
10.0652144808
 20
5.8743220649
 30
0.0
 10
10.0407219369
 20
5.8400007358
 30
0.0
 10
10.0186248673
 20
5.8048720677
 30
0.0
 10
9.9989754151
 20
5.7690181548
 30
0.0
 10
9.9818215554
 20
5.7325245064
 30
0.0
 10
9.9672051344
 20
5.695477896
 30
0.0
 10
9.9551621575
 20
5.657966762
 30
0.0
 10
9.9457221563
 20
5.6200809696
 30
0.0
 10
9.9389084783
 20
5.581911471
 30
0.0
 10
9.9347381929
 20
5.5435500995
 30
0.0
 10
9.9332217316
 20
5.5050893515
 30
0.0
 10
9.9343627273
 20
5.4666220468
 30
0.0
 10
9.9381583406
 20
5.428241002
 30
0.0
 10
9.9445992711
 20
5.3900387865
 30
0.0
 10
9.9536694082
 20
5.3521073648
 30
0.0
 10
9.9653461756
 20
5.3145378121
 30
0.0
 10
9.979600826
 20
5.2774201155
 30
0.0
 10
9.9963984822
 20
5.2408430084
 30
0.0
 10
10.0156980254
 20
5.2048934982
 30
0.0
 10
10.0374522821
 20
5.1696572104
 30
0.0
 10
10.0616095759
 20
5.1352168231
 30
0.0
 10
10.097239653
 20
5.0900930514
 30
0.0
 10
10.1476472655
 20
5.0361217148
 30
0.0
 10
10.2161270513
 20
4.9763956834
 30
0.0
 10
10.2924651837
 20
4.9216925969
 30
0.0
 10
10.3759313564
 20
4.8725237351
 30
0.0
 10
10.465736827
 20
4.8293413197
 30
0.0
 10
10.5610332032
 20
4.7925468855
 30
0.0
 10
10.6609209913
 20
4.7624822808
 30
0.0
 10
10.7644575221
 20
4.7394284179
 30
0.0
 10
10.8706653455
 20
4.723600604
 30
0.0
 10
10.9785416296
 20
4.7151472153
 30
0.0
 10
11.0870674853
 20
4.714147435
 30
0.0
 10
11.1952180379
 20
4.7206106258
 30
0.0
 10
11.3019712073
 20
4.7344761362
 30
0.0
 10
11.4063209635
 20
4.7556146978
 30
0.0
 10
11.5072744031
 20
4.7838255011
 30
0.0
 10
11.5724271082
 20
4.8074446552
 30
0.0
 10
11.604148705
 20
4.8203949429
 30
0.0
  0
SPLINE
  5
2BA
100
AcDbEntity
  8
0
100
AcDbSpline
 62
9
  6
CONTINUOUS
 70
0
 71
3
 72
28
 73
24
 74
0
 42
0.0000001
 43
0.0000001
 44
0.0000000001
 40
0.0
 40
0.0
 40
0.0
 40
0.0
 40
0.025180507
 40
0.0504416434
 40
0.0758622316
 40
0.1015176211
 40
0.1274781472
 40
0.153807811
 40
0.1805633712
 40
0.2077936041
 40
0.2355387686
 40
0.2638305451
 40
0.3221117104
 40
0.3827509839
 40
0.4457093898
 40
0.5108393927
 40
0.5779014335
 40
0.6465809655
 40
0.7165047557
 40
0.7872567874
 40
0.8583936834
 40
0.9294585341
 40
1.0
 40
1.0
 40
1.0
 40
1.0
 10
10.5948183646
 20
6.8718018917
 30
0.0
 10
10.5948184044
 20
6.8657496642
 30
0.0
 10
10.5953056881
 20
6.8536202276
 30
0.0
 10
10.5974953786
 20
6.835499893
 30
0.0
 10
10.6011362825
 20
6.8174972552
 30
0.0
 10
10.6062161584
 20
6.7996725998
 30
0.0
 10
10.6127179525
 20
6.7820835086
 30
0.0
 10
10.6206195758
 20
6.764786941
 30
0.0
 10
10.6298947871
 20
6.7478385598
 30
0.0
 10
10.6405129393
 20
6.7312930129
 30
0.0
 10
10.6524394597
 20
6.7152025937
 30
0.0
 10
10.6702054831
 20
6.694221041
 30
0.0
 10
10.6955763535
 20
6.6694237111
 30
0.0
 10
10.7301997698
 20
6.6425962307
 30
0.0
 10
10.7688647024
 20
6.6187229844
 30
0.0
 10
10.8110735564
 20
6.5981031506
 30
0.0
 10
10.8562895747
 20
6.5809914619
 30
0.0
 10
10.9039372789
 20
6.5676020768
 30
0.0
 10
10.953410578
 20
6.5581027448
 30
0.0
 10
11.0040794365
 20
6.5526126893
 30
0.0
 10
11.055299746
 20
6.5512016186
 30
0.0
 10
11.1064149616
 20
6.5538861123
 30
0.0
 10
11.140193521
 20
6.5584118778
 30
0.0
 10
11.1568904109
 20
6.5613584903
 30
0.0
  0
SPLINE
  5
2BB
100
AcDbEntity
  8
0
100
AcDbSpline
 62
7
  6
CONTINUOUS
 70
0
 71
3
 72
27
 73
23
 74
0
 42
0.0000001
 43
0.0000001
 44
0.0000000001
 40
0.0
 40
0.0
 40
0.0
 40
0.0
 40
0.0260058351
 40
0.0521266273
 40
0.0784128344
 40
0.104912483
 40
0.1316704712
 40
0.1587281047
 40
0.2138643859
 40
0.2420269237
 40
0.2706109893
 40
0.2996354033
 40
0.3291139903
 40
0.3894488617
 40
0.4516539127
 40
0.5156810912
 40
0.5814216724
 40
0.6487141769
 40
0.7173519759
 40
0.7870912012
 40
0.8576587664
 40
1.0
 40
1.0
 40
1.0
 40
1.0
 10
11.4529334243
 20
7.1807898912
 30
0.0
 10
11.4525747034
 20
7.1761289949
 30
0.0
 10
11.451551429
 20
7.166807211
 30
0.0
 10
11.449111569
 20
7.1529155505
 30
0.0
 10
11.4457699072
 20
7.13912101
 30
0.0
 10
11.4415343716
 20
7.1254548014
 30
0.0
 10
11.4364141601
 20
7.1119460796
 30
0.0
 10
11.4283763048
 20
7.0940766805
 30
0.0
 10
11.4186352533
 20
7.0767358128
 30
0.0
 10
11.4073573063
 20
7.0600755969
 30
0.0
 10
11.3980311828
 20
7.0477884039
 30
0.0
 10
11.3879197965
 20
7.035828506
 30
0.0
 10
11.3733106377
 20
7.0202327975
 30
0.0
 10
11.3531622198
 20
7.0017052139
 30
0.0
 10
11.3264507417
 20
6.9813557945
 30
0.0
 10
11.2972540196
 20
6.9628837115
 30
0.0
 10
11.2658344071
 20
6.9464451134
 30
0.0
 10
11.2324709999
 20
6.9321764329
 30
0.0
 10
11.1974617736
 20
6.9201962814
 30
0.0
 10
11.1611141629
 20
6.9106024715
 30
0.0
 10
11.1111805047
 20
6.9010729367
 30
0.0
 10
11.0728997484
 20
6.8977518467
 30
0.0
 10
11.0473183383
 20
6.8972387401
 30
0.0
  0
SPLINE
  5
2BC
100
AcDbEntity
  8
0
100
AcDbSpline
 62
7
  6
CONTINUOUS
 70
0
 71
3
 72
27
 73
23
 74
0
 42
0.0000001
 43
0.0000001
 44
0.0000000001
 40
0.0
 40
0.0
 40
0.0
 40
0.0
 40
0.0260143864
 40
0.0521385801
 40
0.0784235857
 40
0.1049180582
 40
0.1316675255
 40
0.1587139737
 40
0.2138221938
 40
0.2419693286
 40
0.2705377682
 40
0.299546857
 40
0.3290108555
 40
0.3893201408
 40
0.4515066948
 40
0.5155240544
 40
0.5812642686
 40
0.6485658682
 40
0.7172215829
 40
0.7869863913
 40
0.8575856187
 40
1.0
 40
1.0
 40
1.0
 40
1.0
 10
11.453045952
 20
7.1309827943
 30
0.0
 10
11.4527194637
 20
7.1263044179
 30
0.0
 10
11.4517587053
 20
7.1169464608
 30
0.0
 10
11.449405454
 20
7.1029964058
 30
0.0
 10
11.446143628
 20
7.0891410096
 30
0.0
 10
11.4419808
 20
7.0754119016
 30
0.0
 10
11.4369262729
 20
7.0618385121
 30
0.0
 10
11.4289670867
 20
7.0438811862
 30
0.0
 10
11.4192892838
 20
7.0264496738
 30
0.0
 10
11.4080599646
 20
7.0096992199
 30
0.0
 10
11.3987635398
 20
6.9973439725
 30
0.0
 10
11.3886747733
 20
6.9853163826
 30
0.0
 10
11.3740863781
 20
6.969630237
 30
0.0
 10
11.3539459834
 20
6.9509919499
 30
0.0
 10
11.3272189839
 20
6.9305179781
 30
0.0
 10
11.2979828398
 20
6.9119301895
 30
0.0
 10
11.2665020844
 20
6.895386795
 30
0.0
 10
11.2330582729
 20
6.8810260422
 30
0.0
 10
11.1979521363
 20
6.8689681545
 30
0.0
 10
11.1614940604
 20
6.8593122856
 30
0.0
 10
11.1113980128
 20
6.8497220282
 30
0.0
 10
11.0729870185
 20
6.8463823924
 30
0.0
 10
11.0473183383
 20
6.8458689443
 30
0.0
  0
SPLINE
  5
2BD
100
AcDbEntity
  8
0
100
AcDbSpline
 62
7
  6
CONTINUOUS
 70
0
 71
3
 72
26
 73
22
 74
0
 42
0.0000001
 43
0.0000001
 44
0.0000000001
 40
0.0
 40
0.0
 40
0.0
 40
0.0
 40
0.0260017215
 40
0.0521235463
 40
0.0784153073
 40
0.1049243384
 40
0.1587432507
 40
0.2139145039
 40
0.2420954308
 40
0.2706978027
 40
0.2997399167
 40
0.3292351265
 40
0.3895985749
 40
0.4518237776
 40
0.515861091
 40
0.5816011515
 40
0.6488825868
 40
0.7174995519
 40
0.7872095346
 40
0.8577412003
 40
1.0
 40
1.0
 40
1.0
 40
1.0
 10
11.4528060085
 20
7.2304746476
 30
0.0
 10
11.4524143156
 20
7.2258309084
 30
0.0
 10
11.4513271037
 20
7.2165446704
 30
0.0
 10
11.4487988068
 20
7.2027106135
 30
0.0
 10
11.4453754779
 20
7.1889758585
 30
0.0
 10
11.4396015708
 20
7.1707488307
 30
0.0
 10
11.4301332372
 20
7.1483166236
 30
0.0
 10
11.4179558416
 20
7.1268950422
 30
0.0
 10
11.4066281857
 20
7.1103232672
 30
0.0
 10
11.3972721399
 20
7.0981039202
 30
0.0
 10
11.387138002
 20
7.08621125
 30
0.0
 10
11.3725082586
 20
7.0707056101
 30
0.0
 10
11.352352486
 20
7.0522882831
 30
0.0
 10
11.3256578041
 20
7.0320629031
 30
0.0
 10
11.2965023383
 20
7.0137061227
 30
0.0
 10
11.2651462025
 20
6.9973720408
 30
0.0
 10
11.2318659682
 20
6.9831952652
 30
0.0
 10
11.1969567792
 20
6.9712928146
 30
0.0
 10
11.1607230494
 20
6.9617611677
 30
0.0
 10
11.1109567145
 20
6.952292726
 30
0.0
 10
11.0728099128
 20
6.9489907158
 30
0.0
 10
11.0473183383
 20
6.9484784872
 30
0.0
  0
SPLINE
  5
2BE
100
AcDbEntity
  8
0
100
AcDbSpline
 62
9
  6
CONTINUOUS
 70
0
 71
3
 72
45
 73
41
 74
0
 42
0.0000001
 43
0.0000001
 44
0.0000000001
 40
0.0
 40
0.0
 40
0.0
 40
0.0
 40
0.0124254686
 40
0.0248642204
 40
0.0373294429
 40
0.0498341213
 40
0.0623909559
 40
0.0750122652
 40
0.0877099038
 40
0.1004951995
 40
0.1133788621
 40
0.1263709621
 40
0.1394808405
 40
0.1527171104
 40
0.179594068
 40
0.2070603752
 40
0.2351559085
 40
0.2639075246
 40
0.2933294413
 40
0.3234238442
 40
0.3541816457
 40
0.3855833377
 40
0.4175998966
 40
0.4501937073
 40
0.4833194897
 40
0.5169252127
 40
0.5509529957
 40
0.5853399882
 40
0.6200192311
 40
0.6549204998
 40
0.6899711335
 40
0.7250968536
 40
0.7602225736
 40
0.7952732076
 40
0.8301744754
 40
0.8648537223
 40
0.8992406982
 40
0.9332685395
 40
0.966874108
 40
1.0
 40
1.0
 40
1.0
 40
1.0
 10
9.0473183383
 20
4.8325377656
 30
0.0
 10
9.0473183383
 20
4.8171097123
 30
0.0
 10
9.0480333476
 20
4.7862323534
 30
0.0
 10
9.0512485327
 20
4.7399782782
 30
0.0
 10
9.0566035725
 20
4.6938229322
 30
0.0
 10
9.0640922692
 20
4.6478173022
 30
0.0
 10
9.07370656
 20
4.6020105682
 30
0.0
 10
9.0854360573
 20
4.5564521429
 30
0.0
 10
9.0992676585
 20
4.5111908728
 30
0.0
 10
9.115186769
 20
4.4662755532
 30
0.0
 10
9.1331755683
 20
4.4217541245
 30
0.0
 10
9.1532149336
 20
4.3776747434
 30
0.0
 10
9.1752832226
 20
4.334083703
 30
0.0
 10
9.207540927
 20
4.2763894295
 30
0.0
 10
9.2529218143
 20
4.2056954391
 30
0.0
 10
9.3147730679
 20
4.1240166632
 30
0.0
 10
9.3840328463
 20
4.045391766
 30
0.0
 10
9.4603987868
 20
3.9701571849
 30
0.0
 10
9.5435422554
 20
3.8986292359
 30
0.0
 10
9.6331059926
 20
3.831110042
 30
0.0
 10
9.7287063905
 20
3.7678845074
 30
0.0
 10
9.8299346338
 20
3.7092197372
 30
0.0
 10
9.9363583273
 20
3.65536378
 30
0.0
 10
10.047523165
 20
3.6065445978
 30
0.0
 10
10.1629547546
 20
3.5629690433
 30
0.0
 10
10.2821605472
 20
3.5248218977
 30
0.0
 10
10.4046319013
 20
3.4922650584
 30
0.0
 10
10.5298462204
 20
3.4654367962
 30
0.0
 10
10.6572691661
 20
3.444451121
 30
0.0
 10
10.786356932
 20
3.4293972584
 30
0.0
 10
10.9165585676
 20
3.4203392393
 30
0.0
 10
11.0473183385
 20
3.4173156073
 30
0.0
 10
11.1780781083
 20
3.4203392387
 30
0.0
 10
11.3082797468
 20
3.4293972609
 30
0.0
 10
11.4373675032
 20
3.4444511126
 30
0.0
 10
11.5647904831
 20
3.4654368224
 30
0.0
 10
11.6900046679
 20
3.4922649788
 30
0.0
 10
11.8124765969
 20
3.5248221504
 30
0.0
 10
11.9316797631
 20
3.5629681151
 30
0.0
 10
12.009238724
 20
3.5922469568
 30
0.0
 10
12.0473183383
 20
3.6077928942
 30
0.0
  0
SPLINE
  5
2BF
100
AcDbEntity
  8
0
100
AcDbSpline
 62
9
  6
CONTINUOUS
 70
0
 71
3
 72
45
 73
41
 74
0
 42
0.0000001
 43
0.0000001
 44
0.0000000001
 40
0.0
 40
0.0
 40
0.0
 40
0.0
 40
0.0124254686
 40
0.0248642204
 40
0.0373294429
 40
0.0498341213
 40
0.0623909559
 40
0.0750122652
 40
0.0877099039
 40
0.1004951995
 40
0.1133788621
 40
0.1263709621
 40
0.1394808405
 40
0.1527171104
 40
0.179594068
 40
0.2070603752
 40
0.2351559084
 40
0.2639075246
 40
0.2933294413
 40
0.3234238442
 40
0.3541816457
 40
0.3855833377
 40
0.4175998966
 40
0.4501937073
 40
0.4833194896
 40
0.5169252127
 40
0.5509529957
 40
0.5853399882
 40
0.6200192311
 40
0.6549204998
 40
0.6899711335
 40
0.7250968536
 40
0.7602225736
 40
0.7952732075
 40
0.8301744754
 40
0.8648537223
 40
0.8992406982
 40
0.9332685395
 40
0.966874108
 40
1.0
 40
1.0
 40
1.0
 40
1.0
 10
9.0473183383
 20
5.4293944618
 30
0.0
 10
9.0473183383
 20
5.4139664086
 30
0.0
 10
9.0480333476
 20
5.3830890496
 30
0.0
 10
9.0512485327
 20
5.3368349745
 30
0.0
 10
9.0566035725
 20
5.2906796285
 30
0.0
 10
9.0640922692
 20
5.2446739984
 30
0.0
 10
9.07370656
 20
5.1988672644
 30
0.0
 10
9.0854360573
 20
5.1533088391
 30
0.0
 10
9.0992676585
 20
5.108047569
 30
0.0
 10
9.115186769
 20
5.0631322495
 30
0.0
 10
9.1331755683
 20
5.0186108208
 30
0.0
 10
9.1532149336
 20
4.9745314397
 30
0.0
 10
9.1752832226
 20
4.9309403993
 30
0.0
 10
9.2075409271
 20
4.8732461258
 30
0.0
 10
9.2529218143
 20
4.8025521354
 30
0.0
 10
9.3147730679
 20
4.7208733594
 30
0.0
 10
9.3840328463
 20
4.6422484622
 30
0.0
 10
9.4603987868
 20
4.5670138812
 30
0.0
 10
9.5435422554
 20
4.4954859322
 30
0.0
 10
9.6331059926
 20
4.4279667383
 30
0.0
 10
9.7287063905
 20
4.3647412037
 30
0.0
 10
9.8299346338
 20
4.3060764335
 30
0.0
 10
9.9363583273
 20
4.2522204763
 30
0.0
 10
10.047523165
 20
4.203401294
 30
0.0
 10
10.1629547545
 20
4.1598257395
 30
0.0
 10
10.2821605471
 20
4.121678594
 30
0.0
 10
10.4046319013
 20
4.0891217546
 30
0.0
 10
10.5298462204
 20
4.0622934924
 30
0.0
 10
10.657269166
 20
4.0413078173
 30
0.0
 10
10.786356932
 20
4.0262539547
 30
0.0
 10
10.9165585676
 20
4.0171959356
 30
0.0
 10
11.0473183385
 20
4.0141723036
 30
0.0
 10
11.1780781083
 20
4.0171959349
 30
0.0
 10
11.3082797468
 20
4.0262539572
 30
0.0
 10
11.4373675032
 20
4.0413078089
 30
0.0
 10
11.564790483
 20
4.0622935186
 30
0.0
 10
11.6900046679
 20
4.089121675
 30
0.0
 10
11.8124765968
 20
4.1216788467
 30
0.0
 10
11.931679763
 20
4.1598248114
 30
0.0
 10
12.009238724
 20
4.189103653
 30
0.0
 10
12.0473183383
 20
4.2046495904
 30
0.0
  0
SPLINE
  5
2C0
100
AcDbEntity
  8
0
100
AcDbSpline
 62
9
  6
CONTINUOUS
 70
0
 71
3
 72
29
 73
25
 74
0
 42
0.0000001
 43
0.0000001
 44
0.0000000001
 40
0.0
 40
0.0
 40
0.0
 40
0.0
 40
0.0276002716
 40
0.0552300487
 40
0.0829186243
 40
0.110694842
 40
0.1385869124
 40
0.1666221983
 40
0.194827032
 40
0.2232265752
 40
0.2518446177
 40
0.2807035283
 40
0.3098240562
 40
0.3392253332
 40
0.3989262067
 40
0.4599361825
 40
0.5223438368
 40
0.5862088259
 40
0.651562729
 40
0.7184104134
 40
0.7867316369
 40
0.8564832789
 40
0.9276002312
 40
1.0
 40
1.0
 40
1.0
 40
1.0
 10
13.0473183383
 20
5.4293944618
 30
0.0
 10
13.0473183383
 20
5.4139664086
 30
0.0
 10
13.046603329
 20
5.3830890496
 30
0.0
 10
13.0433881439
 20
5.3368349745
 30
0.0
 10
13.0380331041
 20
5.2906796285
 30
0.0
 10
13.0305444073
 20
5.2446739984
 30
0.0
 10
13.0209301166
 20
5.1988672644
 30
0.0
 10
13.0092006193
 20
5.1533088391
 30
0.0
 10
12.9953690181
 20
5.108047569
 30
0.0
 10
12.9794499076
 20
5.0631322495
 30
0.0
 10
12.9614611083
 20
5.0186108208
 30
0.0
 10
12.941421743
 20
4.9745314397
 30
0.0
 10
12.919353454
 20
4.9309403993
 30
0.0
 10
12.8870957495
 20
4.8732461258
 30
0.0
 10
12.8417148623
 20
4.8025521354
 30
0.0
 10
12.7798636085
 20
4.7208733595
 30
0.0
 10
12.7106038311
 20
4.6422484621
 30
0.0
 10
12.634237887
 20
4.5670138818
 30
0.0
 10
12.5510944303
 20
4.4954859301
 30
0.0
 10
12.4615306528
 20
4.4279667419
 30
0.0
 10
12.3659303993
 20
4.3647412116
 30
0.0
 10
12.2647015827
 20
4.3060763113
 30
0.0
 10
12.1582804429
 20
4.2522212818
 30
0.0
 10
12.0847864287
 20
4.2199458743
 30
0.0
 10
12.0473183383
 20
4.2046495904
 30
0.0
  0
SPLINE
  5
2C1
100
AcDbEntity
  8
0
100
AcDbSpline
 62
7
  6
CONTINUOUS
 70
0
 71
3
 72
23
 73
19
 74
0
 42
0.0000001
 43
0.0000001
 44
0.0000000001
 40
0.0
 40
0.0
 40
0.0
 40
0.0
 40
0.1170593318
 40
0.147425609
 40
0.1781763749
 40
0.2407126951
 40
0.3044423011
 40
0.3690945812
 40
0.4343754104
 40
0.4999748362
 40
0.5655751676
 40
0.6308586845
 40
0.6955153727
 40
0.7592509934
 40
0.8217947769
 40
0.8525497561
 40
0.8829205236
 40
1.0
 40
1.0
 40
1.0
 40
1.0
 10
10.7747317777
 20
7.092095654
 30
0.0
 10
10.7930578157
 20
7.0790325046
 30
0.0
 10
10.8177768767
 20
7.0647564877
 30
0.0
 10
10.849008497
 20
7.0506908205
 30
0.0
 10
10.8710662868
 20
7.0418045795
 30
0.0
 10
10.8997150575
 20
7.0321902671
 30
0.0
 10
10.9353232323
 20
7.0231501089
 30
0.0
 10
10.9720129585
 20
7.0166280415
 30
0.0
 10
11.0094291915
 20
7.0126866922
 30
0.0
 10
11.047211161
 20
7.0113637076
 30
0.0
 10
11.0849941648
 20
7.0126717997
 30
0.0
 10
11.1224134915
 20
7.0165983996
 30
0.0
 10
11.1591083393
 20
7.0231060018
 30
0.0
 10
11.1947236147
 20
7.0321321165
 30
0.0
 10
11.2233797688
 20
7.0417350728
 30
0.0
 10
11.245444436
 20
7.0506125435
 30
0.0
 10
11.276687601
 20
7.0646660831
 30
0.0
 10
11.3014176774
 20
7.0789322795
 30
0.0
 10
11.3197537697
 20
7.0919879909
 30
0.0
  0
SPLINE
  5
2C2
100
AcDbEntity
  8
0
100
AcDbSpline
 62
7
  6
CONTINUOUS
 70
0
 71
3
 72
21
 73
17
 74
0
 42
0.0000001
 43
0.0000001
 44
0.0000000001
 40
0.0
 40
0.0
 40
0.0
 40
0.0
 40
0.1156633965
 40
0.1760721777
 40
0.2379352706
 40
0.3010345716
 40
0.3651242932
 40
0.4299378765
 40
0.4951949506
 40
0.5606075365
 40
0.6258869074
 40
0.6907496084
 40
0.7549242281
 40
0.8181576838
 40
0.8802219819
 40
1.0
 40
1.0
 40
1.0
 40
1.0
 10
10.780288647
 20
7.0457729546
 30
0.0
 10
10.7979867283
 20
7.0340584451
 30
0.0
 10
10.8266086546
 20
7.0186516102
 30
0.0
 10
10.8672099419
 20
7.0025359067
 30
0.0
 10
10.8997082213
 20
6.9923749514
 30
0.0
 10
10.9335029581
 20
6.9844211289
 30
0.0
 10
10.9683032773
 20
6.9787472039
 30
0.0
 10
11.0038013682
 20
6.9754100386
 30
0.0
 10
11.0396854462
 20
6.9744450561
 30
0.0
 10
11.0756398021
 20
6.9758673009
 30
0.0
 10
11.1113481357
 20
6.9796707879
 30
0.0
 10
11.146496921
 20
6.9858290571
 30
0.0
 10
11.180775625
 20
6.9942941157
 30
0.0
 10
11.2138888827
 20
7.005001662
 30
0.0
 10
11.2555733774
 20
7.0219370246
 30
0.0
 10
11.2850386714
 20
7.0379953818
 30
0.0
 10
11.3033523783
 20
7.0501477003
 30
0.0
  0
SPLINE
  5
2C3
100
AcDbEntity
  8
0
100
AcDbSpline
 62
7
  6
CONTINUOUS
 70
0
 71
3
 72
21
 73
17
 74
0
 42
0.0000001
 43
0.0000001
 44
0.0000000001
 40
0.0
 40
0.0
 40
0.0
 40
0.0
 40
0.1168748704
 40
0.177584532
 40
0.2395628702
 40
0.3026124493
 40
0.366515673
 40
0.4310397339
 40
0.4959416338
 40
0.5609731899
 40
0.6258855732
 40
0.6904344262
 40
0.7543843698
 40
0.8175140009
 40
0.8796208887
 40
1.0
 40
1.0
 40
1.0
 40
1.0
 10
10.7975614367
 20
6.9861535643
 30
0.0
 10
10.8147869515
 20
6.976024358
 30
0.0
 10
10.8422572392
 20
6.9627409908
 30
0.0
 10
10.8808233447
 20
6.9488899745
 30
0.0
 10
10.9114014887
 20
6.9402179936
 30
0.0
 10
10.9430148006
 20
6.9334725603
 30
0.0
 10
10.9754269891
 20
6.9287079491
 30
0.0
 10
11.0083895558
 20
6.9259660589
 30
0.0
 10
11.0416514688
 20
6.9252728014
 30
0.0
 10
11.0749589836
 20
6.9266387376
 30
0.0
 10
11.1080580717
 20
6.9300587416
 30
0.0
 10
11.1406967147
 20
6.9355123131
 30
0.0
 10
11.1726249481
 20
6.9429628657
 30
0.0
 10
11.2036039772
 20
6.9523613604
 30
0.0
 10
11.2428956701
 20
6.96723651
 30
0.0
 10
11.2709063397
 20
6.9813112175
 30
0.0
 10
11.288516846
 20
6.9919645583
 30
0.0
  0
SPLINE
  5
2C4
100
AcDbEntity
  8
0
100
AcDbSpline
 62
7
  6
CONTINUOUS
 70
0
 71
3
 72
36
 73
32
 74
0
 42
0.0000001
 43
0.0000001
 44
0.0000000001
 40
0.0
 40
0.0
 40
0.0
 40
0.0
 40
0.0248352116
 40
0.0498083689
 40
0.0750490636
 40
0.1006805529
 40
0.1268100161
 40
0.153528719
 40
0.1809092451
 40
0.2090048629
 40
0.2378496776
 40
0.2674591828
 40
0.2978313665
 40
0.3289480816
 40
0.3607764762
 40
0.3932705163
 40
0.4263726492
 40
0.460015198
 40
0.4941220312
 40
0.5286099662
 40
0.5983447909
 40
0.6334276905
 40
0.6685167416
 40
0.7383004191
 40
0.7728302841
 40
0.806990035
 40
0.8406956234
 40
0.87386992
 40
0.9064443724
 40
0.9383592225
 40
1.0
 40
1.0
 40
1.0
 40
1.0
 10
10.6410683386
 20
7.274199502
 30
0.0
 10
10.6410683526
 20
7.2670553949
 30
0.0
 10
10.641826801
 20
7.252716127
 30
0.0
 10
10.6452290836
 20
7.2313594809
 30
0.0
 10
10.6508768108
 20
7.21024562
 30
0.0
 10
10.6587348805
 20
7.1894974541
 30
0.0
 10
10.668756925
 20
7.1692303607
 30
0.0
 10
10.6808838348
 20
7.1495572214
 30
0.0
 10
10.6950456653
 20
7.1305864293
 30
0.0
 10
10.7111616132
 20
7.1124219643
 30
0.0
 10
10.7291406941
 20
7.095163024
 30
0.0
 10
10.7488821763
 20
7.0789037231
 30
0.0
 10
10.7702760402
 20
7.063732734
 30
0.0
 10
10.7932034556
 20
7.0497328649
 30
0.0
 10
10.8175373394
 20
7.0369806495
 30
0.0
 10
10.8431429283
 20
7.0255459106
 30
0.0
 10
10.8698785785
 20
7.0154912919
 30
0.0
 10
10.8975959869
 20
7.0068720297
 30
0.0
 10
10.9261431689
 20
6.9997352315
 30
0.0
 10
10.9652350949
 20
6.9922228836
 30
0.0
 10
11.0051620378
 20
6.9878688027
 30
0.0
 10
11.0454047478
 20
6.9866747392
 30
0.0
 10
11.085668597
 20
6.9876011442
 30
0.0
 10
11.1256513573
 20
6.9916903563
 30
0.0
 10
11.164834666
 20
6.9989408551
 30
0.0
 10
11.1934753948
 20
7.0058872572
 30
0.0
 10
11.2213062307
 20
7.0143217119
 30
0.0
 10
11.2481737653
 20
7.0241975064
 30
0.0
 10
11.2739319484
 20
7.0354623856
 30
0.0
 10
11.3062164518
 20
7.052049303
 30
0.0
 10
11.3289514747
 20
7.0666547285
 30
0.0
 10
11.3431286757
 20
7.0773044706
 30
0.0
  0
SPLINE
  5
2C5
100
AcDbEntity
  8
0
100
AcDbSpline
 62
9
  6
CONTINUOUS
 70
0
 71
3
 72
26
 73
22
 74
0
 42
0.0000001
 43
0.0000001
 44
0.0000000001
 40
0.0
 40
0.0
 40
0.0
 40
0.0
 40
0.0257136519
 40
0.0514890171
 40
0.0773868127
 40
0.1034656751
 40
0.129781364
 40
0.156385877
 40
0.1833267852
 40
0.2106468136
 40
0.2665437979
 40
0.3243344258
 40
0.3841589012
 40
0.4460694336
 40
0.5100368942
 40
0.5759594391
 40
0.6436720085
 40
0.7129560528
 40
0.7835488877
 40
0.8551537018
 40
1.0
 40
1.0
 40
1.0
 40
1.0
 10
11.4535683383
 20
8.082334108
 30
0.0
 10
11.4535683383
 20
8.0776328491
 30
0.0
 10
11.4532409497
 20
8.0682157939
 30
0.0
 10
11.4517701578
 20
8.05413295
 30
0.0
 10
11.4493226505
 20
8.0401183042
 30
0.0
 10
11.4459049482
 20
8.0262068661
 30
0.0
 10
11.4415254742
 20
8.0124321953
 30
0.0
 10
11.4361951628
 20
7.9988279196
 30
0.0
 10
11.4299271904
 20
7.9854263417
 30
0.0
 10
11.4202690143
 20
7.967740421
 30
0.0
 10
11.4058594769
 20
7.9462837851
 30
0.0
 10
11.385260853
 20
7.9220766275
 30
0.0
 10
11.3614227958
 20
7.8994295417
 30
0.0
 10
11.3345792754
 20
7.8785566875
 30
0.0
 10
11.3049888983
 20
7.8596516908
 30
0.0
 10
11.2729357506
 20
7.8428914289
 30
0.0
 10
11.2387261526
 20
7.8284328947
 30
0.0
 10
11.2026881318
 20
7.8164122768
 30
0.0
 10
11.1651616385
 20
7.8069423454
 30
0.0
 10
11.1134512891
 20
7.7978054516
 30
0.0
 10
11.073800767
 20
7.7950719782
 30
0.0
 10
11.0473183383
 20
7.7950719782
 30
0.0
  0
SPLINE
  5
2C6
100
AcDbEntity
  8
0
100
AcDbSpline
 62
7
  6
CONTINUOUS
 70
0
 71
3
 72
17
 73
13
 74
0
 42
0.0000001
 43
0.0000001
 44
0.0000000001
 40
0.0
 40
0.0
 40
0.0
 40
0.0
 40
0.1364826568
 40
0.2715461576
 40
0.404079375
 40
0.5330670193
 40
0.5959777614
 40
0.6576960861
 40
0.7772242151
 40
0.8349922106
 40
0.8913803207
 40
1.0
 40
1.0
 40
1.0
 40
1.0
 10
11.0473183383
 20
6.8458689443
 30
0.0
 10
11.0296279301
 20
6.8455150849
 30
0.0
 10
10.9943765907
 20
6.8464347539
 30
0.0
 10
10.9422884942
 20
6.8526720818
 30
0.0
 10
10.8919762715
 20
6.8636403692
 30
0.0
 10
10.8518995527
 20
6.8766676772
 30
0.0
 10
10.8215289942
 20
6.8893043856
 30
0.0
 10
10.793005198
 20
6.9030535157
 30
0.0
 10
10.7662523571
 20
6.9188592709
 30
0.0
 10
10.7417172339
 20
6.9366640111
 30
0.0
 10
10.7194837355
 20
6.9551173917
 30
0.0
 10
10.7044186191
 20
6.9704396436
 30
0.0
 10
10.6953467171
 20
6.9812097639
 30
0.0
  0
SPLINE
  5
2C7
100
AcDbEntity
  8
0
100
AcDbSpline
 62
7
  6
CONTINUOUS
 70
0
 71
3
 72
27
 73
23
 74
0
 42
0.0000001
 43
0.0000001
 44
0.0000000001
 40
0.0
 40
0.0
 40
0.0
 40
0.0
 40
0.1455762241
 40
0.2174501252
 40
0.2882754166
 40
0.3577695843
 40
0.4256795918
 40
0.491790423
 40
0.5559336846
 40
0.6179961522
 40
0.6779288791
 40
0.7071104772
 40
0.7357751633
 40
0.7639383808
 40
0.7916211507
 40
0.8456316015
 40
0.8720520469
 40
0.8981291011
 40
0.9239095781
 40
0.9494445515
 40
0.9747887946
 40
1.0
 40
1.0
 40
1.0
 40
1.0
 10
11.0473183383
 20
6.8972387401
 30
0.0
 10
11.0218201362
 20
6.8967273024
 30
0.0
 10
10.9836137734
 20
6.8984939683
 30
0.0
 10
10.9336386431
 20
6.9059616595
 30
0.0
 10
10.8973106084
 20
6.9140018523
 30
0.0
 10
10.8623187773
 20
6.9244252479
 30
0.0
 10
10.8289698975
 20
6.9371339451
 30
0.0
 10
10.7975611353
 20
6.9520095379
 30
0.0
 10
10.768370704
 20
6.9689158956
 30
0.0
 10
10.7416602152
 20
6.9876974165
 30
0.0
 10
10.721484714
 20
7.0049262248
 30
0.0
 10
10.7068542167
 20
7.0194870587
 30
0.0
 10
10.6967383239
 20
7.0306640763
 30
0.0
 10
10.6874063155
 20
7.0421684592
 30
0.0
 10
10.6761318575
 20
7.057774642
 30
0.0
 10
10.6663743154
 20
7.0740711366
 30
0.0
 10
10.6583131714
 20
7.0909097685
 30
0.0
 10
10.6531808186
 20
7.1036371772
 30
0.0
 10
10.6489320871
 20
7.1165226209
 30
0.0
 10
10.6455762122
 20
7.1295369733
 30
0.0
 10
10.6431212609
 20
7.142649009
 30
0.0
 10
10.6420870133
 20
7.1514534091
 30
0.0
 10
10.6417228928
 20
7.1558550962
 30
0.0
  0
SPLINE
  5
2C8
100
AcDbEntity
  8
0
100
AcDbSpline
 62
7
  6
CONTINUOUS
 70
0
 71
3
 72
25
 73
21
 74
0
 42
0.0000001
 43
0.0000001
 44
0.0000000001
 40
0.0
 40
0.0
 40
0.0
 40
0.0
 40
0.1454856072
 40
0.2173204719
 40
0.288114171
 40
0.3575860661
 40
0.4254845753
 40
0.4915955424
 40
0.5557507348
 40
0.6178362665
 40
0.6778015192
 40
0.7356673964
 40
0.7915337312
 40
0.8455843543
 40
0.8720221739
 40
0.8981138652
 40
0.9239054207
 40
0.9494471436
 40
0.9747930092
 40
1.0
 40
1.0
 40
1.0
 40
1.0
 10
11.0473183383
 20
6.9484784872
 30
0.0
 10
11.0219103767
 20
6.9479679387
 30
0.0
 10
10.9838388217
 20
6.9497181653
 30
0.0
 10
10.934032816
 20
6.9571279053
 30
0.0
 10
10.8978196364
 20
6.9651082414
 30
0.0
 10
10.8629287034
 20
6.9754561879
 30
0.0
 10
10.829663765
 20
6.9880751612
 30
0.0
 10
10.7983190002
 20
7.0028485168
 30
0.0
 10
10.7691706042
 20
7.0196414624
 30
0.0
 10
10.7424761077
 20
7.0383022654
 30
0.0
 10
10.7184723919
 20
7.0586633338
 30
0.0
 10
10.6973736821
 20
7.0805438684
 30
0.0
 10
10.6793724523
 20
7.1037459797
 30
0.0
 10
10.6669966329
 20
7.1241688288
 30
0.0
 10
10.6588544357
 20
7.1409224942
 30
0.0
 10
10.6536547755
 20
7.1535871564
 30
0.0
 10
10.6493313435
 20
7.1664118663
 30
0.0
 10
10.6458933953
 20
7.1793676087
 30
0.0
 10
10.6433493286
 20
7.1924236377
 30
0.0
 10
10.6422506458
 20
7.2011936312
 30
0.0
 10
10.6418533021
 20
7.2055787651
 30
0.0
  0
SPLINE
  5
2C9
100
AcDbEntity
  8
0
100
AcDbSpline
 62
9
  6
CONTINUOUS
 70
0
 71
3
 72
26
 73
22
 74
0
 42
0.0000001
 43
0.0000001
 44
0.0000000001
 40
0.0
 40
0.0
 40
0.0
 40
0.0
 40
0.1448462982
 40
0.2164511123
 40
0.2870439472
 40
0.3563279915
 40
0.4240405609
 40
0.4899631058
 40
0.5539305664
 40
0.6158410988
 40
0.6756655742
 40
0.7334562021
 40
0.7893531864
 40
0.8166732148
 40
0.843614123
 40
0.870218636
 40
0.8965343249
 40
0.9226131873
 40
0.9485109829
 40
0.9742863481
 40
1.0
 40
1.0
 40
1.0
 40
1.0
 10
11.0473183383
 20
7.7950719782
 30
0.0
 10
11.0208359095
 20
7.7950719782
 30
0.0
 10
10.9811853875
 20
7.7978054516
 30
0.0
 10
10.9294750381
 20
7.8069423454
 30
0.0
 10
10.8919485447
 20
7.8164122768
 30
0.0
 10
10.8559105239
 20
7.8284328947
 30
0.0
 10
10.821700926
 20
7.8428914289
 30
0.0
 10
10.7896477783
 20
7.8596516908
 30
0.0
 10
10.7600574012
 20
7.8785566875
 30
0.0
 10
10.7332138808
 20
7.8994295417
 30
0.0
 10
10.7093758236
 20
7.9220766275
 30
0.0
 10
10.6887771997
 20
7.9462837851
 30
0.0
 10
10.6743676622
 20
7.967740421
 30
0.0
 10
10.6647094862
 20
7.9854263417
 30
0.0
 10
10.6584415137
 20
7.9988279196
 30
0.0
 10
10.6531112024
 20
8.0124321953
 30
0.0
 10
10.6487317284
 20
8.0262068661
 30
0.0
 10
10.6453140261
 20
8.0401183042
 30
0.0
 10
10.6428665187
 20
8.05413295
 30
0.0
 10
10.6413957269
 20
8.0682157939
 30
0.0
 10
10.6410683383
 20
8.0776328491
 30
0.0
 10
10.6410683383
 20
8.082334108
 30
0.0
  0
SPLINE
  5
2CA
100
AcDbEntity
  8
0
100
AcDbSpline
 62
7
  6
CONTINUOUS
 70
0
 71
3
 72
11
 73
7
 74
0
 42
0.0000001
 43
0.0000001
 44
0.0000000001
 40
0.0
 40
0.0
 40
0.0
 40
0.0
 40
0.2451192939
 40
0.4929063197
 40
0.7442647451
 40
1.0
 40
1.0
 40
1.0
 40
1.0
 10
10.5874701312
 20
6.568865461
 30
0.0
 10
10.5885596968
 20
6.5760293913
 30
0.0
 10
10.591419263
 20
6.5903420101
 30
0.0
 10
10.5976722676
 20
6.611466407
 30
0.0
 10
10.6058779893
 20
6.6322484596
 30
0.0
 10
10.6125637142
 20
6.6456889639
 30
0.0
 10
10.6162038273
 20
6.6523150778
 30
0.0
  0
SPLINE
  5
2CB
100
AcDbEntity
  8
0
100
AcDbSpline
 62
7
  6
CONTINUOUS
 70
0
 71
3
 72
9
 73
5
 74
0
 42
0.0000001
 43
0.0000001
 44
0.0000000001
 40
0.0
 40
0.0
 40
0.0
 40
0.0
 40
0.4938697278
 40
1.0
 40
1.0
 40
1.0
 40
1.0
 10
10.6162038273
 20
6.6523150778
 30
0.0
 10
10.6204317234
 20
6.6600111358
 30
0.0
 10
10.6297353799
 20
6.6751957715
 30
0.0
 10
10.6403554153
 20
6.6894864143
 30
0.0
 10
10.6460207049
 20
6.6964781761
 30
0.0
  0
SPLINE
  5
2CC
100
AcDbEntity
  8
0
100
AcDbSpline
 62
7
  6
CONTINUOUS
 70
0
 71
3
 72
23
 73
19
 74
0
 42
0.0000001
 43
0.0000001
 44
0.0000000001
 40
0.0
 40
0.0
 40
0.0
 40
0.0
 40
0.0491239994
 40
0.0755445488
 40
0.1031231481
 40
0.13175873
 40
0.1613265093
 40
0.2227110138
 40
0.286310107
 40
0.3513069147
 40
0.417090032
 40
0.4832202358
 40
0.5493831564
 40
0.6153516507
 40
0.6809658979
 40
0.7460987112
 40
0.8745232315
 40
1.0
 40
1.0
 40
1.0
 40
1.0
 10
11.3727462656
 20
6.649481274
 30
0.0
 10
11.3727462656
 20
6.6469714647
 30
0.0
 10
11.3722592279
 20
6.6431033063
 30
0.0
 10
11.3708805243
 20
6.6380157149
 30
0.0
 10
11.3694369575
 20
6.6340425852
 30
0.0
 10
11.3676394713
 20
6.6300418487
 30
0.0
 10
11.3647763865
 20
6.6246402119
 30
0.0
 10
11.3604787284
 20
6.6179973262
 30
0.0
 10
11.3544825107
 20
6.6103518312
 30
0.0
 10
11.3477827434
 20
6.6030104319
 30
0.0
 10
11.3405430522
 20
6.5960167513
 30
0.0
 10
11.3328894272
 20
6.5893891643
 30
0.0
 10
11.3249187629
 20
6.5831325515
 30
0.0
 10
11.3167057687
 20
6.5772437975
 30
0.0
 10
11.3083076917
 20
6.5717178669
 30
0.0
 10
11.2969784237
 20
6.5648585152
 30
0.0
 10
11.2825931997
 20
6.5571646274
 30
0.0
 10
11.2707535599
 20
6.5518351143
 30
0.0
 10
11.2648183383
 20
6.5494120702
 30
0.0
  0
SPLINE
  5
2CD
100
AcDbEntity
  8
0
100
AcDbSpline
 62
7
  6
CONTINUOUS
 70
0
 71
3
 72
27
 73
23
 74
0
 42
0.0000001
 43
0.0000001
 44
0.0000000001
 40
0.0
 40
0.0
 40
0.0
 40
0.0
 40
0.150036973
 40
0.2231569823
 40
0.2948235031
 40
0.3648876579
 40
0.4331643824
 40
0.4994389175
 40
0.563479597
 40
0.6250278685
 40
0.6838419369
 40
0.7397636279
 40
0.7666702618
 40
0.7929113868
 40
0.8185764775
 40
0.8437983271
 40
0.8687741846
 40
0.8937582817
 40
0.919053496
 40
0.9449892246
 40
0.9718883547
 40
1.0
 40
1.0
 40
1.0
 40
1.0
 10
11.2648183383
 20
6.5494120702
 30
0.0
 10
11.2590516915
 20
6.5470578465
 30
0.0
 10
11.2503493368
 20
6.5438486445
 30
0.0
 10
11.2386378273
 20
6.5402845435
 30
0.0
 10
11.2300017709
 20
6.5380426231
 30
0.0
 10
11.2214695218
 20
6.5362352224
 30
0.0
 10
11.2130769402
 20
6.5348970769
 30
0.0
 10
11.2048686687
 20
6.5340711241
 30
0.0
 10
11.1969008871
 20
6.5338085677
 30
0.0
 10
11.1892439315
 20
6.5341735917
 30
0.0
 10
11.1819903151
 20
6.5352415237
 30
0.0
 10
11.1763015837
 20
6.5368146003
 30
0.0
 10
11.1721089798
 20
6.5385379361
 30
0.0
 10
11.1692025254
 20
6.540051443
 30
0.0
 10
11.1665219903
 20
6.5418139615
 30
0.0
 10
11.1640981924
 20
6.5438366628
 30
0.0
 10
11.1619649136
 20
6.5461271261
 30
0.0
 10
11.1601583061
 20
6.5486883304
 30
0.0
 10
11.1587128569
 20
6.5515150098
 30
0.0
 10
11.1576604473
 20
6.5545947192
 30
0.0
 10
11.1570247666
 20
6.5579046132
 30
0.0
 10
11.1568904109
 20
6.5601914531
 30
0.0
 10
11.1568904109
 20
6.5613584903
 30
0.0
  0
SPLINE
  5
2CE
100
AcDbEntity
  8
0
100
AcDbSpline
 62
7
  6
CONTINUOUS
 70
0
 71
3
 72
15
 73
11
 74
0
 42
0.0000001
 43
0.0000001
 44
0.0000000001
 40
0.0
 40
0.0
 40
0.0
 40
0.0
 40
0.1209597754
 40
0.2423316681
 40
0.3645178837
 40
0.4879017299
 40
0.6128395306
 40
0.7396535783
 40
0.8686268875
 40
1.0
 40
1.0
 40
1.0
 40
1.0
 10
10.5848183824
 20
6.5692505931
 30
0.0
 10
10.5848184138
 20
6.5756322447
 30
0.0
 10
10.5853485882
 20
6.5884235746
 30
0.0
 10
10.5877307157
 20
6.6075276646
 30
0.0
 10
10.5916911321
 20
6.6264995165
 30
0.0
 10
10.5972154155
 20
6.6452715282
 30
0.0
 10
10.6042837088
 20
6.6637791226
 30
0.0
 10
10.6128709128
 20
6.6819586939
 30
0.0
 10
10.6229456614
 20
6.6997470385
 30
0.0
 10
10.630558104
 20
6.7111959684
 30
0.0
 10
10.6345899471
 20
6.7168336631
 30
0.0
  0
SPLINE
  5
2CF
100
AcDbEntity
  8
0
100
AcDbSpline
 62
9
  6
CONTINUOUS
 70
0
 71
3
 72
19
 73
15
 74
0
 42
0.0000001
 43
0.0000001
 44
0.0000000001
 40
0.0
 40
0.0
 40
0.0
 40
0.0
 40
0.1384143428
 40
0.2722443968
 40
0.4016332069
 40
0.5269031027
 40
0.588175775
 40
0.6486284973
 40
0.7083546212
 40
0.7674578
 40
0.8260506295
 40
0.8842536228
 40
0.9421931948
 40
1.0
 40
1.0
 40
1.0
 40
1.0
 10
11.3727462656
 20
6.649481274
 30
0.0
 10
11.3826423184
 20
6.6567240839
 30
0.0
 10
11.4014795037
 20
6.6718565345
 30
0.0
 10
11.4269553619
 20
6.696784635
 30
0.0
 10
11.4489508863
 20
6.7233446979
 30
0.0
 10
11.464320904
 20
6.7468207197
 30
0.0
 10
11.4746191125
 20
6.7661426545
 30
0.0
 10
11.4813025151
 20
6.7807757324
 30
0.0
 10
11.48698463
 20
6.7956202136
 30
0.0
 10
11.4916525041
 20
6.8106421938
 30
0.0
 10
11.4952945183
 20
6.8258067505
 30
0.0
 10
11.4979024873
 20
6.8410787853
 30
0.0
 10
11.4994695564
 20
6.8564218671
 30
0.0
 10
11.4998183456
 20
6.866680269
 30
0.0
 10
11.4998183119
 20
6.8718018917
 30
0.0
  0
SPLINE
  5
2D0
100
AcDbEntity
  8
0
100
AcDbSpline
 62
7
  6
CONTINUOUS
 70
0
 71
3
 72
21
 73
17
 74
0
 42
0.0000001
 43
0.0000001
 44
0.0000000001
 40
0.0
 40
0.0
 40
0.0
 40
0.0
 40
0.1434934773
 40
0.2132580234
 40
0.2815937145
 40
0.4137535613
 40
0.4776316462
 40
0.5400521012
 40
0.6010746384
 40
0.6607877724
 40
0.719309177
 40
0.7767848291
 40
0.8333871173
 40
0.8893117533
 40
0.944773377
 40
1.0
 40
1.0
 40
1.0
 40
1.0
 10
11.2735683383
 20
6.8224821519
 30
0.0
 10
11.2903662758
 20
6.8293398811
 30
0.0
 10
11.3148341658
 20
6.8408413123
 30
0.0
 10
11.3456545604
 20
6.8587033557
 30
0.0
 10
11.3741703051
 20
6.8775613625
 30
0.0
 10
11.4003406638
 20
6.8985376898
 30
0.0
 10
11.4236361443
 20
6.921488512
 30
0.0
 10
11.4393067305
 20
6.9392777893
 30
0.0
 10
11.4533007499
 20
6.9577580337
 30
0.0
 10
11.4655580892
 20
6.9768519277
 30
0.0
 10
11.4760244939
 20
6.9964780818
 30
0.0
 10
11.4846535326
 20
7.0165527467
 30
0.0
 10
11.4914063679
 20
7.0369894632
 30
0.0
 10
11.4962522289
 20
7.0577004647
 30
0.0
 10
11.4991687694
 20
7.078593202
 30
0.0
 10
11.4998182607
 20
7.0925976205
 30
0.0
 10
11.4998182951
 20
7.099580679
 30
0.0
  0
SPLINE
  5
2D1
100
AcDbEntity
  8
0
100
AcDbSpline
 62
7
  6
CONTINUOUS
 70
0
 71
3
 72
31
 73
27
 74
0
 42
0.0000001
 43
0.0000001
 44
0.0000000001
 40
0.0
 40
0.0
 40
0.0
 40
0.0
 40
0.0667240908
 40
0.1007584781
 40
0.1351529009
 40
0.2047287171
 40
0.2749010117
 40
0.3450733166
 40
0.4146491549
 40
0.4830580088
 40
0.5166708366
 40
0.5498036022
 40
0.6144034283
 40
0.6458117609
 40
0.676576064
 40
0.7360739637
 40
0.764831663
 40
0.7929331386
 40
0.8204052414
 40
0.8472878712
 40
0.873634
 40
0.8995093399
 40
0.9249914967
 40
0.9501685545
 40
0.9751371699
 40
1.0
 40
1.0
 40
1.0
 40
1.0
 10
11.2735683383
 20
6.8224821519
 30
0.0
 10
11.2562181393
 20
6.8153989628
 30
0.0
 10
11.2294216588
 20
6.8060985762
 30
0.0
 10
11.1927265936
 20
6.7963442246
 30
0.0
 10
11.15481253
 20
6.7882206342
 30
0.0
 10
11.1062968925
 20
6.7814266272
 30
0.0
 10
11.0473189259
 20
6.7787050888
 30
0.0
 10
10.988337443
 20
6.7814269017
 30
0.0
 10
10.9303558454
 20
6.7895464796
 30
0.0
 10
10.883398851
 20
6.8007667369
 30
0.0
 10
10.8472306343
 20
6.8123409346
 30
0.0
 10
10.8127066932
 20
6.8253737553
 30
0.0
 10
10.7798038347
 20
6.8408408859
 30
0.0
 10
10.7489819174
 20
6.8587033044
 30
0.0
 10
10.7204664976
 20
6.8775613883
 30
0.0
 10
10.694296026
 20
6.8985377181
 30
0.0
 10
10.671000512
 20
6.9214884941
 30
0.0
 10
10.6553298984
 20
6.9392777569
 30
0.0
 10
10.6413359418
 20
6.9577580429
 30
0.0
 10
10.6290786421
 20
6.976851951
 30
0.0
 10
10.6186121956
 20
6.9964780827
 30
0.0
 10
10.6099831006
 20
7.0165527318
 30
0.0
 10
10.6032302618
 20
7.0369894515
 30
0.0
 10
10.5983844722
 20
7.0577004715
 30
0.0
 10
10.5954680052
 20
7.0785932045
 30
0.0
 10
10.5948183471
 20
7.0925976193
 30
0.0
 10
10.5948183815
 20
7.099580679
 30
0.0
  0
SPLINE
  5
2D2
100
AcDbEntity
  8
0
100
AcDbSpline
 62
9
  6
CONTINUOUS
 70
0
 71
3
 72
26
 73
22
 74
0
 42
0.0000001
 43
0.0000001
 44
0.0000000001
 40
0.0
 40
0.0
 40
0.0
 40
0.0
 40
0.0656111295
 40
0.1327900769
 40
0.2011076006
 40
0.2700868861
 40
0.3392274308
 40
0.4080227161
 40
0.4759789841
 40
0.5426342603
 40
0.6075776771
 40
0.6704697169
 40
0.7310631641
 40
0.7892242972
 40
0.844953833
 40
0.8719648645
 40
0.898438854
 40
0.9244202373
 40
0.9499635447
 40
0.9751326762
 40
1.0
 40
1.0
 40
1.0
 40
1.0
 10
11.2201279562
 20
6.44947808
 30
0.0
 10
11.2078633074
 20
6.4444710582
 30
0.0
 10
11.1825239132
 20
6.435563499
 30
0.0
 10
11.1430851163
 20
6.4256843349
 30
0.0
 10
11.1022520398
 20
6.4192382772
 30
0.0
 10
11.0606219896
 20
6.4163200771
 30
0.0
 10
11.0187984536
 20
6.4169707754
 30
0.0
 10
10.9773892264
 20
6.421181297
 30
0.0
 10
10.9369955575
 20
6.428891312
 30
0.0
 10
10.8982037592
 20
6.4399902067
 30
0.0
 10
10.8615765906
 20
6.4543199618
 30
0.0
 10
10.8276457652
 20
6.4716769592
 30
0.0
 10
10.7969034608
 20
6.4918175197
 30
0.0
 10
10.7698021129
 20
6.514455381
 30
0.0
 10
10.7503773479
 20
6.5353660051
 30
0.0
 10
10.7371234814
 20
6.5530093953
 30
0.0
 10
10.7284229909
 20
6.5665079885
 30
0.0
 10
10.7208948481
 20
6.5803576764
 30
0.0
 10
10.7145668187
 20
6.5945084532
 30
0.0
 10
10.7094636071
 20
6.6089067434
 30
0.0
 10
10.7068777622
 20
6.6186871435
 30
0.0
 10
10.7057998265
 20
6.6235909496
 30
0.0
  0
SPLINE
  5
2D3
100
AcDbEntity
  8
0
100
AcDbSpline
 62
7
  6
CONTINUOUS
 70
0
 71
3
 72
15
 73
11
 74
0
 42
0.0000001
 43
0.0000001
 44
0.0000000001
 40
0.0
 40
0.0
 40
0.0
 40
0.0
 40
0.1224002558
 40
0.2450484856
 40
0.3682048762
 40
0.4921221946
 40
0.617041783
 40
0.7431911044
 40
0.8707801417
 40
1.0
 40
1.0
 40
1.0
 40
1.0
 10
10.5873582333
 20
6.5329826991
 30
0.0
 10
10.5873382538
 20
6.5380250268
 30
0.0
 10
10.5876304946
 20
6.5481243615
 30
0.0
 10
10.5890651226
 20
6.5632352062
 30
0.0
 10
10.591492315
 20
6.5782825319
 30
0.0
 10
10.5949071978
 20
6.5932325046
 30
0.0
 10
10.5993015116
 20
6.6080528359
 30
0.0
 10
10.6046660048
 20
6.6227112274
 30
0.0
 10
10.6109880345
 20
6.637175394
 30
0.0
 10
10.6158000677
 20
6.646605226
 30
0.0
 10
10.6183556575
 20
6.6512749738
 30
0.0
  0
SPLINE
  5
2D4
100
AcDbEntity
  8
0
100
AcDbSpline
 62
7
  6
CONTINUOUS
 70
0
 71
3
 72
15
 73
11
 74
0
 42
0.0000001
 43
0.0000001
 44
0.0000000001
 40
0.0
 40
0.0
 40
0.0
 40
0.0
 40
0.1313483982
 40
0.2603057346
 40
0.3871118602
 40
0.5120493072
 40
0.6354393799
 40
0.7576368651
 40
0.8790235563
 40
1.0
 40
1.0
 40
1.0
 40
1.0
 10
11.4602707599
 20
6.7165199187
 30
0.0
 10
11.4642849519
 20
6.710891948
 30
0.0
 10
11.4718637945
 20
6.6994635047
 30
0.0
 10
11.4818935081
 20
6.6817098682
 30
0.0
 10
11.4904418473
 20
6.663567562
 30
0.0
 10
11.4974779788
 20
6.6450995181
 30
0.0
 10
11.5029771363
 20
6.6263689185
 30
0.0
 10
11.5069194136
 20
6.6074398242
 30
0.0
 10
11.5092904035
 20
6.5883794046
 30
0.0
 10
11.5098183255
 20
6.5756175881
 30
0.0
 10
11.5098182941
 20
6.5692505931
 30
0.0
  0
SPLINE
  5
2D5
100
AcDbEntity
  8
0
100
AcDbSpline
 62
7
  6
CONTINUOUS
 70
0
 71
3
 72
9
 73
5
 74
0
 42
0.0000001
 43
0.0000001
 44
0.0000000001
 40
0.0
 40
0.0
 40
0.0
 40
0.0
 40
0.5061353758
 40
1.0
 40
1.0
 40
1.0
 40
1.0
 10
11.4484988039
 20
6.6966227611
 30
0.0
 10
11.4541712508
 20
6.6896304508
 30
0.0
 10
11.4648052718
 20
6.6753382541
 30
0.0
 10
11.4741224666
 20
6.6601506811
 30
0.0
 10
11.4783570335
 20
6.6524530015
 30
0.0
  0
SPLINE
  5
2D6
100
AcDbEntity
  8
0
100
AcDbSpline
 62
7
  6
CONTINUOUS
 70
0
 71
3
 72
11
 73
7
 74
0
 42
0.0000001
 43
0.0000001
 44
0.0000000001
 40
0.0
 40
0.0
 40
0.0
 40
0.0
 40
0.2557049881
 40
0.5070663002
 40
0.7548705631
 40
1.0
 40
1.0
 40
1.0
 40
1.0
 10
11.4783570335
 20
6.6524530015
 30
0.0
 10
11.4819650237
 20
6.6458943255
 30
0.0
 10
11.488597964
 20
6.6325923535
 30
0.0
 10
11.4967625201
 20
6.6120291811
 30
0.0
 10
11.5030145185
 20
6.5911282132
 30
0.0
 10
11.5059007869
 20
6.5769658119
 30
0.0
 10
11.5070106235
 20
6.569876172
 30
0.0
  0
LINE
  5
2D7
100
AcDbEntity
  8
0
100
AcDbLine
 62
7
  6
CONTINUOUS
 10
11.5070106235
 20
6.569876172
 11
11.5071477835
 21
6.5689889172
  0
SPLINE
  5
2D8
100
AcDbEntity
  8
0
100
AcDbSpline
 62
7
  6
CONTINUOUS
 70
0
 71
3
 72
10
 73
6
 74
0
 42
0.0000001
 43
0.0000001
 44
0.0000000001
 40
0.0
 40
0.0
 40
0.0
 40
0.0
 40
0.4887327762
 40
0.7417546144
 40
1.0
 40
1.0
 40
1.0
 40
1.0
 10
11.4675552138
 20
6.0583932218
 30
0.0
 10
11.4477321833
 20
6.0433842053
 30
0.0
 10
11.4159396623
 20
6.0227718895
 30
0.0
 10
11.3707811858
 20
5.9993050652
 30
0.0
 10
11.3469818878
 20
5.9887569531
 30
0.0
 10
11.3348183383
 20
5.9837912048
 30
0.0
  0
SPLINE
  5
2D9
100
AcDbEntity
  8
0
100
AcDbSpline
 62
7
  6
CONTINUOUS
 70
0
 71
3
 72
10
 73
6
 74
0
 42
0.0000001
 43
0.0000001
 44
0.0000000001
 40
0.0
 40
0.0
 40
0.0
 40
0.0
 40
0.2446842429
 40
0.6188665633
 40
1.0
 40
1.0
 40
1.0
 40
1.0
 10
11.3348183383
 20
5.9837912048
 30
0.0
 10
11.322430141
 20
5.9787337444
 30
0.0
 10
11.290706017
 20
5.9668845703
 30
0.0
 10
11.2381652936
 20
5.9514851376
 30
0.0
 10
11.1976499832
 20
5.9431769739
 30
0.0
 10
11.1770814628
 20
5.9398078096
 30
0.0
  0
SPLINE
  5
2DA
100
AcDbEntity
  8
0
100
AcDbSpline
 62
7
  6
CONTINUOUS
 70
0
 71
3
 72
39
 73
35
 74
0
 42
0.0000001
 43
0.0000001
 44
0.0000000001
 40
0.0
 40
0.0
 40
0.0
 40
0.0
 40
0.0695857123
 40
0.1051508207
 40
0.1410852606
 40
0.1772800161
 40
0.2136215467
 40
0.2499940236
 40
0.2862810995
 40
0.3223677903
 40
0.3581423943
 40
0.3934983249
 40
0.4283361247
 40
0.4625653829
 40
0.4961068045
 40
0.5288943011
 40
0.5608770845
 40
0.5920218683
 40
0.6072779878
 40
0.6223212262
 40
0.6517703635
 40
0.6804066277
 40
0.7082854318
 40
0.7354869741
 40
0.7621154821
 40
0.7882971139
 40
0.8141762319
 40
0.8399101108
 40
0.8656624253
 40
0.8915960181
 40
0.9178658085
 40
0.9446124873
 40
0.9719575548
 40
1.0
 40
1.0
 40
1.0
 40
1.0
 10
11.2793114645
 20
6.2842394514
 30
0.0
 10
11.2563538781
 20
6.2753378565
 30
0.0
 10
11.2207452728
 20
6.2641246684
 30
0.0
 10
11.1719659377
 20
6.2534186169
 30
0.0
 10
11.1343070241
 20
6.247434345
 30
0.0
 10
11.0960966924
 20
6.2435959878
 30
0.0
 10
11.0575746269
 20
6.2419268957
 30
0.0
 10
11.0189874069
 20
6.2424379157
 30
0.0
 10
10.9805807116
 20
6.245125738
 30
0.0
 10
10.9425994093
 20
6.2499733355
 30
0.0
 10
10.9052855469
 20
6.2569499732
 30
0.0
 10
10.8688768974
 20
6.2660114588
 30
0.0
 10
10.8336054434
 20
6.2771004396
 30
0.0
 10
10.7996958627
 20
6.2901468455
 30
0.0
 10
10.767364279
 20
6.3050682643
 30
0.0
 10
10.7368164242
 20
6.3217709532
 30
0.0
 10
10.7082482821
 20
6.340148922
 30
0.0
 10
10.6860892053
 20
6.3568804952
 30
0.0
 10
10.6695490807
 20
6.3710004706
 30
0.0
 10
10.6540390392
 20
6.385375124
 30
0.0
 10
10.6361716022
 20
6.4041406023
 30
0.0
 10
10.6172066885
 20
6.4279763658
 30
0.0
 10
10.6009914064
 20
6.4528224507
 30
0.0
 10
10.5876347186
 20
6.4785207864
 30
0.0
 10
10.5772271207
 20
6.5049074369
 30
0.0
 10
10.5698408613
 20
6.5318118341
 30
0.0
 10
10.5655281901
 20
6.5590579882
 30
0.0
 10
10.5643201274
 20
6.5864658402
 30
0.0
 10
10.5662254215
 20
6.6138532448
 30
0.0
 10
10.5712303044
 20
6.6410383866
 30
0.0
 10
10.5792987751
 20
6.6678417801
 30
0.0
 10
10.5903744569
 20
6.6940892327
 30
0.0
 10
10.6043790333
 20
6.7196089751
 30
0.0
 10
10.6154602174
 20
6.7358166957
 30
0.0
 10
10.6214292492
 20
6.7437434405
 30
0.0
  0
SPLINE
  5
2DB
100
AcDbEntity
  8
0
100
AcDbSpline
 62
7
  6
CONTINUOUS
 70
0
 71
3
 72
32
 73
28
 74
0
 42
0.0000001
 43
0.0000001
 44
0.0000000001
 40
0.0
 40
0.0
 40
0.0
 40
0.0
 40
0.0310811731
 40
0.061679302
 40
0.0918280464
 40
0.1215666795
 40
0.150940014
 40
0.1799980058
 40
0.2087951379
 40
0.2373898891
 40
0.2658437873
 40
0.2942206319
 40
0.3225854519
 40
0.3510034473
 40
0.3795389727
 40
0.4082545377
 40
0.4372098014
 40
0.4664608642
 40
0.4960593609
 40
0.5260520571
 40
0.587354089
 40
0.6506572434
 40
0.7161296785
 40
0.7838475303
 40
0.853801599
 40
0.9259033367
 40
1.0
 40
1.0
 40
1.0
 40
1.0
 10
11.4733011749
 20
6.7436188485
 30
0.0
 10
11.4768972872
 20
6.7388384516
 30
0.0
 10
11.4837737297
 20
6.7291527734
 30
0.0
 10
11.4931656045
 20
6.7141699275
 30
0.0
 10
11.5015309442
 20
6.6988834015
 30
0.0
 10
11.5088493369
 20
6.683328709
 30
0.0
 10
11.5151037419
 20
6.6675416425
 30
0.0
 10
11.5202794057
 20
6.6515587467
 30
0.0
 10
11.5243636512
 20
6.6354169479
 30
0.0
 10
11.5273472011
 20
6.6191538751
 30
0.0
 10
11.5292223467
 20
6.6028072928
 30
0.0
 10
11.5299850031
 20
6.5864154003
 30
0.0
 10
11.5296331165
 20
6.5700164358
 30
0.0
 10
11.5281674784
 20
6.5536487249
 30
0.0
 10
11.5255919356
 20
6.5373504136
 30
0.0
 10
11.5219122002
 20
6.5211595835
 30
0.0
 10
11.5171376057
 20
6.505113722
 30
0.0
 10
11.5112792083
 20
6.4892503065
 30
0.0
 10
11.504350804
 20
6.4736054479
 30
0.0
 10
11.4936331563
 20
6.4529394887
 30
0.0
 10
11.4775643188
 20
6.4278091853
 30
0.0
 10
11.4544732252
 20
6.3993444045
 30
0.0
 10
11.4276476002
 20
6.3725944381
 30
0.0
 10
11.3973401469
 20
6.3478015794
 30
0.0
 10
11.363829967
 20
6.3251859701
 30
0.0
 10
11.3274279746
 20
6.3049508353
 30
0.0
 10
11.3017713686
 20
6.2933131431
 30
0.0
 10
11.2885683383
 20
6.2879230285
 30
0.0
  0
SPLINE
  5
2DC
100
AcDbEntity
  8
0
100
AcDbSpline
 62
7
  6
CONTINUOUS
 70
0
 71
3
 72
29
 73
25
 74
0
 42
0.0000001
 43
0.0000001
 44
0.0000000001
 40
0.0
 40
0.0
 40
0.0
 40
0.0
 40
0.0707257475
 40
0.1419084901
 40
0.2131032366
 40
0.2838620105
 40
0.3537514616
 40
0.4223665854
 40
0.4893456479
 40
0.5543853472
 40
0.617256942
 40
0.6478436706
 40
0.6778452566
 40
0.7360730741
 40
0.764347467
 40
0.7920820237
 40
0.8193085124
 40
0.8460671654
 40
0.8724063694
 40
0.8983822292
 40
0.9240579686
 40
0.9495028746
 40
0.9747910509
 40
1.0
 40
1.0
 40
1.0
 40
1.0
 10
11.1770814628
 20
6.187295183
 30
0.0
 10
11.1559872588
 20
6.1838399106
 30
0.0
 10
11.1133597077
 20
6.1786376074
 30
0.0
 10
11.0489454972
 20
6.1759546674
 30
0.0
 10
10.9845066856
 20
6.1783808529
 30
0.0
 10
10.9208541011
 20
6.1858872089
 30
0.0
 10
10.8587818862
 20
6.1983805051
 30
0.0
 10
10.7990663022
 20
6.2157067326
 30
0.0
 10
10.7424518525
 20
6.2376530122
 30
0.0
 10
10.6896496278
 20
6.2639481415
 30
0.0
 10
10.648995511
 20
6.2894559288
 30
0.0
 10
10.6190609577
 20
6.3117601685
 30
0.0
 10
10.591477228
 20
6.3347725352
 30
0.0
 10
10.5663784439
 20
6.359609475
 30
0.0
 10
10.5442050241
 20
6.3860981992
 30
0.0
 10
10.5293204399
 20
6.4064015768
 30
0.0
 10
10.5160713841
 20
6.4272675077
 30
0.0
 10
10.5044994996
 20
6.4486312457
 30
0.0
 10
10.4946425827
 20
6.4704252576
 30
0.0
 10
10.4865330107
 20
6.4925807948
 30
0.0
 10
10.4801973892
 20
6.5150272642
 30
0.0
 10
10.475656647
 20
6.5376935778
 30
0.0
 10
10.4729261064
 20
6.5605052924
 30
0.0
 10
10.4723184125
 20
6.5757738714
 30
0.0
 10
10.4723183965
 20
6.5833927287
 30
0.0
  0
ELLIPSE
  5
2DD
100
AcDbEntity
  8
0
100
AcDbEllipse
 62
7
  6
CONTINUOUS
 10
11.0473183383
 20
6.7036008815
 30
0.0
 11
0.4522967215
 21
0.1611958191
 31
0.0
 40
0.084133201
 41
-1.3561925479
 42
-0.7981537211
  0
ENDSEC
  0
SECTION
  2
OBJECTS
  0
DICTIONARY
  5
C
100
AcDbDictionary
280
0
281
1
  3
ACAD_GROUP
350
D
  3
ACAD_MLINESTYLE
350
17
  3
ACAD_LAYOUT
350
1A
  3
ACAD_PLOTSETTINGS
350
19
  3
ACAD_PLOTSTYLENAME
350
E
  0
DICTIONARY
  5
D
102
{ACAD_REACTORS
330
C
102
}
100
AcDbDictionary
280
0
281
1
  0
ACDBDICTIONARYWDFLT
  5
E
102
{ACAD_REACTORS
330
C
102
}
100
AcDbDictionary
281
1
  3
Normal
350
F
100
AcDbDictionaryWithDefault
340
F
  0
DICTIONARY
  5
17
102
{ACAD_REACTORS
330
C
102
}
100
AcDbDictionary
280
0
281
1
  3
Standard
350
18
  0
DICTIONARY
  5
19
102
{ACAD_REACTORS
330
C
102
}
100
AcDbDictionary
281
1
  0
DICTIONARY
  5
1A
102
{ACAD_REACTORS
330
C
102
}
100
AcDbDictionary
281
1
  3
Model
350
2DE
  3
Layout1
350
2DF
  0
ACDBPLACEHOLDER
  5
F
102
{ACAD_REACTORS
330
E
102
}
  0
MLINESTYLE
  5
18
102
{ACAD_REACTORS
330
17
102
}
100
AcDbMlineStyle
  2
STANDARD
 70
0
  3

 62
256
 51
90.0
 52
90.0
 71
2
 49
0.5
 62
256
  6
BYLAYER
 49
-0.5
 62
256
  6
BYLAYER
  0
LAYOUT
  5
2DE
102
{ACAD_REACTORS
330
1A
102
}
100
AcDbPlotSettings
  1

  2
none_device
  4
ANSI_C_(22.00_x_17.00_Inches)
  6

 40
0.0
 41
0.0
 42
0.0
 43
0.0
 44
558.8
 45
431.8
 46
0.0
 47
0.0
 48
0.0
 49
0.0
140
0.0
141
0.0
142
1.0
143
1.0
 70
1024
 72
0
 73
0
 74
0
  7

 75
0
147
1.0
148
0.0
149
0.0
100
AcDbLayout
  1
Model
 70
0
 71
0
 10
0.0
 20
0.0
 11
22.0
 21
17.0
 12
0.0
 22
0.0
 32
0.0
 14
0.0
 24
0.0
 34
0.0
 15
0.0
 25
0.0
 35
0.0
146
0.0
 13
0.0
 23
0.0
 33
0.0
 16
1.0
 26
0.0
 36
0.0
 17
0.0
 27
1.0
 37
0.0
 76
0
330
205
345
0
346
0
  0
LAYOUT
  5
2DF
102
{ACAD_REACTORS
330
1A
102
}
100
AcDbPlotSettings
  1

  2
none_device
  4
ANSI_C_(22.00_x_17.00_Inches)
  6

 40
0.0
 41
0.0
 42
0.0
 43
0.0
 44
558.8
 45
431.8
 46
0.0
 47
0.0
 48
0.0
 49
0.0
140
0.0
141
0.0
142
1.0
143
1.0
 70
0
 72
0
 73
0
 74
0
  7

 75
0
147
1.0
148
0.0
149
0.0
100
AcDbLayout
  1
Layout1
 70
0
 71
1
 10
0.0
 20
0.0
 11
22.0
 21
17.0
 12
0.0
 22
0.0
 32
0.0
 14
0.0
 24
0.0
 34
0.0
 15
0.0
 25
0.0
 35
0.0
146
0.0
 13
0.0
 23
0.0
 33
0.0
 16
1.0
 26
0.0
 36
0.0
 17
0.0
 27
1.0
 37
0.0
 76
0
330
206
345
0
346
0
  0
ENDSEC
  0
EOF
