999
DXF file: E:\BT Custom\CADOUTPUT\_FRONT.dxf
999
Pro/ENGINEER 2018400 by Parametric Technology Corporation
  0
SECTION
  2
HEADER
  9
$ACADVER
  1
AC1018
  9
$DWGCODEPAGE
  3
ANSI_1252
  9
$EXTMAX
 10
22.0
 20
17.0
 30
0.0
  9
$EXTMIN
 10
0.0
 20
0.0
 30
0.0
  9
$LIMMIN
 10
0.0
 20
0.0
  9
$LIMMAX
 10
22.0
 20
17.0
  9
$VIEWCTR
 10
11.0
 20
8.5
  9
$VIEWSIZE
 40
17.0
  9
$CLAYER
  8
0
  9
$LTSCALE
 40
1.21
  9
$CELTYPE
  6
BYLAYER
  9
$DIMSCALE
 40
1.0
  9
$DIMASZ
 40
0.1
  9
$DIMEXO
 40
0.0625
  9
$DIMDLI
 40
0.836
  9
$DIMEXE
 40
0.125
  9
$DIMCEN
 40
0.198
  9
$DIMLFAC
 40
1.0
  9
$DIMBLK
  1
_FILLED
  9
$DIMALT
 70
1
  9
$DIMALTD
 70
2
  9
$DIMALTTD
 70
2
  9
$DIMALTF
 40
25.4
  9
$DIMTXT
 40
0.08
  9
$DIMTOL
 70
1
  9
$DIMLIM
 70
0
  9
$DIMTFAC
 40
1.0
  9
$DIMTP
 40
0.001
  9
$DIMTM
 40
0.001
  9
$DIMGAP
 40
0.09
  9
$DIMDSEP
 70
46
  9
$AUNITS
 70
0
  9
$PDMODE
 70
3
  9
$PDSIZE
 40
0.06
  9
$HANDSEED
  5
279
  9
$TILEMODE
 70
1
  9
$MEASUREMENT
 70
0
  9
$INSUNITS
 70
1
  0
ENDSEC
  0
SECTION
  2
CLASSES
  0
CLASS
  1
ACDBDICTIONARYWDFLT
  2
AcDbDictionaryWithDefault
  3
AutoCAD 2000
 90
0
 91
1
280
0
281
0
  0
CLASS
  1
ACDBPLACEHOLDER
  2
AcDbPlaceHolder
  3
AutoCAD 2000
 90
0
 91
1
280
0
281
0
  0
CLASS
  1
LAYOUT
  2
AcDbLayout
  3
AutoCAD 2000
 90
0
 91
0
280
0
281
0
  0
ENDSEC
  0
SECTION
  2
TABLES
  0
TABLE
  2
VPORT
  5
8
100
AcDbSymbolTable
 70
2
  0
VPORT
  5
1F4
100
AcDbSymbolTableRecord
100
AcDbViewportTableRecord
  2
*ACTIVE
 70
0
 10
0.0
 20
0.0
 11
1.0
 21
1.0
 12
11.0
 22
8.5
 13
0.0
 23
0.0
 14
1.0
 24
1.0
 15
0.0
 25
0.0
 16
0.0
 26
0.0
 36
1.0
 17
0.0
 27
0.0
 37
0.0
 40
17.0
 41
1.2941176471
 42
50.0
 43
0.0
 44
0.0
 50
0.0
 51
0.0
 71
0
 72
100
 73
1
 74
1
 75
0
 76
0
 77
0
 78
0
  0
ENDTAB
  0
TABLE
  2
LTYPE
  5
5
100
AcDbSymbolTable
 70
6
  0
LTYPE
  5
14
100
AcDbSymbolTableRecord
100
AcDbLinetypeTableRecord
  2
BYBLOCK
 70
0
  3

 72
65
 73
0
 40
0.0
  0
LTYPE
  5
15
100
AcDbSymbolTableRecord
100
AcDbLinetypeTableRecord
  2
BYLAYER
 70
0
  3

 72
65
 73
0
 40
0.0
  0
LTYPE
  5
16
100
AcDbSymbolTableRecord
100
AcDbLinetypeTableRecord
  2
CONTINUOUS
 70
64
  3
Solid line
 72
65
 73
0
 40
0.0
  0
LTYPE
  5
1F5
100
AcDbSymbolTableRecord
100
AcDbLinetypeTableRecord
  2
CENTER
 70
64
  3
____ _ ____ _ ____ _ ____ _ ____ _ ____ _ ____
 72
65
 73
4
 40
0.6
 49
0.375
 74
0
 49
-0.075
 74
0
 49
0.075
 74
0
 49
-0.075
 74
0
  0
LTYPE
  5
1F6
100
AcDbSymbolTableRecord
100
AcDbLinetypeTableRecord
  2
HIDDEN
 70
64
  3
- - - - - - - - - - - - - - - - - - - -
 72
65
 73
2
 40
0.2
 49
0.1
 74
0
 49
-0.1
 74
0
  0
LTYPE
  5
1F7
100
AcDbSymbolTableRecord
100
AcDbLinetypeTableRecord
  2
PHANTOM
 70
64
  3
_____ _ _ _____ _ _ _____ _ _ _____
 72
65
 73
6
 40
0.8
 49
0.45
 74
0
 49
-0.05
 74
0
 49
0.1
 74
0
 49
-0.05
 74
0
 49
0.1
 74
0
 49
-0.05
 74
0
  0
LTYPE
  5
1F8
100
AcDbSymbolTableRecord
100
AcDbLinetypeTableRecord
  2
DOT
 70
64
  3
. . . . . . . . . . . . . . . . . . . .
 72
65
 73
2
 40
0.2
 49
0.1
 74
0
 49
-0.1
 74
0
  0
LTYPE
  5
1F9
100
AcDbSymbolTableRecord
100
AcDbLinetypeTableRecord
  2
DASHED
 70
64
  3
- - - - - - - - - - - - - - - - - - - -
 72
65
 73
2
 40
0.2
 49
0.1
 74
0
 49
-0.1
 74
0
  0
ENDTAB
  0
TABLE
  2
LAYER
  5
2
100
AcDbSymbolTable
 70
36
  0
LAYER
  5
10
100
AcDbSymbolTableRecord
100
AcDbLayerTableRecord
  2
0
 70
0
 62
7
  6
CONTINUOUS
370
-3
390
F
  0
LAYER
  5
1FA
100
AcDbSymbolTableRecord
100
AcDbLayerTableRecord
  2
DEFAULT_1
 70
0
 62
7
  6
CENTER
370
-3
390
F
  0
LAYER
  5
1FB
100
AcDbSymbolTableRecord
100
AcDbLayerTableRecord
  2
DEFAULT_2
 70
0
 62
8
  6
HIDDEN
370
-3
390
F
  0
LAYER
  5
1FC
100
AcDbSymbolTableRecord
100
AcDbLayerTableRecord
  2
DEFAULT_3
 70
0
 62
7
  6
PHANTOM
370
-3
390
F
  0
LAYER
  5
1FD
100
AcDbSymbolTableRecord
100
AcDbLayerTableRecord
  2
ALL_FEATURES
 70
0
 62
7
  6
CONTINUOUS
370
-3
390
F
  0
LAYER
  5
1FE
100
AcDbSymbolTableRecord
100
AcDbLayerTableRecord
  2
AXES_FEATURES
 70
0
 62
7
  6
CONTINUOUS
370
-3
390
F
  0
LAYER
  5
1FF
100
AcDbSymbolTableRecord
100
AcDbLayerTableRecord
  2
DIMENSIONS
 70
0
 62
7
  6
CONTINUOUS
370
-3
390
F
  0
ENDTAB
  0
TABLE
  2
STYLE
  5
3
100
AcDbSymbolTable
 70
1
  0
STYLE
  5
11
100
AcDbSymbolTableRecord
100
AcDbTextStyleTableRecord
  2
STANDARD
 70
0
 40
0.0
 41
0.8
 50
0.0
 71
0
 42
0.2
  3
txt
  4

  0
STYLE
  5
200
100
AcDbSymbolTableRecord
100
AcDbTextStyleTableRecord
  2
TEXTSTYLE_1
 70
0
 40
0.0
 41
0.8
 50
0.0
 71
0
 42
0.2
  3
gdt
  4

  0
ENDTAB
  0
TABLE
  2
VIEW
  5
6
100
AcDbSymbolTable
 70
0
  0
ENDTAB
  0
TABLE
  2
UCS
  5
7
100
AcDbSymbolTable
 70
0
  0
ENDTAB
  0
TABLE
  2
APPID
  5
9
100
AcDbSymbolTable
 70
1
  0
APPID
  5
201
100
AcDbSymbolTableRecord
100
AcDbRegAppTableRecord
  2
ACAD
 70
0
  0
ENDTAB
  0
TABLE
  2
BLOCK_RECORD
  5
1
100
AcDbSymbolTable
 70
0
  0
BLOCK_RECORD
  5
202
100
AcDbSymbolTableRecord
100
AcDbBlockTableRecord
  2
*Model_Space
  0
BLOCK_RECORD
  5
203
100
AcDbSymbolTableRecord
100
AcDbBlockTableRecord
  2
*Paper_Space
  0
BLOCK_RECORD
  5
204
100
AcDbSymbolTableRecord
100
AcDbBlockTableRecord
  2
_FILLED
  0
ENDTAB
  0
TABLE
  2
DIMSTYLE
  5
A
100
AcDbSymbolTable
 70
1
100
AcDbDimStyleTable
 71
0
  0
DIMSTYLE
105
205
100
AcDbSymbolTableRecord
100
AcDbDimStyleTableRecord
  2
STANDARD
 70
0
  3

  4

 40
1.0
 41
0.1
 42
0.0625
 43
0.38
 44
0.125
 45
0.0
 46
0.0
 47
0.001
 48
0.001
140
0.08
141
0.09
142
0.0
143
25.4
144
1.0
145
0.0
146
1.0
147
0.09
 71
1.0
 72
0.0
 73
1
 74
1
 75
0
 76
0
 77
0
 78
4
 79
1
170
1
171
2
172
0
173
0
174
0
175
0
176
0
177
0
178
0
270
2
179
3
271
3
272
3
273
2
274
2
275
0
280
0
281
0
282
0
283
1
284
4
285
0
286
0
287
3
288
0
340
11
278
46
341
204
342
204
343
204
344
204
  0
ENDTAB
  0
ENDSEC
  0
SECTION
  2
BLOCKS
  0
BLOCK
  5
20
100
AcDbEntity
  8
0
100
AcDbBlockBegin
  2
*Model_Space
 70
0
 10
0.0
 20
0.0
 30
0.0
  3
*Model_Space
  1

  0
ENDBLK
  5
21
100
AcDbEntity
  8
0
100
AcDbBlockEnd
  0
BLOCK
  5
1C
100
AcDbEntity
  8
0
100
AcDbBlockBegin
  2
*Paper_Space
 70
0
 10
0.0
 20
0.0
 30
0.0
  3
*Paper_Space
  1

  0
ENDBLK
  5
1D
100
AcDbEntity
  8
0
100
AcDbBlockEnd
  0
BLOCK
  5
206
100
AcDbEntity
  8
0
100
AcDbBlockBegin
  2
_FILLED
 70
64
 10
0.0
 20
0.0
  3
_FILLED
  1

  0
SOLID
  5
207
100
AcDbEntity
  8
0
  6
BYBLOCK
 62
0
100
AcDbTrace
 10
0.0
 20
0.0
 11
-1.0
 21
0.2
 12
-1.0
 22
-0.2
 13
-1.0
 23
-0.2
  0
ENDBLK
  5
208
100
AcDbEntity
  8
0
  6
BYBLOCK
 62
0
100
AcDbBlockEnd
  0
ENDSEC
  0
SECTION
  2
ENTITIES
  0
LINE
  5
209
100
AcDbEntity
  8
0
100
AcDbLine
 62
7
  6
CONTINUOUS
 10
4.0876923427
 20
5.8039195021
 11
4.0876923427
 21
6.1189195021
  0
LINE
  5
20A
100
AcDbEntity
  8
0
100
AcDbLine
 62
9
  6
CONTINUOUS
 10
4.1161194189
 20
6.1189195021
 11
4.1161194189
 21
5.8039195021
  0
LINE
  5
20B
100
AcDbEntity
  8
0
100
AcDbLine
 62
7
  6
CONTINUOUS
 10
5.8376923427
 20
3.2789195021
 11
8.0376923427
 21
3.2789195021
  0
LINE
  5
20C
100
AcDbEntity
  8
0
100
AcDbLine
 62
7
  6
CONTINUOUS
 10
9.7501946004
 20
3.2789195021
 11
12.1251900851
 21
3.2789195021
  0
LINE
  5
20D
100
AcDbEntity
  8
0
100
AcDbLine
 62
7
  6
CONTINUOUS
 10
13.8376923427
 20
3.2789195021
 11
16.0376923427
 21
3.2789195021
  0
LINE
  5
20E
100
AcDbEntity
  8
0
100
AcDbLine
 62
9
  6
CONTINUOUS
 10
16.0376923427
 20
3.4359195021
 11
13.8376923427
 21
3.4359195021
  0
LINE
  5
20F
100
AcDbEntity
  8
0
100
AcDbLine
 62
9
  6
CONTINUOUS
 10
8.0376923427
 20
3.4359195021
 11
5.8376923427
 21
3.4359195021
  0
LINE
  5
210
100
AcDbEntity
  8
0
100
AcDbLine
 62
7
  6
CONTINUOUS
 10
16.0076923427
 20
3.4659195021
 11
13.8676923427
 21
3.4659195021
  0
LINE
  5
211
100
AcDbEntity
  8
0
100
AcDbLine
 62
7
  6
CONTINUOUS
 10
8.0076923427
 20
3.4659195021
 11
5.8676923427
 21
3.4659195021
  0
LINE
  5
212
100
AcDbEntity
  8
0
100
AcDbLine
 62
7
  6
CONTINUOUS
 10
6.1876923427
 20
3.4759195021
 11
7.6876923427
 21
3.4759195021
  0
LINE
  5
213
100
AcDbEntity
  8
0
100
AcDbLine
 62
7
  6
CONTINUOUS
 10
14.1876923427
 20
3.4759195021
 11
15.6876923427
 21
3.4759195021
  0
LINE
  5
214
100
AcDbEntity
  8
0
100
AcDbLine
 62
9
  6
CONTINUOUS
 10
15.6876923427
 20
3.5225934472
 11
14.1876923427
 21
3.5225934472
  0
LINE
  5
215
100
AcDbEntity
  8
0
100
AcDbLine
 62
9
  6
CONTINUOUS
 10
7.6876923427
 20
3.5225934472
 11
6.1876923427
 21
3.5225934472
  0
LINE
  5
216
100
AcDbEntity
  8
0
100
AcDbLine
 62
9
  6
CONTINUOUS
 10
15.6608461562
 20
3.5603687989
 11
14.2145385293
 21
3.5603687989
  0
LINE
  5
217
100
AcDbEntity
  8
0
100
AcDbLine
 62
9
  6
CONTINUOUS
 10
7.6608461562
 20
3.5603687989
 11
6.2145385293
 21
3.5603687989
  0
LINE
  5
218
100
AcDbEntity
  8
0
100
AcDbLine
 62
9
  6
CONTINUOUS
 10
6.2681821685
 20
3.6331275424
 11
7.6071872637
 21
3.6331275424
  0
LINE
  5
219
100
AcDbEntity
  8
0
100
AcDbLine
 62
9
  6
CONTINUOUS
 10
14.2681821685
 20
3.6331275424
 11
15.6071872637
 21
3.6331275424
  0
LINE
  5
21A
100
AcDbEntity
  8
0
100
AcDbLine
 62
7
  6
CONTINUOUS
 10
5.8376923427
 20
3.4359195021
 11
5.8376923427
 21
3.2789195021
  0
LINE
  5
21B
100
AcDbEntity
  8
0
100
AcDbLine
 62
7
  6
CONTINUOUS
 10
12.1251900851
 20
4.3819195021
 11
9.7501946004
 21
4.3819195021
  0
LINE
  5
21C
100
AcDbEntity
  8
0
100
AcDbLine
 62
7
  6
CONTINUOUS
 10
6.1876923427
 20
3.5225934472
 11
6.1876923427
 21
3.4759195021
  0
LINE
  5
21D
100
AcDbEntity
  8
0
100
AcDbLine
 62
7
  6
CONTINUOUS
 10
6.3001923427
 20
3.4759195021
 11
6.3001923427
 21
3.4659195021
  0
LINE
  5
21E
100
AcDbEntity
  8
0
100
AcDbLine
 62
7
  6
CONTINUOUS
 10
6.6251923427
 20
5.7339195021
 11
6.6251923427
 21
5.3569195021
  0
LINE
  5
21F
100
AcDbEntity
  8
0
100
AcDbLine
 62
7
  6
CONTINUOUS
 10
6.6751923427
 20
5.3569195021
 11
6.6751923427
 21
5.3259195021
  0
LINE
  5
220
100
AcDbEntity
  8
0
100
AcDbLine
 62
7
  6
CONTINUOUS
 10
6.3261835986
 20
5.2940711855
 11
6.2681821685
 21
3.6331275424
  0
LINE
  5
221
100
AcDbEntity
  8
0
100
AcDbLine
 62
9
  6
CONTINUOUS
 10
6.9135741777
 20
5.8039195021
 11
6.9135741777
 21
6.1189195021
  0
LINE
  5
222
100
AcDbEntity
  8
0
100
AcDbLine
 62
7
  6
CONTINUOUS
 10
7.2001923427
 20
5.3569195021
 11
7.2001923427
 21
5.3259195021
  0
LINE
  5
223
100
AcDbEntity
  8
0
100
AcDbLine
 62
7
  6
CONTINUOUS
 10
7.2501923427
 20
5.7339195021
 11
7.2501923427
 21
5.3569195021
  0
LINE
  5
224
100
AcDbEntity
  8
0
100
AcDbLine
 62
9
  6
CONTINUOUS
 10
15.5492010869
 20
5.2940711855
 11
14.3261835986
 21
5.2940711855
  0
LINE
  5
225
100
AcDbEntity
  8
0
100
AcDbLine
 62
9
  6
CONTINUOUS
 10
7.5492010869
 20
5.2940711855
 11
6.3261835986
 21
5.2940711855
  0
LINE
  5
226
100
AcDbEntity
  8
0
100
AcDbLine
 62
7
  6
CONTINUOUS
 10
15.5162211896
 20
5.3259195021
 11
14.3591634959
 21
5.3259195021
  0
LINE
  5
227
100
AcDbEntity
  8
0
100
AcDbLine
 62
7
  6
CONTINUOUS
 10
7.5162211896
 20
5.3259195021
 11
6.3591634959
 21
5.3259195021
  0
LINE
  5
228
100
AcDbEntity
  8
0
100
AcDbLine
 62
7
  6
CONTINUOUS
 10
6.6251923427
 20
5.3569195021
 11
7.2501923427
 21
5.3569195021
  0
LINE
  5
229
100
AcDbEntity
  8
0
100
AcDbLine
 62
7
  6
CONTINUOUS
 10
14.6251923427
 20
5.3569195021
 11
15.2501923427
 21
5.3569195021
  0
LINE
  5
22A
100
AcDbEntity
  8
0
100
AcDbLine
 62
7
  6
CONTINUOUS
 10
7.5492010869
 20
5.2940711855
 11
7.607202517
 21
3.6331275424
  0
LINE
  5
22B
100
AcDbEntity
  8
0
100
AcDbLine
 62
7
  6
CONTINUOUS
 10
7.3976923427
 20
5.8039195021
 11
7.3976923427
 21
6.1189195021
  0
LINE
  5
22C
100
AcDbEntity
  8
0
100
AcDbLine
 62
7
  6
CONTINUOUS
 10
7.5751923427
 20
3.4759195021
 11
7.5751923427
 21
3.4659195021
  0
LINE
  5
22D
100
AcDbEntity
  8
0
100
AcDbLine
 62
7
  6
CONTINUOUS
 10
7.6876923427
 20
3.5225934472
 11
7.6876923427
 21
3.4759195021
  0
LINE
  5
22E
100
AcDbEntity
  8
0
100
AcDbLine
 62
9
  6
CONTINUOUS
 10
15.2501923427
 20
5.7339195021
 11
14.6251923427
 21
5.7339195021
  0
LINE
  5
22F
100
AcDbEntity
  8
0
100
AcDbLine
 62
9
  6
CONTINUOUS
 10
7.2501923427
 20
5.7339195021
 11
6.6251923427
 21
5.7339195021
  0
LINE
  5
230
100
AcDbEntity
  8
0
100
AcDbLine
 62
7
  6
CONTINUOUS
 10
4.1176923427
 20
5.7739195021
 11
7.367681152
 21
5.7739195021
  0
LINE
  5
231
100
AcDbEntity
  8
0
100
AcDbLine
 62
7
  6
CONTINUOUS
 10
14.5077035335
 20
5.7739195021
 11
17.7576923427
 21
5.7739195021
  0
LINE
  5
232
100
AcDbEntity
  8
0
100
AcDbLine
 62
9
  6
CONTINUOUS
 10
4.0876923427
 20
5.8039195021
 11
7.3976923427
 21
5.8039195021
  0
LINE
  5
233
100
AcDbEntity
  8
0
100
AcDbLine
 62
9
  6
CONTINUOUS
 10
14.4776923427
 20
5.8039195021
 11
17.7876923427
 21
5.8039195021
  0
LINE
  5
234
100
AcDbEntity
  8
0
100
AcDbLine
 62
9
  6
CONTINUOUS
 10
17.7876923427
 20
6.1189195021
 11
14.4776923427
 21
6.1189195021
  0
LINE
  5
235
100
AcDbEntity
  8
0
100
AcDbLine
 62
9
  6
CONTINUOUS
 10
7.3976923427
 20
6.1189195021
 11
4.0876923427
 21
6.1189195021
  0
LINE
  5
236
100
AcDbEntity
  8
0
100
AcDbLine
 62
7
  6
CONTINUOUS
 10
17.7576923427
 20
6.1489195021
 11
14.507703225
 21
6.1489195021
  0
LINE
  5
237
100
AcDbEntity
  8
0
100
AcDbLine
 62
7
  6
CONTINUOUS
 10
7.3676814605
 20
6.1489195021
 11
4.1176923427
 21
6.1489195021
  0
LINE
  5
238
100
AcDbEntity
  8
0
100
AcDbLine
 62
7
  6
CONTINUOUS
 10
8.0376923427
 20
3.4359195021
 11
8.0376923427
 21
3.2789195021
  0
LINE
  5
239
100
AcDbEntity
  8
0
100
AcDbLine
 62
7
  6
CONTINUOUS
 10
11.6251902575
 20
6.8189195021
 11
10.250194428
 21
6.8189195021
  0
LINE
  5
23A
100
AcDbEntity
  8
0
100
AcDbLine
 62
7
  6
CONTINUOUS
 10
9.7501923427
 20
4.3819195021
 11
9.7501923427
 21
3.2789195021
  0
LINE
  5
23B
100
AcDbEntity
  8
0
100
AcDbLine
 62
7
  6
CONTINUOUS
 10
10.2501923427
 20
6.8189195021
 11
10.2501923427
 21
4.3819195021
  0
LINE
  5
23C
100
AcDbEntity
  8
0
100
AcDbLine
 62
7
  6
CONTINUOUS
 10
10.4376923427
 20
6.8189195021
 11
10.4376923427
 21
14.7564195021
  0
LINE
  5
23D
100
AcDbEntity
  8
0
100
AcDbLine
 62
7
  6
CONTINUOUS
 10
11.4376923427
 20
6.8189195021
 11
11.4376923427
 21
14.7564195021
  0
LINE
  5
23E
100
AcDbEntity
  8
0
100
AcDbLine
 62
7
  6
CONTINUOUS
 10
11.6251923427
 20
6.8189195021
 11
11.6251923427
 21
4.3819195021
  0
LINE
  5
23F
100
AcDbEntity
  8
0
100
AcDbLine
 62
7
  6
CONTINUOUS
 10
10.43772429
 20
9.7064195021
 11
11.4376603955
 21
9.7064195021
  0
LINE
  5
240
100
AcDbEntity
  8
0
100
AcDbLine
 62
7
  6
CONTINUOUS
 10
12.1251923427
 20
4.3819195021
 11
12.1251923427
 21
3.2789195021
  0
LINE
  5
241
100
AcDbEntity
  8
0
100
AcDbLine
 62
9
  6
CONTINUOUS
 10
11.4376923427
 20
10.8189195021
 11
10.4376923427
 21
10.8189195021
  0
LINE
  5
242
100
AcDbEntity
  8
0
100
AcDbLine
 62
7
  6
CONTINUOUS
 10
13.8376923427
 20
3.4359195021
 11
13.8376923427
 21
3.2789195021
  0
LINE
  5
243
100
AcDbEntity
  8
0
100
AcDbLine
 62
7
  6
CONTINUOUS
 10
14.1876923427
 20
3.5225934472
 11
14.1876923427
 21
3.4759195021
  0
LINE
  5
244
100
AcDbEntity
  8
0
100
AcDbLine
 62
7
  6
CONTINUOUS
 10
14.3001923427
 20
3.4759195021
 11
14.3001923427
 21
3.4659195021
  0
LINE
  5
245
100
AcDbEntity
  8
0
100
AcDbLine
 62
7
  6
CONTINUOUS
 10
14.4776923427
 20
5.8039195021
 11
14.4776923427
 21
6.1189195021
  0
LINE
  5
246
100
AcDbEntity
  8
0
100
AcDbLine
 62
7
  6
CONTINUOUS
 10
14.6251923427
 20
5.7339195021
 11
14.6251923427
 21
5.3569195021
  0
LINE
  5
247
100
AcDbEntity
  8
0
100
AcDbLine
 62
7
  6
CONTINUOUS
 10
14.3261835986
 20
5.2940711855
 11
14.2681821685
 21
3.6331275424
  0
LINE
  5
248
100
AcDbEntity
  8
0
100
AcDbLine
 62
7
  6
CONTINUOUS
 10
14.6751923427
 20
5.3569195021
 11
14.6751923427
 21
5.3259195021
  0
LINE
  5
249
100
AcDbEntity
  8
0
100
AcDbLine
 62
9
  6
CONTINUOUS
 10
14.9618105078
 20
6.1189195021
 11
14.9618105078
 21
5.8039195021
  0
LINE
  5
24A
100
AcDbEntity
  8
0
100
AcDbLine
 62
7
  6
CONTINUOUS
 10
15.2001923427
 20
5.3569195021
 11
15.2001923427
 21
5.3259195021
  0
LINE
  5
24B
100
AcDbEntity
  8
0
100
AcDbLine
 62
7
  6
CONTINUOUS
 10
15.2501923427
 20
5.7339195021
 11
15.2501923427
 21
5.3569195021
  0
LINE
  5
24C
100
AcDbEntity
  8
0
100
AcDbLine
 62
7
  6
CONTINUOUS
 10
15.5492010869
 20
5.2940711855
 11
15.607202517
 21
3.6331275424
  0
LINE
  5
24D
100
AcDbEntity
  8
0
100
AcDbLine
 62
7
  6
CONTINUOUS
 10
15.5751923427
 20
3.4759195021
 11
15.5751923427
 21
3.4659195021
  0
LINE
  5
24E
100
AcDbEntity
  8
0
100
AcDbLine
 62
7
  6
CONTINUOUS
 10
15.6876923427
 20
3.5225934472
 11
15.6876923427
 21
3.4759195021
  0
LINE
  5
24F
100
AcDbEntity
  8
0
100
AcDbLine
 62
7
  6
CONTINUOUS
 10
16.0376923427
 20
3.4359195021
 11
16.0376923427
 21
3.2789195021
  0
LINE
  5
250
100
AcDbEntity
  8
0
100
AcDbLine
 62
9
  6
CONTINUOUS
 10
17.7592652667
 20
5.8039195021
 11
17.7592652668
 21
6.1189195021
  0
LINE
  5
251
100
AcDbEntity
  8
0
100
AcDbLine
 62
7
  6
CONTINUOUS
 10
17.7876923427
 20
6.1189195021
 11
17.7876923427
 21
5.8039195021
  0
ARC
  5
252
100
AcDbEntity
  8
0
100
AcDbCircle
 62
7
  6
CONTINUOUS
 10
6.1882309023
 20
3.6359195021
 40
0.08
100
AcDbArc
 50
289.1987071252
 51
358.0
  0
ARC
  5
253
100
AcDbEntity
  8
0
100
AcDbCircle
 62
7
  6
CONTINUOUS
 10
7.6871537832
 20
3.6359195021
 40
0.08
100
AcDbArc
 50
182.0
 51
250.8012928748
  0
ARC
  5
254
100
AcDbEntity
  8
0
100
AcDbCircle
 62
7
  6
CONTINUOUS
 10
7.2901923427
 20
5.7339195021
 40
0.04
100
AcDbArc
 50
90.0
 51
180.0
  0
ARC
  5
255
100
AcDbEntity
  8
0
100
AcDbCircle
 62
7
  6
CONTINUOUS
 10
6.5851923427
 20
5.7339195021
 40
0.04
100
AcDbArc
 50
0.0
 51
90.0
  0
ARC
  5
256
100
AcDbEntity
  8
0
100
AcDbCircle
 62
7
  6
CONTINUOUS
 10
6.2276923427
 20
3.5225934472
 40
0.04
100
AcDbArc
 50
109.1987071253
 51
180.0
  0
ARC
  5
257
100
AcDbEntity
  8
0
100
AcDbCircle
 62
7
  6
CONTINUOUS
 10
7.6476923427
 20
3.5225934472
 40
0.04
100
AcDbArc
 50
0.0
 51
70.8012928747
  0
ARC
  5
258
100
AcDbEntity
  8
0
100
AcDbCircle
 62
7
  6
CONTINUOUS
 10
6.3591634959
 20
5.2929195021
 40
0.033
100
AcDbArc
 50
90.0
 51
178.0000000003
  0
ARC
  5
259
100
AcDbEntity
  8
0
100
AcDbCircle
 62
7
  6
CONTINUOUS
 10
7.5162211896
 20
5.2929195021
 40
0.033
100
AcDbArc
 50
1.9999999997
 51
90.0
  0
ARC
  5
25A
100
AcDbEntity
  8
0
100
AcDbCircle
 62
7
  6
CONTINUOUS
 10
7.3676923427
 20
6.1189195021
 40
0.03
100
AcDbArc
 50
0.0
 51
90.0
  0
ARC
  5
25B
100
AcDbEntity
  8
0
100
AcDbCircle
 62
7
  6
CONTINUOUS
 10
4.1176923427
 20
6.1189195021
 40
0.03
100
AcDbArc
 50
90.0
 51
180.0
  0
ARC
  5
25C
100
AcDbEntity
  8
0
100
AcDbCircle
 62
7
  6
CONTINUOUS
 10
7.3676923427
 20
5.8039195021
 40
0.03
100
AcDbArc
 50
270.0
 51
360.0
  0
ARC
  5
25D
100
AcDbEntity
  8
0
100
AcDbCircle
 62
7
  6
CONTINUOUS
 10
5.8676923427
 20
3.4359195021
 40
0.03
100
AcDbArc
 50
90.0
 51
180.0
  0
ARC
  5
25E
100
AcDbEntity
  8
0
100
AcDbCircle
 62
7
  6
CONTINUOUS
 10
4.1176923427
 20
5.8039195021
 40
0.03
100
AcDbArc
 50
180.0
 51
270.0
  0
ARC
  5
25F
100
AcDbEntity
  8
0
100
AcDbCircle
 62
7
  6
CONTINUOUS
 10
8.0076923427
 20
3.4359195021
 40
0.03
100
AcDbArc
 50
0.0
 51
90.0
  0
ARC
  5
260
100
AcDbEntity
  8
0
100
AcDbCircle
 62
7
  6
CONTINUOUS
 10
15.6871537832
 20
3.6359195021
 40
0.08
100
AcDbArc
 50
182.0
 51
250.8012928748
  0
ARC
  5
261
100
AcDbEntity
  8
0
100
AcDbCircle
 62
7
  6
CONTINUOUS
 10
14.1882309023
 20
3.6359195021
 40
0.08
100
AcDbArc
 50
289.1987071252
 51
358.0
  0
ARC
  5
262
100
AcDbEntity
  8
0
100
AcDbCircle
 62
7
  6
CONTINUOUS
 10
14.5851923427
 20
5.7339195021
 40
0.04
100
AcDbArc
 50
0.0
 51
90.0
  0
ARC
  5
263
100
AcDbEntity
  8
0
100
AcDbCircle
 62
7
  6
CONTINUOUS
 10
15.2901923427
 20
5.7339195021
 40
0.04
100
AcDbArc
 50
90.0
 51
180.0
  0
ARC
  5
264
100
AcDbEntity
  8
0
100
AcDbCircle
 62
7
  6
CONTINUOUS
 10
14.2276923427
 20
3.5225934472
 40
0.04
100
AcDbArc
 50
109.1987071253
 51
180.0
  0
ARC
  5
265
100
AcDbEntity
  8
0
100
AcDbCircle
 62
7
  6
CONTINUOUS
 10
15.6476923427
 20
3.5225934472
 40
0.04
100
AcDbArc
 50
0.0
 51
70.8012928747
  0
ARC
  5
266
100
AcDbEntity
  8
0
100
AcDbCircle
 62
7
  6
CONTINUOUS
 10
15.5162211896
 20
5.2929195021
 40
0.033
100
AcDbArc
 50
1.9999999997
 51
90.0
  0
ARC
  5
267
100
AcDbEntity
  8
0
100
AcDbCircle
 62
7
  6
CONTINUOUS
 10
14.3591634959
 20
5.2929195021
 40
0.033
100
AcDbArc
 50
90.0
 51
178.0000000003
  0
ARC
  5
268
100
AcDbEntity
  8
0
100
AcDbCircle
 62
7
  6
CONTINUOUS
 10
14.5076923427
 20
6.1189195021
 40
0.03
100
AcDbArc
 50
90.0
 51
180.0
  0
ARC
  5
269
100
AcDbEntity
  8
0
100
AcDbCircle
 62
7
  6
CONTINUOUS
 10
17.7576923427
 20
6.1189195021
 40
0.03
100
AcDbArc
 50
0.0
 51
90.0
  0
ARC
  5
26A
100
AcDbEntity
  8
0
100
AcDbCircle
 62
7
  6
CONTINUOUS
 10
14.5076923427
 20
5.8039195021
 40
0.03
100
AcDbArc
 50
180.0
 51
270.0
  0
ARC
  5
26B
100
AcDbEntity
  8
0
100
AcDbCircle
 62
7
  6
CONTINUOUS
 10
16.0076923427
 20
3.4359195021
 40
0.03
100
AcDbArc
 50
0.0
 51
90.0
  0
ARC
  5
26C
100
AcDbEntity
  8
0
100
AcDbCircle
 62
7
  6
CONTINUOUS
 10
13.8676923427
 20
3.4359195021
 40
0.03
100
AcDbArc
 50
90.0
 51
180.0
  0
ARC
  5
26D
100
AcDbEntity
  8
0
100
AcDbCircle
 62
7
  6
CONTINUOUS
 10
17.7576923427
 20
5.8039195021
 40
0.03
100
AcDbArc
 50
270.0
 51
360.0
  0
ARC
  5
26E
100
AcDbEntity
  8
0
100
AcDbCircle
 62
7
  6
CONTINUOUS
 10
10.9376923427
 20
14.7564195021
 40
0.5
100
AcDbArc
 50
0.0
 51
180.0
  0
SPLINE
  5
26F
100
AcDbEntity
  8
0
100
AcDbSpline
 62
9
  6
CONTINUOUS
 70
0
 71
3
 72
23
 73
19
 74
0
 42
0.0000001
 43
0.0000001
 44
0.0000000001
 40
0.0
 40
0.0
 40
0.0
 40
0.0
 40
0.1939287567
 40
0.3807914111
 40
0.5528272681
 40
0.6312734359
 40
0.7036829512
 40
0.7693794189
 40
0.8276925871
 40
0.8780613562
 40
0.9200681556
 40
0.9533195823
 40
0.9665648174
 40
0.9775421755
 40
0.9862614798
 40
0.9927629135
 40
0.9971779632
 40
1.0
 40
1.0
 40
1.0
 40
1.0
 10
6.9135741777
 20
6.1189195021
 30
0.0
 10
6.9135741777
 20
6.1208687851
 30
0.0
 10
6.913593709
 20
6.1246963577
 30
0.0
 10
6.9136800915
 20
6.1302525501
 30
0.0
 10
6.9138002034
 20
6.1346470433
 30
0.0
 10
6.9139253929
 20
6.1378902172
 30
0.0
 10
6.9140279316
 20
6.1400645139
 30
0.0
 10
6.9141406894
 20
6.1420356488
 30
0.0
 10
6.9142626024
 20
6.1437842263
 30
0.0
 10
6.9143923042
 20
6.1452934232
 30
0.0
 10
6.9145281934
 20
6.1465489217
 30
0.0
 10
6.9146519942
 20
6.1474302077
 30
0.0
 10
6.9147579192
 20
6.1479982358
 30
0.0
 10
6.9148320969
 20
6.1483210546
 30
0.0
 10
6.914905292
 20
6.1485742281
 30
0.0
 10
6.9149804034
 20
6.1487575043
 30
0.0
 10
6.9150502786
 20
6.1488768224
 30
0.0
 10
6.9151187357
 20
6.1489195021
 30
0.0
 10
6.9151471015
 20
6.1489195021
 30
0.0
  0
SPLINE
  5
270
100
AcDbEntity
  8
0
100
AcDbSpline
 62
9
  6
CONTINUOUS
 70
0
 71
3
 72
23
 73
19
 74
0
 42
0.0000001
 43
0.0000001
 44
0.0000000001
 40
0.0
 40
0.0
 40
0.0
 40
0.0
 40
0.1939287386
 40
0.380791361
 40
0.5528272198
 40
0.6312733938
 40
0.703682918
 40
0.769379394
 40
0.8276925668
 40
0.8780613419
 40
0.9200681477
 40
0.9533195782
 40
0.9665648144
 40
0.9775421736
 40
0.9862614788
 40
0.9927629131
 40
0.9971779632
 40
1.0
 40
1.0
 40
1.0
 40
1.0
 10
4.1161194189
 20
5.8039195021
 30
0.0
 10
4.1161194189
 20
5.8019702194
 30
0.0
 10
4.1161389503
 20
5.7981426473
 30
0.0
 10
4.1162253327
 20
5.7925864554
 30
0.0
 10
4.1163454447
 20
5.7881919624
 30
0.0
 10
4.1164706341
 20
5.7849487883
 30
0.0
 10
4.1165731728
 20
5.7827744914
 30
0.0
 10
4.1166859306
 20
5.7808033562
 30
0.0
 10
4.1168078436
 20
5.7790547786
 30
0.0
 10
4.1169375454
 20
5.7775455815
 30
0.0
 10
4.1170734346
 20
5.7762900829
 30
0.0
 10
4.1171972354
 20
5.7754087967
 30
0.0
 10
4.1173031605
 20
5.7748407685
 30
0.0
 10
4.1173773381
 20
5.7745179497
 30
0.0
 10
4.1174505332
 20
5.7742647762
 30
0.0
 10
4.1175256447
 20
5.7740815
 30
0.0
 10
4.1175955199
 20
5.7739621819
 30
0.0
 10
4.1176639769
 20
5.7739195021
 30
0.0
 10
4.1176923427
 20
5.7739195021
 30
0.0
  0
SPLINE
  5
271
100
AcDbEntity
  8
0
100
AcDbSpline
 62
9
  6
CONTINUOUS
 70
0
 71
3
 72
23
 73
19
 74
0
 42
0.0000001
 43
0.0000001
 44
0.0000000001
 40
0.0
 40
0.0
 40
0.0
 40
0.0
 40
0.0028220368
 40
0.0072370865
 40
0.0137385202
 40
0.0224578245
 40
0.0334351826
 40
0.0466804177
 40
0.0799318444
 40
0.1219386438
 40
0.1723074129
 40
0.2306205811
 40
0.2963170488
 40
0.3687265641
 40
0.4471727319
 40
0.6192085889
 40
0.8060712433
 40
1.0
 40
1.0
 40
1.0
 40
1.0
 10
6.9151471015
 20
5.7739195021
 30
0.0
 10
6.9151187357
 20
5.7739195021
 30
0.0
 10
6.9150502786
 20
5.7739621819
 30
0.0
 10
6.9149804034
 20
5.7740815
 30
0.0
 10
6.914905292
 20
5.7742647762
 30
0.0
 10
6.9148320969
 20
5.7745179497
 30
0.0
 10
6.9147579192
 20
5.7748407684
 30
0.0
 10
6.9146519942
 20
5.7754087965
 30
0.0
 10
6.9145281934
 20
5.7762900826
 30
0.0
 10
6.9143923042
 20
5.7775455811
 30
0.0
 10
6.9142626024
 20
5.779054778
 30
0.0
 10
6.9141406894
 20
5.7808033554
 30
0.0
 10
6.9140279316
 20
5.7827744904
 30
0.0
 10
6.9139253929
 20
5.7849487871
 30
0.0
 10
6.9138002034
 20
5.788191961
 30
0.0
 10
6.9136800915
 20
5.7925864542
 30
0.0
 10
6.913593709
 20
5.7981426466
 30
0.0
 10
6.9135741777
 20
5.8019702192
 30
0.0
 10
6.9135741777
 20
5.8039195021
 30
0.0
  0
SPLINE
  5
272
100
AcDbEntity
  8
0
100
AcDbSpline
 62
9
  6
CONTINUOUS
 70
0
 71
3
 72
23
 73
19
 74
0
 42
0.0000001
 43
0.0000001
 44
0.0000000001
 40
0.0
 40
0.0
 40
0.0
 40
0.0
 40
0.0028220367
 40
0.0072370868
 40
0.0137385211
 40
0.0224578264
 40
0.0334351857
 40
0.046680422
 40
0.0799318526
 40
0.1219386584
 40
0.1723074336
 40
0.2306206064
 40
0.2963170825
 40
0.3687266068
 40
0.4471727807
 40
0.6192086395
 40
0.8060712615
 40
1.0
 40
1.0
 40
1.0
 40
1.0
 10
4.1176923427
 20
6.1489195021
 30
0.0
 10
4.1176639769
 20
6.1489195021
 30
0.0
 10
4.1175955199
 20
6.1488768224
 30
0.0
 10
4.1175256447
 20
6.1487575043
 30
0.0
 10
4.1174505332
 20
6.148574228
 30
0.0
 10
4.1173773381
 20
6.1483210546
 30
0.0
 10
4.1173031605
 20
6.1479982357
 30
0.0
 10
4.1171972354
 20
6.1474302076
 30
0.0
 10
4.1170734346
 20
6.1465489214
 30
0.0
 10
4.1169375454
 20
6.1452934228
 30
0.0
 10
4.1168078436
 20
6.1437842257
 30
0.0
 10
4.1166859306
 20
6.142035648
 30
0.0
 10
4.1165731728
 20
6.1400645129
 30
0.0
 10
4.1164706341
 20
6.1378902159
 30
0.0
 10
4.1163454447
 20
6.1346470418
 30
0.0
 10
4.1162253327
 20
6.1302525489
 30
0.0
 10
4.1161389503
 20
6.124696357
 30
0.0
 10
4.1161194189
 20
6.1208687849
 30
0.0
 10
4.1161194189
 20
6.1189195021
 30
0.0
  0
SPLINE
  5
273
100
AcDbEntity
  8
0
100
AcDbSpline
 62
9
  6
CONTINUOUS
 70
0
 71
3
 72
23
 73
19
 74
0
 42
0.0000001
 43
0.0000001
 44
0.0000000001
 40
0.0
 40
0.0
 40
0.0
 40
0.0
 40
0.0028220368
 40
0.0072370865
 40
0.0137385202
 40
0.0224578245
 40
0.0334351826
 40
0.0466804177
 40
0.0799318444
 40
0.1219386438
 40
0.1723074129
 40
0.2306205811
 40
0.2963170488
 40
0.3687265641
 40
0.4471727319
 40
0.6192085889
 40
0.8060712433
 40
1.0
 40
1.0
 40
1.0
 40
1.0
 10
14.960237584
 20
6.1489195021
 30
0.0
 10
14.9602659498
 20
6.1489195021
 30
0.0
 10
14.9603344069
 20
6.1488768224
 30
0.0
 10
14.9604042821
 20
6.1487575043
 30
0.0
 10
14.9604793935
 20
6.1485742281
 30
0.0
 10
14.9605525886
 20
6.1483210546
 30
0.0
 10
14.9606267663
 20
6.1479982358
 30
0.0
 10
14.9607326913
 20
6.1474302077
 30
0.0
 10
14.9608564921
 20
6.1465489217
 30
0.0
 10
14.9609923813
 20
6.1452934232
 30
0.0
 10
14.961122083
 20
6.1437842263
 30
0.0
 10
14.9612439961
 20
6.1420356488
 30
0.0
 10
14.9613567539
 20
6.1400645139
 30
0.0
 10
14.9614592926
 20
6.1378902172
 30
0.0
 10
14.961584482
 20
6.1346470433
 30
0.0
 10
14.961704594
 20
6.1302525501
 30
0.0
 10
14.9617909764
 20
6.1246963577
 30
0.0
 10
14.9618105078
 20
6.1208687851
 30
0.0
 10
14.9618105078
 20
6.1189195021
 30
0.0
  0
SPLINE
  5
274
100
AcDbEntity
  8
0
100
AcDbSpline
 62
9
  6
CONTINUOUS
 70
0
 71
3
 72
23
 73
19
 74
0
 42
0.0000001
 43
0.0000001
 44
0.0000000001
 40
0.0
 40
0.0
 40
0.0
 40
0.0
 40
0.1939287567
 40
0.3807914111
 40
0.5528272681
 40
0.6312734359
 40
0.7036829512
 40
0.7693794189
 40
0.8276925871
 40
0.8780613562
 40
0.9200681556
 40
0.9533195823
 40
0.9665648174
 40
0.9775421755
 40
0.9862614798
 40
0.9927629135
 40
0.9971779633
 40
1.0
 40
1.0
 40
1.0
 40
1.0
 10
17.7592652665
 20
6.1189195021
 30
0.0
 10
17.7592652665
 20
6.1208687851
 30
0.0
 10
17.7592457352
 20
6.1246963577
 30
0.0
 10
17.7591593527
 20
6.1302525501
 30
0.0
 10
17.7590392408
 20
6.1346470433
 30
0.0
 10
17.7589140513
 20
6.1378902172
 30
0.0
 10
17.7588115126
 20
6.1400645139
 30
0.0
 10
17.7586987548
 20
6.1420356488
 30
0.0
 10
17.7585768418
 20
6.1437842263
 30
0.0
 10
17.7584471401
 20
6.1452934232
 30
0.0
 10
17.7583112508
 20
6.1465489217
 30
0.0
 10
17.75818745
 20
6.1474302077
 30
0.0
 10
17.758081525
 20
6.1479982358
 30
0.0
 10
17.7580073474
 20
6.1483210546
 30
0.0
 10
17.7579341523
 20
6.1485742281
 30
0.0
 10
17.7578590408
 20
6.1487575043
 30
0.0
 10
17.7577891656
 20
6.1488768224
 30
0.0
 10
17.7577207086
 20
6.1489195021
 30
0.0
 10
17.7576923427
 20
6.1489195021
 30
0.0
  0
SPLINE
  5
275
100
AcDbEntity
  8
0
100
AcDbSpline
 62
9
  6
CONTINUOUS
 70
0
 71
3
 72
23
 73
19
 74
0
 42
0.0000001
 43
0.0000001
 44
0.0000000001
 40
0.0
 40
0.0
 40
0.0
 40
0.0
 40
0.1939287567
 40
0.3807914111
 40
0.5528272681
 40
0.6312734359
 40
0.7036829512
 40
0.7693794189
 40
0.8276925871
 40
0.8780613562
 40
0.9200681556
 40
0.9533195823
 40
0.9665648174
 40
0.9775421755
 40
0.9862614798
 40
0.9927629135
 40
0.9971779632
 40
1.0
 40
1.0
 40
1.0
 40
1.0
 10
14.9618105078
 20
5.8039195021
 30
0.0
 10
14.9618105078
 20
5.8019702192
 30
0.0
 10
14.9617909764
 20
5.7981426466
 30
0.0
 10
14.961704594
 20
5.7925864542
 30
0.0
 10
14.961584482
 20
5.788191961
 30
0.0
 10
14.9614592926
 20
5.7849487871
 30
0.0
 10
14.9613567539
 20
5.7827744904
 30
0.0
 10
14.9612439961
 20
5.7808033554
 30
0.0
 10
14.961122083
 20
5.779054778
 30
0.0
 10
14.9609923813
 20
5.7775455811
 30
0.0
 10
14.9608564921
 20
5.7762900826
 30
0.0
 10
14.9607326913
 20
5.7754087965
 30
0.0
 10
14.9606267663
 20
5.7748407684
 30
0.0
 10
14.9605525886
 20
5.7745179497
 30
0.0
 10
14.9604793935
 20
5.7742647762
 30
0.0
 10
14.9604042821
 20
5.7740815
 30
0.0
 10
14.9603344069
 20
5.7739621819
 30
0.0
 10
14.9602659498
 20
5.7739195021
 30
0.0
 10
14.960237584
 20
5.7739195021
 30
0.0
  0
SPLINE
  5
276
100
AcDbEntity
  8
0
100
AcDbSpline
 62
9
  6
CONTINUOUS
 70
0
 71
3
 72
23
 73
19
 74
0
 42
0.0000001
 43
0.0000001
 44
0.0000000001
 40
0.0
 40
0.0
 40
0.0
 40
0.0
 40
0.0028220367
 40
0.0072370865
 40
0.0137385202
 40
0.0224578245
 40
0.0334351826
 40
0.0466804177
 40
0.0799318444
 40
0.1219386438
 40
0.1723074129
 40
0.2306205811
 40
0.2963170488
 40
0.3687265641
 40
0.4471727319
 40
0.6192085889
 40
0.8060712433
 40
1.0
 40
1.0
 40
1.0
 40
1.0
 10
17.7576923427
 20
5.7739195021
 30
0.0
 10
17.7577207086
 20
5.7739195021
 30
0.0
 10
17.7577891656
 20
5.7739621819
 30
0.0
 10
17.7578590408
 20
5.7740815
 30
0.0
 10
17.7579341523
 20
5.7742647762
 30
0.0
 10
17.7580073474
 20
5.7745179497
 30
0.0
 10
17.758081525
 20
5.7748407684
 30
0.0
 10
17.75818745
 20
5.7754087965
 30
0.0
 10
17.7583112508
 20
5.7762900826
 30
0.0
 10
17.7584471401
 20
5.7775455811
 30
0.0
 10
17.7585768418
 20
5.779054778
 30
0.0
 10
17.7586987548
 20
5.7808033554
 30
0.0
 10
17.7588115126
 20
5.7827744904
 30
0.0
 10
17.7589140513
 20
5.7849487871
 30
0.0
 10
17.7590392408
 20
5.788191961
 30
0.0
 10
17.7591593527
 20
5.7925864542
 30
0.0
 10
17.7592457352
 20
5.7981426466
 30
0.0
 10
17.7592652665
 20
5.8019702192
 30
0.0
 10
17.7592652665
 20
5.8039195021
 30
0.0
  0
ENDSEC
  0
SECTION
  2
OBJECTS
  0
DICTIONARY
  5
C
100
AcDbDictionary
280
0
281
1
  3
ACAD_GROUP
350
D
  3
ACAD_MLINESTYLE
350
17
  3
ACAD_LAYOUT
350
1A
  3
ACAD_PLOTSETTINGS
350
19
  3
ACAD_PLOTSTYLENAME
350
E
  0
DICTIONARY
  5
D
102
{ACAD_REACTORS
330
C
102
}
100
AcDbDictionary
280
0
281
1
  0
ACDBDICTIONARYWDFLT
  5
E
102
{ACAD_REACTORS
330
C
102
}
100
AcDbDictionary
281
1
  3
Normal
350
F
100
AcDbDictionaryWithDefault
340
F
  0
DICTIONARY
  5
17
102
{ACAD_REACTORS
330
C
102
}
100
AcDbDictionary
280
0
281
1
  3
Standard
350
18
  0
DICTIONARY
  5
19
102
{ACAD_REACTORS
330
C
102
}
100
AcDbDictionary
281
1
  0
DICTIONARY
  5
1A
102
{ACAD_REACTORS
330
C
102
}
100
AcDbDictionary
281
1
  3
Model
350
277
  3
Layout1
350
278
  0
ACDBPLACEHOLDER
  5
F
102
{ACAD_REACTORS
330
E
102
}
  0
MLINESTYLE
  5
18
102
{ACAD_REACTORS
330
17
102
}
100
AcDbMlineStyle
  2
STANDARD
 70
0
  3

 62
256
 51
90.0
 52
90.0
 71
2
 49
0.5
 62
256
  6
BYLAYER
 49
-0.5
 62
256
  6
BYLAYER
  0
LAYOUT
  5
277
102
{ACAD_REACTORS
330
1A
102
}
100
AcDbPlotSettings
  1

  2
none_device
  4
ANSI_C_(22.00_x_17.00_Inches)
  6

 40
0.0
 41
0.0
 42
0.0
 43
0.0
 44
558.8
 45
431.8
 46
0.0
 47
0.0
 48
0.0
 49
0.0
140
0.0
141
0.0
142
1.0
143
1.0
 70
1024
 72
0
 73
0
 74
0
  7

 75
0
147
1.0
148
0.0
149
0.0
100
AcDbLayout
  1
Model
 70
0
 71
0
 10
0.0
 20
0.0
 11
22.0
 21
17.0
 12
0.0
 22
0.0
 32
0.0
 14
0.0
 24
0.0
 34
0.0
 15
0.0
 25
0.0
 35
0.0
146
0.0
 13
0.0
 23
0.0
 33
0.0
 16
1.0
 26
0.0
 36
0.0
 17
0.0
 27
1.0
 37
0.0
 76
0
330
202
345
0
346
0
  0
LAYOUT
  5
278
102
{ACAD_REACTORS
330
1A
102
}
100
AcDbPlotSettings
  1

  2
none_device
  4
ANSI_C_(22.00_x_17.00_Inches)
  6

 40
0.0
 41
0.0
 42
0.0
 43
0.0
 44
558.8
 45
431.8
 46
0.0
 47
0.0
 48
0.0
 49
0.0
140
0.0
141
0.0
142
1.0
143
1.0
 70
0
 72
0
 73
0
 74
0
  7

 75
0
147
1.0
148
0.0
149
0.0
100
AcDbLayout
  1
Layout1
 70
0
 71
1
 10
0.0
 20
0.0
 11
22.0
 21
17.0
 12
0.0
 22
0.0
 32
0.0
 14
0.0
 24
0.0
 34
0.0
 15
0.0
 25
0.0
 35
0.0
146
0.0
 13
0.0
 23
0.0
 33
0.0
 16
1.0
 26
0.0
 36
0.0
 17
0.0
 27
1.0
 37
0.0
 76
0
330
203
345
0
346
0
  0
ENDSEC
  0
EOF
