999
DXF file: E:\BT Custom\CADOUTPUT\_TOP.dxf
999
Pro/ENGINEER 2018400 by Parametric Technology Corporation
  0
SECTION
  2
HEADER
  9
$ACADVER
  1
AC1018
  9
$DWGCODEPAGE
  3
ANSI_1252
  9
$EXTMAX
 10
22.0
 20
17.0
 30
0.0
  9
$EXTMIN
 10
0.0
 20
0.0
 30
0.0
  9
$LIMMIN
 10
0.0
 20
0.0
  9
$LIMMAX
 10
22.0
 20
17.0
  9
$VIEWCTR
 10
11.0
 20
8.5
  9
$VIEWSIZE
 40
17.0
  9
$CLAYER
  8
0
  9
$LTSCALE
 40
1.21
  9
$CELTYPE
  6
BYLAYER
  9
$DIMSCALE
 40
1.0
  9
$DIMASZ
 40
0.1
  9
$DIMEXO
 40
0.0625
  9
$DIMDLI
 40
0.836
  9
$DIMEXE
 40
0.125
  9
$DIMCEN
 40
0.198
  9
$DIMLFAC
 40
1.0
  9
$DIMBLK
  1
_FILLED
  9
$DIMALT
 70
1
  9
$DIMALTD
 70
2
  9
$DIMALTTD
 70
2
  9
$DIMALTF
 40
25.4
  9
$DIMTXT
 40
0.08
  9
$DIMTOL
 70
1
  9
$DIMLIM
 70
0
  9
$DIMTFAC
 40
1.0
  9
$DIMTP
 40
0.001
  9
$DIMTM
 40
0.001
  9
$DIMGAP
 40
0.09
  9
$DIMDSEP
 70
46
  9
$AUNITS
 70
0
  9
$PDMODE
 70
3
  9
$PDSIZE
 40
0.06
  9
$HANDSEED
  5
29D
  9
$TILEMODE
 70
1
  9
$MEASUREMENT
 70
0
  9
$INSUNITS
 70
1
  0
ENDSEC
  0
SECTION
  2
CLASSES
  0
CLASS
  1
ACDBDICTIONARYWDFLT
  2
AcDbDictionaryWithDefault
  3
AutoCAD 2000
 90
0
 91
1
280
0
281
0
  0
CLASS
  1
ACDBPLACEHOLDER
  2
AcDbPlaceHolder
  3
AutoCAD 2000
 90
0
 91
1
280
0
281
0
  0
CLASS
  1
LAYOUT
  2
AcDbLayout
  3
AutoCAD 2000
 90
0
 91
0
280
0
281
0
  0
ENDSEC
  0
SECTION
  2
TABLES
  0
TABLE
  2
VPORT
  5
8
100
AcDbSymbolTable
 70
2
  0
VPORT
  5
1F4
100
AcDbSymbolTableRecord
100
AcDbViewportTableRecord
  2
*ACTIVE
 70
0
 10
0.0
 20
0.0
 11
1.0
 21
1.0
 12
11.0
 22
8.5
 13
0.0
 23
0.0
 14
1.0
 24
1.0
 15
0.0
 25
0.0
 16
0.0
 26
0.0
 36
1.0
 17
0.0
 27
0.0
 37
0.0
 40
17.0
 41
1.2941176471
 42
50.0
 43
0.0
 44
0.0
 50
0.0
 51
0.0
 71
0
 72
100
 73
1
 74
1
 75
0
 76
0
 77
0
 78
0
  0
ENDTAB
  0
TABLE
  2
LTYPE
  5
5
100
AcDbSymbolTable
 70
6
  0
LTYPE
  5
14
100
AcDbSymbolTableRecord
100
AcDbLinetypeTableRecord
  2
BYBLOCK
 70
0
  3

 72
65
 73
0
 40
0.0
  0
LTYPE
  5
15
100
AcDbSymbolTableRecord
100
AcDbLinetypeTableRecord
  2
BYLAYER
 70
0
  3

 72
65
 73
0
 40
0.0
  0
LTYPE
  5
16
100
AcDbSymbolTableRecord
100
AcDbLinetypeTableRecord
  2
CONTINUOUS
 70
64
  3
Solid line
 72
65
 73
0
 40
0.0
  0
LTYPE
  5
1F5
100
AcDbSymbolTableRecord
100
AcDbLinetypeTableRecord
  2
CENTER
 70
64
  3
____ _ ____ _ ____ _ ____ _ ____ _ ____ _ ____
 72
65
 73
4
 40
0.6
 49
0.375
 74
0
 49
-0.075
 74
0
 49
0.075
 74
0
 49
-0.075
 74
0
  0
LTYPE
  5
1F6
100
AcDbSymbolTableRecord
100
AcDbLinetypeTableRecord
  2
HIDDEN
 70
64
  3
- - - - - - - - - - - - - - - - - - - -
 72
65
 73
2
 40
0.2
 49
0.1
 74
0
 49
-0.1
 74
0
  0
LTYPE
  5
1F7
100
AcDbSymbolTableRecord
100
AcDbLinetypeTableRecord
  2
PHANTOM
 70
64
  3
_____ _ _ _____ _ _ _____ _ _ _____
 72
65
 73
6
 40
0.8
 49
0.45
 74
0
 49
-0.05
 74
0
 49
0.1
 74
0
 49
-0.05
 74
0
 49
0.1
 74
0
 49
-0.05
 74
0
  0
LTYPE
  5
1F8
100
AcDbSymbolTableRecord
100
AcDbLinetypeTableRecord
  2
DOT
 70
64
  3
. . . . . . . . . . . . . . . . . . . .
 72
65
 73
2
 40
0.2
 49
0.1
 74
0
 49
-0.1
 74
0
  0
LTYPE
  5
1F9
100
AcDbSymbolTableRecord
100
AcDbLinetypeTableRecord
  2
DASHED
 70
64
  3
- - - - - - - - - - - - - - - - - - - -
 72
65
 73
2
 40
0.2
 49
0.1
 74
0
 49
-0.1
 74
0
  0
ENDTAB
  0
TABLE
  2
LAYER
  5
2
100
AcDbSymbolTable
 70
36
  0
LAYER
  5
10
100
AcDbSymbolTableRecord
100
AcDbLayerTableRecord
  2
0
 70
0
 62
7
  6
CONTINUOUS
370
-3
390
F
  0
LAYER
  5
1FA
100
AcDbSymbolTableRecord
100
AcDbLayerTableRecord
  2
DEFAULT_1
 70
0
 62
7
  6
CENTER
370
-3
390
F
  0
LAYER
  5
1FB
100
AcDbSymbolTableRecord
100
AcDbLayerTableRecord
  2
DEFAULT_2
 70
0
 62
8
  6
HIDDEN
370
-3
390
F
  0
LAYER
  5
1FC
100
AcDbSymbolTableRecord
100
AcDbLayerTableRecord
  2
DEFAULT_3
 70
0
 62
7
  6
PHANTOM
370
-3
390
F
  0
LAYER
  5
1FD
100
AcDbSymbolTableRecord
100
AcDbLayerTableRecord
  2
ALL_FEATURES
 70
0
 62
7
  6
CONTINUOUS
370
-3
390
F
  0
LAYER
  5
1FE
100
AcDbSymbolTableRecord
100
AcDbLayerTableRecord
  2
AXES_FEATURES
 70
0
 62
7
  6
CONTINUOUS
370
-3
390
F
  0
LAYER
  5
1FF
100
AcDbSymbolTableRecord
100
AcDbLayerTableRecord
  2
DEFAULT_COORDINATE_SYSTEM
 70
0
 62
7
  6
CONTINUOUS
370
-3
390
F
  0
LAYER
  5
200
100
AcDbSymbolTableRecord
100
AcDbLayerTableRecord
  2
DEFAULT_DATUM_AXES
 70
0
 62
7
  6
CONTINUOUS
370
-3
390
F
  0
LAYER
  5
201
100
AcDbSymbolTableRecord
100
AcDbLayerTableRecord
  2
DEFAULT_DATUM_PLANES
 70
0
 62
7
  6
CONTINUOUS
370
-3
390
F
  0
LAYER
  5
202
100
AcDbSymbolTableRecord
100
AcDbLayerTableRecord
  2
DIMENSIONS
 70
0
 62
7
  6
CONTINUOUS
370
-3
390
F
  0
ENDTAB
  0
TABLE
  2
STYLE
  5
3
100
AcDbSymbolTable
 70
1
  0
STYLE
  5
11
100
AcDbSymbolTableRecord
100
AcDbTextStyleTableRecord
  2
STANDARD
 70
0
 40
0.0
 41
0.8
 50
0.0
 71
0
 42
0.2
  3
txt
  4

  0
STYLE
  5
203
100
AcDbSymbolTableRecord
100
AcDbTextStyleTableRecord
  2
TEXTSTYLE_1
 70
0
 40
0.0
 41
0.8
 50
0.0
 71
0
 42
0.2
  3
gdt
  4

  0
ENDTAB
  0
TABLE
  2
VIEW
  5
6
100
AcDbSymbolTable
 70
0
  0
ENDTAB
  0
TABLE
  2
UCS
  5
7
100
AcDbSymbolTable
 70
0
  0
ENDTAB
  0
TABLE
  2
APPID
  5
9
100
AcDbSymbolTable
 70
1
  0
APPID
  5
204
100
AcDbSymbolTableRecord
100
AcDbRegAppTableRecord
  2
ACAD
 70
0
  0
ENDTAB
  0
TABLE
  2
BLOCK_RECORD
  5
1
100
AcDbSymbolTable
 70
0
  0
BLOCK_RECORD
  5
205
100
AcDbSymbolTableRecord
100
AcDbBlockTableRecord
  2
*Model_Space
  0
BLOCK_RECORD
  5
206
100
AcDbSymbolTableRecord
100
AcDbBlockTableRecord
  2
*Paper_Space
  0
BLOCK_RECORD
  5
207
100
AcDbSymbolTableRecord
100
AcDbBlockTableRecord
  2
_FILLED
  0
ENDTAB
  0
TABLE
  2
DIMSTYLE
  5
A
100
AcDbSymbolTable
 70
1
100
AcDbDimStyleTable
 71
0
  0
DIMSTYLE
105
208
100
AcDbSymbolTableRecord
100
AcDbDimStyleTableRecord
  2
STANDARD
 70
0
  3

  4

 40
1.0
 41
0.1
 42
0.0625
 43
0.38
 44
0.125
 45
0.0
 46
0.0
 47
0.001
 48
0.001
140
0.08
141
0.09
142
0.0
143
25.4
144
1.0
145
0.0
146
1.0
147
0.09
 71
1.0
 72
0.0
 73
1
 74
1
 75
0
 76
0
 77
0
 78
4
 79
1
170
1
171
2
172
0
173
0
174
0
175
0
176
0
177
0
178
0
270
2
179
3
271
3
272
3
273
2
274
2
275
0
280
0
281
0
282
0
283
1
284
4
285
0
286
0
287
3
288
0
340
11
278
46
341
207
342
207
343
207
344
207
  0
ENDTAB
  0
ENDSEC
  0
SECTION
  2
BLOCKS
  0
BLOCK
  5
20
100
AcDbEntity
  8
0
100
AcDbBlockBegin
  2
*Model_Space
 70
0
 10
0.0
 20
0.0
 30
0.0
  3
*Model_Space
  1

  0
ENDBLK
  5
21
100
AcDbEntity
  8
0
100
AcDbBlockEnd
  0
BLOCK
  5
1C
100
AcDbEntity
  8
0
100
AcDbBlockBegin
  2
*Paper_Space
 70
0
 10
0.0
 20
0.0
 30
0.0
  3
*Paper_Space
  1

  0
ENDBLK
  5
1D
100
AcDbEntity
  8
0
100
AcDbBlockEnd
  0
BLOCK
  5
209
100
AcDbEntity
  8
0
100
AcDbBlockBegin
  2
_FILLED
 70
64
 10
0.0
 20
0.0
  3
_FILLED
  1

  0
SOLID
  5
20A
100
AcDbEntity
  8
0
  6
BYBLOCK
 62
0
100
AcDbTrace
 10
0.0
 20
0.0
 11
-1.0
 21
0.2
 12
-1.0
 22
-0.2
 13
-1.0
 23
-0.2
  0
ENDBLK
  5
20B
100
AcDbEntity
  8
0
  6
BYBLOCK
 62
0
100
AcDbBlockEnd
  0
ENDSEC
  0
SECTION
  2
ENTITIES
  0
LINE
  5
20C
100
AcDbEntity
  8
0
100
AcDbLine
 62
9
  6
CONTINUOUS
 10
0.0898183383
 20
10.7935480902
 11
0.0882454145
 21
10.7635893534
  0
LINE
  5
20D
100
AcDbEntity
  8
0
100
AcDbLine
 62
9
  6
CONTINUOUS
 10
0.0898183383
 20
11.3586156306
 11
0.088245414
 21
11.3885743674
  0
LINE
  5
20E
100
AcDbEntity
  8
0
100
AcDbLine
 62
7
  6
CONTINUOUS
 10
0.0598183383
 20
11.3586156306
 11
0.0598183383
 21
10.7935480902
  0
LINE
  5
20F
100
AcDbEntity
  8
0
100
AcDbLine
 62
9
  6
CONTINUOUS
 10
0.0898183383
 20
11.3586156306
 11
0.0898183383
 21
10.7935480902
  0
LINE
  5
210
100
AcDbEntity
  8
0
100
AcDbLine
 62
9
  6
CONTINUOUS
 10
2.887273097
 20
11.5054904212
 11
2.8857001732
 21
11.535449158
  0
LINE
  5
211
100
AcDbEntity
  8
0
100
AcDbLine
 62
9
  6
CONTINUOUS
 10
2.887273097
 20
10.6466732996
 11
2.8857001732
 21
10.6167145628
  0
LINE
  5
212
100
AcDbEntity
  8
0
100
AcDbLine
 62
7
  6
CONTINUOUS
 10
6.4098183383
 20
11.0760818604
 11
6.4098183383
 21
3.2010818604
  0
LINE
  5
213
100
AcDbEntity
  8
0
100
AcDbLine
 62
7
  6
CONTINUOUS
 10
7.4098183383
 20
11.0760818604
 11
7.4098183383
 21
3.2010818604
  0
LINE
  5
214
100
AcDbEntity
  8
0
100
AcDbLine
 62
9
  6
CONTINUOUS
 10
10.9323635795
 20
10.6466732996
 11
10.9339365034
 21
10.6167145628
  0
LINE
  5
215
100
AcDbEntity
  8
0
100
AcDbLine
 62
9
  6
CONTINUOUS
 10
10.9323635795
 20
11.5054904212
 11
10.9339365034
 21
11.535449158
  0
LINE
  5
216
100
AcDbEntity
  8
0
100
AcDbLine
 62
9
  6
CONTINUOUS
 10
13.7298183383
 20
11.3586156306
 11
13.7313912621
 21
11.3885743674
  0
LINE
  5
217
100
AcDbEntity
  8
0
100
AcDbLine
 62
9
  6
CONTINUOUS
 10
13.7298183383
 20
10.7935480902
 11
13.7313912625
 21
10.7635893534
  0
LINE
  5
218
100
AcDbEntity
  8
0
100
AcDbLine
 62
9
  6
CONTINUOUS
 10
13.7298183383
 20
10.7935480902
 11
13.7298183383
 21
11.3586156306
  0
LINE
  5
219
100
AcDbEntity
  8
0
100
AcDbLine
 62
7
  6
CONTINUOUS
 10
13.7598183383
 20
10.7935480902
 11
13.7598183383
 21
11.3586156306
  0
LINE
  5
21A
100
AcDbEntity
  8
0
100
AcDbLine
 62
7
  6
CONTINUOUS
 10
15.9339365034
 20
10.6167145628
 11
18.7313912621
 21
10.7635893534
  0
LINE
  5
21B
100
AcDbEntity
  8
0
100
AcDbLine
 62
9
  6
CONTINUOUS
 10
15.9323635795
 20
10.6466732996
 11
18.7298183383
 21
10.7935480902
  0
LINE
  5
21C
100
AcDbEntity
  8
0
100
AcDbLine
 62
7
  6
CONTINUOUS
 10
10.9339365034
 20
10.6167145628
 11
13.7313912621
 21
10.7635893534
  0
LINE
  5
21D
100
AcDbEntity
  8
0
100
AcDbLine
 62
9
  6
CONTINUOUS
 10
10.9323635795
 20
10.6466732996
 11
13.7298183383
 21
10.7935480902
  0
LINE
  5
21E
100
AcDbEntity
  8
0
100
AcDbLine
 62
7
  6
CONTINUOUS
 10
15.9028355212
 20
10.6161348632
 11
15.9339365034
 21
10.6167145628
  0
LINE
  5
21F
100
AcDbEntity
  8
0
100
AcDbLine
 62
9
  6
CONTINUOUS
 10
15.9029306018
 20
10.6461370278
 11
15.9323635795
 21
10.6466732996
  0
LINE
  5
220
100
AcDbEntity
  8
0
100
AcDbLine
 62
9
  6
CONTINUOUS
 10
10.9016177899
 20
10.646160064
 11
10.9323635795
 21
10.6466732996
  0
LINE
  5
221
100
AcDbEntity
  8
0
100
AcDbLine
 62
7
  6
CONTINUOUS
 10
10.9007616839
 20
10.6161710245
 11
10.9339365034
 21
10.6167145628
  0
LINE
  5
222
100
AcDbEntity
  8
0
100
AcDbLine
 62
7
  6
CONTINUOUS
 10
2.9168011554
 20
10.6161348632
 11
2.8857001732
 21
10.6167145628
  0
LINE
  5
223
100
AcDbEntity
  8
0
100
AcDbLine
 62
7
  6
CONTINUOUS
 10
0.0882454145
 20
10.7635893534
 11
2.8857001732
 21
10.6167145628
  0
LINE
  5
224
100
AcDbEntity
  8
0
100
AcDbLine
 62
9
  6
CONTINUOUS
 10
0.0898183383
 20
10.7935480902
 11
2.887273097
 21
10.6466732996
  0
LINE
  5
225
100
AcDbEntity
  8
0
100
AcDbLine
 62
9
  6
CONTINUOUS
 10
13.7298183383
 20
10.7935480902
 11
13.7598183383
 21
10.7935480902
  0
LINE
  5
226
100
AcDbEntity
  8
0
100
AcDbLine
 62
9
  6
CONTINUOUS
 10
18.7298183383
 20
10.7935480902
 11
18.7598183383
 21
10.7935480902
  0
LINE
  5
227
100
AcDbEntity
  8
0
100
AcDbLine
 62
9
  6
CONTINUOUS
 10
0.0898183383
 20
10.7935480902
 11
0.0598183383
 21
10.7935480898
  0
LINE
  5
228
100
AcDbEntity
  8
0
100
AcDbLine
 62
9
  6
CONTINUOUS
 10
0.0898183383
 20
11.3586156306
 11
0.0598183383
 21
11.3586156306
  0
LINE
  5
229
100
AcDbEntity
  8
0
100
AcDbLine
 62
9
  6
CONTINUOUS
 10
13.7298183383
 20
11.3586156306
 11
13.7598183383
 21
11.3586156311
  0
LINE
  5
22A
100
AcDbEntity
  8
0
100
AcDbLine
 62
9
  6
CONTINUOUS
 10
18.7298183383
 20
11.3586156306
 11
18.7598183383
 21
11.3586156311
  0
LINE
  5
22B
100
AcDbEntity
  8
0
100
AcDbLine
 62
9
  6
CONTINUOUS
 10
13.7298183383
 20
11.3586156306
 11
10.9323635795
 21
11.5054904212
  0
LINE
  5
22C
100
AcDbEntity
  8
0
100
AcDbLine
 62
7
  6
CONTINUOUS
 10
13.7313912621
 20
11.3885743674
 11
10.9339365034
 21
11.535449158
  0
LINE
  5
22D
100
AcDbEntity
  8
0
100
AcDbLine
 62
9
  6
CONTINUOUS
 10
15.9323635795
 20
11.5054904212
 11
15.9339365034
 21
11.535449158
  0
LINE
  5
22E
100
AcDbEntity
  8
0
100
AcDbLine
 62
9
  6
CONTINUOUS
 10
2.887273097
 20
11.5054904212
 11
0.0898183383
 21
11.3586156306
  0
LINE
  5
22F
100
AcDbEntity
  8
0
100
AcDbLine
 62
7
  6
CONTINUOUS
 10
2.8857001732
 20
11.535449158
 11
0.0882454145
 21
11.3885743674
  0
LINE
  5
230
100
AcDbEntity
  8
0
100
AcDbLine
 62
7
  6
CONTINUOUS
 10
2.9168011554
 20
11.5360288576
 11
2.8857001732
 21
11.535449158
  0
LINE
  5
231
100
AcDbEntity
  8
0
100
AcDbLine
 62
9
  6
CONTINUOUS
 10
2.9167060747
 20
11.506026693
 11
2.887273097
 21
11.5054904212
  0
LINE
  5
232
100
AcDbEntity
  8
0
100
AcDbLine
 62
7
  6
CONTINUOUS
 10
15.9028355212
 20
11.5360288576
 11
15.9339365034
 21
11.535449158
  0
LINE
  5
233
100
AcDbEntity
  8
0
100
AcDbLine
 62
9
  6
CONTINUOUS
 10
18.7298183383
 20
11.3586156306
 11
15.9323635795
 21
11.5054904212
  0
LINE
  5
234
100
AcDbEntity
  8
0
100
AcDbLine
 62
7
  6
CONTINUOUS
 10
18.7313912621
 20
11.3885743674
 11
15.9339365034
 21
11.535449158
  0
LINE
  5
235
100
AcDbEntity
  8
0
100
AcDbLine
 62
9
  6
CONTINUOUS
 10
15.9323635795
 20
10.6466732996
 11
15.9339365034
 21
10.6167145628
  0
LINE
  5
236
100
AcDbEntity
  8
0
100
AcDbLine
 62
9
  6
CONTINUOUS
 10
18.7298183383
 20
10.7935480902
 11
18.7313912625
 21
10.7635893534
  0
LINE
  5
237
100
AcDbEntity
  8
0
100
AcDbLine
 62
9
  6
CONTINUOUS
 10
18.7298183383
 20
10.7935480902
 11
18.7298183383
 21
11.3586156306
  0
LINE
  5
238
100
AcDbEntity
  8
0
100
AcDbLine
 62
7
  6
CONTINUOUS
 10
18.7598183383
 20
10.7935480902
 11
18.7598183383
 21
11.3586156306
  0
LINE
  5
239
100
AcDbEntity
  8
0
100
AcDbLine
 62
9
  6
CONTINUOUS
 10
18.7298183383
 20
11.3586156306
 11
18.7313912621
 21
11.3885743674
  0
LINE
  5
23A
100
AcDbEntity
  8
0
100
AcDbLine
 62
7
  6
CONTINUOUS
 10
21.4083661172
 20
10.8497924556
 11
21.4097613004
 21
10.8528929281
  0
LINE
  5
23B
100
AcDbEntity
  8
0
100
AcDbLine
 62
7
  6
CONTINUOUS
 10
21.4071996799
 20
10.8472414696
 11
21.4083661172
 21
10.8497924556
  0
LWPOLYLINE
  5
23C
100
AcDbEntity
  8
0
100
AcDbPolyline
 62
7
  6
CONTINUOUS
 90
3
 70
0
 10
21.4055998399
 20
10.8437961468
 10
21.4059177363
 20
10.8444748186
 10
21.4071996799
 20
10.8472414696
  0
LWPOLYLINE
  5
23D
100
AcDbEntity
  8
0
100
AcDbPolyline
 62
7
  6
CONTINUOUS
 90
10
 70
0
 10
21.4252009557
 20
10.8913187144
 10
21.4265071365
 20
10.8950039538
 10
21.4278149166
 20
10.8987804484
 10
21.4291211543
 20
10.9026431557
 10
21.4304222227
 20
10.9065880114
 10
21.4317139465
 20
10.910608507
 10
21.4329927349
 20
10.9146978453
 10
21.4342558091
 20
10.9188504869
 10
21.4355001268
 20
10.9230616772
 10
21.4367225196
 20
10.9273255189
  0
LWPOLYLINE
  5
23E
100
AcDbEntity
  8
0
100
AcDbPolyline
 62
7
  6
CONTINUOUS
 90
12
 70
0
 10
21.4122993257
 20
10.8586659886
 10
21.4132702072
 20
10.8609249157
 10
21.4142962369
 20
10.8633412803
 10
21.4153762942
 20
10.865919732
 10
21.4165015716
 20
10.8686477464
 10
21.4176637948
 20
10.8715109285
 10
21.4188596374
 20
10.8745045316
 10
21.4200878008
 20
10.8776331178
 10
21.4213411975
 20
10.8808869939
 10
21.422613469
 20
10.8842553576
 10
21.4239012085
 20
10.8877331926
 10
21.4252009557
 20
10.8913187144
  0
LWPOLYLINE
  5
23F
100
AcDbEntity
  8
0
100
AcDbPolyline
 62
7
  6
CONTINUOUS
 90
3
 70
0
 10
21.4097613004
 20
10.8528929281
 10
21.4105409786
 20
10.8546471358
 10
21.4122993257
 20
10.8586659886
  0
LINE
  5
240
100
AcDbEntity
  8
0
100
AcDbLine
 62
7
  6
CONTINUOUS
 10
20.4098183383
 20
10.4642926296
 11
20.4098183383
 21
5.0134536995
  0
LINE
  5
241
100
AcDbEntity
  8
0
100
AcDbLine
 62
7
  6
CONTINUOUS
 10
20.4198183383
 20
10.6956961691
 11
20.4198183383
 21
10.7792585583
  0
LINE
  5
242
100
AcDbEntity
  8
0
100
AcDbLine
 62
7
  6
CONTINUOUS
 10
20.4223183383
 20
11.0760818604
 11
20.4223183383
 21
10.8155619071
  0
LINE
  5
243
100
AcDbEntity
  8
0
100
AcDbLine
 62
7
  6
CONTINUOUS
 10
20.4398183383
 20
10.8018424008
 11
20.4398183383
 21
10.5961503657
  0
LINE
  5
244
100
AcDbEntity
  8
0
100
AcDbLine
 62
7
  6
CONTINUOUS
 10
21.4367225196
 20
10.9273255189
 11
21.4372775681
 21
10.9293060446
  0
LINE
  5
245
100
AcDbEntity
  8
0
100
AcDbLine
 62
7
  6
CONTINUOUS
 10
21.3798183383
 20
10.5954542269
 11
21.3798183383
 21
10.8018424008
  0
LINE
  5
246
100
AcDbEntity
  8
0
100
AcDbLine
 62
7
  6
CONTINUOUS
 10
21.3973183383
 20
11.0760818604
 11
21.3973183383
 21
10.8155600288
  0
LINE
  5
247
100
AcDbEntity
  8
0
100
AcDbLine
 62
7
  6
CONTINUOUS
 10
21.3998183383
 20
10.6956961691
 11
21.3998183383
 21
10.7792585583
  0
LINE
  5
248
100
AcDbEntity
  8
0
100
AcDbLine
 62
7
  6
CONTINUOUS
 10
21.4098183383
 20
10.4642926296
 11
21.4098183383
 21
5.0134536995
  0
LINE
  5
249
100
AcDbEntity
  8
0
100
AcDbLine
 62
7
  6
CONTINUOUS
 10
21.4062553853
 20
11.306963942
 11
21.4051911057
 21
11.3092369675
  0
LINE
  5
24A
100
AcDbEntity
  8
0
100
AcDbLine
 62
7
  6
CONTINUOUS
 10
21.4076984669
 20
11.3038358383
 11
21.4062553853
 21
11.306963942
  0
LINE
  5
24B
100
AcDbEntity
  8
0
100
AcDbLine
 62
7
  6
CONTINUOUS
 10
21.4089831019
 20
11.301006661
 11
21.4076984669
 21
11.3038358383
  0
LINE
  5
24C
100
AcDbEntity
  8
0
100
AcDbLine
 62
7
  6
CONTINUOUS
 10
21.4104722105
 20
11.2976719283
 11
21.4089831019
 21
11.301006661
  0
LINE
  5
24D
100
AcDbEntity
  8
0
100
AcDbLine
 62
7
  6
CONTINUOUS
 10
21.4130747761
 20
11.291695716
 11
21.4104722105
 21
11.2976719283
  0
LWPOLYLINE
  5
24E
100
AcDbEntity
  8
0
100
AcDbPolyline
 62
7
  6
CONTINUOUS
 90
12
 70
0
 10
21.4265527941
 20
11.257029416
 10
21.4252992333
 20
11.2605706541
 10
21.4240584585
 20
11.2640008744
 10
21.4228349485
 20
11.2673152109
 10
21.4216319331
 20
11.2705128641
 10
21.4204511505
 20
11.2735938292
 10
21.4192972395
 20
11.276551004
 10
21.4181750646
 20
11.2793789227
 10
21.4170865756
 20
11.2820805392
 10
21.4160287023
 20
11.2846676565
 10
21.41500463
 20
11.2871355677
 10
21.4130747761
 20
11.291695716
  0
LWPOLYLINE
  5
24F
100
AcDbEntity
  8
0
100
AcDbPolyline
 62
7
  6
CONTINUOUS
 90
10
 70
0
 10
21.4372775714
 20
11.2228576726
 10
21.4366449686
 20
11.2251126569
 10
21.4354066469
 20
11.2294227934
 10
21.4341554595
 20
11.2336474967
 10
21.4328946935
 20
11.2377833882
 10
21.4316272753
 20
11.2418283793
 10
21.4303559138
 20
11.245779235
 10
21.4290839717
 20
11.2496318268
 10
21.427815229
 20
11.2533823616
 10
21.4265527941
 20
11.257029416
  0
ARC
  5
250
100
AcDbEntity
  8
0
100
AcDbCircle
 62
7
  6
CONTINUOUS
 10
6.9098183383
 20
3.2010818604
 40
0.5
100
AcDbArc
 50
180.0
 51
360.0
  0
ARC
  5
251
100
AcDbEntity
  8
0
100
AcDbCircle
 62
7
  6
CONTINUOUS
 10
6.9098183383
 20
11.0760818604
 40
1.1875
100
AcDbArc
 50
294.9151235981
 51
245.0848764019
  0
ARC
  5
252
100
AcDbEntity
  8
0
100
AcDbCircle
 62
7
  6
CONTINUOUS
 10
2.9098183383
 20
11.0760818604
 40
1.1
100
AcDbArc
 50
201.7218675649
 51
158.278132448
  0
ARC
  5
253
100
AcDbEntity
  8
0
100
AcDbCircle
 62
9
  6
CONTINUOUS
 10
2.9098183383
 20
11.0760818604
 40
1.07
100
AcDbArc
 50
202.4568579299
 51
157.543143509
  0
ARC
  5
254
100
AcDbEntity
  8
0
100
AcDbCircle
 62
7
  6
CONTINUOUS
 10
2.9098183383
 20
11.0760818604
 40
0.75
100
AcDbArc
 50
214.8348446607
 51
145.1651553395
  0
ARC
  5
255
100
AcDbEntity
  8
0
100
AcDbCircle
 62
9
  6
CONTINUOUS
 10
2.9098183383
 20
11.0760818604
 40
0.7231538135
100
AcDbArc
 50
216.5168223423
 51
143.4831776577
  0
ARC
  5
256
100
AcDbEntity
  8
0
100
AcDbCircle
 62
7
  6
CONTINUOUS
 10
6.9098183383
 20
11.0760818604
 40
0.6875
100
AcDbArc
 50
316.7260312695
 51
223.2739681981
  0
ARC
  5
257
100
AcDbEntity
  8
0
100
AcDbCircle
 62
9
  6
CONTINUOUS
 10
2.9098183383
 20
11.0760818604
 40
0.6695101743
100
AcDbArc
 50
220.4120514563
 51
139.5879485438
  0
ARC
  5
258
100
AcDbEntity
  8
0
100
AcDbCircle
 62
9
  6
CONTINUOUS
 10
2.9098183383
 20
11.0760818604
 40
0.6115087442
100
AcDbArc
 50
225.8127178032
 51
134.1872821968
  0
ARC
  5
259
100
AcDbEntity
  8
0
100
AcDbCircle
 62
9
  6
CONTINUOUS
 10
2.9098183383
 20
11.0760818604
 40
0.5785288469
100
AcDbArc
 50
229.6918857554
 51
130.3081142512
  0
ARC
  5
25A
100
AcDbEntity
  8
0
100
AcDbCircle
 62
7
  6
CONTINUOUS
 10
6.9098183383
 20
11.0760818604
 40
0.5
100
AcDbArc
 50
0.0
 51
180.0
  0
ARC
  5
25B
100
AcDbEntity
  8
0
100
AcDbCircle
 62
7
  6
CONTINUOUS
 10
2.9098183383
 20
11.0760818604
 40
0.46
100
AcDbArc
 50
266.9945587477
 51
89.130214532
  0
ARC
  5
25C
100
AcDbEntity
  8
0
100
AcDbCircle
 62
9
  6
CONTINUOUS
 10
2.9098183383
 20
11.0760818604
 40
0.43
100
AcDbArc
 50
266.9945587477
 51
89.0821974245
  0
ARC
  5
25D
100
AcDbEntity
  8
0
100
AcDbCircle
 62
7
  6
CONTINUOUS
 10
0.0898183383
 20
11.3586156306
 40
0.03
100
AcDbArc
 50
93.0054412523
 51
180.0
  0
ARC
  5
25E
100
AcDbEntity
  8
0
100
AcDbCircle
 62
7
  6
CONTINUOUS
 10
0.0898183383
 20
10.7935480902
 40
0.03
100
AcDbArc
 50
180.0
 51
266.9945587477
  0
ARC
  5
25F
100
AcDbEntity
  8
0
100
AcDbCircle
 62
7
  6
CONTINUOUS
 10
13.7298183383
 20
10.7935480902
 40
0.03
100
AcDbArc
 50
273.0054412523
 51
360.0
  0
ARC
  5
260
100
AcDbEntity
  8
0
100
AcDbCircle
 62
7
  6
CONTINUOUS
 10
15.9098183383
 20
11.0760818604
 40
1.1
100
AcDbArc
 50
21.7185851092
 51
338.2814148989
  0
ARC
  5
261
100
AcDbEntity
  8
0
100
AcDbCircle
 62
7
  6
CONTINUOUS
 10
10.9098183383
 20
11.0760818604
 40
1.1
100
AcDbArc
 50
21.7242383815
 51
338.2757616338
  0
ARC
  5
262
100
AcDbEntity
  8
0
100
AcDbCircle
 62
9
  6
CONTINUOUS
 10
15.9098183383
 20
11.0760818604
 40
1.07
100
AcDbArc
 50
22.460261883
 51
337.5397368072
  0
ARC
  5
263
100
AcDbEntity
  8
0
100
AcDbCircle
 62
9
  6
CONTINUOUS
 10
10.9098183383
 20
11.0760818604
 40
1.07
100
AcDbArc
 50
22.4651695293
 51
337.5348309966
  0
ARC
  5
264
100
AcDbEntity
  8
0
100
AcDbCircle
 62
7
  6
CONTINUOUS
 10
15.9098183383
 20
11.0760818604
 40
0.75
100
AcDbArc
 50
34.8303111196
 51
325.1696888804
  0
ARC
  5
265
100
AcDbEntity
  8
0
100
AcDbCircle
 62
7
  6
CONTINUOUS
 10
10.9098183383
 20
11.0760818604
 40
0.75
100
AcDbArc
 50
34.8444411957
 51
325.1555588046
  0
ARC
  5
266
100
AcDbEntity
  8
0
100
AcDbCircle
 62
9
  6
CONTINUOUS
 10
15.9098183383
 20
11.0760818604
 40
0.7231538135
100
AcDbArc
 50
36.5168223423
 51
323.4831776577
  0
ARC
  5
267
100
AcDbEntity
  8
0
100
AcDbCircle
 62
9
  6
CONTINUOUS
 10
10.9098183383
 20
11.0760818604
 40
0.7231538135
100
AcDbArc
 50
36.5019958956
 51
323.4980041046
  0
ARC
  5
268
100
AcDbEntity
  8
0
100
AcDbCircle
 62
9
  6
CONTINUOUS
 10
15.9098183383
 20
11.0760818604
 40
0.6695101743
100
AcDbArc
 50
40.4186654013
 51
319.5813346022
  0
ARC
  5
269
100
AcDbEntity
  8
0
100
AcDbCircle
 62
9
  6
CONTINUOUS
 10
10.9098183383
 20
11.0760818604
 40
0.6695101743
100
AcDbArc
 50
40.4130065015
 51
319.5869935046
  0
ARC
  5
26A
100
AcDbEntity
  8
0
100
AcDbCircle
 62
9
  6
CONTINUOUS
 10
15.9098183383
 20
11.0760818604
 40
0.6115087442
100
AcDbArc
 50
45.8127178032
 51
314.1872821968
  0
ARC
  5
26B
100
AcDbEntity
  8
0
100
AcDbCircle
 62
9
  6
CONTINUOUS
 10
10.9098183383
 20
11.0760818604
 40
0.6115087442
100
AcDbArc
 50
45.7853166358
 51
314.2146833642
  0
ARC
  5
26C
100
AcDbEntity
  8
0
100
AcDbCircle
 62
9
  6
CONTINUOUS
 10
15.9098183383
 20
11.0760818604
 40
0.5785288469
100
AcDbArc
 50
49.6996486175
 51
310.3003513815
  0
ARC
  5
26D
100
AcDbEntity
  8
0
100
AcDbCircle
 62
9
  6
CONTINUOUS
 10
10.9098183383
 20
11.0760818604
 40
0.5785288469
100
AcDbArc
 50
49.6655501288
 51
310.3344498587
  0
ARC
  5
26E
100
AcDbEntity
  8
0
100
AcDbCircle
 62
7
  6
CONTINUOUS
 10
15.9098183383
 20
11.0760818604
 40
0.46
100
AcDbArc
 50
86.9945587477
 51
273.0054412523
  0
ARC
  5
26F
100
AcDbEntity
  8
0
100
AcDbCircle
 62
7
  6
CONTINUOUS
 10
10.9098183383
 20
11.0760818604
 40
0.46
100
AcDbArc
 50
86.9945587477
 51
273.0054412523
  0
ARC
  5
270
100
AcDbEntity
  8
0
100
AcDbCircle
 62
9
  6
CONTINUOUS
 10
15.9098183383
 20
11.0760818604
 40
0.43
100
AcDbArc
 50
86.9945587477
 51
269.0821974245
  0
ARC
  5
271
100
AcDbEntity
  8
0
100
AcDbCircle
 62
9
  6
CONTINUOUS
 10
10.9098183383
 20
11.0760818604
 40
0.43
100
AcDbArc
 50
86.9945587477
 51
268.9072434962
  0
ARC
  5
272
100
AcDbEntity
  8
0
100
AcDbCircle
 62
7
  6
CONTINUOUS
 10
13.7298183383
 20
11.3586156306
 40
0.03
100
AcDbArc
 50
0.0
 51
86.9945587477
  0
ARC
  5
273
100
AcDbEntity
  8
0
100
AcDbCircle
 62
7
  6
CONTINUOUS
 10
20.7295702045
 20
10.6903246842
 40
0.3104711663
100
AcDbArc
 50
158.9496238775
 51
160.6519891692
  0
ARC
  5
274
100
AcDbEntity
  8
0
100
AcDbCircle
 62
7
  6
CONTINUOUS
 10
20.7291488382
 20
10.7009171679
 40
0.3100237882
100
AcDbArc
 50
199.8950449155
 51
200.3678845802
  0
ARC
  5
275
100
AcDbEntity
  8
0
100
AcDbCircle
 62
7
  6
CONTINUOUS
 10
21.0904882551
 20
10.7009170158
 40
0.3100233446
100
AcDbArc
 50
339.6325276157
 51
340.1049553112
  0
ARC
  5
276
100
AcDbEntity
  8
0
100
AcDbCircle
 62
7
  6
CONTINUOUS
 10
21.0906375611
 20
10.6905347949
 40
0.3098627196
100
AcDbArc
 50
19.3463393245
 51
21.0520476287
  0
ARC
  5
277
100
AcDbEntity
  8
0
100
AcDbCircle
 62
7
  6
CONTINUOUS
 10
20.7157837975
 20
10.7792551911
 40
0.2959654592
100
AcDbArc
 50
177.4921575599
 51
179.9993481342
  0
ARC
  5
278
100
AcDbEntity
  8
0
100
AcDbCircle
 62
7
  6
CONTINUOUS
 10
21.1039563465
 20
10.7792574567
 40
0.2958619917
100
AcDbArc
 50
0.0002133349
 51
2.5082833663
  0
ARC
  5
279
100
AcDbEntity
  8
0
100
AcDbCircle
 62
7
  6
CONTINUOUS
 10
18.7298183383
 20
10.7935480902
 40
0.03
100
AcDbArc
 50
273.0054412523
 51
360.0
  0
ARC
  5
27A
100
AcDbEntity
  8
0
100
AcDbCircle
 62
7
  6
CONTINUOUS
 10
18.7298183383
 20
11.3586156306
 40
0.03
100
AcDbArc
 50
0.0
 51
86.9945587477
  0
ARC
  5
27B
100
AcDbEntity
  8
0
100
AcDbCircle
 62
7
  6
CONTINUOUS
 10
20.9098183383
 20
11.0760818604
 40
1.125
100
AcDbArc
 50
296.3991351226
 51
243.6008648774
  0
ARC
  5
27C
100
AcDbEntity
  8
0
100
AcDbCircle
 62
9
  6
CONTINUOUS
 10
20.9098183383
 20
11.0760818604
 40
1.105
100
AcDbArc
 50
296.9130205437
 51
243.0869794563
  0
ARC
  5
27D
100
AcDbEntity
  8
0
100
AcDbCircle
 62
7
  6
CONTINUOUS
 10
20.9098183383
 20
11.0760818604
 40
0.5475
100
AcDbArc
 50
332.9457107375
 51
207.0542892625
  0
ARC
  5
27E
100
AcDbEntity
  8
0
100
AcDbCircle
 62
9
  6
CONTINUOUS
 10
20.9098183383
 20
11.0760818604
 40
0.5175
100
AcDbArc
 50
340.4332804638
 51
199.5667195362
  0
ARC
  5
27F
100
AcDbEntity
  8
0
100
AcDbCircle
 62
7
  6
CONTINUOUS
 10
20.9098183383
 20
11.0760818604
 40
0.4875
100
AcDbArc
 50
0.0
 51
180.0
  0
SPLINE
  5
280
100
AcDbEntity
  8
0
100
AcDbSpline
 62
7
  6
CONTINUOUS
 70
0
 71
3
 72
29
 73
25
 74
0
 42
0.0000001
 43
0.0000001
 44
0.0000000001
 40
0.0
 40
0.0
 40
0.0
 40
0.0
 40
0.0272587826
 40
0.0545606721
 40
0.0819447484
 40
0.1094525686
 40
0.1371224081
 40
0.1649907513
 40
0.1930916521
 40
0.2214561733
 40
0.2501121897
 40
0.2790840927
 40
0.3380331751
 40
0.3984464293
 40
0.4603817695
 40
0.5238366606
 40
0.5887519366
 40
0.6550171201
 40
0.7224768862
 40
0.7909380884
 40
0.8254817934
 40
0.8601900178
 40
0.9299598421
 40
1.0
 40
1.0
 40
1.0
 40
1.0
 10
20.4498183383
 20
5.0070258234
 30
0.0
 10
20.4498183383
 20
5.0011883207
 30
0.0
 10
20.4501921129
 20
4.9895006554
 30
0.0
 10
20.4518716908
 20
4.9720213063
 30
0.0
 10
20.4546658785
 20
4.9546305407
 30
0.0
 10
20.4585665403
 20
4.9373736624
 30
0.0
 10
20.4635629409
 20
4.9202936935
 30
0.0
 10
20.4696411564
 20
4.9034333621
 30
0.0
 10
20.4767846378
 20
4.8868342269
 30
0.0
 10
20.4849741798
 20
4.8705369732
 30
0.0
 10
20.4941884804
 20
4.8545804884
 30
0.0
 10
20.5078841368
 20
4.8336940828
 30
0.0
 10
20.5275008796
 20
4.8086222991
 30
0.0
 10
20.5545523033
 20
4.7806806644
 30
0.0
 10
20.5849885861
 20
4.7549528304
 30
0.0
 10
20.6185106773
 20
4.7316742084
 30
0.0
 10
20.6547963604
 20
4.7110540778
 30
0.0
 10
20.6934994333
 20
4.6932785274
 30
0.0
 10
20.7342507501
 20
4.6785089264
 30
0.0
 10
20.7694962161
 20
4.6688449899
 30
0.0
 10
20.7983502016
 20
4.6627166266
 30
0.0
 10
20.8276959156
 20
4.6576590204
 30
0.0
 10
20.8648671599
 20
4.6534331776
 30
0.0
 10
20.8948191503
 20
4.652305824
 30
0.0
 10
20.9098183383
 20
4.652305824
 30
0.0
  0
SPLINE
  5
281
100
AcDbEntity
  8
0
100
AcDbSpline
 62
7
  6
CONTINUOUS
 70
0
 71
3
 72
29
 73
25
 74
0
 42
0.0000001
 43
0.0000001
 44
0.0000000001
 40
0.0
 40
0.0
 40
0.0
 40
0.0
 40
0.0700401741
 40
0.1398100086
 40
0.1745182377
 40
0.2090619459
 40
0.2775231519
 40
0.3449829184
 40
0.4112480989
 40
0.4761633692
 40
0.5396182526
 40
0.6015535839
 40
0.6619668287
 40
0.7209159025
 40
0.7498878017
 40
0.7785438151
 40
0.8069083339
 40
0.8350092332
 40
0.8628775759
 40
0.8905474161
 40
0.9180552378
 40
0.9454393167
 40
0.9727412131
 40
1.0
 40
1.0
 40
1.0
 40
1.0
 10
20.9098183383
 20
4.652305824
 30
0.0
 10
20.9248175298
 20
4.652305824
 30
0.0
 10
20.9547695258
 20
4.653433178
 30
0.0
 10
20.9919407766
 20
4.6576590227
 30
0.0
 10
21.0212864943
 20
4.6627166304
 30
0.0
 10
21.0501404821
 20
4.668844995
 30
0.0
 10
21.0853859491
 20
4.6785089339
 30
0.0
 10
21.1261372657
 20
4.6932785362
 30
0.0
 10
21.1648403359
 20
4.7110540881
 30
0.0
 10
21.2011260151
 20
4.7316742184
 30
0.0
 10
21.2346481016
 20
4.754952839
 30
0.0
 10
21.2650843792
 20
4.7806806703
 30
0.0
 10
21.2921357985
 20
4.8086223011
 30
0.0
 10
21.3117525384
 20
4.8336940812
 30
0.0
 10
21.3254481934
 20
4.8545804838
 30
0.0
 10
21.3346624932
 20
4.8705369668
 30
0.0
 10
21.3428520351
 20
4.8868342189
 30
0.0
 10
21.3499955167
 20
4.903433353
 30
0.0
 10
21.3560737325
 20
4.920293684
 30
0.0
 10
21.3610701336
 20
4.9373736531
 30
0.0
 10
21.3649707966
 20
4.9546305321
 30
0.0
 10
21.3677649851
 20
4.9720213
 30
0.0
 10
21.3694445632
 20
4.9895006521
 30
0.0
 10
21.3698183383
 20
5.0011883198
 30
0.0
 10
21.3698183383
 20
5.0070258234
 30
0.0
  0
SPLINE
  5
282
100
AcDbEntity
  8
0
100
AcDbSpline
 62
7
  6
CONTINUOUS
 70
0
 71
3
 72
11
 73
7
 74
0
 42
0.0000001
 43
0.0000001
 44
0.0000000001
 40
0.0
 40
0.0
 40
0.0
 40
0.0
 40
0.248048877
 40
0.4968891318
 40
0.7472941467
 40
1.0
 40
1.0
 40
1.0
 40
1.0
 10
20.4198183383
 20
10.6956961691
 30
0.0
 10
20.4198183383
 20
10.6872350179
 30
0.0
 10
20.4205679797
 20
10.6702763295
 30
0.0
 10
20.4239345763
 20
10.6449770275
 30
0.0
 10
20.4295266672
 20
10.619912532
 30
0.0
 10
20.434694672
 20
10.6035221696
 30
0.0
 10
20.437628026
 20
10.5954166214
 30
0.0
  0
SPLINE
  5
283
100
AcDbEntity
  8
0
100
AcDbSpline
 62
7
  6
CONTINUOUS
 70
0
 71
3
 72
11
 73
7
 74
0
 42
0.0000001
 43
0.0000001
 44
0.0000000001
 40
0.0
 40
0.0
 40
0.0
 40
0.0
 40
0.2527058533
 40
0.5031108682
 40
0.751951123
 40
1.0
 40
1.0
 40
1.0
 40
1.0
 10
21.3820086506
 20
10.5954166214
 30
0.0
 10
21.3849420045
 20
10.6035221696
 30
0.0
 10
21.3901100094
 20
10.619912532
 30
0.0
 10
21.3957021002
 20
10.6449770275
 30
0.0
 10
21.3990686969
 20
10.6702763295
 30
0.0
 10
21.3998183383
 20
10.6872350179
 30
0.0
 10
21.3998183383
 20
10.6956961691
 30
0.0
  0
SPLINE
  5
284
100
AcDbEntity
  8
0
100
AcDbSpline
 62
7
  6
CONTINUOUS
 70
0
 71
3
 72
15
 73
11
 74
0
 42
0.0000001
 43
0.0000001
 44
0.0000000001
 40
0.0
 40
0.0
 40
0.0
 40
0.0
 40
0.1234730277
 40
0.2471031264
 40
0.371025787
 40
0.4953921325
 40
0.6203424774
 40
0.7460103156
 40
0.872523226
 40
1.0
 40
1.0
 40
1.0
 40
1.0
 10
21.4098183383
 20
10.4642926296
 30
0.0
 10
21.4098183383
 20
10.4699005706
 30
0.0
 10
21.409500694
 20
10.4811261661
 30
0.0
 10
21.4080730954
 20
10.4979254933
 30
0.0
 10
21.405697044
 20
10.5146585736
 30
0.0
 10
21.402377841
 20
10.5312912693
 30
0.0
 10
21.3981228087
 20
10.5477912378
 30
0.0
 10
21.3929409255
 20
10.5641262609
 30
0.0
 10
21.3868434159
 20
10.5802640482
 30
0.0
 10
21.3821950001
 20
10.59082874
 30
0.0
 10
21.3797259054
 20
10.5960656453
 30
0.0
  0
SPLINE
  5
285
100
AcDbEntity
  8
0
100
AcDbSpline
 62
7
  6
CONTINUOUS
 70
0
 71
3
 72
35
 73
31
 74
0
 42
0.0000001
 43
0.0000001
 44
0.0000000001
 40
0.0
 40
0.0
 40
0.0
 40
0.0
 40
0.0275306185
 40
0.055526988
 40
0.0840385793
 40
0.113100859
 40
0.142735001
 40
0.1729480868
 40
0.2037336346
 40
0.2350723809
 40
0.2992400897
 40
0.3320110489
 40
0.3651523635
 40
0.3985981107
 40
0.4322769396
 40
0.5000000754
 40
0.5677232075
 40
0.601402032
 40
0.6348477732
 40
0.6679890801
 40
0.7007600301
 40
0.764927717
 40
0.7962664509
 40
0.8270519858
 40
0.8572650585
 40
0.8868991874
 40
0.9159614543
 40
0.9444730333
 40
0.9724693915
 40
1.0
 40
1.0
 40
1.0
 40
1.0
 10
21.3797259054
 20
10.5960656453
 30
0.0
 10
21.3753279794
 20
10.6053935669
 30
0.0
 10
21.3655782648
 20
10.6238051999
 30
0.0
 10
21.3484069218
 20
10.6502349806
 30
0.0
 10
21.3286798475
 20
10.6755481131
 30
0.0
 10
21.3065199011
 20
10.6995981151
 30
0.0
 10
21.2820602954
 20
10.7222512309
 30
0.0
 10
21.2554471278
 20
10.7433808739
 30
0.0
 10
21.2268348334
 20
10.7628709152
 30
0.0
 10
21.1859358954
 20
10.78670704
 30
0.0
 10
21.1420121899
 20
10.8065986041
 30
0.0
 10
21.0958990822
 20
10.8224106267
 30
0.0
 10
21.0599861945
 20
10.8322783883
 30
0.0
 10
21.0232083912
 20
10.8400105994
 30
0.0
 10
20.9732177212
 20
10.8474285063
 30
0.0
 10
20.9098181975
 20
10.8511409913
 30
0.0
 10
20.8464186772
 20
10.847428478
 30
0.0
 10
20.7964280156
 20
10.8400105503
 30
0.0
 10
20.7596502221
 20
10.8322783258
 30
0.0
 10
20.7237373468
 20
10.8224105512
 30
0.0
 10
20.6776242598
 20
10.8065985129
 30
0.0
 10
20.6337005781
 20
10.7867069359
 30
0.0
 10
20.5928016657
 20
10.7628708024
 30
0.0
 10
20.5641893914
 20
10.7433807572
 30
0.0
 10
20.5375762436
 20
10.722251113
 30
0.0
 10
20.5131166576
 20
10.6995979973
 30
0.0
 10
20.4909567306
 20
10.6755479971
 30
0.0
 10
20.4712296744
 20
10.6502348677
 30
0.0
 10
20.4540583482
 20
10.6238050911
 30
0.0
 10
20.4443086437
 20
10.6053934618
 30
0.0
 10
20.4399107226
 20
10.596065542
 30
0.0
  0
SPLINE
  5
286
100
AcDbEntity
  8
0
100
AcDbSpline
 62
7
  6
CONTINUOUS
 70
0
 71
3
 72
15
 73
11
 74
0
 42
0.0000001
 43
0.0000001
 44
0.0000000001
 40
0.0
 40
0.0
 40
0.0
 40
0.0
 40
0.1274767555
 40
0.2539896528
 40
0.3796574824
 40
0.5046078238
 40
0.6289741727
 40
0.7528968403
 40
0.876526953
 40
1.0
 40
1.0
 40
1.0
 40
1.0
 10
20.4399107226
 20
10.596065542
 30
0.0
 10
20.4374416321
 20
10.590828641
 30
0.0
 10
20.4327932238
 20
10.5802639581
 30
0.0
 10
20.4266957246
 20
10.5641261842
 30
0.0
 10
20.4215138501
 20
10.5477911747
 30
0.0
 10
20.4172588243
 20
10.5312912196
 30
0.0
 10
20.4139396266
 20
10.514658537
 30
0.0
 10
20.4115635786
 20
10.4979254694
 30
0.0
 10
20.4101359821
 20
10.4811261544
 30
0.0
 10
20.4098183383
 20
10.4699005668
 30
0.0
 10
20.4098183383
 20
10.4642926296
 30
0.0
  0
SPLINE
  5
287
100
AcDbEntity
  8
0
100
AcDbSpline
 62
7
  6
CONTINUOUS
 70
0
 71
3
 72
51
 73
47
 74
0
 42
0.0000001
 43
0.0000001
 44
0.0000000001
 40
0.0
 40
0.0
 40
0.0
 40
0.0
 40
0.0136191651
 40
0.0272599789
 40
0.0409422108
 40
0.0546867422
 40
0.068512822
 40
0.0824388172
 40
0.096481838
 40
0.1106574918
 40
0.124979774
 40
0.1394609157
 40
0.1541113003
 40
0.1689394039
 40
0.1991429778
 40
0.2301111429
 40
0.2618423368
 40
0.2943065748
 40
0.3274482044
 40
0.3611891283
 40
0.3954323343
 40
0.4300656061
 40
0.464965278
 40
0.5000000604
 40
0.5350348419
 40
0.5699345106
 40
0.6045677773
 40
0.6388109766
 40
0.6725518918
 40
0.7056935117
 40
0.7381577385
 40
0.7698889211
 40
0.8008570742
 40
0.8310606365
 40
0.8458887345
 40
0.8605391136
 40
0.8750202503
 40
0.8893425277
 40
0.9035181772
 40
0.9175611942
 40
0.931487186
 40
0.9453132629
 40
0.9590577921
 40
0.9727400224
 40
0.9863808352
 40
1.0
 40
1.0
 40
1.0
 40
1.0
 10
20.4098183383
 20
5.0134536995
 30
0.0
 10
20.4098183383
 20
5.0071146965
 30
0.0
 10
20.4102243167
 20
4.9944228889
 30
0.0
 10
20.4120486612
 20
4.975441656
 30
0.0
 10
20.4150837368
 20
4.9565562609
 30
0.0
 10
20.4193207686
 20
4.9378157147
 30
0.0
 10
20.4247482335
 20
4.9192666241
 30
0.0
 10
20.431351135
 20
4.9009552803
 30
0.0
 10
20.4391115936
 20
4.8829267697
 30
0.0
 10
20.4480089602
 20
4.8652251
 30
0.0
 10
20.4580198753
 20
4.8478929967
 30
0.0
 10
20.4691182065
 20
4.8309719828
 30
0.0
 10
20.4812760069
 20
4.8145017413
 30
0.0
 10
20.4989628698
 20
4.7930666447
 30
0.0
 10
20.5236175945
 20
4.7676048235
 30
0.0
 10
20.5566952606
 20
4.7396512026
 30
0.0
 10
20.5931317654
 20
4.7143539928
 30
0.0
 10
20.6325741441
 20
4.6919448257
 30
0.0
 10
20.6746463365
 20
4.672625856
 30
0.0
 10
20.718948232
 20
4.6565728468
 30
0.0
 10
20.7650595623
 20
4.6439319621
 30
0.0
 10
20.8125432401
 20
4.6348190181
 30
0.0
 10
20.8609491522
 20
4.6293174344
 30
0.0
 10
20.9098184223
 20
4.6274780086
 30
0.0
 10
20.9586876904
 20
4.6293174477
 30
0.0
 10
21.0070935971
 20
4.6348190417
 30
0.0
 10
21.0545772651
 20
4.643931999
 30
0.0
 10
21.1006885839
 20
4.6565728894
 30
0.0
 10
21.1449904633
 20
4.6726259089
 30
0.0
 10
21.1870626403
 20
4.6919448792
 30
0.0
 10
21.2265049992
 20
4.7143540506
 30
0.0
 10
21.2629414875
 20
4.739651256
 30
0.0
 10
21.2960191342
 20
4.7676048745
 30
0.0
 10
21.320673847
 20
4.7930666882
 30
0.0
 10
21.3383606991
 20
4.81450178
 30
0.0
 10
21.3505184933
 20
4.8309720167
 30
0.0
 10
21.3616168193
 20
4.8478930255
 30
0.0
 10
21.3716277295
 20
4.8652251242
 30
0.0
 10
21.3805250917
 20
4.8829267893
 30
0.0
 10
21.3882855474
 20
4.9009552952
 30
0.0
 10
21.3948884467
 20
4.9192666349
 30
0.0
 10
21.4003159097
 20
4.9378157219
 30
0.0
 10
21.4045529405
 20
4.9565562651
 30
0.0
 10
21.4075880157
 20
4.975441658
 30
0.0
 10
21.4094123598
 20
4.9944228896
 30
0.0
 10
21.4098183383
 20
5.0071146965
 30
0.0
 10
21.4098183383
 20
5.0134536994
 30
0.0
  0
SPLINE
  5
288
100
AcDbEntity
  8
0
100
AcDbSpline
 62
7
  6
CONTINUOUS
 70
0
 71
3
 72
49
 73
45
 74
0
 42
0.0000001
 43
0.0000001
 44
0.0000000001
 40
0.0
 40
0.0
 40
0.0
 40
0.0
 40
0.0137138195
 40
0.0274585701
 40
0.0412527236
 40
0.0551137034
 40
0.0690581277
 40
0.0831017522
 40
0.0972591848
 40
0.1115437911
 40
0.1259675349
 40
0.1405408656
 40
0.1701600397
 40
0.200463185
 40
0.2314740939
 40
0.2631898265
 40
0.2955820085
 40
0.3285991229
 40
0.3621691373
 40
0.3962026717
 40
0.4305962595
 40
0.4652358125
 40
0.5000001301
 40
0.5347644456
 40
0.5694039924
 40
0.6037975696
 40
0.6378310904
 40
0.6714010868
 40
0.7044181813
 40
0.7368103405
 40
0.768526049
 40
0.799536933
 40
0.8298400534
 40
0.8594592038
 40
0.8740325233
 40
0.8884562566
 40
0.9027408531
 40
0.9168982769
 40
0.9309418936
 40
0.944886311
 40
0.9587472851
 40
0.9725414343
 40
0.9862861816
 40
1.0
 40
1.0
 40
1.0
 40
1.0
 10
21.3995348744
 20
10.7922055081
 30
0.0
 10
21.399265643
 20
10.7983531582
 30
0.0
 10
21.3983424258
 20
10.8106489241
 30
0.0
 10
21.3958117366
 20
10.8289970245
 30
0.0
 10
21.3921417101
 20
10.8472195432
 30
0.0
 10
21.3873432426
 20
10.8652702464
 30
0.0
 10
21.3814302021
 20
10.8831049325
 30
0.0
 10
21.3744193671
 20
10.9006802906
 30
0.0
 10
21.3663301856
 20
10.9179545361
 30
0.0
 10
21.3571848137
 20
10.934887193
 30
0.0
 10
21.3470071022
 20
10.9514398188
 30
0.0
 10
21.3320180566
 20
10.9730658873
 30
0.0
 10
21.3107806787
 20
10.998966205
 30
0.0
 10
21.2817883785
 20
11.0277692973
 30
0.0
 10
21.2494229483
 20
11.0542309535
 30
0.0
 10
21.2139894264
 20
11.0781268727
 30
0.0
 10
21.1758132716
 20
11.0992589336
 30
0.0
 10
21.1352415837
 20
11.1174504264
 30
0.0
 10
21.0926408731
 20
11.1325490872
 30
0.0
 10
21.0483948041
 20
11.1444275835
 30
0.0
 10
21.0029014892
 20
11.1529852486
 30
0.0
 10
20.9565702751
 20
11.1581493167
 30
0.0
 10
20.9098181572
 20
11.1598755242
 30
0.0
 10
20.8630660435
 20
11.1581492877
 30
0.0
 10
20.81673484
 20
11.1529851999
 30
0.0
 10
20.7712415449
 20
11.1444275043
 30
0.0
 10
20.7269954987
 20
11.1325489964
 30
0.0
 10
20.6843948202
 20
11.1174503137
 30
0.0
 10
20.643823165
 20
11.099258815
 30
0.0
 10
20.6056470476
 20
11.0781267481
 30
0.0
 10
20.5702135649
 20
11.0542308291
 30
0.0
 10
20.5378481693
 20
11.0277691829
 30
0.0
 10
20.5088559067
 20
10.9989660999
 30
0.0
 10
20.4876185511
 20
10.9730657988
 30
0.0
 10
20.4726295249
 20
10.9514397416
 30
0.0
 10
20.4624518246
 20
10.9348871255
 30
0.0
 10
20.4533064617
 20
10.9179544786
 30
0.0
 10
20.4452172883
 20
10.9006802424
 30
0.0
 10
20.4382064606
 20
10.8831048928
 30
0.0
 10
20.4322934246
 20
10.8652702149
 30
0.0
 10
20.4274949606
 20
10.8472195185
 30
0.0
 10
20.4238249369
 20
10.8289970053
 30
0.0
 10
20.4212942491
 20
10.8106489088
 30
0.0
 10
20.4203710327
 20
10.7983531447
 30
0.0
 10
20.4201018016
 20
10.7922054951
 30
0.0
  0
SPLINE
  5
289
100
AcDbEntity
  8
0
100
AcDbSpline
 62
7
  6
CONTINUOUS
 70
0
 71
3
 72
29
 73
25
 74
0
 42
0.0000001
 43
0.0000001
 44
0.0000000001
 40
0.0
 40
0.0
 40
0.0
 40
0.0
 40
0.0270016688
 40
0.0540489792
 40
0.0811869354
 40
0.1084592413
 40
0.1359076277
 40
0.1635713535
 40
0.1914867544
 40
0.21968681
 40
0.2482007812
 40
0.2770540184
 40
0.3358376717
 40
0.3961806652
 40
0.4581360247
 40
0.5216933457
 40
0.5867834603
 40
0.6532852017
 40
0.7210321849
 40
0.7898204619
 40
0.8245393676
 40
0.8594289
 40
0.9295744088
 40
1.0
 40
1.0
 40
1.0
 40
1.0
 10
21.3698183383
 20
5.0070258234
 30
0.0
 10
21.3698183383
 20
5.0127922802
 30
0.0
 10
21.3694480352
 20
5.0243383505
 30
0.0
 10
21.3677836461
 20
5.0416077687
 30
0.0
 10
21.3650143037
 20
5.0587939257
 30
0.0
 10
21.3611467349
 20
5.075854163
 30
0.0
 10
21.3561905752
 20
5.0927473933
 30
0.0
 10
21.3501581037
 20
5.1094326734
 30
0.0
 10
21.343064008
 20
5.1258696963
 30
0.0
 10
21.3349258189
 20
5.1420186884
 30
0.0
 10
21.3257631131
 20
5.1578412485
 30
0.0
 10
21.3121285905
 20
5.1785763184
 30
0.0
 10
21.2925784563
 20
5.2034922423
 30
0.0
 10
21.2655954435
 20
5.231286142
 30
0.0
 10
21.235200818
 20
5.2569096985
 30
0.0
 10
21.2016905743
 20
5.280118757
 30
0.0
 10
21.1653870817
 20
5.300696026
 30
0.0
 10
21.1266384099
 20
5.3184476205
 30
0.0
 10
21.0858171589
 20
5.3332058569
 30
0.0
 10
21.0505004946
 20
5.3428656952
 30
0.0
 10
21.0215804751
 20
5.3489933345
 30
0.0
 10
20.992159755
 20
5.3540517435
 30
0.0
 10
20.9548901235
 20
5.3582786216
 30
0.0
 10
20.9248583767
 20
5.3594062672
 30
0.0
 10
20.9098183383
 20
5.3594062672
 30
0.0
  0
SPLINE
  5
28A
100
AcDbEntity
  8
0
100
AcDbSpline
 62
9
  6
CONTINUOUS
 70
0
 71
3
 72
49
 73
45
 74
0
 42
0.0000001
 43
0.0000001
 44
0.0000000001
 40
0.0
 40
0.0
 40
0.0
 40
0.0
 40
0.0135006101
 40
0.0270250126
 40
0.0405939722
 40
0.0542303056
 40
0.0679546997
 40
0.0817867288
 40
0.0957446165
 40
0.1098448283
 40
0.124101994
 40
0.1385287944
 40
0.167921013
 40
0.1980928855
 40
0.2290709814
 40
0.2608500406
 40
0.2933955245
 40
0.3266468236
 40
0.3605207546
 40
0.394915332
 40
0.4297135118
 40
0.4647869945
 40
0.5
 40
0.5352130055
 40
0.5702864882
 40
0.605084668
 40
0.6394792454
 40
0.6733531764
 40
0.7066044755
 40
0.7391499594
 40
0.7709290186
 40
0.8019071145
 40
0.832078987
 40
0.8614712056
 40
0.875898006
 40
0.8901551717
 40
0.9042553835
 40
0.9182132712
 40
0.9320453003
 40
0.9457696944
 40
0.9594060278
 40
0.9729749874
 40
0.9864993899
 40
1.0
 40
1.0
 40
1.0
 40
1.0
 10
21.4098183383
 20
5.0134536995
 30
0.0
 10
21.4098183383
 20
5.0197214022
 30
0.0
 10
21.409415769
 20
5.0322715542
 30
0.0
 10
21.4076068111
 20
5.0510426685
 30
0.0
 10
21.4045965122
 20
5.0697234327
 30
0.0
 10
21.4003926937
 20
5.0882671004
 30
0.0
 10
21.3950055676
 20
5.106629318
 30
0.0
 10
21.3884484972
 20
5.1247654868
 30
0.0
 10
21.3807375594
 20
5.1426318287
 30
0.0
 10
21.3718916965
 20
5.1601850822
 30
0.0
 10
21.3619322052
 20
5.1773834957
 30
0.0
 10
21.3471121128
 20
5.1999216438
 30
0.0
 10
21.3258619198
 20
5.2270041292
 30
0.0
 10
21.2965326141
 20
5.2572149502
 30
0.0
 10
21.2634949219
 20
5.2850665787
 30
0.0
 10
21.2270707872
 20
5.3102938476
 30
0.0
 10
21.1876104088
 20
5.3326604826
 30
0.0
 10
21.145492528
 20
5.3519555543
 30
0.0
 10
21.1011205876
 20
5.3679974636
 30
0.0
 10
21.054919109
 20
5.3806345722
 30
0.0
 10
21.0073300247
 20
5.3897475216
 30
0.0
 10
20.958808432
 20
5.3952500864
 30
0.0
 10
20.9098183383
 20
5.3970900194
 30
0.0
 10
20.8608282445
 20
5.3952500864
 30
0.0
 10
20.8123066519
 20
5.3897475216
 30
0.0
 10
20.7647175676
 20
5.3806345722
 30
0.0
 10
20.718516089
 20
5.3679974636
 30
0.0
 10
20.6741441486
 20
5.3519555543
 30
0.0
 10
20.6320262678
 20
5.3326604826
 30
0.0
 10
20.5925658894
 20
5.3102938476
 30
0.0
 10
20.5561417547
 20
5.2850665787
 30
0.0
 10
20.5231040625
 20
5.2572149502
 30
0.0
 10
20.4937747568
 20
5.2270041292
 30
0.0
 10
20.4725245638
 20
5.1999216438
 30
0.0
 10
20.4577044713
 20
5.1773834957
 30
0.0
 10
20.4477449801
 20
5.1601850822
 30
0.0
 10
20.4388991172
 20
5.1426318287
 30
0.0
 10
20.4311881794
 20
5.1247654868
 30
0.0
 10
20.4246311089
 20
5.106629318
 30
0.0
 10
20.4192439828
 20
5.0882671004
 30
0.0
 10
20.4150401643
 20
5.0697234327
 30
0.0
 10
20.4120298655
 20
5.0510426685
 30
0.0
 10
20.4102209076
 20
5.0322715542
 30
0.0
 10
20.4098183383
 20
5.0197214022
 30
0.0
 10
20.4098183383
 20
5.0134536995
 30
0.0
  0
SPLINE
  5
28B
100
AcDbEntity
  8
0
100
AcDbSpline
 62
9
  6
CONTINUOUS
 70
0
 71
3
 72
15
 73
11
 74
0
 42
0.0000001
 43
0.0000001
 44
0.0000000001
 40
0.0
 40
0.0
 40
0.0
 40
0.0
 40
0.1233218497
 40
0.2468203719
 40
0.3706388593
 40
0.4949447842
 40
0.6198927968
 40
0.7456275541
 40
0.8722872662
 40
1.0
 40
1.0
 40
1.0
 40
1.0
 10
20.4098183383
 20
10.4642926296
 30
0.0
 10
20.4098183383
 20
10.4698637234
 30
0.0
 10
20.4101363087
 20
10.481016491
 30
0.0
 10
20.4115652401
 20
10.4977077038
 30
0.0
 10
20.4139440557
 20
10.5143356209
 30
0.0
 10
20.4172679035
 20
10.5308672257
 30
0.0
 10
20.4215301285
 20
10.5472714329
 30
0.0
 10
20.4267228336
 20
10.5635168842
 30
0.0
 10
20.4328355498
 20
10.5795719836
 30
0.0
 10
20.437496055
 20
10.5900827883
 30
0.0
 10
20.4399720277
 20
10.5952939444
 30
0.0
  0
LINE
  5
28C
100
AcDbEntity
  8
0
100
AcDbLine
 62
9
  6
CONTINUOUS
 10
20.4399720277
 20
10.5952939444
 11
20.4402646627
 21
10.5959082177
  0
SPLINE
  5
28D
100
AcDbEntity
  8
0
100
AcDbSpline
 62
9
  6
CONTINUOUS
 70
0
 71
3
 72
39
 73
35
 74
0
 42
0.0000001
 43
0.0000001
 44
0.0000000001
 40
0.0
 40
0.0
 40
0.0
 40
0.0
 40
0.0273468917
 40
0.0551913644
 40
0.0835831428
 40
0.1125568096
 40
0.142131811
 40
0.1723128954
 40
0.2030908773
 40
0.2344436291
 40
0.2663372268
 40
0.2987271905
 40
0.3315597794
 40
0.3647733138
 40
0.3982995067
 40
0.4320647964
 40
0.4659916733
 40
0.5
 40
0.5340083267
 40
0.5679352036
 40
0.6017004933
 40
0.6352266862
 40
0.6684402206
 40
0.7012728095
 40
0.7336627732
 40
0.7655563709
 40
0.7969091227
 40
0.8276871046
 40
0.857868189
 40
0.8874431904
 40
0.9164168572
 40
0.9448086356
 40
0.9726531083
 40
1.0
 40
1.0
 40
1.0
 40
1.0
 10
20.4402646627
 20
10.5959082177
 30
0.0
 10
20.4446668881
 20
10.6051245343
 30
0.0
 10
20.4544192511
 20
10.6233227759
 30
0.0
 10
20.4715692055
 20
10.6494519734
 30
0.0
 10
20.4912643964
 20
10.6744985739
 30
0.0
 10
20.5133870015
 20
10.6983152861
 30
0.0
 10
20.5378075625
 20
10.7207662901
 30
0.0
 10
20.5643832819
 20
10.7417226593
 30
0.0
 10
20.5929594457
 20
10.7610644076
 30
0.0
 10
20.6233700477
 20
10.7786807061
 30
0.0
 10
20.6554387165
 20
10.7944705902
 30
0.0
 10
20.688979649
 20
10.8083434986
 30
0.0
 10
20.7237986304
 20
10.8202198078
 30
0.0
 10
20.7596941124
 20
10.830031307
 30
0.0
 10
20.7964583504
 20
10.8377216131
 30
0.0
 10
20.8338785888
 20
10.8432465082
 30
0.0
 10
20.8717382811
 20
10.8465742124
 30
0.0
 10
20.9098183383
 20
10.8476855789
 30
0.0
 10
20.9478983955
 20
10.8465742124
 30
0.0
 10
20.9857580878
 20
10.8432465082
 30
0.0
 10
21.0231783262
 20
10.8377216131
 30
0.0
 10
21.0599425641
 20
10.830031307
 30
0.0
 10
21.0958380462
 20
10.8202198078
 30
0.0
 10
21.1306570276
 20
10.8083434987
 30
0.0
 10
21.16419796
 20
10.7944705902
 30
0.0
 10
21.1962666289
 20
10.7786807061
 30
0.0
 10
21.2266772309
 20
10.7610644076
 30
0.0
 10
21.2552533947
 20
10.7417226593
 30
0.0
 10
21.2818291141
 20
10.7207662901
 30
0.0
 10
21.3062496751
 20
10.6983152861
 30
0.0
 10
21.3283722801
 20
10.6744985739
 30
0.0
 10
21.3480674711
 20
10.6494519734
 30
0.0
 10
21.3652174255
 20
10.6233227759
 30
0.0
 10
21.3749697884
 20
10.6051245343
 30
0.0
 10
21.3793720139
 20
10.5959082177
 30
0.0
  0
LINE
  5
28E
100
AcDbEntity
  8
0
100
AcDbLine
 62
9
  6
CONTINUOUS
 10
21.3793720139
 20
10.5959082177
 11
21.3796646486
 21
10.5952939449
  0
SPLINE
  5
28F
100
AcDbEntity
  8
0
100
AcDbSpline
 62
9
  6
CONTINUOUS
 70
0
 71
3
 72
15
 73
11
 74
0
 42
0.0000001
 43
0.0000001
 44
0.0000000001
 40
0.0
 40
0.0
 40
0.0
 40
0.0
 40
0.1277127338
 40
0.2543724459
 40
0.3801072032
 40
0.5050552159
 40
0.6293611408
 40
0.7531796281
 40
0.8766781503
 40
1.0
 40
1.0
 40
1.0
 40
1.0
 10
21.3796646486
 20
10.5952939449
 30
0.0
 10
21.3821406213
 20
10.5900827888
 30
0.0
 10
21.3868011265
 20
10.5795719841
 30
0.0
 10
21.3929138429
 20
10.5635168845
 30
0.0
 10
21.3981065479
 20
10.5472714332
 30
0.0
 10
21.4023687731
 20
10.530867226
 30
0.0
 10
21.4056926208
 20
10.5143356211
 30
0.0
 10
21.4080714365
 20
10.4977077039
 30
0.0
 10
21.4095003678
 20
10.4810164911
 30
0.0
 10
21.4098183383
 20
10.4698637234
 30
0.0
 10
21.4098183383
 20
10.4642926296
 30
0.0
  0
SPLINE
  5
290
100
AcDbEntity
  8
0
100
AcDbSpline
 62
7
  6
CONTINUOUS
 70
0
 71
3
 72
11
 73
7
 74
0
 42
0.0000001
 43
0.0000001
 44
0.0000000001
 40
0.0
 40
0.0
 40
0.0
 40
0.0
 40
0.2525601698
 40
0.5029421399
 40
0.7518448428
 40
1.0
 40
1.0
 40
1.0
 40
1.0
 10
20.4366333113
 20
10.7931853748
 30
0.0
 10
20.4338620028
 20
10.785291861
 30
0.0
 10
20.4289812319
 20
10.7693399058
 30
0.0
 10
20.423702824
 20
10.7449722241
 30
0.0
 10
20.4205257051
 20
10.7203894028
 30
0.0
 10
20.4198183383
 20
10.7039161222
 30
0.0
 10
20.4198183383
 20
10.6956961691
 30
0.0
  0
SPLINE
  5
291
100
AcDbEntity
  8
0
100
AcDbSpline
 62
7
  6
CONTINUOUS
 70
0
 71
3
 72
51
 73
47
 74
0
 42
0.0000001
 43
0.0000001
 44
0.0000000001
 40
0.0
 40
0.0
 40
0.0
 40
0.0
 40
0.0134435443
 40
0.0269599832
 40
0.0405658262
 40
0.0542767711
 40
0.0681072808
 40
0.0820704879
 40
0.0961780886
 40
0.1104402863
 40
0.1248657508
 40
0.1394615328
 40
0.1542331051
 40
0.1691843705
 40
0.1996260327
 40
0.2307953544
 40
0.2626702325
 40
0.2952079867
 40
0.3283477749
 40
0.3620131295
 40
0.3961145153
 40
0.430552016
 40
0.4652179075
 40
0.4999992999
 40
0.5347807024
 40
0.5694466242
 40
0.6038841746
 40
0.6379856284
 40
0.6716510677
 40
0.7047909552
 40
0.7373288208
 40
0.7692038194
 40
0.8003732675
 40
0.830815058
 40
0.8457663869
 40
0.8605380216
 40
0.8751338644
 40
0.8895593875
 40
0.9038216411
 40
0.9179292943
 40
0.9318925501
 40
0.9457231041
 40
0.9594340885
 40
0.9730399657
 40
0.9865564331
 40
1.0
 40
1.0
 40
1.0
 40
1.0
 10
21.3929849307
 20
10.8417968685
 30
0.0
 10
21.3920118014
 20
10.8473504113
 30
0.0
 10
21.3897362756
 20
10.8584335332
 30
0.0
 10
21.3853621353
 20
10.8748838001
 30
0.0
 10
21.3800276577
 20
10.8911666833
 30
0.0
 10
21.373743993
 20
10.9072484414
 30
0.0
 10
21.3665241093
 20
10.9230968531
 30
0.0
 10
21.3583826244
 20
10.9386797969
 30
0.0
 10
21.3493362212
 20
10.9539658842
 30
0.0
 10
21.3394034099
 20
10.968924368
 30
0.0
 10
21.3286042237
 20
10.9835250657
 30
0.0
 10
21.3169607828
 20
10.9977386126
 30
0.0
 10
21.3044963783
 20
11.0115367401
 30
0.0
 10
21.2867123829
 20
11.0294479333
 30
0.0
 10
21.2625256449
 20
11.0506401115
 30
0.0
 10
21.2308481904
 20
11.0738223798
 30
0.0
 10
21.1965935948
 20
11.0947314147
 30
0.0
 10
21.1600392203
 20
11.1132001278
 30
0.0
 10
21.1214782028
 20
11.1290827578
 30
0.0
 10
21.0812200816
 20
11.1422532377
 30
0.0
 10
21.0395877171
 20
11.1526071735
 30
0.0
 10
20.996914932
 20
11.1600623133
 30
0.0
 10
20.9535438391
 20
11.1645593206
 30
0.0
 10
20.9098221778
 20
11.1660624712
 30
0.0
 10
20.8661004857
 20
11.1645598474
 30
0.0
 10
20.8227293006
 20
11.1600633628
 30
0.0
 10
20.7800563629
 20
11.1526087374
 30
0.0
 10
20.7384237863
 20
11.1422553034
 30
0.0
 10
20.6981653955
 20
11.1290853091
 30
0.0
 10
20.6596040528
 20
11.1132031444
 30
0.0
 10
20.6230493001
 20
11.0947348726
 30
0.0
 10
20.5887942762
 20
11.0738262517
 30
0.0
 10
20.5571163469
 20
11.0506443668
 30
0.0
 10
20.5329291751
 20
11.0294524822
 30
0.0
 10
20.5151448118
 20
11.0115415042
 30
0.0
 10
20.5026801237
 20
10.9977435274
 30
0.0
 10
20.4910363906
 20
10.9835301214
 30
0.0
 10
20.4802369043
 20
10.9689295544
 30
0.0
 10
20.4703037855
 20
10.9539711908
 30
0.0
 10
20.4612570679
 20
10.9386852131
 30
0.0
 10
20.4531152626
 20
10.9231023679
 30
0.0
 10
20.445895053
 20
10.9072540438
 30
0.0
 10
20.4396110574
 20
10.8911723619
 30
0.0
 10
20.4342762449
 20
10.8748895434
 30
0.0
 10
20.429901766
 20
10.8584393297
 30
0.0
 10
20.4276260116
 20
10.8473562328
 30
0.0
 10
20.4266527678
 20
10.8418027005
 30
0.0
  0
SPLINE
  5
292
100
AcDbEntity
  8
0
100
AcDbSpline
 62
9
  6
CONTINUOUS
 70
0
 71
3
 72
49
 73
45
 74
0
 42
0.0000001
 43
0.0000001
 44
0.0000000001
 40
0.0
 40
0.0
 40
0.0
 40
0.0
 40
0.0135006101
 40
0.0270250126
 40
0.0405939722
 40
0.0542303056
 40
0.0679546997
 40
0.0817867288
 40
0.0957446165
 40
0.1098448283
 40
0.124101994
 40
0.1385287944
 40
0.167921013
 40
0.1980928855
 40
0.2290709814
 40
0.2608500406
 40
0.2933955245
 40
0.3266468236
 40
0.3605207546
 40
0.394915332
 40
0.4297135118
 40
0.4647869945
 40
0.5
 40
0.5352130055
 40
0.5702864882
 40
0.605084668
 40
0.6394792454
 40
0.6733531764
 40
0.7066044755
 40
0.7391499594
 40
0.7709290186
 40
0.8019071145
 40
0.832078987
 40
0.8614712056
 40
0.875898006
 40
0.8901551717
 40
0.9042553835
 40
0.9182132712
 40
0.9320453003
 40
0.9457696944
 40
0.9594060278
 40
0.9729749874
 40
0.9864993899
 40
1.0
 40
1.0
 40
1.0
 40
1.0
 10
21.3973183383
 20
10.9240107484
 30
0.0
 10
21.3973183383
 20
10.9301217586
 30
0.0
 10
21.3969258332
 20
10.9423581568
 30
0.0
 10
21.3951620993
 20
10.9606599933
 30
0.0
 10
21.3922270579
 20
10.9788737384
 30
0.0
 10
21.3881283348
 20
10.9969538144
 30
0.0
 10
21.3828758869
 20
11.0148569765
 30
0.0
 10
21.3764827432
 20
11.0325397411
 30
0.0
 10
21.3689645789
 20
11.0499594244
 30
0.0
 10
21.3603398626
 20
11.0670738466
 30
0.0
 10
21.3506293585
 20
11.0838422997
 30
0.0
 10
21.3361797684
 20
11.1058169942
 30
0.0
 10
21.3154608302
 20
11.1322224174
 30
0.0
 10
21.2868647572
 20
11.1616779679
 30
0.0
 10
21.2546530073
 20
11.1888333057
 30
0.0
 10
21.219139476
 20
11.2134298929
 30
0.0
 10
21.180665607
 20
11.235237362
 30
0.0
 10
21.1396006732
 20
11.2540500569
 30
0.0
 10
21.0963380313
 20
11.2696909185
 30
0.0
 10
21.0512915897
 20
11.2820120993
 30
0.0
 10
21.0048922325
 20
11.290897225
 30
0.0
 10
20.9575836797
 20
11.2962622257
 30
0.0
 10
20.9098183383
 20
11.2980561603
 30
0.0
 10
20.8620529969
 20
11.2962622257
 30
0.0
 10
20.814744444
 20
11.290897225
 30
0.0
 10
20.7683450868
 20
11.2820120993
 30
0.0
 10
20.7232986452
 20
11.2696909185
 30
0.0
 10
20.6800360034
 20
11.2540500569
 30
0.0
 10
20.6389710695
 20
11.235237362
 30
0.0
 10
20.6004972006
 20
11.2134298929
 30
0.0
 10
20.5649836693
 20
11.1888333057
 30
0.0
 10
20.5327719194
 20
11.1616779679
 30
0.0
 10
20.5041758463
 20
11.1322224174
 30
0.0
 10
20.4834569082
 20
11.1058169942
 30
0.0
 10
20.469007318
 20
11.0838422997
 30
0.0
 10
20.459296814
 20
11.0670738466
 30
0.0
 10
20.4506720977
 20
11.0499594244
 30
0.0
 10
20.4431539334
 20
11.0325397411
 30
0.0
 10
20.4367607897
 20
11.0148569765
 30
0.0
 10
20.4315083417
 20
10.9969538144
 30
0.0
 10
20.4274096187
 20
10.9788737384
 30
0.0
 10
20.4244745773
 20
10.9606599933
 30
0.0
 10
20.4227108433
 20
10.9423581568
 30
0.0
 10
20.4223183383
 20
10.9301217586
 30
0.0
 10
20.4223183383
 20
10.9240107484
 30
0.0
  0
SPLINE
  5
293
100
AcDbEntity
  8
0
100
AcDbSpline
 62
9
  6
CONTINUOUS
 70
0
 71
3
 72
49
 73
45
 74
0
 42
0.0000001
 43
0.0000001
 44
0.0000000001
 40
0.0
 40
0.0
 40
0.0
 40
0.0
 40
0.0135005643
 40
0.0270248802
 40
0.040593814
 40
0.0542301385
 40
0.0679545284
 40
0.0817865655
 40
0.0957444647
 40
0.1098446884
 40
0.1241018625
 40
0.1385286658
 40
0.1679208839
 40
0.1980927612
 40
0.2290708712
 40
0.2608499442
 40
0.2933954395
 40
0.3266467502
 40
0.3605206948
 40
0.394915287
 40
0.4297134815
 40
0.4647869791
 40
0.5
 40
0.5352130208
 40
0.5702865184
 40
0.605084713
 40
0.6394793052
 40
0.6733532498
 40
0.7066045605
 40
0.7391500557
 40
0.7709291288
 40
0.8019072388
 40
0.832079116
 40
0.8614713341
 40
0.8758981374
 40
0.8901553115
 40
0.9042555353
 40
0.9182134344
 40
0.9320454715
 40
0.9457698615
 40
0.9594061859
 40
0.9729751198
 40
0.9864994357
 40
1.0
 40
1.0
 40
1.0
 40
1.0
 10
20.4198183383
 20
5.0070258234
 30
0.0
 10
20.4198183383
 20
5.0008834955
 30
0.0
 10
20.4202128444
 20
4.9885844065
 30
0.0
 10
20.4219856199
 20
4.9701887864
 30
0.0
 10
20.4249356924
 20
4.9518816906
 30
0.0
 10
20.4290554077
 20
4.9337089082
 30
0.0
 10
20.4343347831
 20
4.9157139347
 30
0.0
 10
20.4407607038
 20
4.8979404791
 30
0.0
 10
20.4483174114
 20
4.8804314435
 30
0.0
 10
20.4569863543
 20
4.8632292373
 30
0.0
 10
20.4667466543
 20
4.8463747791
 30
0.0
 10
20.4812703345
 20
4.8242873811
 30
0.0
 10
20.5020955145
 20
4.7977465341
 30
0.0
 10
20.5308382244
 20
4.7681399084
 30
0.0
 10
20.5632151676
 20
4.7408452949
 30
0.0
 10
20.5989108244
 20
4.7161225469
 30
0.0
 10
20.637582006
 20
4.6942032291
 30
0.0
 10
20.6788575402
 20
4.675294043
 30
0.0
 10
20.7223420561
 20
4.6595729577
 30
0.0
 10
20.767619523
 20
4.6471885823
 30
0.0
 10
20.8142568446
 20
4.6382578829
 30
0.0
 10
20.8618080257
 20
4.6328653654
 30
0.0
 10
20.9098183383
 20
4.6310622294
 30
0.0
 10
20.9578286509
 20
4.6328653654
 30
0.0
 10
21.0053798319
 20
4.6382578829
 30
0.0
 10
21.0520171535
 20
4.6471885823
 30
0.0
 10
21.0972946204
 20
4.6595729577
 30
0.0
 10
21.1407791364
 20
4.675294043
 30
0.0
 10
21.1820546706
 20
4.6942032291
 30
0.0
 10
21.2207258521
 20
4.7161225469
 30
0.0
 10
21.2564215089
 20
4.7408452949
 30
0.0
 10
21.2887984521
 20
4.7681399083
 30
0.0
 10
21.317541162
 20
4.7977465341
 30
0.0
 10
21.338366342
 20
4.8242873811
 30
0.0
 10
21.3528900222
 20
4.846374779
 30
0.0
 10
21.3626503222
 20
4.8632292372
 30
0.0
 10
21.3713192651
 20
4.8804314435
 30
0.0
 10
21.3788759728
 20
4.897940479
 30
0.0
 10
21.3853018935
 20
4.9157139346
 30
0.0
 10
21.3905812688
 20
4.9337089081
 30
0.0
 10
21.3947009841
 20
4.9518816906
 30
0.0
 10
21.3976510566
 20
4.9701887863
 30
0.0
 10
21.3994238322
 20
4.9885844065
 30
0.0
 10
21.3998183383
 20
5.0008834955
 30
0.0
 10
21.3998183383
 20
5.0070258234
 30
0.0
  0
SPLINE
  5
294
100
AcDbEntity
  8
0
100
AcDbSpline
 62
9
  6
CONTINUOUS
 70
0
 71
3
 72
49
 73
45
 74
0
 42
0.0000001
 43
0.0000001
 44
0.0000000001
 40
0.0
 40
0.0
 40
0.0
 40
0.0
 40
0.0135005643
 40
0.0270248802
 40
0.040593814
 40
0.0542301385
 40
0.0679545284
 40
0.0817865655
 40
0.0957444647
 40
0.1098446884
 40
0.1241018625
 40
0.1385286658
 40
0.1679208839
 40
0.1980927612
 40
0.2290708712
 40
0.2608499442
 40
0.2933954395
 40
0.3266467502
 40
0.3605206948
 40
0.394915287
 40
0.4297134815
 40
0.4647869791
 40
0.5
 40
0.5352130208
 40
0.5702865184
 40
0.605084713
 40
0.6394793052
 40
0.6733532498
 40
0.7066045605
 40
0.7391500557
 40
0.7709291288
 40
0.8019072388
 40
0.832079116
 40
0.8614713341
 40
0.8758981374
 40
0.8901553115
 40
0.9042555353
 40
0.9182134344
 40
0.9320454715
 40
0.9457698615
 40
0.9594061859
 40
0.9729751198
 40
0.9864994357
 40
1.0
 40
1.0
 40
1.0
 40
1.0
 10
21.3998183383
 20
5.0070258234
 30
0.0
 10
21.3998183383
 20
5.0131681512
 30
0.0
 10
21.3994238322
 20
5.0254672402
 30
0.0
 10
21.3976510566
 20
5.0438628604
 30
0.0
 10
21.3947009841
 20
5.0621699561
 30
0.0
 10
21.3905812688
 20
5.0803427386
 30
0.0
 10
21.3853018935
 20
5.098337712
 30
0.0
 10
21.3788759728
 20
5.1161111676
 30
0.0
 10
21.3713192651
 20
5.1336202032
 30
0.0
 10
21.3626503222
 20
5.1508224095
 30
0.0
 10
21.3528900223
 20
5.1676768676
 30
0.0
 10
21.3383663421
 20
5.1897642656
 30
0.0
 10
21.3175411621
 20
5.2163051126
 30
0.0
 10
21.2887984521
 20
5.2459117383
 30
0.0
 10
21.256421509
 20
5.2732063518
 30
0.0
 10
21.2207258522
 20
5.2979290998
 30
0.0
 10
21.1820546706
 20
5.3198484176
 30
0.0
 10
21.1407791364
 20
5.3387576037
 30
0.0
 10
21.0972946204
 20
5.354478689
 30
0.0
 10
21.0520171535
 20
5.3668630644
 30
0.0
 10
21.005379832
 20
5.3757937638
 30
0.0
 10
20.9578286509
 20
5.3811862813
 30
0.0
 10
20.9098183383
 20
5.3829894174
 30
0.0
 10
20.8618080257
 20
5.3811862813
 30
0.0
 10
20.8142568447
 20
5.3757937638
 30
0.0
 10
20.7676195231
 20
5.3668630644
 30
0.0
 10
20.7223420562
 20
5.354478689
 30
0.0
 10
20.6788575402
 20
5.3387576038
 30
0.0
 10
20.637582006
 20
5.3198484177
 30
0.0
 10
20.5989108245
 20
5.2979290999
 30
0.0
 10
20.5632151677
 20
5.2732063518
 30
0.0
 10
20.5308382245
 20
5.2459117384
 30
0.0
 10
20.5020955145
 20
5.2163051126
 30
0.0
 10
20.4812703345
 20
5.1897642656
 30
0.0
 10
20.4667466543
 20
5.1676768677
 30
0.0
 10
20.4569863544
 20
5.1508224095
 30
0.0
 10
20.4483174114
 20
5.1336202032
 30
0.0
 10
20.4407607038
 20
5.1161111677
 30
0.0
 10
20.4343347831
 20
5.0983377121
 30
0.0
 10
20.4290554077
 20
5.0803427386
 30
0.0
 10
20.4249356924
 20
5.0621699562
 30
0.0
 10
20.42198562
 20
5.0438628604
 30
0.0
 10
20.4202128444
 20
5.0254672402
 30
0.0
 10
20.4198183383
 20
5.0131681512
 30
0.0
 10
20.4198183383
 20
5.0070258234
 30
0.0
  0
SPLINE
  5
295
100
AcDbEntity
  8
0
100
AcDbSpline
 62
7
  6
CONTINUOUS
 70
0
 71
3
 72
11
 73
7
 74
0
 42
0.0000001
 43
0.0000001
 44
0.0000000001
 40
0.0
 40
0.0
 40
0.0
 40
0.0
 40
0.2481551572
 40
0.4970578601
 40
0.7474398302
 40
1.0
 40
1.0
 40
1.0
 40
1.0
 10
21.3998183383
 20
10.6956961691
 30
0.0
 10
21.3998183383
 20
10.7039161222
 30
0.0
 10
21.3991109715
 20
10.7203894028
 30
0.0
 10
21.3959338525
 20
10.7449722241
 30
0.0
 10
21.3906554447
 20
10.7693399058
 30
0.0
 10
21.3857746738
 20
10.785291861
 30
0.0
 10
21.3830033653
 20
10.7931853748
 30
0.0
  0
SPLINE
  5
296
100
AcDbEntity
  8
0
100
AcDbSpline
 62
7
  6
CONTINUOUS
 70
0
 71
3
 72
29
 73
25
 74
0
 42
0.0000001
 43
0.0000001
 44
0.0000000001
 40
0.0
 40
0.0
 40
0.0
 40
0.0
 40
0.0704255912
 40
0.1405711
 40
0.1754606324
 40
0.2101795381
 40
0.2789678151
 40
0.3467147983
 40
0.4132165397
 40
0.4783066543
 40
0.5418639753
 40
0.6038193348
 40
0.6641623283
 40
0.7229459816
 40
0.7517992188
 40
0.78031319
 40
0.8085132456
 40
0.8364286465
 40
0.8640923723
 40
0.8915407587
 40
0.9188130646
 40
0.9459510208
 40
0.9729983312
 40
1.0
 40
1.0
 40
1.0
 40
1.0
 10
20.9098183383
 20
5.3594062672
 30
0.0
 10
20.8947782999
 20
5.3594062672
 30
0.0
 10
20.864746553
 20
5.3582786216
 30
0.0
 10
20.8274769216
 20
5.3540517435
 30
0.0
 10
20.7980562015
 20
5.3489933345
 30
0.0
 10
20.769136182
 20
5.3428656952
 30
0.0
 10
20.7338195177
 20
5.3332058569
 30
0.0
 10
20.6929982666
 20
5.3184476205
 30
0.0
 10
20.6542495949
 20
5.300696026
 30
0.0
 10
20.6179461022
 20
5.280118757
 30
0.0
 10
20.5844358585
 20
5.2569096985
 30
0.0
 10
20.5540412331
 20
5.231286142
 30
0.0
 10
20.5270582203
 20
5.2034922423
 30
0.0
 10
20.5075080861
 20
5.1785763184
 30
0.0
 10
20.4938735635
 20
5.1578412485
 30
0.0
 10
20.4847108576
 20
5.1420186884
 30
0.0
 10
20.4765726685
 20
5.1258696963
 30
0.0
 10
20.4694785729
 20
5.1094326734
 30
0.0
 10
20.4634461013
 20
5.0927473933
 30
0.0
 10
20.4584899417
 20
5.075854163
 30
0.0
 10
20.4546223728
 20
5.0587939257
 30
0.0
 10
20.4518530305
 20
5.0416077687
 30
0.0
 10
20.4501886414
 20
5.0243383505
 30
0.0
 10
20.4498183383
 20
5.0127922802
 30
0.0
 10
20.4498183383
 20
5.0070258234
 30
0.0
  0
SPLINE
  5
297
100
AcDbEntity
  8
0
100
AcDbSpline
 62
9
  6
CONTINUOUS
 70
0
 71
3
 72
39
 73
35
 74
0
 42
0.0000001
 43
0.0000001
 44
0.0000000001
 40
0.0
 40
0.0
 40
0.0
 40
0.0
 40
0.0271755763
 40
0.0548256091
 40
0.0830186664
 40
0.1118049758
 40
0.1412173939
 40
0.1712710229
 40
0.201964081
 40
0.233278947
 40
0.265183497
 40
0.2976325947
 40
0.3305696691
 40
0.3639283392
 40
0.3976340564
 40
0.4316057493
 40
0.465757464
 40
0.5
 40
0.534242536
 40
0.5683942507
 40
0.6023659436
 40
0.6360716608
 40
0.6694303309
 40
0.7023674053
 40
0.734816503
 40
0.766721053
 40
0.798035919
 40
0.8287289771
 40
0.8587826061
 40
0.8881950242
 40
0.9169813336
 40
0.9451743909
 40
0.9728244237
 40
1.0
 40
1.0
 40
1.0
 40
1.0
 10
20.4398183383
 20
10.5961503657
 30
0.0
 10
20.4435526632
 20
10.6058535283
 30
0.0
 10
20.4520713505
 20
10.6250646124
 30
0.0
 10
20.4676967232
 20
10.652768199
 30
0.0
 10
20.4861680188
 20
10.6794152332
 30
0.0
 10
20.5073622393
 20
10.7048317228
 30
0.0
 10
20.5311410749
 20
10.7288570761
 30
0.0
 10
20.5573500294
 20
10.7513385515
 30
0.0
 10
20.5858197119
 20
10.7721337444
 30
0.0
 10
20.6163667045
 20
10.7911108754
 30
0.0
 10
20.6487946501
 20
10.8081496869
 30
0.0
 10
20.6828954057
 20
10.8231421185
 30
0.0
 10
20.7184502838
 20
10.8359930101
 30
0.0
 10
20.7552313845
 20
10.8466207212
 30
0.0
 10
20.7930030062
 20
10.8549576756
 30
0.0
 10
20.8315231209
 20
10.8609508268
 30
0.0
 10
20.8705449085
 20
10.8645620449
 30
0.0
 10
20.9098183383
 20
10.8657683439
 30
0.0
 10
20.9490917681
 20
10.8645620449
 30
0.0
 10
20.9881135556
 20
10.8609508268
 30
0.0
 10
21.0266336704
 20
10.8549576756
 30
0.0
 10
21.064405292
 20
10.8466207212
 30
0.0
 10
21.1011863928
 20
10.8359930101
 30
0.0
 10
21.1367412709
 20
10.8231421185
 30
0.0
 10
21.1708420264
 20
10.8081496869
 30
0.0
 10
21.2032699721
 20
10.7911108754
 30
0.0
 10
21.2338169647
 20
10.7721337444
 30
0.0
 10
21.2622866472
 20
10.7513385515
 30
0.0
 10
21.2884956017
 20
10.7288570761
 30
0.0
 10
21.3122744373
 20
10.7048317228
 30
0.0
 10
21.3334686578
 20
10.6794152332
 30
0.0
 10
21.3519399533
 20
10.652768199
 30
0.0
 10
21.367565326
 20
10.6250646124
 30
0.0
 10
21.3760840134
 20
10.6058535283
 30
0.0
 10
21.3798183383
 20
10.5961503657
 30
0.0
  0
SPLINE
  5
298
100
AcDbEntity
  8
0
100
AcDbSpline
 62
9
  6
CONTINUOUS
 70
0
 71
3
 72
49
 73
45
 74
0
 42
0.0000001
 43
0.0000001
 44
0.0000000001
 40
0.0
 40
0.0
 40
0.0
 40
0.0
 40
0.0135006101
 40
0.0270250126
 40
0.0405939723
 40
0.0542303057
 40
0.0679546997
 40
0.0817867289
 40
0.0957446166
 40
0.1098448284
 40
0.1241019942
 40
0.1385287946
 40
0.1679210132
 40
0.1980928857
 40
0.2290709815
 40
0.2608500408
 40
0.2933955246
 40
0.3266468237
 40
0.3605207547
 40
0.3949153321
 40
0.4297135118
 40
0.4647869945
 40
0.5
 40
0.5352130055
 40
0.5702864882
 40
0.6050846679
 40
0.6394792453
 40
0.6733531763
 40
0.7066044754
 40
0.7391499592
 40
0.7709290185
 40
0.8019071143
 40
0.8320789868
 40
0.8614712054
 40
0.8758980058
 40
0.8901551716
 40
0.9042553834
 40
0.9182132711
 40
0.9320453003
 40
0.9457696943
 40
0.9594060277
 40
0.9729749874
 40
0.9864993899
 40
1.0
 40
1.0
 40
1.0
 40
1.0
 10
20.4198183383
 20
10.7792585583
 30
0.0
 10
20.4198183383
 20
10.7854009071
 30
0.0
 10
20.4202128562
 20
10.797700056
 30
0.0
 10
20.4219856349
 20
10.8160957481
 30
0.0
 10
20.4249357278
 20
10.834402897
 30
0.0
 10
20.42905547
 20
10.8525756914
 30
0.0
 10
20.4343348536
 20
10.8705706646
 30
0.0
 10
20.4407607826
 20
10.88834411
 30
0.0
 10
20.4483175016
 20
10.9058531251
 30
0.0
 10
20.4569864473
 20
10.9230553136
 30
0.0
 10
20.4667467488
 20
10.9399097588
 30
0.0
 10
20.4812704394
 20
10.961997144
 30
0.0
 10
20.5020956286
 20
10.9885379797
 30
0.0
 10
20.5308383482
 20
11.0181445842
 30
0.0
 10
20.5632152865
 20
11.0454391801
 30
0.0
 10
20.5989109385
 20
11.0701619036
 30
0.0
 10
20.6375821093
 20
11.0920812059
 30
0.0
 10
20.6788576325
 20
11.1109903761
 30
0.0
 10
20.7223421341
 20
11.1267114473
 30
0.0
 10
20.767619583
 20
11.1390958136
 30
0.0
 10
20.8142568857
 20
11.1480265041
 30
0.0
 10
20.8618080464
 20
11.1534190176
 30
0.0
 10
20.9098183383
 20
11.1552221519
 30
0.0
 10
20.9578286301
 20
11.1534190176
 30
0.0
 10
21.0053797909
 20
11.1480265041
 30
0.0
 10
21.0520170935
 20
11.1390958136
 30
0.0
 10
21.0972945425
 20
11.1267114473
 30
0.0
 10
21.140779044
 20
11.1109903761
 30
0.0
 10
21.1820545673
 20
11.0920812059
 30
0.0
 10
21.2207257381
 20
11.0701619036
 30
0.0
 10
21.25642139
 20
11.0454391801
 30
0.0
 10
21.2887983284
 20
11.0181445842
 30
0.0
 10
21.317541048
 20
10.9885379797
 30
0.0
 10
21.3383662371
 20
10.961997144
 30
0.0
 10
21.3528899278
 20
10.9399097588
 30
0.0
 10
21.3626502293
 20
10.9230553136
 30
0.0
 10
21.3713191749
 20
10.9058531251
 30
0.0
 10
21.378875894
 20
10.88834411
 30
0.0
 10
21.385301823
 20
10.8705706646
 30
0.0
 10
21.3905812066
 20
10.8525756914
 30
0.0
 10
21.3947009487
 20
10.834402897
 30
0.0
 10
21.3976510416
 20
10.8160957481
 30
0.0
 10
21.3994238204
 20
10.797700056
 30
0.0
 10
21.3998183383
 20
10.7854009071
 30
0.0
 10
21.3998183383
 20
10.7792585583
 30
0.0
  0
SPLINE
  5
299
100
AcDbEntity
  8
0
100
AcDbSpline
 62
9
  6
CONTINUOUS
 70
0
 71
3
 72
51
 73
47
 74
0
 42
0.0000001
 43
0.0000001
 44
0.0000000001
 40
0.0
 40
0.0
 40
0.0
 40
0.0
 40
0.0352127293
 40
0.0702854832
 40
0.0877302597
 40
0.1050897162
 40
0.1394838506
 40
0.1733573532
 40
0.2066082226
 40
0.2391532931
 40
0.2709319495
 40
0.3019096437
 40
0.3320811361
 40
0.3614729759
 40
0.3758995949
 40
0.3901565769
 40
0.4042566063
 40
0.4182143154
 40
0.4320461807
 40
0.4457703705
 40
0.4594065225
 40
0.4729755079
 40
0.4864991681
 40
0.5
 40
0.5135008318
 40
0.5270244921
 40
0.5405934775
 40
0.5542296295
 40
0.5679538193
 40
0.5817856846
 40
0.5957433937
 40
0.6098434231
 40
0.6241004051
 40
0.6385270241
 40
0.6679188638
 40
0.6980903563
 40
0.7290680505
 40
0.7608467069
 40
0.7933917774
 40
0.8266426468
 40
0.8605161494
 40
0.8949102838
 40
0.9122697403
 40
0.9297145168
 40
0.9647872707
 40
1.0
 40
1.0
 40
1.0
 40
1.0
 10
20.9098183383
 20
5.3453179467
 30
0.0
 10
20.8951052849
 20
5.3453179467
 30
0.0
 10
20.8657264302
 20
5.3442148173
 30
0.0
 10
20.8292670307
 20
5.340079838
 30
0.0
 10
20.8004858856
 20
5.3351313954
 30
0.0
 10
20.7721945573
 20
5.329136969
 30
0.0
 10
20.7376456413
 20
5.3196871297
 30
0.0
 10
20.6977118043
 20
5.30524973
 30
0.0
 10
20.659805485
 20
5.2878840384
 30
0.0
 10
20.6242911928
 20
5.2677541051
 30
0.0
 10
20.5915094225
 20
5.2450495887
 30
0.0
 10
20.5617755456
 20
5.2199830671
 30
0.0
 10
20.53537911
 20
5.1927933788
 30
0.0
 10
20.5162539753
 20
5.1684191031
 30
0.0
 10
20.5029158516
 20
5.1481347932
 30
0.0
 10
20.493952334
 20
5.1326562032
 30
0.0
 10
20.4859910608
 20
5.1168582735
 30
0.0
 10
20.4790511809
 20
5.1007785738
 30
0.0
 10
20.4731498483
 20
5.0844560113
 30
0.0
 10
20.4683014313
 20
5.0679300371
 30
0.0
 10
20.4645179385
 20
5.0512406324
 30
0.0
 10
20.4618087993
 20
5.0344282355
 30
0.0
 10
20.4601805907
 20
5.0175336679
 30
0.0
 10
20.4596373651
 20
5.0005979473
 30
0.0
 10
20.4601805907
 20
4.9836622267
 30
0.0
 10
20.4618087993
 20
4.966767659
 30
0.0
 10
20.4645179385
 20
4.9499552621
 30
0.0
 10
20.4683014313
 20
4.9332658574
 30
0.0
 10
20.4731498483
 20
4.9167398832
 30
0.0
 10
20.4790511809
 20
4.9004173207
 30
0.0
 10
20.4859910607
 20
4.8843376211
 30
0.0
 10
20.493952334
 20
4.8685396913
 30
0.0
 10
20.5029158516
 20
4.8530611013
 30
0.0
 10
20.5162539753
 20
4.8327767914
 30
0.0
 10
20.53537911
 20
4.8084025158
 30
0.0
 10
20.5617755456
 20
4.7812128274
 30
0.0
 10
20.5915094225
 20
4.7561463058
 30
0.0
 10
20.6242911928
 20
4.7334417894
 30
0.0
 10
20.659805485
 20
4.7133118561
 30
0.0
 10
20.6977118042
 20
4.6959461646
 30
0.0
 10
20.7376456413
 20
4.6815087649
 30
0.0
 10
20.7721945573
 20
4.6720589255
 30
0.0
 10
20.8004858856
 20
4.6660644992
 30
0.0
 10
20.8292670307
 20
4.6611160565
 30
0.0
 10
20.8657264302
 20
4.6569810772
 30
0.0
 10
20.8951052849
 20
4.6558779479
 30
0.0
 10
20.9098183383
 20
4.6558779479
 30
0.0
  0
SPLINE
  5
29A
100
AcDbEntity
  8
0
100
AcDbSpline
 62
9
  6
CONTINUOUS
 70
0
 71
3
 72
51
 73
47
 74
0
 42
0.0000001
 43
0.0000001
 44
0.0000000001
 40
0.0
 40
0.0
 40
0.0
 40
0.0
 40
0.0352127293
 40
0.0702854832
 40
0.0877302597
 40
0.1050897162
 40
0.1394838506
 40
0.1733573532
 40
0.2066082226
 40
0.2391532931
 40
0.2709319495
 40
0.3019096437
 40
0.3320811361
 40
0.3614729759
 40
0.3758995949
 40
0.3901565769
 40
0.4042566063
 40
0.4182143154
 40
0.4320461807
 40
0.4457703705
 40
0.4594065225
 40
0.4729755079
 40
0.4864991681
 40
0.5
 40
0.5135008318
 40
0.5270244921
 40
0.5405934775
 40
0.5542296295
 40
0.5679538193
 40
0.5817856846
 40
0.5957433937
 40
0.6098434231
 40
0.6241004051
 40
0.6385270241
 40
0.6679188638
 40
0.6980903563
 40
0.7290680505
 40
0.7608467069
 40
0.7933917774
 40
0.8266426468
 40
0.8605161494
 40
0.8949102838
 40
0.9122697403
 40
0.9297145168
 40
0.9647872707
 40
1.0
 40
1.0
 40
1.0
 40
1.0
 10
20.9098183383
 20
4.6558779479
 30
0.0
 10
20.9245313916
 20
4.6558779479
 30
0.0
 10
20.9539102463
 20
4.6569810772
 30
0.0
 10
20.9903696459
 20
4.6611160565
 30
0.0
 10
21.0191507909
 20
4.6660644992
 30
0.0
 10
21.0474421192
 20
4.6720589255
 30
0.0
 10
21.0819910352
 20
4.6815087649
 30
0.0
 10
21.1219248723
 20
4.6959461646
 30
0.0
 10
21.1598311915
 20
4.7133118561
 30
0.0
 10
21.1953454837
 20
4.7334417894
 30
0.0
 10
21.228127254
 20
4.7561463058
 30
0.0
 10
21.257861131
 20
4.7812128274
 30
0.0
 10
21.2842575665
 20
4.8084025158
 30
0.0
 10
21.3033827013
 20
4.8327767914
 30
0.0
 10
21.316720825
 20
4.8530611013
 30
0.0
 10
21.3256843426
 20
4.8685396913
 30
0.0
 10
21.3336456158
 20
4.884337621
 30
0.0
 10
21.3405854956
 20
4.9004173207
 30
0.0
 10
21.3464868283
 20
4.9167398832
 30
0.0
 10
21.3513352453
 20
4.9332658574
 30
0.0
 10
21.3551187381
 20
4.9499552621
 30
0.0
 10
21.3578278773
 20
4.966767659
 30
0.0
 10
21.3594560858
 20
4.9836622267
 30
0.0
 10
21.3599993115
 20
5.0005979473
 30
0.0
 10
21.3594560858
 20
5.0175336678
 30
0.0
 10
21.3578278773
 20
5.0344282355
 30
0.0
 10
21.3551187381
 20
5.0512406324
 30
0.0
 10
21.3513352453
 20
5.0679300371
 30
0.0
 10
21.3464868283
 20
5.0844560113
 30
0.0
 10
21.3405854956
 20
5.1007785738
 30
0.0
 10
21.3336456158
 20
5.1168582735
 30
0.0
 10
21.3256843426
 20
5.1326562032
 30
0.0
 10
21.316720825
 20
5.1481347932
 30
0.0
 10
21.3033827013
 20
5.1684191031
 30
0.0
 10
21.2842575665
 20
5.1927933788
 30
0.0
 10
21.257861131
 20
5.2199830671
 30
0.0
 10
21.228127254
 20
5.2450495887
 30
0.0
 10
21.1953454837
 20
5.2677541051
 30
0.0
 10
21.1598311915
 20
5.2878840384
 30
0.0
 10
21.1219248723
 20
5.3052497299
 30
0.0
 10
21.0819910352
 20
5.3196871297
 30
0.0
 10
21.0474421193
 20
5.329136969
 30
0.0
 10
21.0191507909
 20
5.3351313954
 30
0.0
 10
20.9903696459
 20
5.340079838
 30
0.0
 10
20.9539102463
 20
5.3442148173
 30
0.0
 10
20.9245313916
 20
5.3453179467
 30
0.0
 10
20.9098183383
 20
5.3453179467
 30
0.0
  0
ENDSEC
  0
SECTION
  2
OBJECTS
  0
DICTIONARY
  5
C
100
AcDbDictionary
280
0
281
1
  3
ACAD_GROUP
350
D
  3
ACAD_MLINESTYLE
350
17
  3
ACAD_LAYOUT
350
1A
  3
ACAD_PLOTSETTINGS
350
19
  3
ACAD_PLOTSTYLENAME
350
E
  0
DICTIONARY
  5
D
102
{ACAD_REACTORS
330
C
102
}
100
AcDbDictionary
280
0
281
1
  0
ACDBDICTIONARYWDFLT
  5
E
102
{ACAD_REACTORS
330
C
102
}
100
AcDbDictionary
281
1
  3
Normal
350
F
100
AcDbDictionaryWithDefault
340
F
  0
DICTIONARY
  5
17
102
{ACAD_REACTORS
330
C
102
}
100
AcDbDictionary
280
0
281
1
  3
Standard
350
18
  0
DICTIONARY
  5
19
102
{ACAD_REACTORS
330
C
102
}
100
AcDbDictionary
281
1
  0
DICTIONARY
  5
1A
102
{ACAD_REACTORS
330
C
102
}
100
AcDbDictionary
281
1
  3
Model
350
29B
  3
Layout1
350
29C
  0
ACDBPLACEHOLDER
  5
F
102
{ACAD_REACTORS
330
E
102
}
  0
MLINESTYLE
  5
18
102
{ACAD_REACTORS
330
17
102
}
100
AcDbMlineStyle
  2
STANDARD
 70
0
  3

 62
256
 51
90.0
 52
90.0
 71
2
 49
0.5
 62
256
  6
BYLAYER
 49
-0.5
 62
256
  6
BYLAYER
  0
LAYOUT
  5
29B
102
{ACAD_REACTORS
330
1A
102
}
100
AcDbPlotSettings
  1

  2
none_device
  4
ANSI_C_(22.00_x_17.00_Inches)
  6

 40
0.0
 41
0.0
 42
0.0
 43
0.0
 44
558.8
 45
431.8
 46
0.0
 47
0.0
 48
0.0
 49
0.0
140
0.0
141
0.0
142
1.0
143
1.0
 70
1024
 72
0
 73
0
 74
0
  7

 75
0
147
1.0
148
0.0
149
0.0
100
AcDbLayout
  1
Model
 70
0
 71
0
 10
0.0
 20
0.0
 11
22.0
 21
17.0
 12
0.0
 22
0.0
 32
0.0
 14
0.0
 24
0.0
 34
0.0
 15
0.0
 25
0.0
 35
0.0
146
0.0
 13
0.0
 23
0.0
 33
0.0
 16
1.0
 26
0.0
 36
0.0
 17
0.0
 27
1.0
 37
0.0
 76
0
330
205
345
0
346
0
  0
LAYOUT
  5
29C
102
{ACAD_REACTORS
330
1A
102
}
100
AcDbPlotSettings
  1

  2
none_device
  4
ANSI_C_(22.00_x_17.00_Inches)
  6

 40
0.0
 41
0.0
 42
0.0
 43
0.0
 44
558.8
 45
431.8
 46
0.0
 47
0.0
 48
0.0
 49
0.0
140
0.0
141
0.0
142
1.0
143
1.0
 70
0
 72
0
 73
0
 74
0
  7

 75
0
147
1.0
148
0.0
149
0.0
100
AcDbLayout
  1
Layout1
 70
0
 71
1
 10
0.0
 20
0.0
 11
22.0
 21
17.0
 12
0.0
 22
0.0
 32
0.0
 14
0.0
 24
0.0
 34
0.0
 15
0.0
 25
0.0
 35
0.0
146
0.0
 13
0.0
 23
0.0
 33
0.0
 16
1.0
 26
0.0
 36
0.0
 17
0.0
 27
1.0
 37
0.0
 76
0
330
206
345
0
346
0
  0
ENDSEC
  0
EOF
