999
DXF file: E:\BT Custom\CADOUTPUT\_RIGHT.dxf
999
Pro/ENGINEER 2018400 by Parametric Technology Corporation
  0
SECTION
  2
HEADER
  9
$ACADVER
  1
AC1018
  9
$DWGCODEPAGE
  3
ANSI_1252
  9
$EXTMAX
 10
22.0
 20
17.0
 30
0.0
  9
$EXTMIN
 10
0.0
 20
0.0
 30
0.0
  9
$LIMMIN
 10
0.0
 20
0.0
  9
$LIMMAX
 10
22.0
 20
17.0
  9
$VIEWCTR
 10
11.0
 20
8.5
  9
$VIEWSIZE
 40
17.0
  9
$CLAYER
  8
0
  9
$LTSCALE
 40
1.21
  9
$CELTYPE
  6
BYLAYER
  9
$DIMSCALE
 40
1.0
  9
$DIMASZ
 40
0.1
  9
$DIMEXO
 40
0.0625
  9
$DIMDLI
 40
0.836
  9
$DIMEXE
 40
0.125
  9
$DIMCEN
 40
0.198
  9
$DIMLFAC
 40
1.0
  9
$DIMBLK
  1
_FILLED
  9
$DIMALT
 70
1
  9
$DIMALTD
 70
2
  9
$DIMALTTD
 70
2
  9
$DIMALTF
 40
25.4
  9
$DIMTXT
 40
0.08
  9
$DIMTOL
 70
1
  9
$DIMLIM
 70
0
  9
$DIMTFAC
 40
1.0
  9
$DIMTP
 40
0.001
  9
$DIMTM
 40
0.001
  9
$DIMGAP
 40
0.09
  9
$DIMDSEP
 70
46
  9
$AUNITS
 70
0
  9
$PDMODE
 70
3
  9
$PDSIZE
 40
0.06
  9
$HANDSEED
  5
573
  9
$TILEMODE
 70
1
  9
$MEASUREMENT
 70
0
  9
$INSUNITS
 70
1
  0
ENDSEC
  0
SECTION
  2
CLASSES
  0
CLASS
  1
ACDBDICTIONARYWDFLT
  2
AcDbDictionaryWithDefault
  3
AutoCAD 2000
 90
0
 91
1
280
0
281
0
  0
CLASS
  1
ACDBPLACEHOLDER
  2
AcDbPlaceHolder
  3
AutoCAD 2000
 90
0
 91
1
280
0
281
0
  0
CLASS
  1
LAYOUT
  2
AcDbLayout
  3
AutoCAD 2000
 90
0
 91
0
280
0
281
0
  0
ENDSEC
  0
SECTION
  2
TABLES
  0
TABLE
  2
VPORT
  5
8
100
AcDbSymbolTable
 70
2
  0
VPORT
  5
1F4
100
AcDbSymbolTableRecord
100
AcDbViewportTableRecord
  2
*ACTIVE
 70
0
 10
0.0
 20
0.0
 11
1.0
 21
1.0
 12
11.0
 22
8.5
 13
0.0
 23
0.0
 14
1.0
 24
1.0
 15
0.0
 25
0.0
 16
0.0
 26
0.0
 36
1.0
 17
0.0
 27
0.0
 37
0.0
 40
17.0
 41
1.2941176471
 42
50.0
 43
0.0
 44
0.0
 50
0.0
 51
0.0
 71
0
 72
100
 73
1
 74
1
 75
0
 76
0
 77
0
 78
0
  0
ENDTAB
  0
TABLE
  2
LTYPE
  5
5
100
AcDbSymbolTable
 70
6
  0
LTYPE
  5
14
100
AcDbSymbolTableRecord
100
AcDbLinetypeTableRecord
  2
BYBLOCK
 70
0
  3

 72
65
 73
0
 40
0.0
  0
LTYPE
  5
15
100
AcDbSymbolTableRecord
100
AcDbLinetypeTableRecord
  2
BYLAYER
 70
0
  3

 72
65
 73
0
 40
0.0
  0
LTYPE
  5
16
100
AcDbSymbolTableRecord
100
AcDbLinetypeTableRecord
  2
CONTINUOUS
 70
64
  3
Solid line
 72
65
 73
0
 40
0.0
  0
LTYPE
  5
1F5
100
AcDbSymbolTableRecord
100
AcDbLinetypeTableRecord
  2
CENTER
 70
64
  3
____ _ ____ _ ____ _ ____ _ ____ _ ____ _ ____
 72
65
 73
4
 40
0.6
 49
0.375
 74
0
 49
-0.075
 74
0
 49
0.075
 74
0
 49
-0.075
 74
0
  0
LTYPE
  5
1F6
100
AcDbSymbolTableRecord
100
AcDbLinetypeTableRecord
  2
HIDDEN
 70
64
  3
- - - - - - - - - - - - - - - - - - - -
 72
65
 73
2
 40
0.2
 49
0.1
 74
0
 49
-0.1
 74
0
  0
LTYPE
  5
1F7
100
AcDbSymbolTableRecord
100
AcDbLinetypeTableRecord
  2
PHANTOM
 70
64
  3
_____ _ _ _____ _ _ _____ _ _ _____
 72
65
 73
6
 40
0.8
 49
0.45
 74
0
 49
-0.05
 74
0
 49
0.1
 74
0
 49
-0.05
 74
0
 49
0.1
 74
0
 49
-0.05
 74
0
  0
LTYPE
  5
1F8
100
AcDbSymbolTableRecord
100
AcDbLinetypeTableRecord
  2
DOT
 70
64
  3
. . . . . . . . . . . . . . . . . . . .
 72
65
 73
2
 40
0.2
 49
0.1
 74
0
 49
-0.1
 74
0
  0
LTYPE
  5
1F9
100
AcDbSymbolTableRecord
100
AcDbLinetypeTableRecord
  2
DASHED
 70
64
  3
- - - - - - - - - - - - - - - - - - - -
 72
65
 73
2
 40
0.2
 49
0.1
 74
0
 49
-0.1
 74
0
  0
ENDTAB
  0
TABLE
  2
LAYER
  5
2
100
AcDbSymbolTable
 70
36
  0
LAYER
  5
10
100
AcDbSymbolTableRecord
100
AcDbLayerTableRecord
  2
0
 70
0
 62
7
  6
CONTINUOUS
370
-3
390
F
  0
LAYER
  5
1FA
100
AcDbSymbolTableRecord
100
AcDbLayerTableRecord
  2
DEFAULT_1
 70
0
 62
7
  6
CENTER
370
-3
390
F
  0
LAYER
  5
1FB
100
AcDbSymbolTableRecord
100
AcDbLayerTableRecord
  2
DEFAULT_2
 70
0
 62
8
  6
HIDDEN
370
-3
390
F
  0
LAYER
  5
1FC
100
AcDbSymbolTableRecord
100
AcDbLayerTableRecord
  2
DEFAULT_3
 70
0
 62
7
  6
PHANTOM
370
-3
390
F
  0
LAYER
  5
1FD
100
AcDbSymbolTableRecord
100
AcDbLayerTableRecord
  2
ALL_FEATURES
 70
0
 62
7
  6
CONTINUOUS
370
-3
390
F
  0
LAYER
  5
1FE
100
AcDbSymbolTableRecord
100
AcDbLayerTableRecord
  2
AXES_FEATURES
 70
0
 62
7
  6
CONTINUOUS
370
-3
390
F
  0
LAYER
  5
1FF
100
AcDbSymbolTableRecord
100
AcDbLayerTableRecord
  2
DEFAULT_COORDINATE_SYSTEM
 70
0
 62
7
  6
CONTINUOUS
370
-3
390
F
  0
LAYER
  5
200
100
AcDbSymbolTableRecord
100
AcDbLayerTableRecord
  2
DEFAULT_DATUM_AXES
 70
0
 62
7
  6
CONTINUOUS
370
-3
390
F
  0
LAYER
  5
201
100
AcDbSymbolTableRecord
100
AcDbLayerTableRecord
  2
DEFAULT_DATUM_PLANES
 70
0
 62
7
  6
CONTINUOUS
370
-3
390
F
  0
LAYER
  5
202
100
AcDbSymbolTableRecord
100
AcDbLayerTableRecord
  2
DIMENSIONS
 70
0
 62
7
  6
CONTINUOUS
370
-3
390
F
  0
ENDTAB
  0
TABLE
  2
STYLE
  5
3
100
AcDbSymbolTable
 70
1
  0
STYLE
  5
11
100
AcDbSymbolTableRecord
100
AcDbTextStyleTableRecord
  2
STANDARD
 70
0
 40
0.0
 41
0.8
 50
0.0
 71
0
 42
0.2
  3
txt
  4

  0
STYLE
  5
203
100
AcDbSymbolTableRecord
100
AcDbTextStyleTableRecord
  2
TEXTSTYLE_1
 70
0
 40
0.0
 41
0.8
 50
0.0
 71
0
 42
0.2
  3
gdt
  4

  0
ENDTAB
  0
TABLE
  2
VIEW
  5
6
100
AcDbSymbolTable
 70
0
  0
ENDTAB
  0
TABLE
  2
UCS
  5
7
100
AcDbSymbolTable
 70
0
  0
ENDTAB
  0
TABLE
  2
APPID
  5
9
100
AcDbSymbolTable
 70
1
  0
APPID
  5
204
100
AcDbSymbolTableRecord
100
AcDbRegAppTableRecord
  2
ACAD
 70
0
  0
ENDTAB
  0
TABLE
  2
BLOCK_RECORD
  5
1
100
AcDbSymbolTable
 70
0
  0
BLOCK_RECORD
  5
205
100
AcDbSymbolTableRecord
100
AcDbBlockTableRecord
  2
*Model_Space
  0
BLOCK_RECORD
  5
206
100
AcDbSymbolTableRecord
100
AcDbBlockTableRecord
  2
*Paper_Space
  0
BLOCK_RECORD
  5
207
100
AcDbSymbolTableRecord
100
AcDbBlockTableRecord
  2
_FILLED
  0
ENDTAB
  0
TABLE
  2
DIMSTYLE
  5
A
100
AcDbSymbolTable
 70
1
100
AcDbDimStyleTable
 71
0
  0
DIMSTYLE
105
208
100
AcDbSymbolTableRecord
100
AcDbDimStyleTableRecord
  2
STANDARD
 70
0
  3

  4

 40
1.0
 41
0.1
 42
0.0625
 43
0.38
 44
0.125
 45
0.0
 46
0.0
 47
0.001
 48
0.001
140
0.08
141
0.09
142
0.0
143
25.4
144
1.0
145
0.0
146
1.0
147
0.09
 71
1.0
 72
0.0
 73
1
 74
1
 75
0
 76
0
 77
0
 78
4
 79
1
170
1
171
2
172
0
173
0
174
0
175
0
176
0
177
0
178
0
270
2
179
3
271
3
272
3
273
2
274
2
275
0
280
0
281
0
282
0
283
1
284
4
285
0
286
0
287
3
288
0
340
11
278
46
341
207
342
207
343
207
344
207
  0
ENDTAB
  0
ENDSEC
  0
SECTION
  2
BLOCKS
  0
BLOCK
  5
20
100
AcDbEntity
  8
0
100
AcDbBlockBegin
  2
*Model_Space
 70
0
 10
0.0
 20
0.0
 30
0.0
  3
*Model_Space
  1

  0
ENDBLK
  5
21
100
AcDbEntity
  8
0
100
AcDbBlockEnd
  0
BLOCK
  5
1C
100
AcDbEntity
  8
0
100
AcDbBlockBegin
  2
*Paper_Space
 70
0
 10
0.0
 20
0.0
 30
0.0
  3
*Paper_Space
  1

  0
ENDBLK
  5
1D
100
AcDbEntity
  8
0
100
AcDbBlockEnd
  0
BLOCK
  5
209
100
AcDbEntity
  8
0
100
AcDbBlockBegin
  2
_FILLED
 70
64
 10
0.0
 20
0.0
  3
_FILLED
  1

  0
SOLID
  5
20A
100
AcDbEntity
  8
0
  6
BYBLOCK
 62
0
100
AcDbTrace
 10
0.0
 20
0.0
 11
-1.0
 21
0.2
 12
-1.0
 22
-0.2
 13
-1.0
 23
-0.2
  0
ENDBLK
  5
20B
100
AcDbEntity
  8
0
  6
BYBLOCK
 62
0
100
AcDbBlockEnd
  0
ENDSEC
  0
SECTION
  2
ENTITIES
  0
LINE
  5
20C
100
AcDbEntity
  8
0
100
AcDbLine
 62
7
  6
CONTINUOUS
 10
7.7999226038
 20
-2.8048823242
 11
8.6749226038
 21
-2.8048823242
  0
LINE
  5
20D
100
AcDbEntity
  8
0
100
AcDbLine
 62
9
  6
CONTINUOUS
 10
7.7999226038
 20
-1.3648823242
 11
8.6749226038
 21
-1.3648823242
  0
LINE
  5
20E
100
AcDbEntity
  8
0
100
AcDbLine
 62
7
  6
CONTINUOUS
 10
14.7974226038
 20
-0.5523823242
 11
14.4224226038
 21
-0.5523823242
  0
LINE
  5
20F
100
AcDbEntity
  8
0
100
AcDbLine
 62
7
  6
CONTINUOUS
 10
14.4224226038
 20
-0.0523823242
 11
12.2974226038
 21
-0.0523823242
  0
LINE
  5
210
100
AcDbEntity
  8
0
100
AcDbLine
 62
7
  6
CONTINUOUS
 10
7.2428325282
 20
17.8838284591
 11
6.6459758319
 21
17.2869717628
  0
LINE
  5
211
100
AcDbEntity
  8
0
100
AcDbLine
 62
7
  6
CONTINUOUS
 10
6.7904497756
 20
17.0027274218
 11
6.7657577365
 21
16.9780353827
  0
LINE
  5
212
100
AcDbEntity
  8
0
100
AcDbLine
 62
7
  6
CONTINUOUS
 10
6.8293417933
 20
16.963835404
 11
6.8046497543
 21
16.939143365
  0
LINE
  5
213
100
AcDbEntity
  8
0
100
AcDbLine
 62
7
  6
CONTINUOUS
 10
10.2374226038
 20
0.1976176758
 11
12.2974226038
 21
0.1976176758
  0
LINE
  5
214
100
AcDbEntity
  8
0
100
AcDbLine
 62
7
  6
CONTINUOUS
 10
7.1979402645
 20
16.3559690467
 11
7.1974064963
 21
16.3553991301
  0
LINE
  5
215
100
AcDbEntity
  8
0
100
AcDbLine
 62
7
  6
CONTINUOUS
 10
6.9433674199
 20
16.8498097775
 11
6.9186753808
 21
16.8251177384
  0
LINE
  5
216
100
AcDbEntity
  8
0
100
AcDbLine
 62
7
  6
CONTINUOUS
 10
6.9152433583
 20
16.7904406865
 11
6.9049196111
 21
16.7801169393
  0
LINE
  5
217
100
AcDbEntity
  8
0
100
AcDbLine
 62
7
  6
CONTINUOUS
 10
6.9814803098
 20
16.7229427307
 11
6.9717870648
 21
16.7132494856
  0
LINE
  5
218
100
AcDbEntity
  8
0
100
AcDbLine
 62
7
  6
CONTINUOUS
 10
7.0511330355
 20
16.723729056
 11
7.0355985493
 21
16.7081945699
  0
LINE
  5
219
100
AcDbEntity
  8
0
100
AcDbLine
 62
7
  6
CONTINUOUS
 10
7.1247559972
 20
16.6684212002
 11
7.1000639581
 21
16.6437291611
  0
LINE
  5
21A
100
AcDbEntity
  8
0
100
AcDbLine
 62
7
  6
CONTINUOUS
 10
7.0864875027
 20
16.627510206
 11
7.0720069235
 21
16.6130296269
  0
LINE
  5
21B
100
AcDbEntity
  8
0
100
AcDbLine
 62
7
  6
CONTINUOUS
 10
7.1106583107
 20
16.5937647298
 11
7.1009650657
 21
16.5840714847
  0
LINE
  5
21C
100
AcDbEntity
  8
0
100
AcDbLine
 62
7
  6
CONTINUOUS
 10
7.08087269
 20
16.5359336256
 11
7.0760815031
 21
16.5311424388
  0
LINE
  5
21D
100
AcDbEntity
  8
0
100
AcDbLine
 62
7
  6
CONTINUOUS
 10
7.2346780325
 20
16.5444968985
 11
7.2169871266
 21
16.5268059926
  0
LINE
  5
21E
100
AcDbEntity
  8
0
100
AcDbLine
 62
7
  6
CONTINUOUS
 10
7.2169736246
 20
16.4996403261
 11
7.2011849244
 21
16.483851626
  0
LINE
  5
21F
100
AcDbEntity
  8
0
100
AcDbLine
 62
7
  6
CONTINUOUS
 10
7.1799439045
 20
16.3732708926
 11
7.1612153506
 21
16.3545423387
  0
LINE
  5
220
100
AcDbEntity
  8
0
100
AcDbLine
 62
7
  6
CONTINUOUS
 10
7.1974059862
 20
16.355399012
 11
7.1788823317
 21
16.3368753576
  0
LINE
  5
221
100
AcDbEntity
  8
0
100
AcDbLine
 62
7
  6
CONTINUOUS
 10
7.3135127865
 20
16.4312486438
 11
7.2836503465
 21
16.4013862039
  0
LINE
  5
222
100
AcDbEntity
  8
0
100
AcDbLine
 62
7
  6
CONTINUOUS
 10
7.3611461935
 20
16.4320310039
 11
7.3364541544
 21
16.4073389648
  0
LINE
  5
223
100
AcDbEntity
  8
0
100
AcDbLine
 62
7
  6
CONTINUOUS
 10
7.2514244498
 20
16.300107731
 11
7.233537204
 21
16.2822204853
  0
LINE
  5
224
100
AcDbEntity
  8
0
100
AcDbLine
 62
7
  6
CONTINUOUS
 10
7.3935634503
 20
16.3108595902
 11
7.3838702053
 21
16.3011663451
  0
LINE
  5
225
100
AcDbEntity
  8
0
100
AcDbLine
 62
7
  6
CONTINUOUS
 10
7.338461139
 20
16.1867047027
 11
7.3337570628
 21
16.1820006265
  0
LINE
  5
226
100
AcDbEntity
  8
0
100
AcDbLine
 62
7
  6
CONTINUOUS
 10
7.4738799504
 20
16.3109184237
 11
7.4533773229
 21
16.2904157963
  0
LINE
  5
227
100
AcDbEntity
  8
0
100
AcDbLine
 62
7
  6
CONTINUOUS
 10
7.3484935452
 20
16.174661523
 11
7.3447948558
 21
16.1709628335
  0
LWPOLYLINE
  5
228
100
AcDbEntity
  8
0
100
AcDbPolyline
 62
7
  6
CONTINUOUS
 90
14
 70
0
 10
7.3384588905
 20
16.1867055974
 10
7.3393774665
 20
16.1875311812
 10
7.341022875
 20
16.1886372312
 10
7.3427741839
 20
16.189425127
 10
7.3445352014
 20
16.1898920635
 10
7.3461787043
 20
16.1900681942
 10
7.3476198804
 20
16.1900239638
 10
7.3488331095
 20
16.1898385813
 10
7.3498416387
 20
16.1895735296
 10
7.3506467791
 20
16.1892795018
 10
7.3512484768
 20
16.189002864
 10
7.3516341625
 20
16.1887924998
 10
7.3518274097
 20
16.1886727725
 10
7.3518617481
 20
16.1886497535
  0
LINE
  5
229
100
AcDbEntity
  8
0
100
AcDbLine
 62
7
  6
CONTINUOUS
 10
10.2374226038
 20
1.0726176758
 11
12.2974226038
 21
1.0726176758
  0
LINE
  5
22A
100
AcDbEntity
  8
0
100
AcDbLine
 62
7
  6
CONTINUOUS
 10
14.4224226038
 20
1.3226176758
 11
12.2974226038
 21
1.3226176758
  0
LINE
  5
22B
100
AcDbEntity
  8
0
100
AcDbLine
 62
7
  6
CONTINUOUS
 10
7.5349836731
 20
16.2052338089
 11
7.5073932073
 21
16.1776433431
  0
LINE
  5
22C
100
AcDbEntity
  8
0
100
AcDbLine
 62
7
  6
CONTINUOUS
 10
9.4044579583
 20
18.0301995628
 11
8.739777584
 21
17.3655191885
  0
LINE
  5
22D
100
AcDbEntity
  8
0
100
AcDbLine
 62
7
  6
CONTINUOUS
 10
9.4149468117
 20
18.0197107094
 11
9.1674594383
 21
17.7722233359
  0
LINE
  5
22E
100
AcDbEntity
  8
0
100
AcDbLine
 62
7
  6
CONTINUOUS
 10
7.6364284075
 20
16.1567487899
 11
7.6117363684
 21
16.1320567508
  0
LINE
  5
22F
100
AcDbEntity
  8
0
100
AcDbLine
 62
7
  6
CONTINUOUS
 10
7.6173063111
 20
16.0871167294
 11
7.6076130661
 21
16.0774234843
  0
LINE
  5
230
100
AcDbEntity
  8
0
100
AcDbLine
 62
7
  6
CONTINUOUS
 10
10.0072664892
 20
18.4597669324
 11
9.7794877019
 21
18.231988145
  0
LINE
  5
231
100
AcDbEntity
  8
0
100
AcDbLine
 62
7
  6
CONTINUOUS
 10
9.9284005587
 20
18.3618561676
 11
9.789010119
 21
18.2224657279
  0
LINE
  5
232
100
AcDbEntity
  8
0
100
AcDbLine
 62
7
  6
CONTINUOUS
 10
11.0227236069
 20
19.4098166728
 11
10.2454207387
 21
18.6325138045
  0
LINE
  5
233
100
AcDbEntity
  8
0
100
AcDbLine
 62
7
  6
CONTINUOUS
 10
10.2145890009
 20
18.6016820667
 11
10.2081343686
 21
18.5952274345
  0
LINE
  5
234
100
AcDbEntity
  8
0
100
AcDbLine
 62
7
  6
CONTINUOUS
 10
10.1761301159
 20
18.5632231817
 11
10.158356818
 21
18.5454498838
  0
LINE
  5
235
100
AcDbEntity
  8
0
100
AcDbLine
 62
7
  6
CONTINUOUS
 10
10.1248903688
 20
18.5119834347
 11
10.108709327
 21
18.4958023929
  0
LINE
  5
236
100
AcDbEntity
  8
0
100
AcDbLine
 62
7
  6
CONTINUOUS
 10
10.0735205731
 20
18.4606136389
 11
10.0589006671
 21
18.445993733
  0
LINE
  5
237
100
AcDbEntity
  8
0
100
AcDbLine
 62
7
  6
CONTINUOUS
 10
9.533532224
 20
17.9011252971
 11
9.2860448505
 21
17.6536379237
  0
LINE
  5
238
100
AcDbEntity
  8
0
100
AcDbLine
 62
7
  6
CONTINUOUS
 10
10.2394545027
 20
18.5950193756
 11
10.2520834298
 21
18.6076483027
  0
LINE
  5
239
100
AcDbEntity
  8
0
100
AcDbLine
 62
7
  6
CONTINUOUS
 10
10.2152325529
 20
18.5687667423
 11
10.202810292
 21
18.5563444814
  0
LINE
  5
23A
100
AcDbEntity
  8
0
100
AcDbLine
 62
7
  6
CONTINUOUS
 10
10.1659894907
 20
18.516991044
 11
10.1535681936
 21
18.5045697469
  0
LINE
  5
23B
100
AcDbEntity
  8
0
100
AcDbLine
 62
7
  6
CONTINUOUS
 10
10.1169713055
 20
18.4649896908
 11
10.1045512623
 21
18.4525696476
  0
LINE
  5
23C
100
AcDbEntity
  8
0
100
AcDbLine
 62
7
  6
CONTINUOUS
 10
10.0676769244
 20
18.4132706597
 11
10.0607198431
 21
18.4063135785
  0
LINE
  5
23D
100
AcDbEntity
  8
0
100
AcDbLine
 62
7
  6
CONTINUOUS
 10
7.6119663867
 20
15.9310912963
 11
7.5983163899
 21
15.9174412994
  0
LINE
  5
23E
100
AcDbEntity
  8
0
100
AcDbLine
 62
7
  6
CONTINUOUS
 10
7.752438513
 20
16.0389125582
 11
7.728659537
 21
16.0151335822
  0
LINE
  5
23F
100
AcDbEntity
  8
0
100
AcDbLine
 62
7
  6
CONTINUOUS
 10
10.0165233424
 20
18.2737333839
 11
9.8771329027
 21
18.1343429442
  0
LINE
  5
240
100
AcDbEntity
  8
0
100
AcDbLine
 62
7
  6
CONTINUOUS
 10
7.7820035831
 20
15.9531482498
 11
7.7569459418
 21
15.9280906085
  0
LINE
  5
241
100
AcDbEntity
  8
0
100
AcDbLine
 62
7
  6
CONTINUOUS
 10
7.7074719472
 20
15.8261571422
 11
7.6985362486
 21
15.8172214407
  0
LINE
  5
242
100
AcDbEntity
  8
0
100
AcDbLine
 62
7
  6
CONTINUOUS
 10
7.7631220555
 20
15.776384425
 11
7.7512476599
 21
15.7645100294
  0
LINE
  5
243
100
AcDbEntity
  8
0
100
AcDbLine
 62
7
  6
CONTINUOUS
 10
7.8796026371
 20
15.8503075863
 11
7.8571658006
 21
15.8278707498
  0
LINE
  5
244
100
AcDbEntity
  8
0
100
AcDbLine
 62
7
  6
CONTINUOUS
 10
7.9318426114
 20
15.861334586
 11
7.9071505723
 21
15.8366425469
  0
LINE
  5
245
100
AcDbEntity
  8
0
100
AcDbLine
 62
7
  6
CONTINUOUS
 10
7.8621760588
 20
15.6749987108
 11
7.8514675186
 21
15.6642901706
  0
LINE
  5
246
100
AcDbEntity
  8
0
100
AcDbLine
 62
7
  6
CONTINUOUS
 10
7.9172282263
 20
15.6186590589
 11
7.9071634284
 21
15.6085942609
  0
LINE
  5
247
100
AcDbEntity
  8
0
100
AcDbLine
 62
7
  6
CONTINUOUS
 10
8.0487657799
 20
15.7444114175
 11
8.0240737408
 21
15.7197193784
  0
LINE
  5
248
100
AcDbEntity
  8
0
100
AcDbLine
 62
7
  6
CONTINUOUS
 10
8.0377387802
 20
15.6921714433
 11
8.0153019437
 21
15.6697346067
  0
LWPOLYLINE
  5
249
100
AcDbEntity
  8
0
100
AcDbPolyline
 62
7
  6
CONTINUOUS
 90
8
 70
0
 10
8.0199002814
 20
15.5208908275
 10
8.0210402796
 20
15.5218783033
 10
8.022754892
 20
15.5229184155
 10
8.0244768369
 20
15.5235609327
 10
8.0260033696
 20
15.5238433715
 10
8.0271497953
 20
15.5238796221
 10
8.0278738675
 20
15.5238120634
 10
8.02816245
 20
15.523758004
  0
LWPOLYLINE
  5
24A
100
AcDbEntity
  8
0
100
AcDbPolyline
 62
7
  6
CONTINUOUS
 90
8
 70
0
 10
7.8621725253
 20
15.674997942
 10
7.8633583342
 20
15.6760189282
 10
7.8651373275
 20
15.6770760558
 10
7.8669391125
 20
15.6777152875
 10
7.8685315
 20
15.6779720199
 10
7.8697180765
 20
15.6779751859
 10
7.8704384381
 20
15.6778843726
 10
7.8707117554
 20
15.6778241751
  0
LWPOLYLINE
  5
24B
100
AcDbEntity
  8
0
100
AcDbPolyline
 62
7
  6
CONTINUOUS
 90
9
 70
0
 10
7.7074708455
 20
15.8261581637
 10
7.7087696631
 20
15.8272632456
 10
7.7105754547
 20
15.8283099951
 10
7.7123787305
 20
15.8289332721
 10
7.7139763847
 20
15.8291854907
 10
7.715212324
 20
15.829190345
 10
7.7160501247
 20
15.8290873086
 10
7.7165432955
 20
15.8289747531
 10
7.7166914539
 20
15.8289290558
  0
LINE
  5
24C
100
AcDbEntity
  8
0
100
AcDbLine
 62
7
  6
CONTINUOUS
 10
8.3209699252
 20
15.160030177
 11
8.2510214013
 21
15.1274126446
  0
LINE
  5
24D
100
AcDbEntity
  8
0
100
AcDbLine
 62
7
  6
CONTINUOUS
 10
14.7974226038
 20
1.8226176758
 11
14.4224226038
 21
1.8226176758
  0
LINE
  5
24E
100
AcDbEntity
  8
0
100
AcDbLine
 62
7
  6
CONTINUOUS
 10
7.3499079636
 20
16.1387854666
 11
7.3148438385
 21
16.0635902075
  0
LINE
  5
24F
100
AcDbEntity
  8
0
100
AcDbLine
 62
7
  6
CONTINUOUS
 10
10.782654537
 20
18.0522274463
 11
10.7826485062
 21
18.0522212455
  0
LINE
  5
250
100
AcDbEntity
  8
0
100
AcDbLine
 62
7
  6
CONTINUOUS
 10
8.0199013533
 20
15.5208924684
 11
8.0073832871
 21
15.5083744022
  0
LINE
  5
251
100
AcDbEntity
  8
0
100
AcDbLine
 62
7
  6
CONTINUOUS
 10
8.1405794437
 20
15.5945723892
 11
8.1155218024
 21
15.569514748
  0
LINE
  5
252
100
AcDbEntity
  8
0
100
AcDbLine
 62
7
  6
CONTINUOUS
 10
8.2263437521
 20
15.5650073191
 11
8.2025647761
 21
15.5412283431
  0
LINE
  5
253
100
AcDbEntity
  8
0
100
AcDbLine
 62
7
  6
CONTINUOUS
 10
10.6140074562
 20
17.892191003
 11
10.6264271518
 21
17.9046106986
  0
LINE
  5
254
100
AcDbEntity
  8
0
100
AcDbLine
 62
7
  6
CONTINUOUS
 10
10.6658456136
 20
17.9413733242
 11
10.6782663691
 21
17.9537940796
  0
LINE
  5
255
100
AcDbEntity
  8
0
100
AcDbLine
 62
7
  6
CONTINUOUS
 10
10.7176537834
 20
17.9905782615
 11
10.7300755092
 21
18.0029999873
  0
LINE
  5
256
100
AcDbEntity
  8
0
100
AcDbLine
 62
7
  6
CONTINUOUS
 10
10.7695039638
 20
18.03974607
 11
10.7819267232
 21
18.0521688294
  0
LINE
  5
257
100
AcDbEntity
  8
0
100
AcDbLine
 62
7
  6
CONTINUOUS
 10
10.7826485062
 20
18.0522212455
 11
10.7950794966
 21
18.0646522359
  0
LINE
  5
258
100
AcDbEntity
  8
0
100
AcDbLine
 62
7
  6
CONTINUOUS
 10
11.5972478666
 20
18.835292413
 11
10.8199449984
 21
18.0579895448
  0
LINE
  5
259
100
AcDbEntity
  8
0
100
AcDbLine
 62
7
  6
CONTINUOUS
 10
10.7763016711
 20
18.0143462175
 11
10.7577856511
 21
17.9958301975
  0
LINE
  5
25A
100
AcDbEntity
  8
0
100
AcDbLine
 62
7
  6
CONTINUOUS
 10
10.7250186981
 20
17.9630632445
 11
10.7080285344
 21
17.9460730808
  0
LINE
  5
25B
100
AcDbEntity
  8
0
100
AcDbLine
 62
7
  6
CONTINUOUS
 10
10.6737585339
 20
17.9118030803
 11
10.6582865541
 21
17.8963311005
  0
LINE
  5
25C
100
AcDbEntity
  8
0
100
AcDbLine
 62
7
  6
CONTINUOUS
 10
10.6224832631
 20
17.8605278095
 11
10.6144944376
 21
17.852538984
  0
LINE
  5
25D
100
AcDbEntity
  8
0
100
AcDbLine
 62
7
  6
CONTINUOUS
 10
10.6471981262
 20
17.8198352954
 11
10.4194193389
 21
17.592056508
  0
LINE
  5
25E
100
AcDbEntity
  8
0
100
AcDbLine
 62
7
  6
CONTINUOUS
 10
8.2745479232
 20
15.4298751172
 11
8.2648546782
 21
15.4201818722
  0
LINE
  5
25F
100
AcDbEntity
  8
0
100
AcDbLine
 62
7
  6
CONTINUOUS
 10
8.3441799837
 20
15.4489972136
 11
8.3194879447
 21
15.4243051746
  0
LINE
  5
260
100
AcDbEntity
  8
0
100
AcDbLine
 62
7
  6
CONTINUOUS
 10
10.2176307566
 20
17.2170267644
 11
9.5529503823
 21
16.5523463901
  0
LINE
  5
261
100
AcDbEntity
  8
0
100
AcDbLine
 62
7
  6
CONTINUOUS
 10
8.3926650028
 20
15.3475524793
 11
8.3650745369
 21
15.3199620134
  0
LINE
  5
262
100
AcDbEntity
  8
0
100
AcDbLine
 62
7
  6
CONTINUOUS
 10
8.3215098349
 20
15.2048897867
 11
8.3161888688
 21
15.1995688205
  0
LINE
  5
263
100
AcDbEntity
  8
0
100
AcDbLine
 62
7
  6
CONTINUOUS
 10
8.4983496176
 20
15.2864487565
 11
8.4778469902
 21
15.2659461291
  0
LINE
  5
264
100
AcDbEntity
  8
0
100
AcDbLine
 62
7
  6
CONTINUOUS
 10
8.498290784
 20
15.2061322565
 11
8.488597539
 21
15.1964390114
  0
LINE
  5
265
100
AcDbEntity
  8
0
100
AcDbLine
 62
7
  6
CONTINUOUS
 10
8.43367764
 20
15.1166178743
 11
8.4164087275
 21
15.0993489618
  0
LINE
  5
266
100
AcDbEntity
  8
0
100
AcDbLine
 62
7
  6
CONTINUOUS
 10
8.6194621978
 20
15.1737149996
 11
8.5947701587
 21
15.1490229605
  0
LINE
  5
267
100
AcDbEntity
  8
0
100
AcDbLine
 62
7
  6
CONTINUOUS
 10
8.5114200248
 20
15.0406607757
 11
8.4932584692
 21
15.0224992201
  0
LINE
  5
268
100
AcDbEntity
  8
0
100
AcDbLine
 62
7
  6
CONTINUOUS
 10
8.6186798377
 20
15.1260815926
 11
8.5888173977
 21
15.0962191527
  0
LINE
  5
269
100
AcDbEntity
  8
0
100
AcDbLine
 62
7
  6
CONTINUOUS
 10
8.5536126794
 20
14.9994406862
 11
8.5349648412
 21
14.9807928481
  0
LINE
  5
26A
100
AcDbEntity
  8
0
100
AcDbLine
 62
7
  6
CONTINUOUS
 10
8.5536123876
 20
14.9994412352
 11
8.5539993611
 21
14.9998113791
  0
LWPOLYLINE
  5
26B
100
AcDbEntity
  8
0
100
AcDbPolyline
 62
7
  6
CONTINUOUS
 90
12
 70
0
 10
8.5114208698
 20
15.0406609359
 10
8.5123557599
 20
15.0415004702
 10
8.5140396279
 20
15.0426266529
 10
8.5158362981
 20
15.0434230633
 10
8.5176213829
 20
15.0438806569
 10
8.5192160482
 20
15.0440391652
 10
8.5205109019
 20
15.0439979345
 10
8.5214694228
 20
15.0438644389
 10
8.5221585552
 20
15.0437085779
 10
8.5226124986
 20
15.0435735046
 10
8.5228817683
 20
15.0434775218
 10
8.5229812621
 20
15.0434375602
  0
LWPOLYLINE
  5
26C
100
AcDbEntity
  8
0
100
AcDbPolyline
 62
7
  6
CONTINUOUS
 90
10
 70
0
 10
8.4336747831
 20
15.1166164102
 10
8.4347327033
 20
15.1175506974
 10
8.4364101633
 20
15.1186307712
 10
8.4381519472
 20
15.1193649219
 10
8.4398308236
 20
15.1197657534
 10
8.441277376
 20
15.1198901362
 10
8.4423945804
 20
15.1198434618
 10
8.4431557544
 20
15.1197317503
 10
8.4436159682
 20
15.11962532
 10
8.4437886245
 20
15.119574277
  0
LWPOLYLINE
  5
26D
100
AcDbEntity
  8
0
100
AcDbPolyline
 62
7
  6
CONTINUOUS
 90
11
 70
0
 10
8.5539993611
 20
14.9998113791
 10
8.555277294
 20
15.0008247697
 10
8.5566431022
 20
15.0016324046
 10
8.5580571417
 20
15.0022326191
 10
8.5594825405
 20
15.0026314428
 10
8.5608635626
 20
15.0028404655
 10
8.562145976
 20
15.002886827
 10
8.5633252985
 20
15.002804522
 10
8.564377106
 20
15.0026271578
 10
8.5652845103
 20
15.0023914625
 10
8.5660100793
 20
15.0021424312
  0
LINE
  5
26E
100
AcDbEntity
  8
0
100
AcDbLine
 62
7
  6
CONTINUOUS
 10
8.68707152
 20
15.0295424307
 11
8.6712828198
 21
15.0137537306
  0
LINE
  5
26F
100
AcDbEntity
  8
0
100
AcDbLine
 62
7
  6
CONTINUOUS
 10
8.7319280924
 20
15.0472468387
 11
8.7142371864
 21
15.0295559328
  0
LINE
  5
270
100
AcDbEntity
  8
0
100
AcDbLine
 62
7
  6
CONTINUOUS
 10
8.7233648195
 20
14.8934414961
 11
8.7185736326
 21
14.8886503092
  0
LINE
  5
271
100
AcDbEntity
  8
0
100
AcDbLine
 62
7
  6
CONTINUOUS
 10
8.7811959236
 20
14.9232271169
 11
8.7715026786
 21
14.9135338718
  0
LINE
  5
272
100
AcDbEntity
  8
0
100
AcDbLine
 62
7
  6
CONTINUOUS
 10
8.8149413999
 20
14.8990563088
 11
8.8004608207
 21
14.8845757297
  0
LINE
  5
273
100
AcDbEntity
  8
0
100
AcDbLine
 62
7
  6
CONTINUOUS
 10
8.8558523941
 20
14.9373248033
 11
8.831160355
 21
14.9126327642
  0
LINE
  5
274
100
AcDbEntity
  8
0
100
AcDbLine
 62
7
  6
CONTINUOUS
 10
8.9111602499
 20
14.8637018416
 11
8.8956257638
 21
14.8481673555
  0
LINE
  5
275
100
AcDbEntity
  8
0
100
AcDbLine
 62
7
  6
CONTINUOUS
 10
8.9103739245
 20
14.794049116
 11
8.9006806795
 21
14.7843558709
  0
LINE
  5
276
100
AcDbEntity
  8
0
100
AcDbLine
 62
7
  6
CONTINUOUS
 10
8.9778718804
 20
14.7278121644
 11
8.9675481332
 21
14.7174884172
  0
LINE
  5
277
100
AcDbEntity
  8
0
100
AcDbLine
 62
7
  6
CONTINUOUS
 10
9.0372409714
 20
14.755936226
 11
9.0125489323
 21
14.7312441869
  0
LINE
  5
278
100
AcDbEntity
  8
0
100
AcDbLine
 62
7
  6
CONTINUOUS
 10
9.1512665979
 20
14.6419105995
 11
9.1265745588
 21
14.6172185604
  0
LINE
  5
279
100
AcDbEntity
  8
0
100
AcDbLine
 62
7
  6
CONTINUOUS
 10
9.3188050041
 20
14.4978186331
 11
9.2967960914
 21
14.4758097203
  0
LINE
  5
27A
100
AcDbEntity
  8
0
100
AcDbLine
 62
7
  6
CONTINUOUS
 10
10.0712596529
 20
15.0554013343
 11
9.4744029567
 21
14.4585446381
  0
LINE
  5
27B
100
AcDbEntity
  8
0
100
AcDbLine
 62
7
  6
CONTINUOUS
 10
14.7974226038
 20
4.3851176758
 11
14.6579593435
 21
4.3851176758
  0
LINE
  5
27C
100
AcDbEntity
  8
0
100
AcDbLine
 62
7
  6
CONTINUOUS
 10
6.759992122
 20
16.9641159579
 11
6.759992122
 21
16.9525843725
  0
LINE
  5
27D
100
AcDbEntity
  8
0
100
AcDbLine
 62
7
  6
CONTINUOUS
 10
6.7988841397
 20
16.9252230954
 11
6.7988841397
 21
16.9136923183
  0
LINE
  5
27E
100
AcDbEntity
  8
0
100
AcDbLine
 62
7
  6
CONTINUOUS
 10
6.8991539965
 20
16.7661970765
 11
6.8991539965
 21
16.7546658294
  0
LINE
  5
27F
100
AcDbEntity
  8
0
100
AcDbLine
 62
7
  6
CONTINUOUS
 10
6.9129097663
 20
16.8111974688
 11
6.9129097663
 21
16.7996666917
  0
LINE
  5
280
100
AcDbEntity
  8
0
100
AcDbLine
 62
7
  6
CONTINUOUS
 10
6.9660214502
 20
16.6993296469
 11
6.9660214502
 21
16.6877983757
  0
LINE
  5
281
100
AcDbEntity
  8
0
100
AcDbLine
 62
7
  6
CONTINUOUS
 10
7.0942983436
 20
16.6298088915
 11
7.0942983436
 21
16.6182781144
  0
LINE
  5
282
100
AcDbEntity
  8
0
100
AcDbLine
 62
7
  6
CONTINUOUS
 10
7.0951994511
 20
16.5701516459
 11
7.0951994511
 21
16.5586203748
  0
LINE
  5
283
100
AcDbEntity
  8
0
100
AcDbLine
 62
7
  6
CONTINUOUS
 10
7.1577559819
 20
16.346190622
 11
7.1577559819
 21
16.3281364008
  0
LINE
  5
284
100
AcDbEntity
  8
0
100
AcDbLine
 62
7
  6
CONTINUOUS
 10
7.175422963
 20
16.3285236408
 11
7.175422963
 21
16.3104693732
  0
LINE
  5
285
100
AcDbEntity
  8
0
100
AcDbLine
 62
7
  6
CONTINUOUS
 10
7.2300778353
 20
16.2738687685
 11
7.2300778353
 21
16.2558145009
  0
LINE
  5
286
100
AcDbEntity
  8
0
100
AcDbLine
 62
7
  6
CONTINUOUS
 10
7.277884732
 20
16.3874663651
 11
7.277884732
 21
16.375935094
  0
LINE
  5
287
100
AcDbEntity
  8
0
100
AcDbLine
 62
7
  6
CONTINUOUS
 10
7.3306885398
 20
16.3934186952
 11
7.3306885398
 21
16.3818879181
  0
LINE
  5
288
100
AcDbEntity
  8
0
100
AcDbLine
 62
7
  6
CONTINUOUS
 10
7.341335487
 20
16.1626111168
 11
7.341335487
 21
16.1445568491
  0
LINE
  5
289
100
AcDbEntity
  8
0
100
AcDbLine
 62
7
  6
CONTINUOUS
 10
7.3729509498
 20
15.9790110937
 11
7.3729509498
 21
15.9674798165
  0
LINE
  5
28A
100
AcDbEntity
  8
0
100
AcDbLine
 62
7
  6
CONTINUOUS
 10
13.3924276343
 20
5.9143181792
 11
13.2564276343
 21
5.8828181792
  0
LINE
  5
28B
100
AcDbEntity
  8
0
100
AcDbLine
 62
7
  6
CONTINUOUS
 10
13.4894226038
 20
5.0151176758
 11
13.3994226038
 21
5.0151176758
  0
LINE
  5
28C
100
AcDbEntity
  8
0
100
AcDbLine
 62
7
  6
CONTINUOUS
 10
14.4844226038
 20
5.2291176758
 11
14.3164226038
 21
5.2291176758
  0
LINE
  5
28D
100
AcDbEntity
  8
0
100
AcDbLine
 62
7
  6
CONTINUOUS
 10
13.7254226038
 20
5.2881176758
 11
14.3044226038
 21
5.2881176758
  0
LINE
  5
28E
100
AcDbEntity
  8
0
100
AcDbLine
 62
7
  6
CONTINUOUS
 10
13.7254226038
 20
5.6421176758
 11
14.3044226038
 21
5.6421176758
  0
LINE
  5
28F
100
AcDbEntity
  8
0
100
AcDbLine
 62
7
  6
CONTINUOUS
 10
14.4844226038
 20
5.7011176758
 11
14.3164226038
 21
5.7011176758
  0
LINE
  5
290
100
AcDbEntity
  8
0
100
AcDbLine
 62
7
  6
CONTINUOUS
 10
13.3924276343
 20
5.0159171725
 11
13.2564276343
 21
5.0474171725
  0
LINE
  5
291
100
AcDbEntity
  8
0
100
AcDbLine
 62
7
  6
CONTINUOUS
 10
7.5016275928
 20
16.1637235043
 11
7.5016275928
 21
16.1521922332
  0
LINE
  5
292
100
AcDbEntity
  8
0
100
AcDbLine
 62
7
  6
CONTINUOUS
 10
7.5514863306
 20
15.8004757105
 11
7.5514863306
 21
15.7889444356
  0
LINE
  5
293
100
AcDbEntity
  8
0
100
AcDbLine
 62
7
  6
CONTINUOUS
 10
7.5948570211
 20
15.9090895826
 11
7.5948570211
 21
15.8910353157
  0
LINE
  5
294
100
AcDbEntity
  8
0
100
AcDbLine
 62
7
  6
CONTINUOUS
 10
7.6059707539
 20
16.1181364812
 11
7.6059707539
 21
16.1066057041
  0
LINE
  5
295
100
AcDbEntity
  8
0
100
AcDbLine
 62
7
  6
CONTINUOUS
 10
7.7477882912
 20
15.7561583127
 11
7.7477882912
 21
15.738104045
  0
LINE
  5
296
100
AcDbEntity
  8
0
100
AcDbLine
 62
7
  6
CONTINUOUS
 10
7.7511803273
 20
15.9141707698
 11
7.7511803273
 21
15.9026394986
  0
LINE
  5
297
100
AcDbEntity
  8
0
100
AcDbLine
 62
7
  6
CONTINUOUS
 10
7.7999226038
 20
-2.8048823242
 11
7.7999226038
 21
-1.3648823242
  0
LINE
  5
298
100
AcDbEntity
  8
0
100
AcDbLine
 62
7
  6
CONTINUOUS
 10
7.8039734876
 20
15.5479885559
 11
7.8039734876
 21
15.5364572787
  0
LINE
  5
299
100
AcDbEntity
  8
0
100
AcDbLine
 62
7
  6
CONTINUOUS
 10
7.9013849577
 20
15.8227222776
 11
7.9013849577
 21
15.8111915002
  0
LINE
  5
29A
100
AcDbEntity
  8
0
100
AcDbLine
 62
7
  6
CONTINUOUS
 10
7.9037040596
 20
15.6002425442
 11
7.9037040596
 21
15.5821882765
  0
LINE
  5
29B
100
AcDbEntity
  8
0
100
AcDbLine
 62
7
  6
CONTINUOUS
 10
7.9825088684
 20
15.3640551367
 11
7.9825088684
 21
15.3579218978
  0
LINE
  5
29C
100
AcDbEntity
  8
0
100
AcDbLine
 62
7
  6
CONTINUOUS
 10
8.0095363291
 20
15.6558147679
 11
8.0095363291
 21
15.6442834968
  0
LINE
  5
29D
100
AcDbEntity
  8
0
100
AcDbLine
 62
7
  6
CONTINUOUS
 10
8.1967991616
 20
15.5273080735
 11
8.1967991616
 21
15.5157772964
  0
LINE
  5
29E
100
AcDbEntity
  8
0
100
AcDbLine
 62
7
  6
CONTINUOUS
 10
8.2590890636
 20
15.4062620334
 11
8.2590890636
 21
15.3947307623
  0
LINE
  5
29F
100
AcDbEntity
  8
0
100
AcDbLine
 62
7
  6
CONTINUOUS
 10
8.3127295
 20
15.1912171038
 11
8.3127295
 21
15.1731628361
  0
LINE
  5
2A0
100
AcDbEntity
  8
0
100
AcDbLine
 62
7
  6
CONTINUOUS
 10
13.4894226038
 20
5.9151176758
 11
13.3994226038
 21
5.9151176758
  0
LINE
  5
2A1
100
AcDbEntity
  8
0
100
AcDbLine
 62
7
  6
CONTINUOUS
 10
11.6444226038
 20
6.1921176758
 11
11.9594226038
 21
6.1921176758
  0
LINE
  5
2A2
100
AcDbEntity
  8
0
100
AcDbLine
 62
9
  6
CONTINUOUS
 10
11.6444226038
 20
6.2205475971
 11
11.9594226038
 21
6.2205475971
  0
LINE
  5
2A3
100
AcDbEntity
  8
0
100
AcDbLine
 62
7
  6
CONTINUOUS
 10
14.4844226038
 20
6.5351176758
 11
14.3274226038
 21
6.5351176758
  0
LINE
  5
2A4
100
AcDbEntity
  8
0
100
AcDbLine
 62
7
  6
CONTINUOUS
 10
8.4720813756
 20
15.2520258595
 11
8.4720813756
 21
15.2404950824
  0
LINE
  5
2A5
100
AcDbEntity
  8
0
100
AcDbLine
 62
7
  6
CONTINUOUS
 10
8.4828319244
 20
15.1825191726
 11
8.4828319244
 21
15.1709879015
  0
LINE
  5
2A6
100
AcDbEntity
  8
0
100
AcDbLine
 62
7
  6
CONTINUOUS
 10
8.6655172053
 20
14.9998338918
 11
8.6655172053
 21
14.9883026207
  0
LINE
  5
2A7
100
AcDbEntity
  8
0
100
AcDbLine
 62
7
  6
CONTINUOUS
 10
8.6749226038
 20
-2.8048823242
 11
8.6749226038
 21
-1.3648823242
  0
LINE
  5
2A8
100
AcDbEntity
  8
0
100
AcDbLine
 62
7
  6
CONTINUOUS
 10
8.7084715719
 20
15.0156356632
 11
8.7084715719
 21
15.0041048861
  0
LINE
  5
2A9
100
AcDbEntity
  8
0
100
AcDbLine
 62
7
  6
CONTINUOUS
 10
8.7946952062
 20
14.8706558909
 11
8.7946952062
 21
14.8591246198
  0
LINE
  5
2AA
100
AcDbEntity
  8
0
100
AcDbLine
 62
7
  6
CONTINUOUS
 10
8.8898601492
 20
14.8342470859
 11
8.8898601492
 21
14.8227163088
  0
LINE
  5
2AB
100
AcDbEntity
  8
0
100
AcDbLine
 62
7
  6
CONTINUOUS
 10
9.0038857757
 20
14.7202214593
 11
9.0038857757
 21
14.7086906822
  0
LINE
  5
2AC
100
AcDbEntity
  8
0
100
AcDbLine
 62
7
  6
CONTINUOUS
 10
14.2874226038
 20
6.8851176758
 11
14.2407486587
 21
6.8851176758
  0
LINE
  5
2AD
100
AcDbEntity
  8
0
100
AcDbLine
 62
7
  6
CONTINUOUS
 10
14.2974226038
 20
6.9976176758
 11
14.2874226038
 21
6.9976176758
  0
LINE
  5
2AE
100
AcDbEntity
  8
0
100
AcDbLine
 62
9
  6
CONTINUOUS
 10
11.9594226038
 20
7.2275654596
 11
11.6444226038
 21
7.2275654596
  0
LINE
  5
2AF
100
AcDbEntity
  8
0
100
AcDbLine
 62
7
  6
CONTINUOUS
 10
12.0294226038
 20
7.3226176758
 11
12.4064226038
 21
7.3226176758
  0
LINE
  5
2B0
100
AcDbEntity
  8
0
100
AcDbLine
 62
9
  6
CONTINUOUS
 10
11.9594226038
 20
7.3458521569
 11
11.6444226038
 21
7.3458521569
  0
LINE
  5
2B1
100
AcDbEntity
  8
0
100
AcDbLine
 62
7
  6
CONTINUOUS
 10
12.4064226038
 20
7.3726176758
 11
12.4374226038
 21
7.3726176758
  0
LINE
  5
2B2
100
AcDbEntity
  8
0
100
AcDbLine
 62
9
  6
CONTINUOUS
 10
11.6444226038
 20
7.3986277268
 11
11.9594226038
 21
7.3986277268
  0
LINE
  5
2B3
100
AcDbEntity
  8
0
100
AcDbLine
 62
9
  6
CONTINUOUS
 10
11.6144226038
 20
7.4285866128
 11
11.9894226038
 21
7.4285866128
  0
LINE
  5
2B4
100
AcDbEntity
  8
0
100
AcDbLine
 62
7
  6
CONTINUOUS
 10
14.1302145636
 20
6.9656075016
 11
12.4692709205
 21
7.0236089317
  0
LWPOLYLINE
  5
2B5
100
AcDbEntity
  8
0
100
AcDbPolyline
 62
7
  6
CONTINUOUS
 90
8
 70
0
 10
7.1827695384
 20
16.3854390085
 10
7.1832483239
 20
16.3835283965
 10
7.1834030133
 20
16.3815566924
 10
7.1832213406
 20
16.3795593858
 10
7.1826950448
 20
16.3775949859
 10
7.1818444382
 20
16.3757600667
 10
7.1807012073
 20
16.3741048267
 10
7.1799432404
 20
16.3732715947
  0
LINE
  5
2B6
100
AcDbEntity
  8
0
100
AcDbLine
 62
7
  6
CONTINUOUS
 10
9.5141927789
 20
16.5724319804
 11
9.517498764
 21
15.755113457
  0
LINE
  5
2B7
100
AcDbEntity
  8
0
100
AcDbLine
 62
7
  6
CONTINUOUS
 10
9.7244237768
 20
18.0990520702
 11
9.7244237768
 21
18.0257359054
  0
LINE
  5
2B8
100
AcDbEntity
  8
0
100
AcDbLine
 62
7
  6
CONTINUOUS
 10
10.1086580176
 20
18.495091418
 11
10.108709327
 21
18.4958023929
  0
LINE
  5
2B9
100
AcDbEntity
  8
0
100
AcDbLine
 62
7
  6
CONTINUOUS
 10
10.058849792
 20
18.4452897175
 11
10.0589006671
 21
18.445993733
  0
LINE
  5
2BA
100
AcDbEntity
  8
0
100
AcDbLine
 62
7
  6
CONTINUOUS
 10
10.1583057582
 20
18.5447434266
 11
10.158356818
 21
18.5454498838
  0
LINE
  5
2BB
100
AcDbEntity
  8
0
100
AcDbLine
 62
7
  6
CONTINUOUS
 10
10.2081343686
 20
18.5952274345
 11
10.2080835026
 21
18.5945235505
  0
LINE
  5
2BC
100
AcDbEntity
  8
0
100
AcDbLine
 62
7
  6
CONTINUOUS
 10
14.1302145636
 20
8.3046278501
 11
12.4692709205
 21
8.24662642
  0
LINE
  5
2BD
100
AcDbEntity
  8
0
100
AcDbLine
 62
9
  6
CONTINUOUS
 10
11.6144226038
 20
7.8416487388
 11
11.9894226038
 21
7.8416487388
  0
LINE
  5
2BE
100
AcDbEntity
  8
0
100
AcDbLine
 62
9
  6
CONTINUOUS
 10
11.6444226038
 20
7.8716076249
 11
11.9594226038
 21
7.8716076249
  0
LINE
  5
2BF
100
AcDbEntity
  8
0
100
AcDbLine
 62
7
  6
CONTINUOUS
 10
12.4064226038
 20
7.8976176758
 11
12.4374226038
 21
7.8976176758
  0
LINE
  5
2C0
100
AcDbEntity
  8
0
100
AcDbLine
 62
9
  6
CONTINUOUS
 10
11.6444226038
 20
7.9243831947
 11
11.9594226038
 21
7.9243831947
  0
LINE
  5
2C1
100
AcDbEntity
  8
0
100
AcDbLine
 62
7
  6
CONTINUOUS
 10
12.0294226038
 20
7.9476176758
 11
12.4064226038
 21
7.9476176758
  0
LINE
  5
2C2
100
AcDbEntity
  8
0
100
AcDbLine
 62
9
  6
CONTINUOUS
 10
11.6444226038
 20
8.0426698921
 11
11.9594226038
 21
8.0426698921
  0
LINE
  5
2C3
100
AcDbEntity
  8
0
100
AcDbLine
 62
7
  6
CONTINUOUS
 10
14.2974226038
 20
8.2726176758
 11
14.2874226038
 21
8.2726176758
  0
LWPOLYLINE
  5
2C4
100
AcDbEntity
  8
0
100
AcDbPolyline
 62
7
  6
CONTINUOUS
 90
10
 70
0
 10
7.2002993626
 20
16.3670922827
 10
7.2005013262
 20
16.36639211
 10
7.2006851081
 20
16.3655084824
 10
7.2008081424
 20
16.3644641578
 10
7.2008294775
 20
16.3632403802
 10
7.2006962679
 20
16.3618574715
 10
7.2003603156
 20
16.3603655593
 10
7.1997935259
 20
16.3588443616
 10
7.198986897
 20
16.3573624724
 10
7.1979402645
 20
16.3559690467
  0
LWPOLYLINE
  5
2C5
100
AcDbEntity
  8
0
100
AcDbPolyline
 62
7
  6
CONTINUOUS
 90
9
 70
0
 10
7.6148476277
 20
15.939460679
 10
7.6148532558
 20
15.9394360967
 10
7.6149211179
 20
15.9390702561
 10
7.6149835353
 20
15.9383192957
 10
7.6149356472
 20
15.9371612001
 10
7.6146427855
 20
15.9356438422
 10
7.614000088
 20
15.9339448502
 10
7.6129689262
 20
15.9322485362
 10
7.6119690562
 20
15.9310932618
  0
LINE
  5
2C6
100
AcDbEntity
  8
0
100
AcDbLine
 62
9
  6
CONTINUOUS
 10
10.2374226038
 20
1.0726176758
 11
10.2374226038
 21
0.1976176758
  0
LINE
  5
2C7
100
AcDbEntity
  8
0
100
AcDbLine
 62
7
  6
CONTINUOUS
 10
10.6738131147
 20
17.9125576079
 11
10.6737585339
 21
17.9118030803
  0
LINE
  5
2C8
100
AcDbEntity
  8
0
100
AcDbLine
 62
7
  6
CONTINUOUS
 10
10.7250727325
 20
17.9638107073
 11
10.7250186981
 21
17.9630632445
  0
LINE
  5
2C9
100
AcDbEntity
  8
0
100
AcDbLine
 62
7
  6
CONTINUOUS
 10
10.7763558069
 20
18.0150949965
 11
10.7763016711
 21
18.0143462175
  0
LINE
  5
2CA
100
AcDbEntity
  8
0
100
AcDbLine
 62
7
  6
CONTINUOUS
 10
14.2874226038
 20
8.3851176758
 11
14.2407486587
 21
8.3851176758
  0
LINE
  5
2CB
100
AcDbEntity
  8
0
100
AcDbLine
 62
7
  6
CONTINUOUS
 10
14.4844226038
 20
8.7351176758
 11
14.3274226038
 21
8.7351176758
  0
LINE
  5
2CC
100
AcDbEntity
  8
0
100
AcDbLine
 62
9
  6
CONTINUOUS
 10
11.6444226038
 20
9.0496877545
 11
11.9594226038
 21
9.0496877545
  0
LINE
  5
2CD
100
AcDbEntity
  8
0
100
AcDbLine
 62
7
  6
CONTINUOUS
 10
11.6444226038
 20
9.0781176758
 11
11.9594226038
 21
9.0781176758
  0
LINE
  5
2CE
100
AcDbEntity
  8
0
100
AcDbLine
 62
7
  6
CONTINUOUS
 10
13.7254226038
 20
5.6901176758
 11
13.5114365629
 21
5.9059439353
  0
LWPOLYLINE
  5
2CF
100
AcDbEntity
  8
0
100
AcDbPolyline
 62
7
  6
CONTINUOUS
 90
13
 70
0
 10
7.254341049
 20
16.3109984858
 10
7.2542963038
 20
16.3110991288
 10
7.2542987406
 20
16.3110916393
 10
7.2543610823
 20
16.3109139596
 10
7.2544706747
 20
16.3105404003
 10
7.2546076169
 20
16.3099264529
 10
7.2547290753
 20
16.3090456746
 10
7.2547692066
 20
16.3078267497
 10
7.2546221621
 20
16.3062927213
 10
7.2541840813
 20
16.3045457531
 10
7.2534070128
 20
16.3027646096
 10
7.2522939535
 20
16.3010808586
 10
7.2514255719
 20
16.3001089592
  0
LINE
  5
2D0
100
AcDbEntity
  8
0
100
AcDbLine
 62
7
  6
CONTINUOUS
 10
7.1820106813
 20
16.3871862636
 11
7.1827695384
 21
16.3854390085
  0
LWPOLYLINE
  5
2D1
100
AcDbEntity
  8
0
100
AcDbPolyline
 62
7
  6
CONTINUOUS
 90
10
 70
0
 10
7.9200863859
 20
15.6272815879
 10
7.9200310162
 20
15.6274232766
 10
7.9200437798
 20
15.6273767241
 10
7.9201314844
 20
15.6269835687
 10
7.9202232461
 20
15.626215164
 10
7.9202121808
 20
15.6250019023
 10
7.9199417682
 20
15.6233889831
 10
7.9192849408
 20
15.621574632
 10
7.918214302
 20
15.6197979709
 10
7.9172270832
 20
15.6186583286
  0
LWPOLYLINE
  5
2D2
100
AcDbEntity
  8
0
100
AcDbPolyline
 62
7
  6
CONTINUOUS
 90
9
 70
0
 10
7.7659669463
 20
15.7847309704
 10
7.7659545768
 20
15.7847686663
 10
7.7660139277
 20
15.7844956133
 10
7.7660931873
 20
15.7838321901
 10
7.7660877785
 20
15.7827163108
 10
7.7658444933
 20
15.7811833203
 10
7.7652275903
 20
15.779411167
 10
7.7641883279
 20
15.7776324336
 10
7.7631196242
 20
15.776381449
  0
LINE
  5
2D3
100
AcDbEntity
  8
0
100
AcDbLine
 62
7
  6
CONTINUOUS
 10
11.6144226038
 20
6.2221176758
 11
11.6144226038
 21
9.0481176758
  0
LINE
  5
2D4
100
AcDbEntity
  8
0
100
AcDbLine
 62
9
  6
CONTINUOUS
 10
11.6444226038
 20
6.1921176758
 11
11.6444226038
 21
9.0781176758
  0
LWPOLYLINE
  5
2D5
100
AcDbEntity
  8
0
100
AcDbPolyline
 62
7
  6
CONTINUOUS
 90
6
 70
0
 10
7.199889918
 20
16.3681235974
 10
7.1998736399
 20
16.3681538974
 10
7.1998993271
 20
16.3681024645
 10
7.1999801583
 20
16.367928425
 10
7.2001170108
 20
16.3676004983
 10
7.2002993626
 20
16.3670922827
  0
LINE
  5
2D6
100
AcDbEntity
  8
0
100
AcDbLine
 62
9
  6
CONTINUOUS
 10
11.9594226038
 20
9.0781176758
 11
11.9594226038
 21
6.1921176758
  0
LINE
  5
2D7
100
AcDbEntity
  8
0
100
AcDbLine
 62
7
  6
CONTINUOUS
 10
11.9894226038
 20
9.0481176758
 11
11.9894226038
 21
6.2221176758
  0
LINE
  5
2D8
100
AcDbEntity
  8
0
100
AcDbLine
 62
9
  6
CONTINUOUS
 10
12.0294226038
 20
7.9476176758
 11
12.0294226038
 21
7.3226176758
  0
LINE
  5
2D9
100
AcDbEntity
  8
0
100
AcDbLine
 62
7
  6
CONTINUOUS
 10
12.2974226038
 20
1.3226176758
 11
12.2974226038
 21
-0.0523823242
  0
LINE
  5
2DA
100
AcDbEntity
  8
0
100
AcDbLine
 62
7
  6
CONTINUOUS
 10
12.4064226038
 20
7.3226181629
 11
12.4064226038
 21
7.9476171888
  0
LINE
  5
2DB
100
AcDbEntity
  8
0
100
AcDbLine
 62
7
  6
CONTINUOUS
 10
12.4374226038
 20
7.056588829
 11
12.4374226038
 21
8.2136465227
  0
LINE
  5
2DC
100
AcDbEntity
  8
0
100
AcDbLine
 62
9
  6
CONTINUOUS
 10
12.4692709205
 20
7.0236089317
 11
12.4692709205
 21
8.24662642
  0
LINE
  5
2DD
100
AcDbEntity
  8
0
100
AcDbLine
 62
7
  6
CONTINUOUS
 10
7.1812849928
 20
16.38837298
 11
7.1812289201
 21
16.3884470426
  0
LINE
  5
2DE
100
AcDbEntity
  8
0
100
AcDbLine
 62
7
  6
CONTINUOUS
 10
7.1810120524
 20
16.3887468376
 11
7.1820106813
 21
16.3871862636
  0
LWPOLYLINE
  5
2DF
100
AcDbEntity
  8
0
100
AcDbPolyline
 62
7
  6
CONTINUOUS
 90
13
 70
0
 10
8.3238035976
 20
15.2172085168
 10
8.3237957214
 20
15.2172210765
 10
8.323858069
 20
15.2171094196
 10
8.3240204144
 20
15.2167765682
 10
8.324249935
 20
15.2162057592
 10
8.3244933928
 20
15.2154123219
 10
8.3247046277
 20
15.2143681628
 10
8.3248155577
 20
15.2130398197
 10
8.3247268423
 20
15.2114113702
 10
8.324325198
 20
15.2095606461
 10
8.3235505767
 20
15.2076731523
 10
8.3224120275
 20
15.2059062447
 10
8.3215086522
 20
15.2048879894
  0
LINE
  5
2E0
100
AcDbEntity
  8
0
100
AcDbLine
 62
9
  6
CONTINUOUS
 10
12.5474226038
 20
19.2288676758
 11
12.5474226038
 21
20.0413676758
  0
LINE
  5
2E1
100
AcDbEntity
  8
0
100
AcDbLine
 62
7
  6
CONTINUOUS
 10
13.2324226038
 20
5.0776176758
 11
13.2324226038
 21
5.8526172932
  0
LINE
  5
2E2
100
AcDbEntity
  8
0
100
AcDbLine
 62
9
  6
CONTINUOUS
 10
13.2564276343
 20
5.0474171725
 11
13.2564276343
 21
5.8828181792
  0
LINE
  5
2E3
100
AcDbEntity
  8
0
100
AcDbLine
 62
7
  6
CONTINUOUS
 10
14.7974226038
 20
10.8851176758
 11
14.6579593435
 21
10.8851176758
  0
LINE
  5
2E4
100
AcDbEntity
  8
0
100
AcDbLine
 62
7
  6
CONTINUOUS
 10
7.3787201022
 20
15.9535577351
 11
7.5314310103
 21
15.800846827
  0
LINE
  5
2E5
100
AcDbEntity
  8
0
100
AcDbLine
 62
7
  6
CONTINUOUS
 10
7.5572529842
 20
15.775024853
 11
7.7099688899
 21
15.6223089473
  0
LINE
  5
2E6
100
AcDbEntity
  8
0
100
AcDbLine
 62
7
  6
CONTINUOUS
 10
7.809740163
 20
15.5225376742
 11
7.9624560251
 21
15.3698218122
  0
LINE
  5
2E7
100
AcDbEntity
  8
0
100
AcDbLine
 62
7
  6
CONTINUOUS
 10
7.9882779179
 20
15.3439999194
 11
8.1409890319
 21
15.1912888053
  0
LINE
  5
2E8
100
AcDbEntity
  8
0
100
AcDbLine
 62
9
  6
CONTINUOUS
 10
7.9763756295
 20
15.3640551367
 11
7.8039734876
 21
15.5364572787
  0
LINE
  5
2E9
100
AcDbEntity
  8
0
100
AcDbLine
 62
9
  6
CONTINUOUS
 10
7.7238884725
 20
15.6165422937
 11
7.5514863306
 21
15.7889444356
  0
LINE
  5
2EA
100
AcDbEntity
  8
0
100
AcDbLine
 62
9
  6
CONTINUOUS
 10
7.5453530917
 20
15.7950776745
 11
7.3729509498
 21
15.9674798165
  0
LINE
  5
2EB
100
AcDbEntity
  8
0
100
AcDbLine
 62
9
  6
CONTINUOUS
 10
7.7308483877
 20
15.6165422937
 11
7.8039734876
 21
15.5434171938
  0
LINE
  5
2EC
100
AcDbEntity
  8
0
100
AcDbLine
 62
9
  6
CONTINUOUS
 10
8.1664422853
 20
15.1855197559
 11
7.8039734876
 21
15.5479885559
  0
LINE
  5
2ED
100
AcDbEntity
  8
0
100
AcDbLine
 62
9
  6
CONTINUOUS
 10
7.7354197475
 20
15.6165422937
 11
7.3729509498
 21
15.9790110937
  0
LINE
  5
2EE
100
AcDbEntity
  8
0
100
AcDbLine
 62
7
  6
CONTINUOUS
 10
7.3187650453
 20
16.0413516416
 11
8.2287828355
 21
15.1313338514
  0
LINE
  5
2EF
100
AcDbEntity
  8
0
100
AcDbLine
 62
9
  6
CONTINUOUS
 10
8.2510214013
 20
15.1274126446
 11
7.3148438385
 21
16.0635902075
  0
LINE
  5
2F0
100
AcDbEntity
  8
0
100
AcDbLine
 62
9
  6
CONTINUOUS
 10
7.9825088684
 20
15.3579218978
 11
8.1549110103
 21
15.1855197559
  0
LINE
  5
2F1
100
AcDbEntity
  8
0
100
AcDbLine
 62
7
  6
CONTINUOUS
 10
6.6733056714
 20
17.1433179658
 11
6.6430927884
 21
17.1768727718
  0
LINE
  5
2F2
100
AcDbEntity
  8
0
100
AcDbLine
 62
7
  6
CONTINUOUS
 10
10.2520834298
 20
18.6076483027
 11
10.2454207387
 21
18.6325138045
  0
LINE
  5
2F3
100
AcDbEntity
  8
0
100
AcDbLine
 62
7
  6
CONTINUOUS
 10
10.0674288094
 20
18.4132043262
 11
10.0674671566
 21
18.4130608919
  0
LINE
  5
2F4
100
AcDbEntity
  8
0
100
AcDbLine
 62
7
  6
CONTINUOUS
 10
10.058849792
 20
18.4452897175
 11
10.0674288094
 21
18.4132043262
  0
LINE
  5
2F5
100
AcDbEntity
  8
0
100
AcDbLine
 62
7
  6
CONTINUOUS
 10
10.1167242108
 20
18.4649236305
 11
10.1167624001
 21
18.4647807854
  0
LINE
  5
2F6
100
AcDbEntity
  8
0
100
AcDbLine
 62
7
  6
CONTINUOUS
 10
10.1086580171
 20
18.4950914175
 11
10.1167242108
 21
18.4649236305
  0
LINE
  5
2F7
100
AcDbEntity
  8
0
100
AcDbLine
 62
7
  6
CONTINUOUS
 10
10.1657438747
 20
18.5169253764
 11
10.1657818362
 21
18.5167833895
  0
LINE
  5
2F8
100
AcDbEntity
  8
0
100
AcDbLine
 62
7
  6
CONTINUOUS
 10
10.1583057584
 20
18.5447434267
 11
10.1657438747
 21
18.5169253764
  0
LINE
  5
2F9
100
AcDbEntity
  8
0
100
AcDbLine
 62
7
  6
CONTINUOUS
 10
10.2149880726
 20
18.5687013766
 11
10.215025859
 21
18.5685600484
  0
LINE
  5
2FA
100
AcDbEntity
  8
0
100
AcDbLine
 62
7
  6
CONTINUOUS
 10
10.2080835026
 20
18.5945235505
 11
10.2149880726
 21
18.5687013766
  0
LINE
  5
2FB
100
AcDbEntity
  8
0
100
AcDbLine
 62
7
  6
CONTINUOUS
 10
10.6225374058
 20
17.8612766911
 11
10.6142166586
 21
17.8924002053
  0
LINE
  5
2FC
100
AcDbEntity
  8
0
100
AcDbLine
 62
7
  6
CONTINUOUS
 10
10.6738131147
 20
17.912557608
 11
10.6660537483
 21
17.9415814588
  0
LINE
  5
2FD
100
AcDbEntity
  8
0
100
AcDbLine
 62
7
  6
CONTINUOUS
 10
10.7250727325
 20
17.9638107072
 11
10.7178609585
 21
17.9907854366
  0
LINE
  5
2FE
100
AcDbEntity
  8
0
100
AcDbLine
 62
7
  6
CONTINUOUS
 10
10.7763558069
 20
18.0150949965
 11
10.7697101089
 21
18.0399522151
  0
LINE
  5
2FF
100
AcDbEntity
  8
0
100
AcDbLine
 62
9
  6
CONTINUOUS
 10
13.3924276343
 20
5.0159171725
 11
13.3924276343
 21
5.9143181792
  0
LINE
  5
300
100
AcDbEntity
  8
0
100
AcDbLine
 62
9
  6
CONTINUOUS
 10
13.3994226038
 20
5.0151176758
 11
13.3994226038
 21
5.9151176758
  0
LINE
  5
301
100
AcDbEntity
  8
0
100
AcDbLine
 62
9
  6
CONTINUOUS
 10
13.4894226038
 20
5.0151176758
 11
13.4894226038
 21
5.9151176758
  0
LINE
  5
302
100
AcDbEntity
  8
0
100
AcDbLine
 62
9
  6
CONTINUOUS
 10
13.5114365629
 20
5.0242914163
 11
13.5114365629
 21
5.9059439353
  0
LINE
  5
303
100
AcDbEntity
  8
0
100
AcDbLine
 62
7
  6
CONTINUOUS
 10
13.7254226038
 20
5.2401176758
 11
13.7254226038
 21
5.6901176758
  0
LINE
  5
304
100
AcDbEntity
  8
0
100
AcDbLine
 62
9
  6
CONTINUOUS
 10
14.1302145636
 20
6.9656075016
 11
14.1302145636
 21
8.3046278501
  0
LINE
  5
305
100
AcDbEntity
  8
0
100
AcDbLine
 62
7
  6
CONTINUOUS
 10
14.3805655015
 20
20.0823326431
 11
14.3807533101
 21
20.0856842463
  0
LINE
  5
306
100
AcDbEntity
  8
0
100
AcDbLine
 62
7
  6
CONTINUOUS
 10
9.3307491597
 20
14.4858744775
 11
9.3643039657
 21
14.4556615945
  0
LINE
  5
307
100
AcDbEntity
  8
0
100
AcDbLine
 62
7
  6
CONTINUOUS
 10
7.1612141809
 20
16.3197859212
 11
7.2332339629
 21
16.2477661393
  0
LINE
  5
308
100
AcDbEntity
  8
0
100
AcDbLine
 62
7
  6
CONTINUOUS
 10
7.2335400193
 20
16.2474600829
 11
7.2989966604
 21
16.1820034418
  0
LINE
  5
309
100
AcDbEntity
  8
0
100
AcDbLine
 62
7
  6
CONTINUOUS
 10
7.3447949678
 20
16.1362051344
 11
7.3474613708
 21
16.1335387314
  0
LINE
  5
30A
100
AcDbEntity
  8
0
100
AcDbLine
 62
7
  6
CONTINUOUS
 10
7.5983175573
 20
15.8826825449
 11
7.663777494
 21
15.8172226081
  0
LINE
  5
30B
100
AcDbEntity
  8
0
100
AcDbLine
 62
7
  6
CONTINUOUS
 10
7.7512483735
 20
15.7297517287
 11
7.8167092179
 21
15.6642908843
  0
LINE
  5
30C
100
AcDbEntity
  8
0
100
AcDbLine
 62
7
  6
CONTINUOUS
 10
7.907164052
 20
15.5738360501
 11
7.9726250763
 21
15.5083750258
  0
LINE
  5
30D
100
AcDbEntity
  8
0
100
AcDbLine
 62
7
  6
CONTINUOUS
 10
8.3161902321
 20
15.1648098701
 11
8.3882180149
 21
15.0927820873
  0
LINE
  5
30E
100
AcDbEntity
  8
0
100
AcDbLine
 62
7
  6
CONTINUOUS
 10
8.393040268
 20
15.0879598341
 11
8.500213539
 21
14.9807865631
  0
LINE
  5
30F
100
AcDbEntity
  8
0
100
AcDbLine
 62
9
  6
CONTINUOUS
 10
7.1764904966
 20
16.3094018917
 11
7.17779163
 21
16.3081007061
  0
LINE
  5
310
100
AcDbEntity
  8
0
100
AcDbLine
 62
9
  6
CONTINUOUS
 10
7.341335487
 20
16.1445568491
 11
7.349017174
 21
16.1368751621
  0
LINE
  5
311
100
AcDbEntity
  8
0
100
AcDbLine
 62
9
  6
CONTINUOUS
 10
7.9809773027
 20
15.5049150334
 11
7.9037040596
 21
15.5821882765
  0
LINE
  5
312
100
AcDbEntity
  8
0
100
AcDbLine
 62
9
  6
CONTINUOUS
 10
7.8250615342
 20
15.6608308019
 11
7.7477882912
 21
15.738104045
  0
LINE
  5
313
100
AcDbEntity
  8
0
100
AcDbLine
 62
9
  6
CONTINUOUS
 10
7.6721302649
 20
15.813762072
 11
7.5948570211
 21
15.8910353157
  0
LINE
  5
314
100
AcDbEntity
  8
0
100
AcDbLine
 62
9
  6
CONTINUOUS
 10
7.3073510784
 20
16.1785412578
 11
7.17779163
 21
16.3081007061
  0
LINE
  5
315
100
AcDbEntity
  8
0
100
AcDbLine
 62
9
  6
CONTINUOUS
 10
7.1764904959
 20
16.3094018402
 11
7.1577559819
 21
16.3281364008
  0
LINE
  5
316
100
AcDbEntity
  8
0
100
AcDbLine
 62
9
  6
CONTINUOUS
 10
7.3499079636
 20
16.1387854666
 11
7.5948570211
 21
15.8938364088
  0
LINE
  5
317
100
AcDbEntity
  8
0
100
AcDbLine
 62
9
  6
CONTINUOUS
 10
7.674931358
 20
15.813762072
 11
7.7477882912
 21
15.7409051387
  0
LINE
  5
318
100
AcDbEntity
  8
0
100
AcDbLine
 62
9
  6
CONTINUOUS
 10
7.827862628
 20
15.6608308019
 11
7.9037040596
 21
15.5849893703
  0
LINE
  5
319
100
AcDbEntity
  8
0
100
AcDbLine
 62
9
  6
CONTINUOUS
 10
7.9837783965
 20
15.5049150334
 11
8.3127295
 21
15.1759639324
  0
LINE
  5
31A
100
AcDbEntity
  8
0
100
AcDbLine
 62
9
  6
CONTINUOUS
 10
7.1577559819
 20
16.346190622
 11
7.1753778089
 21
16.328568795
  0
LINE
  5
31B
100
AcDbEntity
  8
0
100
AcDbLine
 62
9
  6
CONTINUOUS
 10
7.341335487
 20
16.1626111168
 11
7.3532369917
 21
16.1507096121
  0
LINE
  5
31C
100
AcDbEntity
  8
0
100
AcDbLine
 62
9
  6
CONTINUOUS
 10
8.5266131245
 20
14.9773334793
 11
8.3127295
 21
15.1912171038
  0
LINE
  5
31D
100
AcDbEntity
  8
0
100
AcDbLine
 62
9
  6
CONTINUOUS
 10
7.9990315704
 20
15.5049150334
 11
7.9037040596
 21
15.6002425442
  0
LINE
  5
31E
100
AcDbEntity
  8
0
100
AcDbLine
 62
9
  6
CONTINUOUS
 10
7.8431158019
 20
15.6608308019
 11
7.7477882912
 21
15.7561583127
  0
LINE
  5
31F
100
AcDbEntity
  8
0
100
AcDbLine
 62
9
  6
CONTINUOUS
 10
7.6901845318
 20
15.813762072
 11
7.5948570211
 21
15.9090895826
  0
LINE
  5
320
100
AcDbEntity
  8
0
100
AcDbLine
 62
9
  6
CONTINUOUS
 10
7.325405346
 20
16.1785412578
 11
7.175422963
 21
16.3285236408
  0
LINE
  5
321
100
AcDbEntity
  8
0
100
AcDbLine
 62
9
  6
CONTINUOUS
 10
8.5349648412
 20
14.9807928481
 11
8.3161888688
 21
15.1995688205
  0
LINE
  5
322
100
AcDbEntity
  8
0
100
AcDbLine
 62
9
  6
CONTINUOUS
 10
8.0073832871
 20
15.5083744022
 11
7.9071634284
 21
15.6085942609
  0
LINE
  5
323
100
AcDbEntity
  8
0
100
AcDbLine
 62
9
  6
CONTINUOUS
 10
7.8514675186
 20
15.6642901706
 11
7.7512476599
 21
15.7645100294
  0
LINE
  5
324
100
AcDbEntity
  8
0
100
AcDbLine
 62
9
  6
CONTINUOUS
 10
7.6985362486
 20
15.8172214407
 11
7.5983163899
 21
15.9174412994
  0
LINE
  5
325
100
AcDbEntity
  8
0
100
AcDbLine
 62
9
  6
CONTINUOUS
 10
7.3528724108
 20
16.1628852785
 11
7.3447948558
 21
16.1709628335
  0
LINE
  5
326
100
AcDbEntity
  8
0
100
AcDbLine
 62
9
  6
CONTINUOUS
 10
7.3337570628
 20
16.1820006265
 11
7.1612153506
 21
16.3545423387
  0
LINE
  5
327
100
AcDbEntity
  8
0
100
AcDbLine
 62
7
  6
CONTINUOUS
 10
7.3447325042
 20
16.180311612
 11
7.6029596033
 21
15.9220845129
  0
LINE
  5
328
100
AcDbEntity
  8
0
100
AcDbLine
 62
7
  6
CONTINUOUS
 10
7.7031794621
 20
15.8218646541
 11
7.7558908733
 21
15.7691532428
  0
LINE
  5
329
100
AcDbEntity
  8
0
100
AcDbLine
 62
7
  6
CONTINUOUS
 10
7.8561107321
 20
15.6689333841
 11
7.9118066418
 21
15.6132374744
  0
LINE
  5
32A
100
AcDbEntity
  8
0
100
AcDbLine
 62
7
  6
CONTINUOUS
 10
8.0120265006
 20
15.5130176156
 11
8.3208320822
 21
15.204212034
  0
LINE
  5
32B
100
AcDbEntity
  8
0
100
AcDbLine
 62
7
  6
CONTINUOUS
 10
7.0725308167
 20
16.5442754989
 11
8.7317066928
 21
14.8850996228
  0
LINE
  5
32C
100
AcDbEntity
  8
0
100
AcDbLine
 62
7
  6
CONTINUOUS
 10
8.8054528958
 20
14.8330505197
 11
7.0204817135
 21
16.6180217019
  0
LINE
  5
32D
100
AcDbEntity
  8
0
100
AcDbLine
 62
7
  6
CONTINUOUS
 10
6.9049136043
 20
16.7407528674
 11
6.965775278
 21
16.6798911936
  0
LINE
  5
32E
100
AcDbEntity
  8
0
100
AcDbLine
 62
7
  6
CONTINUOUS
 10
6.971788836
 20
16.6738776356
 11
7.0326350736
 21
16.6130313981
  0
LINE
  5
32F
100
AcDbEntity
  8
0
100
AcDbLine
 62
7
  6
CONTINUOUS
 10
7.100966492
 20
16.5446999797
 11
7.1618134194
 21
16.4838530523
  0
LINE
  5
330
100
AcDbEntity
  8
0
100
AcDbLine
 62
7
  6
CONTINUOUS
 10
7.2836509709
 20
16.3620155007
 11
7.3444995021
 21
16.3011669695
  0
LINE
  5
331
100
AcDbEntity
  8
0
100
AcDbLine
 62
7
  6
CONTINUOUS
 10
7.5073944086
 20
16.138272063
 11
7.568241786
 21
16.0774246856
  0
LINE
  5
332
100
AcDbEntity
  8
0
100
AcDbLine
 62
7
  6
CONTINUOUS
 10
7.7569466066
 20
15.888719865
 11
7.8177950571
 21
15.8278714145
  0
LINE
  5
333
100
AcDbEntity
  8
0
100
AcDbLine
 62
7
  6
CONTINUOUS
 10
8.0153026349
 20
15.6303638368
 11
8.0761510324
 21
15.5695154392
  0
LINE
  5
334
100
AcDbEntity
  8
0
100
AcDbLine
 62
7
  6
CONTINUOUS
 10
8.2648558916
 20
15.3808105801
 11
8.3257032448
 21
15.3199632268
  0
LINE
  5
335
100
AcDbEntity
  8
0
100
AcDbLine
 62
7
  6
CONTINUOUS
 10
8.4885981116
 20
15.15706836
 11
8.5494467463
 21
15.0962197253
  0
LINE
  5
336
100
AcDbEntity
  8
0
100
AcDbLine
 62
7
  6
CONTINUOUS
 10
8.6712841319
 20
14.9743823397
 11
8.7321312877
 21
14.9135351839
  0
LINE
  5
337
100
AcDbEntity
  8
0
100
AcDbLine
 62
7
  6
CONTINUOUS
 10
8.8004625926
 20
14.8452038791
 11
8.8613088289
 21
14.7843576427
  0
LINE
  5
338
100
AcDbEntity
  8
0
100
AcDbLine
 62
7
  6
CONTINUOUS
 10
8.8673222676
 20
14.7783442041
 11
8.9281839414
 21
14.7174825303
  0
LINE
  5
339
100
AcDbEntity
  8
0
100
AcDbLine
 62
9
  6
CONTINUOUS
 10
8.7958295023
 20
14.8526647633
 11
8.7395917122
 21
14.9089025534
  0
LINE
  5
33A
100
AcDbEntity
  8
0
100
AcDbLine
 62
9
  6
CONTINUOUS
 10
8.6666515014
 20
14.9818427642
 11
8.5569064314
 21
15.0915878343
  0
LINE
  5
33B
100
AcDbEntity
  8
0
100
AcDbLine
 62
9
  6
CONTINUOUS
 10
8.4839662206
 20
15.164528045
 11
8.3331635706
 21
15.3153306951
  0
LINE
  5
33C
100
AcDbEntity
  8
0
100
AcDbLine
 62
9
  6
CONTINUOUS
 10
8.2602233598
 20
15.3882709058
 11
8.083610836
 21
15.5648834296
  0
LINE
  5
33D
100
AcDbEntity
  8
0
100
AcDbLine
 62
9
  6
CONTINUOUS
 10
8.0106706253
 20
15.6378236404
 11
7.8252548342
 21
15.8232394314
  0
LINE
  5
33E
100
AcDbEntity
  8
0
100
AcDbLine
 62
9
  6
CONTINUOUS
 10
7.7523146235
 20
15.8961796422
 11
7.5757020997
 21
16.0727921659
  0
LINE
  5
33F
100
AcDbEntity
  8
0
100
AcDbLine
 62
9
  6
CONTINUOUS
 10
7.5027618889
 20
16.1457323767
 11
7.3519592389
 21
16.2965350267
  0
LINE
  5
340
100
AcDbEntity
  8
0
100
AcDbLine
 62
9
  6
CONTINUOUS
 10
7.2790190281
 20
16.3694752375
 11
7.1692739581
 21
16.4792203076
  0
LINE
  5
341
100
AcDbEntity
  8
0
100
AcDbLine
 62
9
  6
CONTINUOUS
 10
7.0963337473
 20
16.5521605183
 11
7.0400959572
 21
16.6083983085
  0
LINE
  5
342
100
AcDbEntity
  8
0
100
AcDbLine
 62
9
  6
CONTINUOUS
 10
8.7377308988
 20
14.916089383
 11
8.7460515687
 21
14.9077682573
  0
LINE
  5
343
100
AcDbEntity
  8
0
100
AcDbLine
 62
9
  6
CONTINUOUS
 10
8.7377304901
 20
14.9160893359
 11
8.6655172053
 21
14.9883026207
  0
LINE
  5
344
100
AcDbEntity
  8
0
100
AcDbLine
 62
9
  6
CONTINUOUS
 10
8.5633662878
 20
15.0904535381
 11
8.4828319244
 21
15.1709879015
  0
LINE
  5
345
100
AcDbEntity
  8
0
100
AcDbLine
 62
9
  6
CONTINUOUS
 10
8.339623427
 20
15.3141963989
 11
8.2590890636
 21
15.3947307623
  0
LINE
  5
346
100
AcDbEntity
  8
0
100
AcDbLine
 62
9
  6
CONTINUOUS
 10
8.0900706925
 20
15.5637491334
 11
8.0095363291
 21
15.6442834968
  0
LINE
  5
347
100
AcDbEntity
  8
0
100
AcDbLine
 62
9
  6
CONTINUOUS
 10
7.8317146907
 20
15.8221051352
 11
7.7511803273
 21
15.9026394986
  0
LINE
  5
348
100
AcDbEntity
  8
0
100
AcDbLine
 62
9
  6
CONTINUOUS
 10
7.5821619562
 20
16.0716578698
 11
7.5016275928
 21
16.1521922332
  0
LINE
  5
349
100
AcDbEntity
  8
0
100
AcDbLine
 62
9
  6
CONTINUOUS
 10
7.3584190954
 20
16.2954007306
 11
7.277884732
 21
16.375935094
  0
LINE
  5
34A
100
AcDbEntity
  8
0
100
AcDbLine
 62
9
  6
CONTINUOUS
 10
7.1757338145
 20
16.4780860114
 11
7.0951994511
 21
16.5586203748
  0
LINE
  5
34B
100
AcDbEntity
  8
0
100
AcDbLine
 62
9
  6
CONTINUOUS
 10
7.0465558136
 20
16.6072640123
 11
6.8991539965
 21
16.7546658294
  0
LINE
  5
34C
100
AcDbEntity
  8
0
100
AcDbLine
 62
9
  6
CONTINUOUS
 10
8.9536282944
 20
14.7117228027
 11
8.886850559
 21
14.7785005381
  0
LINE
  5
34D
100
AcDbEntity
  8
0
100
AcDbLine
 62
9
  6
CONTINUOUS
 10
8.7575828398
 20
14.9077682573
 11
8.6655172053
 21
14.9998338918
  0
LINE
  5
34E
100
AcDbEntity
  8
0
100
AcDbLine
 62
9
  6
CONTINUOUS
 10
8.3511546982
 20
15.3141963989
 11
8.2590890636
 21
15.4062620334
  0
LINE
  5
34F
100
AcDbEntity
  8
0
100
AcDbLine
 62
9
  6
CONTINUOUS
 10
7.8432459618
 20
15.8221051352
 11
7.7511803273
 21
15.9141707698
  0
LINE
  5
350
100
AcDbEntity
  8
0
100
AcDbLine
 62
9
  6
CONTINUOUS
 10
7.3699503665
 20
16.2954007306
 11
7.277884732
 21
16.3874663651
  0
LINE
  5
351
100
AcDbEntity
  8
0
100
AcDbLine
 62
9
  6
CONTINUOUS
 10
7.1872650857
 20
16.4780860114
 11
7.1047119791
 21
16.560639118
  0
LINE
  5
352
100
AcDbEntity
  8
0
100
AcDbLine
 62
9
  6
CONTINUOUS
 10
7.0580870848
 20
16.6072640123
 11
6.8991539965
 21
16.7661970765
  0
LINE
  5
353
100
AcDbEntity
  8
0
100
AcDbLine
 62
9
  6
CONTINUOUS
 10
8.8867608407
 20
14.7785902564
 11
8.7946952062
 21
14.8706558909
  0
LINE
  5
354
100
AcDbEntity
  8
0
100
AcDbLine
 62
9
  6
CONTINUOUS
 10
8.574897559
 20
15.0904535381
 11
8.4828319244
 21
15.1825191726
  0
LINE
  5
355
100
AcDbEntity
  8
0
100
AcDbLine
 62
9
  6
CONTINUOUS
 10
8.1016019636
 20
15.5637491334
 11
8.0095363291
 21
15.6558147679
  0
LINE
  5
356
100
AcDbEntity
  8
0
100
AcDbLine
 62
9
  6
CONTINUOUS
 10
7.5936932273
 20
16.0716578698
 11
7.5016275928
 21
16.1637235043
  0
LINE
  5
357
100
AcDbEntity
  8
0
100
AcDbLine
 62
9
  6
CONTINUOUS
 10
7.1047120218
 20
16.5606394891
 11
7.0951994511
 21
16.5701516459
  0
LINE
  5
358
100
AcDbEntity
  8
0
100
AcDbLine
 62
9
  6
CONTINUOUS
 10
8.7968420201
 20
14.8795042253
 11
8.7664311742
 21
14.9099150712
  0
LINE
  5
359
100
AcDbEntity
  8
0
100
AcDbLine
 62
9
  6
CONTINUOUS
 10
8.6676640192
 20
15.0086822262
 11
8.5837458934
 21
15.092600352
  0
LINE
  5
35A
100
AcDbEntity
  8
0
100
AcDbLine
 62
9
  6
CONTINUOUS
 10
8.4849787384
 20
15.191367507
 11
8.3600030326
 21
15.3163432128
  0
LINE
  5
35B
100
AcDbEntity
  8
0
100
AcDbLine
 62
9
  6
CONTINUOUS
 10
8.2612358776
 20
15.4151103678
 11
8.1104502981
 21
15.5658959473
  0
LINE
  5
35C
100
AcDbEntity
  8
0
100
AcDbLine
 62
9
  6
CONTINUOUS
 10
8.011683143
 20
15.6646631024
 11
7.8520942962
 21
15.8242519492
  0
LINE
  5
35D
100
AcDbEntity
  8
0
100
AcDbLine
 62
9
  6
CONTINUOUS
 10
7.7533271412
 20
15.9230191042
 11
7.6025415617
 21
16.0738046837
  0
LINE
  5
35E
100
AcDbEntity
  8
0
100
AcDbLine
 62
9
  6
CONTINUOUS
 10
7.5037744067
 20
16.1725718387
 11
7.3787987009
 21
16.2975475445
  0
LINE
  5
35F
100
AcDbEntity
  8
0
100
AcDbLine
 62
9
  6
CONTINUOUS
 10
7.2800315459
 20
16.3963146995
 11
7.1961134201
 21
16.4802328253
  0
LINE
  5
360
100
AcDbEntity
  8
0
100
AcDbLine
 62
9
  6
CONTINUOUS
 10
7.0973462651
 20
16.5789999803
 11
7.0669354192
 21
16.6094108262
  0
LINE
  5
361
100
AcDbEntity
  8
0
100
AcDbLine
 62
9
  6
CONTINUOUS
 10
8.9675481332
 20
14.7174884172
 11
8.8004608207
 21
14.8845757297
  0
LINE
  5
362
100
AcDbEntity
  8
0
100
AcDbLine
 62
9
  6
CONTINUOUS
 10
8.7715026786
 20
14.9135338718
 11
8.6712828198
 21
15.0137537306
  0
LINE
  5
363
100
AcDbEntity
  8
0
100
AcDbLine
 62
9
  6
CONTINUOUS
 10
8.5888173977
 20
15.0962191527
 11
8.488597539
 21
15.1964390114
  0
LINE
  5
364
100
AcDbEntity
  8
0
100
AcDbLine
 62
9
  6
CONTINUOUS
 10
8.3650745369
 20
15.3199620134
 11
8.2648546782
 21
15.4201818722
  0
LINE
  5
365
100
AcDbEntity
  8
0
100
AcDbLine
 62
9
  6
CONTINUOUS
 10
8.1155218024
 20
15.569514748
 11
8.0153019437
 21
15.6697346067
  0
LINE
  5
366
100
AcDbEntity
  8
0
100
AcDbLine
 62
9
  6
CONTINUOUS
 10
7.8571658006
 20
15.8278707498
 11
7.7569459418
 21
15.9280906085
  0
LINE
  5
367
100
AcDbEntity
  8
0
100
AcDbLine
 62
9
  6
CONTINUOUS
 10
7.6076130661
 20
16.0774234843
 11
7.5073932073
 21
16.1776433431
  0
LINE
  5
368
100
AcDbEntity
  8
0
100
AcDbLine
 62
9
  6
CONTINUOUS
 10
7.3838702053
 20
16.3011663451
 11
7.2836503465
 21
16.4013862039
  0
LINE
  5
369
100
AcDbEntity
  8
0
100
AcDbLine
 62
9
  6
CONTINUOUS
 10
7.2011849244
 20
16.483851626
 11
7.1009650657
 21
16.5840714847
  0
LINE
  5
36A
100
AcDbEntity
  8
0
100
AcDbLine
 62
9
  6
CONTINUOUS
 10
7.0720069235
 20
16.6130296269
 11
6.9049196111
 21
16.7801169393
  0
LINE
  5
36B
100
AcDbEntity
  8
0
100
AcDbLine
 62
7
  6
CONTINUOUS
 10
7.0801392843
 20
16.6211619876
 11
7.1090974264
 21
16.5922038454
  0
LINE
  5
36C
100
AcDbEntity
  8
0
100
AcDbLine
 62
7
  6
CONTINUOUS
 10
7.2093172852
 20
16.4919839867
 11
7.2917827073
 21
16.4095185646
  0
LINE
  5
36D
100
AcDbEntity
  8
0
100
AcDbLine
 62
7
  6
CONTINUOUS
 10
7.392002566
 20
16.3092987058
 11
7.515525568
 21
16.1857757038
  0
LINE
  5
36E
100
AcDbEntity
  8
0
100
AcDbLine
 62
7
  6
CONTINUOUS
 10
7.6157454268
 20
16.0855558451
 11
7.7650783026
 21
15.9362229693
  0
LINE
  5
36F
100
AcDbEntity
  8
0
100
AcDbLine
 62
7
  6
CONTINUOUS
 10
7.8652981613
 20
15.8360031105
 11
8.0234343044
 21
15.6778669675
  0
LINE
  5
370
100
AcDbEntity
  8
0
100
AcDbLine
 62
7
  6
CONTINUOUS
 10
8.1236541631
 20
15.5776471087
 11
8.2729870389
 21
15.4283142329
  0
LINE
  5
371
100
AcDbEntity
  8
0
100
AcDbLine
 62
7
  6
CONTINUOUS
 10
8.3732068977
 20
15.3280943742
 11
8.4967298997
 21
15.2045713721
  0
LINE
  5
372
100
AcDbEntity
  8
0
100
AcDbLine
 62
7
  6
CONTINUOUS
 10
8.5969497585
 20
15.1043515134
 11
8.6794151806
 21
15.0218860913
  0
LINE
  5
373
100
AcDbEntity
  8
0
100
AcDbLine
 62
7
  6
CONTINUOUS
 10
8.7796350393
 20
14.9216662326
 11
8.8085931815
 21
14.8927080904
  0
LINE
  5
374
100
AcDbEntity
  8
0
100
AcDbLine
 62
7
  6
CONTINUOUS
 10
6.7657579572
 20
16.9386650833
 11
6.8822064383
 21
16.8222166022
  0
LINE
  5
375
100
AcDbEntity
  8
0
100
AcDbLine
 62
7
  6
CONTINUOUS
 10
6.9186791472
 20
16.7857438932
 11
6.9962247042
 21
16.7081983363
  0
LINE
  5
376
100
AcDbEntity
  8
0
100
AcDbLine
 62
7
  6
CONTINUOUS
 10
7.1000644605
 20
16.60435858
 11
7.1776165455
 21
16.526806495
  0
LINE
  5
377
100
AcDbEntity
  8
0
100
AcDbLine
 62
7
  6
CONTINUOUS
 10
7.3364546914
 20
16.367968349
 11
7.4140067071
 21
16.2904163333
  0
LINE
  5
378
100
AcDbEntity
  8
0
100
AcDbLine
 62
7
  6
CONTINUOUS
 10
7.6117376253
 20
16.0926854152
 11
7.6892882013
 21
16.0151348391
  0
LINE
  5
379
100
AcDbEntity
  8
0
100
AcDbLine
 62
7
  6
CONTINUOUS
 10
7.9071519202
 20
15.7972711203
 11
7.9847023141
 21
15.7197207263
  0
LINE
  5
37A
100
AcDbEntity
  8
0
100
AcDbLine
 62
7
  6
CONTINUOUS
 10
8.2025659681
 20
15.5018570724
 11
8.2801166739
 21
15.4243063666
  0
LINE
  5
37B
100
AcDbEntity
  8
0
100
AcDbLine
 62
7
  6
CONTINUOUS
 10
8.4778475065
 20
15.226575534
 11
8.5553995636
 21
15.1490234769
  0
LINE
  5
37C
100
AcDbEntity
  8
0
100
AcDbLine
 62
7
  6
CONTINUOUS
 10
8.714237658
 20
14.9901853825
 11
8.7917898047
 21
14.9126332358
  0
LINE
  5
37D
100
AcDbEntity
  8
0
100
AcDbLine
 62
7
  6
CONTINUOUS
 10
8.8956293741
 20
14.8087936664
 11
8.9731752432
 21
14.7312477973
  0
LINE
  5
37E
100
AcDbEntity
  8
0
100
AcDbLine
 62
7
  6
CONTINUOUS
 10
9.0096479657
 20
14.6947750748
 11
9.0872079047
 21
14.6172151358
  0
LINE
  5
37F
100
AcDbEntity
  8
0
100
AcDbLine
 62
9
  6
CONTINUOUS
 10
9.1011235121
 20
14.6114529458
 11
9.0038857757
 21
14.7086906822
  0
LINE
  5
380
100
AcDbEntity
  8
0
100
AcDbLine
 62
9
  6
CONTINUOUS
 10
8.9870978856
 20
14.7254785724
 11
8.8898601492
 21
14.8227163088
  0
LINE
  5
381
100
AcDbEntity
  8
0
100
AcDbLine
 62
9
  6
CONTINUOUS
 10
8.8057093083
 20
14.9068671497
 11
8.7084715719
 21
15.0041048861
  0
LINE
  5
382
100
AcDbEntity
  8
0
100
AcDbLine
 62
9
  6
CONTINUOUS
 10
8.569319112
 20
15.143257346
 11
8.4720813756
 21
15.2404950824
  0
LINE
  5
383
100
AcDbEntity
  8
0
100
AcDbLine
 62
9
  6
CONTINUOUS
 10
8.2940368979
 20
15.41853956
 11
8.1967991616
 21
15.5157772964
  0
LINE
  5
384
100
AcDbEntity
  8
0
100
AcDbLine
 62
9
  6
CONTINUOUS
 10
7.9986226941
 20
15.7139537639
 11
7.9013849577
 21
15.8111915002
  0
LINE
  5
385
100
AcDbEntity
  8
0
100
AcDbLine
 62
9
  6
CONTINUOUS
 10
7.7032084903
 20
16.0093679677
 11
7.6059707539
 21
16.1066057041
  0
LINE
  5
386
100
AcDbEntity
  8
0
100
AcDbLine
 62
9
  6
CONTINUOUS
 10
7.4279262762
 20
16.2846501818
 11
7.3306885398
 21
16.3818879181
  0
LINE
  5
387
100
AcDbEntity
  8
0
100
AcDbLine
 62
9
  6
CONTINUOUS
 10
7.1915360799
 20
16.521040378
 11
7.0942983436
 21
16.6182781144
  0
LINE
  5
388
100
AcDbEntity
  8
0
100
AcDbLine
 62
9
  6
CONTINUOUS
 10
7.0101475026
 20
16.7024289553
 11
6.9129097663
 21
16.7996666917
  0
LINE
  5
389
100
AcDbEntity
  8
0
100
AcDbLine
 62
9
  6
CONTINUOUS
 10
6.8961218761
 20
16.8164545819
 11
6.759992122
 21
16.9525843725
  0
LINE
  5
38A
100
AcDbEntity
  8
0
100
AcDbLine
 62
9
  6
CONTINUOUS
 10
7.203066857
 20
16.521040378
 11
7.1102271236
 21
16.6138801115
  0
LINE
  5
38B
100
AcDbEntity
  8
0
100
AcDbLine
 62
9
  6
CONTINUOUS
 10
7.0216782797
 20
16.7024289553
 11
6.9201958751
 21
16.80391136
  0
LINE
  5
38C
100
AcDbEntity
  8
0
100
AcDbLine
 62
9
  6
CONTINUOUS
 10
6.759992122
 20
16.9641156063
 11
6.9076526532
 21
16.8164545819
  0
LINE
  5
38D
100
AcDbEntity
  8
0
100
AcDbLine
 62
9
  6
CONTINUOUS
 10
9.1126542892
 20
14.6114529458
 11
9.0038857757
 21
14.7202214593
  0
LINE
  5
38E
100
AcDbEntity
  8
0
100
AcDbLine
 62
9
  6
CONTINUOUS
 10
8.9986286627
 20
14.7254785724
 11
8.8898601492
 21
14.8342470859
  0
LINE
  5
38F
100
AcDbEntity
  8
0
100
AcDbLine
 62
9
  6
CONTINUOUS
 10
8.8172400854
 20
14.9068671497
 11
8.7084715719
 21
15.0156356632
  0
LINE
  5
390
100
AcDbEntity
  8
0
100
AcDbLine
 62
9
  6
CONTINUOUS
 10
8.5808498891
 20
15.143257346
 11
8.4720813756
 21
15.2520258595
  0
LINE
  5
391
100
AcDbEntity
  8
0
100
AcDbLine
 62
9
  6
CONTINUOUS
 10
8.3055676751
 20
15.41853956
 11
8.1967991616
 21
15.5273080735
  0
LINE
  5
392
100
AcDbEntity
  8
0
100
AcDbLine
 62
9
  6
CONTINUOUS
 10
8.0101534714
 20
15.7139537639
 11
7.9013849577
 21
15.8227222776
  0
LINE
  5
393
100
AcDbEntity
  8
0
100
AcDbLine
 62
9
  6
CONTINUOUS
 10
7.7147392674
 20
16.0093679677
 11
7.6059707539
 21
16.1181364812
  0
LINE
  5
394
100
AcDbEntity
  8
0
100
AcDbLine
 62
9
  6
CONTINUOUS
 10
7.4394570533
 20
16.2846501818
 11
7.3306885398
 21
16.3934186952
  0
LINE
  5
395
100
AcDbEntity
  8
0
100
AcDbLine
 62
9
  6
CONTINUOUS
 10
7.1102272473
 20
16.6138808326
 11
7.0942983436
 21
16.6298088915
  0
LINE
  5
396
100
AcDbEntity
  8
0
100
AcDbLine
 62
9
  6
CONTINUOUS
 10
6.9201959317
 20
16.8039121482
 11
6.9129097663
 21
16.8111974688
  0
LINE
  5
397
100
AcDbEntity
  8
0
100
AcDbLine
 62
9
  6
CONTINUOUS
 10
9.1265745588
 20
14.6172185604
 11
8.8956257638
 21
14.8481673555
  0
LINE
  5
398
100
AcDbEntity
  8
0
100
AcDbLine
 62
9
  6
CONTINUOUS
 10
8.831160355
 20
14.9126327642
 11
8.7142371864
 21
15.0295559328
  0
LINE
  5
399
100
AcDbEntity
  8
0
100
AcDbLine
 62
9
  6
CONTINUOUS
 10
8.5947701587
 20
15.1490229605
 11
8.4778469902
 21
15.2659461291
  0
LINE
  5
39A
100
AcDbEntity
  8
0
100
AcDbLine
 62
9
  6
CONTINUOUS
 10
8.3194879447
 20
15.4243051746
 11
8.2025647761
 21
15.5412283431
  0
LINE
  5
39B
100
AcDbEntity
  8
0
100
AcDbLine
 62
9
  6
CONTINUOUS
 10
8.0240737408
 20
15.7197193784
 11
7.9071505723
 21
15.8366425469
  0
LINE
  5
39C
100
AcDbEntity
  8
0
100
AcDbLine
 62
9
  6
CONTINUOUS
 10
7.728659537
 20
16.0151335822
 11
7.6117363684
 21
16.1320567508
  0
LINE
  5
39D
100
AcDbEntity
  8
0
100
AcDbLine
 62
9
  6
CONTINUOUS
 10
7.4533773229
 20
16.2904157963
 11
7.3364541544
 21
16.4073389648
  0
LINE
  5
39E
100
AcDbEntity
  8
0
100
AcDbLine
 62
9
  6
CONTINUOUS
 10
7.2169871266
 20
16.5268059926
 11
7.1000639581
 21
16.6437291611
  0
LINE
  5
39F
100
AcDbEntity
  8
0
100
AcDbLine
 62
9
  6
CONTINUOUS
 10
7.0355985493
 20
16.7081945699
 11
6.7657577365
 21
16.9780353827
  0
LINE
  5
3A0
100
AcDbEntity
  8
0
100
AcDbLine
 62
7
  6
CONTINUOUS
 10
6.7416381256
 20
17.0515390718
 11
9.237431761
 21
14.5557454364
  0
LINE
  5
3A1
100
AcDbEntity
  8
0
100
AcDbLine
 62
7
  6
CONTINUOUS
 10
6.7400553966
 20
17.0534663446
 11
9.2389906461
 21
14.5545310951
  0
LINE
  5
3A2
100
AcDbEntity
  8
0
100
AcDbLine
 62
7
  6
CONTINUOUS
 10
9.3307491597
 20
14.4858744775
 11
6.6733056714
 21
17.1433179658
  0
LINE
  5
3A3
100
AcDbEntity
  8
0
100
AcDbLine
 62
9
  6
CONTINUOUS
 10
6.6430927884
 20
17.1768727718
 11
9.3643039657
 21
14.4556615945
  0
LINE
  5
3A4
100
AcDbEntity
  8
0
100
AcDbLine
 62
9
  6
CONTINUOUS
 10
6.6459758319
 20
17.2869717628
 11
9.4744029567
 21
14.4585446381
  0
LINE
  5
3A5
100
AcDbEntity
  8
0
100
AcDbLine
 62
9
  6
CONTINUOUS
 10
8.3127295
 20
15.1731628361
 11
8.508558853
 21
14.9773334793
  0
LINE
  5
3A6
100
AcDbEntity
  8
0
100
AcDbLine
 62
7
  6
CONTINUOUS
 10
8.7185736326
 20
14.8886503092
 11
7.0760815031
 21
16.5311424388
  0
LINE
  5
3A7
100
AcDbEntity
  8
0
100
AcDbLine
 62
9
  6
CONTINUOUS
 10
8.7946952062
 20
14.8591246198
 11
8.9420970014
 21
14.7117228027
  0
LINE
  5
3A8
100
AcDbEntity
  8
0
100
AcDbLine
 62
7
  6
CONTINUOUS
 10
9.237431766
 20
14.5557454314
 11
9.2373181762
 21
14.5558613431
  0
LINE
  5
3A9
100
AcDbEntity
  8
0
100
AcDbLine
 62
7
  6
CONTINUOUS
 10
14.3805655015
 20
19.1879027085
 11
14.3807533101
 21
19.1845511053
  0
LINE
  5
3AA
100
AcDbEntity
  8
0
100
AcDbLine
 62
9
  6
CONTINUOUS
 10
14.2029733071
 20
6.9119638624
 11
14.2029733071
 21
8.3582714893
  0
LINE
  5
3AB
100
AcDbEntity
  8
0
100
AcDbLine
 62
9
  6
CONTINUOUS
 10
14.2407486587
 20
6.8851176758
 11
14.2407486587
 21
8.3851176758
  0
LINE
  5
3AC
100
AcDbEntity
  8
0
100
AcDbLine
 62
7
  6
CONTINUOUS
 10
14.2874226038
 20
8.3851176758
 11
14.2874226038
 21
6.8851176758
  0
LINE
  5
3AD
100
AcDbEntity
  8
0
100
AcDbLine
 62
7
  6
CONTINUOUS
 10
14.2974226038
 20
6.5651176758
 11
14.2974226038
 21
8.7051176758
  0
LINE
  5
3AE
100
AcDbEntity
  8
0
100
AcDbLine
 62
7
  6
CONTINUOUS
 10
14.3044226038
 20
5.2411176758
 11
14.3044226038
 21
5.6891176758
  0
LINE
  5
3AF
100
AcDbEntity
  8
0
100
AcDbLine
 62
9
  6
CONTINUOUS
 10
14.3164226038
 20
5.2291176758
 11
14.3164226038
 21
5.7011176758
  0
LINE
  5
3B0
100
AcDbEntity
  8
0
100
AcDbLine
 62
9
  6
CONTINUOUS
 10
14.3274226038
 20
6.5351176758
 11
14.3274226038
 21
8.7351176758
  0
LINE
  5
3B1
100
AcDbEntity
  8
0
100
AcDbLine
 62
7
  6
CONTINUOUS
 10
14.3805655015
 20
20.0820602119
 11
14.3805655015
 21
19.1881751398
  0
LINE
  5
3B2
100
AcDbEntity
  8
0
100
AcDbLine
 62
9
  6
CONTINUOUS
 10
14.3807533101
 20
19.1845511053
 11
14.3807533101
 21
20.0856842463
  0
LINE
  5
3B3
100
AcDbEntity
  8
0
100
AcDbLine
 62
7
  6
CONTINUOUS
 10
14.4224226038
 20
1.8226176758
 11
14.4224226038
 21
-0.5523823242
  0
LINE
  5
3B4
100
AcDbEntity
  8
0
100
AcDbLine
 62
7
  6
CONTINUOUS
 10
14.4844226038
 20
4.5522741861
 11
14.4844226038
 21
10.7179611656
  0
LINE
  5
3B5
100
AcDbEntity
  8
0
100
AcDbLine
 62
9
  6
CONTINUOUS
 10
14.5170770795
 20
18.4817224633
 11
14.5170770795
 21
20.7885128883
  0
LINE
  5
3B6
100
AcDbEntity
  8
0
100
AcDbLine
 62
9
  6
CONTINUOUS
 10
14.5263596135
 20
4.4928995245
 11
14.5263596135
 21
10.7773358272
  0
LINE
  5
3B7
100
AcDbEntity
  8
0
100
AcDbLine
 62
9
  6
CONTINUOUS
 10
14.5652493566
 20
18.4451176758
 11
14.5652493566
 21
20.8251176758
  0
LINE
  5
3B8
100
AcDbEntity
  8
0
100
AcDbLine
 62
9
  6
CONTINUOUS
 10
14.5999402536
 20
4.4235659915
 11
14.5999402536
 21
10.8466693602
  0
LINE
  5
3B9
100
AcDbEntity
  8
0
100
AcDbLine
 62
9
  6
CONTINUOUS
 10
14.6579593435
 20
4.3851176758
 11
14.6579593435
 21
10.8851176758
  0
LINE
  5
3BA
100
AcDbEntity
  8
0
100
AcDbLine
 62
7
  6
CONTINUOUS
 10
14.7974226038
 20
10.8851176758
 11
14.7974226038
 21
4.3851176758
  0
LINE
  5
3BB
100
AcDbEntity
  8
0
100
AcDbLine
 62
7
  6
CONTINUOUS
 10
14.7974226038
 20
1.8226176758
 11
14.7974226038
 21
-0.5523823242
  0
LINE
  5
3BC
100
AcDbEntity
  8
0
100
AcDbLine
 62
7
  6
CONTINUOUS
 10
14.7974226038
 20
18.4451178006
 11
14.7974226038
 21
20.825117551
  0
LINE
  5
3BD
100
AcDbEntity
  8
0
100
AcDbLine
 62
9
  6
CONTINUOUS
 10
10.0712596529
 20
15.0554013343
 11
7.2428325282
 21
17.8838284591
  0
LINE
  5
3BE
100
AcDbEntity
  8
0
100
AcDbLine
 62
7
  6
CONTINUOUS
 10
10.0712596077
 20
15.1685384645
 11
7.3559696584
 21
17.8838284138
  0
LINE
  5
3BF
100
AcDbEntity
  8
0
100
AcDbLine
 62
9
  6
CONTINUOUS
 10
9.517498764
 20
15.755113457
 11
7.9425446509
 21
17.3300675701
  0
LINE
  5
3C0
100
AcDbEntity
  8
0
100
AcDbLine
 62
7
  6
CONTINUOUS
 10
13.7254226038
 20
5.2401176758
 11
13.5114365629
 21
5.0242914163
  0
LWPOLYLINE
  5
3C1
100
AcDbEntity
  8
0
100
AcDbPolyline
 62
7
  6
CONTINUOUS
 90
5
 70
0
 10
8.5660100793
 20
15.0021424312
 10
8.566539472
 20
15.0019226115
 10
8.5668844399
 20
15.0017589793
 10
8.5670753835
 20
15.0016595025
 10
8.5671387299
 20
15.0016243778
  0
LINE
  5
3C2
100
AcDbEntity
  8
0
100
AcDbLine
 62
9
  6
CONTINUOUS
 10
9.5141927789
 20
16.5724319804
 11
8.7598631742
 21
17.3267615851
  0
LINE
  5
3C3
100
AcDbEntity
  8
0
100
AcDbLine
 62
7
  6
CONTINUOUS
 10
9.5529503823
 20
16.5523463902
 11
8.739777584
 21
17.3655191884
  0
LINE
  5
3C4
100
AcDbEntity
  8
0
100
AcDbLine
 62
7
  6
CONTINUOUS
 10
9.2860448506
 20
17.6536379237
 11
9.1674594383
 21
17.772223336
  0
LINE
  5
3C5
100
AcDbEntity
  8
0
100
AcDbLine
 62
7
  6
CONTINUOUS
 10
9.1126542892
 20
14.6114529458
 11
9.1011235121
 21
14.6114529458
  0
LINE
  5
3C6
100
AcDbEntity
  8
0
100
AcDbLine
 62
7
  6
CONTINUOUS
 10
8.9536282944
 20
14.7117228027
 11
8.9420970014
 21
14.7117228027
  0
LINE
  5
3C7
100
AcDbEntity
  8
0
100
AcDbLine
 62
7
  6
CONTINUOUS
 10
8.9986286627
 20
14.7254785724
 11
8.9870978856
 21
14.7254785724
  0
LINE
  5
3C8
100
AcDbEntity
  8
0
100
AcDbLine
 62
7
  6
CONTINUOUS
 10
8.8867608407
 20
14.7785902564
 11
8.8752295696
 21
14.7785902564
  0
LINE
  5
3C9
100
AcDbEntity
  8
0
100
AcDbLine
 62
7
  6
CONTINUOUS
 10
8.8172400854
 20
14.9068671497
 11
8.8057093083
 21
14.9068671497
  0
LINE
  5
3CA
100
AcDbEntity
  8
0
100
AcDbLine
 62
7
  6
CONTINUOUS
 10
8.7575828398
 20
14.9077682573
 11
8.7460515687
 21
14.9077682573
  0
LINE
  5
3CB
100
AcDbEntity
  8
0
100
AcDbLine
 62
7
  6
CONTINUOUS
 10
10.2176304136
 20
17.2170271074
 11
9.4044583013
 21
18.0301992197
  0
LINE
  5
3CC
100
AcDbEntity
  8
0
100
AcDbLine
 62
9
  6
CONTINUOUS
 10
10.1331671074
 20
17.4569565028
 11
9.6443876967
 21
17.9457359135
  0
LINE
  5
3CD
100
AcDbEntity
  8
0
100
AcDbLine
 62
9
  6
CONTINUOUS
 10
10.2131670992
 20
17.5369925829
 11
9.7244237768
 21
18.0257359054
  0
LINE
  5
3CE
100
AcDbEntity
  8
0
100
AcDbLine
 62
9
  6
CONTINUOUS
 10
9.7244237768
 20
18.0990520702
 11
10.286483264
 21
17.5369925829
  0
LINE
  5
3CF
100
AcDbEntity
  8
0
100
AcDbLine
 62
9
  6
CONTINUOUS
 10
9.7794877019
 20
18.231988145
 11
9.789010119
 21
18.2224657279
  0
LINE
  5
3D0
100
AcDbEntity
  8
0
100
AcDbLine
 62
9
  6
CONTINUOUS
 10
9.8771329027
 20
18.1343429442
 11
10.4194193389
 21
17.592056508
  0
LINE
  5
3D1
100
AcDbEntity
  8
0
100
AcDbLine
 62
7
  6
CONTINUOUS
 10
8.5266131245
 20
14.9773334793
 11
8.508558853
 21
14.9773334793
  0
LINE
  5
3D2
100
AcDbEntity
  8
0
100
AcDbLine
 62
7
  6
CONTINUOUS
 10
8.4849067525
 20
15.0190398513
 11
8.4668524849
 21
15.0190398513
  0
LINE
  5
3D3
100
AcDbEntity
  8
0
100
AcDbLine
 62
7
  6
CONTINUOUS
 10
8.574897559
 20
15.0904535381
 11
8.5633662878
 21
15.0904535381
  0
LINE
  5
3D4
100
AcDbEntity
  8
0
100
AcDbLine
 62
7
  6
CONTINUOUS
 10
8.4080570108
 20
15.095889593
 11
8.3900027431
 21
15.095889593
  0
LINE
  5
3D5
100
AcDbEntity
  8
0
100
AcDbLine
 62
7
  6
CONTINUOUS
 10
8.5808498891
 20
15.143257346
 11
8.569319112
 21
15.143257346
  0
LINE
  5
3D6
100
AcDbEntity
  8
0
100
AcDbLine
 62
7
  6
CONTINUOUS
 10
8.1664422853
 20
15.1855197559
 11
8.1549110103
 21
15.1855197559
  0
LINE
  5
3D7
100
AcDbEntity
  8
0
100
AcDbLine
 62
7
  6
CONTINUOUS
 10
8.3511546982
 20
15.3141963989
 11
8.339623427
 21
15.3141963989
  0
LINE
  5
3D8
100
AcDbEntity
  8
0
100
AcDbLine
 62
7
  6
CONTINUOUS
 10
7.9879069068
 20
15.3640551367
 11
7.9763756295
 21
15.3640551367
  0
LINE
  5
3D9
100
AcDbEntity
  8
0
100
AcDbLine
 62
7
  6
CONTINUOUS
 10
8.3055676751
 20
15.41853956
 11
8.2940368979
 21
15.41853956
  0
LINE
  5
3DA
100
AcDbEntity
  8
0
100
AcDbLine
 62
7
  6
CONTINUOUS
 10
7.9990315704
 20
15.5049150334
 11
7.9809773027
 21
15.5049150334
  0
LINE
  5
3DB
100
AcDbEntity
  8
0
100
AcDbLine
 62
7
  6
CONTINUOUS
 10
8.1016019636
 20
15.5637491334
 11
8.0900706925
 21
15.5637491334
  0
LINE
  5
3DC
100
AcDbEntity
  8
0
100
AcDbLine
 62
7
  6
CONTINUOUS
 10
7.7354197475
 20
15.6165422937
 11
7.7238884725
 21
15.6165422937
  0
LINE
  5
3DD
100
AcDbEntity
  8
0
100
AcDbLine
 62
7
  6
CONTINUOUS
 10
7.8431158019
 20
15.6608308019
 11
7.8250615342
 21
15.6608308019
  0
LINE
  5
3DE
100
AcDbEntity
  8
0
100
AcDbLine
 62
7
  6
CONTINUOUS
 10
8.0101534714
 20
15.7139537639
 11
7.9986226941
 21
15.7139537639
  0
LINE
  5
3DF
100
AcDbEntity
  8
0
100
AcDbLine
 62
7
  6
CONTINUOUS
 10
9.9284005587
 20
18.3618561676
 11
10.0165233424
 21
18.2737333839
  0
LINE
  5
3E0
100
AcDbEntity
  8
0
100
AcDbLine
 62
7
  6
CONTINUOUS
 10
10.6471977317
 20
17.8198356899
 11
10.0072668838
 21
18.4597665378
  0
LINE
  5
3E1
100
AcDbEntity
  8
0
100
AcDbLine
 62
7
  6
CONTINUOUS
 10
10.2145890009
 20
18.6016820667
 11
10.3049560993
 21
18.5113149683
  0
LINE
  5
3E2
100
AcDbEntity
  8
0
100
AcDbLine
 62
7
  6
CONTINUOUS
 10
10.7823604731
 20
18.0521134052
 11
10.2394545027
 21
18.5950193756
  0
LINE
  5
3E3
100
AcDbEntity
  8
0
100
AcDbLine
 62
7
  6
CONTINUOUS
 10
10.7950794966
 20
18.0646522359
 11
10.2520834298
 21
18.6076483027
  0
LINE
  5
3E4
100
AcDbEntity
  8
0
100
AcDbLine
 62
7
  6
CONTINUOUS
 10
10.8199449984
 20
18.0579895448
 11
10.2454207387
 21
18.6325138045
  0
LINE
  5
3E5
100
AcDbEntity
  8
0
100
AcDbLine
 62
7
  6
CONTINUOUS
 10
7.5514863306
 20
15.7950776745
 11
7.5453530917
 21
15.7950776745
  0
LINE
  5
3E6
100
AcDbEntity
  8
0
100
AcDbLine
 62
7
  6
CONTINUOUS
 10
7.6901845318
 20
15.813762072
 11
7.6721302649
 21
15.813762072
  0
LINE
  5
3E7
100
AcDbEntity
  8
0
100
AcDbLine
 62
7
  6
CONTINUOUS
 10
7.8432459618
 20
15.8221051352
 11
7.8317146907
 21
15.8221051352
  0
LINE
  5
3E8
100
AcDbEntity
  8
0
100
AcDbLine
 62
7
  6
CONTINUOUS
 10
7.7147392674
 20
16.0093679677
 11
7.7032084903
 21
16.0093679677
  0
LINE
  5
3E9
100
AcDbEntity
  8
0
100
AcDbLine
 62
7
  6
CONTINUOUS
 10
7.5936932273
 20
16.0716578698
 11
7.5821619562
 21
16.0716578698
  0
LINE
  5
3EA
100
AcDbEntity
  8
0
100
AcDbLine
 62
7
  6
CONTINUOUS
 10
7.325405346
 20
16.1785412578
 11
7.3073510784
 21
16.1785412578
  0
LINE
  5
3EB
100
AcDbEntity
  8
0
100
AcDbLine
 62
7
  6
CONTINUOUS
 10
7.4394570533
 20
16.2846501818
 11
7.4279262762
 21
16.2846501818
  0
LINE
  5
3EC
100
AcDbEntity
  8
0
100
AcDbLine
 62
7
  6
CONTINUOUS
 10
7.3699503665
 20
16.2954007306
 11
7.3584190954
 21
16.2954007306
  0
LINE
  5
3ED
100
AcDbEntity
  8
0
100
AcDbLine
 62
7
  6
CONTINUOUS
 10
7.1872650857
 20
16.4780860114
 11
7.1757338145
 21
16.4780860114
  0
LINE
  5
3EE
100
AcDbEntity
  8
0
100
AcDbLine
 62
7
  6
CONTINUOUS
 10
7.203066857
 20
16.521040378
 11
7.1915360799
 21
16.521040378
  0
LINE
  5
3EF
100
AcDbEntity
  8
0
100
AcDbLine
 62
7
  6
CONTINUOUS
 10
7.0580870848
 20
16.6072640123
 11
7.0465558136
 21
16.6072640123
  0
LINE
  5
3F0
100
AcDbEntity
  8
0
100
AcDbLine
 62
9
  6
CONTINUOUS
 10
11.5972478666
 20
18.835292413
 11
11.0227236069
 21
19.4098166728
  0
LINE
  5
3F1
100
AcDbEntity
  8
0
100
AcDbLine
 62
7
  6
CONTINUOUS
 10
7.0216782797
 20
16.7024289553
 11
7.0101475026
 21
16.7024289553
  0
LINE
  5
3F2
100
AcDbEntity
  8
0
100
AcDbLine
 62
7
  6
CONTINUOUS
 10
6.9076526532
 20
16.8164545819
 11
6.8961218761
 21
16.8164545819
  0
LINE
  5
3F3
100
AcDbEntity
  8
0
100
AcDbLine
 62
7
  6
CONTINUOUS
 10
8.7598631742
 20
17.3267615851
 11
7.9425446509
 21
17.3300675701
  0
LINE
  5
3F4
100
AcDbEntity
  8
0
100
AcDbLine
 62
7
  6
CONTINUOUS
 10
10.6575827657
 20
17.8962802395
 11
10.6582865541
 21
17.8963311005
  0
LINE
  5
3F5
100
AcDbEntity
  8
0
100
AcDbLine
 62
7
  6
CONTINUOUS
 10
10.7073305425
 20
17.9460226183
 11
10.7080285344
 21
17.9460730808
  0
LINE
  5
3F6
100
AcDbEntity
  8
0
100
AcDbLine
 62
7
  6
CONTINUOUS
 10
10.757080418
 20
17.995779236
 11
10.7577856511
 21
17.9958301975
  0
LINE
  5
3F7
100
AcDbEntity
  8
0
100
AcDbLine
 62
7
  6
CONTINUOUS
 10
10.7823604731
 20
18.0521134052
 11
10.7821768074
 21
18.0521019674
  0
LINE
  5
3F8
100
AcDbEntity
  8
0
100
AcDbLine
 62
7
  6
CONTINUOUS
 10
10.286483264
 20
17.5369925829
 11
10.2131670992
 21
17.5369925829
  0
LINE
  5
3F9
100
AcDbEntity
  8
0
100
AcDbLine
 62
7
  6
CONTINUOUS
 10
10.6258557497
 20
17.9047634647
 11
10.6575827657
 21
17.8962802395
  0
LINE
  5
3FA
100
AcDbEntity
  8
0
100
AcDbLine
 62
7
  6
CONTINUOUS
 10
10.6776978466
 20
17.9539460813
 11
10.707330542
 21
17.9460226178
  0
LINE
  5
3FB
100
AcDbEntity
  8
0
100
AcDbLine
 62
7
  6
CONTINUOUS
 10
10.7295096464
 20
18.0031512776
 11
10.7570804179
 21
17.9957792359
  0
LINE
  5
3FC
100
AcDbEntity
  8
0
100
AcDbLine
 62
7
  6
CONTINUOUS
 10
10.1051216614
 20
18.4524171675
 11
10.0742631317
 21
18.4606672459
  0
LINE
  5
3FD
100
AcDbEntity
  8
0
100
AcDbLine
 62
7
  6
CONTINUOUS
 10
10.1541351695
 20
18.5044181796
 11
10.1256364446
 21
18.512037377
  0
LINE
  5
3FE
100
AcDbEntity
  8
0
100
AcDbLine
 62
7
  6
CONTINUOUS
 10
10.2033746344
 20
18.5561936162
 11
10.1768789311
 21
18.5632773173
  0
LINE
  5
3FF
100
AcDbEntity
  8
0
100
AcDbLine
 62
7
  6
CONTINUOUS
 10
10.7950794966
 20
18.0646522359
 11
10.8199449984
 21
18.0579895448
  0
LINE
  5
400
100
AcDbEntity
  8
0
100
AcDbLine
 62
7
  6
CONTINUOUS
 10
10.2145890009
 20
18.6016820667
 11
10.2394545027
 21
18.5950193756
  0
LINE
  5
401
100
AcDbEntity
  8
0
100
AcDbLine
 62
7
  6
CONTINUOUS
 10
10.0742631322
 20
18.4606672463
 11
10.0735205731
 21
18.4606136389
  0
LINE
  5
402
100
AcDbEntity
  8
0
100
AcDbLine
 62
7
  6
CONTINUOUS
 10
10.1256364445
 20
18.5120373769
 11
10.1248903688
 21
18.5119834347
  0
LINE
  5
403
100
AcDbEntity
  8
0
100
AcDbLine
 62
7
  6
CONTINUOUS
 10
10.1768789311
 20
18.5632773174
 11
10.1761301159
 21
18.5632231817
  0
LINE
  5
404
100
AcDbEntity
  8
0
100
AcDbLine
 62
7
  6
CONTINUOUS
 10
14.5652493566
 20
18.4451176758
 11
14.7974226038
 21
18.4451176758
  0
LINE
  5
405
100
AcDbEntity
  8
0
100
AcDbLine
 62
7
  6
CONTINUOUS
 10
14.3805655015
 20
19.2288676758
 11
12.5474226038
 21
19.2288676758
  0
LINE
  5
406
100
AcDbEntity
  8
0
100
AcDbLine
 62
7
  6
CONTINUOUS
 10
14.3805655015
 20
20.0413676758
 11
12.5474226038
 21
20.0413676758
  0
LINE
  5
407
100
AcDbEntity
  8
0
100
AcDbLine
 62
7
  6
CONTINUOUS
 10
14.5652493566
 20
20.8251176758
 11
14.7974226038
 21
20.8251176758
  0
ARC
  5
408
100
AcDbEntity
  8
0
100
AcDbCircle
 62
7
  6
CONTINUOUS
 10
10.2374226038
 20
-1.3648823242
 40
2.4375
100
AcDbArc
 50
90.0
 51
180.0
  0
ARC
  5
409
100
AcDbEntity
  8
0
100
AcDbCircle
 62
7
  6
CONTINUOUS
 10
10.2374226038
 20
-1.3648823242
 40
1.5625
100
AcDbArc
 50
90.0
 51
180.0
  0
ARC
  5
40A
100
AcDbEntity
  8
0
100
AcDbCircle
 62
7
  6
CONTINUOUS
 10
12.0294226038
 20
7.2826176758
 40
0.04
100
AcDbArc
 50
90.0
 51
180.0
  0
ARC
  5
40B
100
AcDbEntity
  8
0
100
AcDbCircle
 62
7
  6
CONTINUOUS
 10
12.0294226038
 20
7.9876176758
 40
0.04
100
AcDbArc
 50
180.0
 51
270.0
  0
ARC
  5
40C
100
AcDbEntity
  8
0
100
AcDbCircle
 62
7
  6
CONTINUOUS
 10
12.4704226038
 20
7.056588829
 40
0.033
100
AcDbArc
 50
180.0
 51
268.0
  0
ARC
  5
40D
100
AcDbEntity
  8
0
100
AcDbCircle
 62
7
  6
CONTINUOUS
 10
12.4704226038
 20
8.2136465227
 40
0.033
100
AcDbArc
 50
92.0
 51
180.0
  0
ARC
  5
40E
100
AcDbEntity
  8
0
100
AcDbCircle
 62
7
  6
CONTINUOUS
 10
11.6444226038
 20
9.0481176758
 40
0.03
100
AcDbArc
 50
90.0
 51
180.0
  0
ARC
  5
40F
100
AcDbEntity
  8
0
100
AcDbCircle
 62
7
  6
CONTINUOUS
 10
11.6444226038
 20
6.2221176758
 40
0.03
100
AcDbArc
 50
180.0
 51
270.0
  0
ARC
  5
410
100
AcDbEntity
  8
0
100
AcDbCircle
 62
7
  6
CONTINUOUS
 10
11.9594226038
 20
6.2221176758
 40
0.03
100
AcDbArc
 50
270.0
 51
360.0
  0
ARC
  5
411
100
AcDbEntity
  8
0
100
AcDbCircle
 62
7
  6
CONTINUOUS
 10
11.9594226038
 20
9.0481176758
 40
0.03
100
AcDbArc
 50
0.0
 51
90.0
  0
ARC
  5
412
100
AcDbEntity
  8
0
100
AcDbCircle
 62
9
  6
CONTINUOUS
 10
11.6443997017
 20
7.8416258115
 40
0.0299794645
100
AcDbArc
 50
89.9562336575
 51
179.9561786104
  0
ARC
  5
413
100
AcDbEntity
  8
0
100
AcDbCircle
 62
9
  6
CONTINUOUS
 10
11.959445506
 20
7.4286095401
 40
0.0299794645
100
AcDbArc
 50
269.9562336575
 51
359.9561786105
  0
ARC
  5
414
100
AcDbEntity
  8
0
100
AcDbCircle
 62
9
  6
CONTINUOUS
 10
11.6443997017
 20
7.4286095401
 40
0.0299794644
100
AcDbArc
 50
180.0438213523
 51
270.0437663924
  0
ARC
  5
415
100
AcDbEntity
  8
0
100
AcDbCircle
 62
9
  6
CONTINUOUS
 10
11.959445506
 20
7.8416258115
 40
0.0299794644
100
AcDbArc
 50
0.0438213266
 51
90.0437664301
  0
ARC
  5
416
100
AcDbEntity
  8
0
100
AcDbCircle
 62
9
  6
CONTINUOUS
 10
11.6443997014
 20
7.8944013816
 40
0.0299794641
100
AcDbArc
 50
89.9562329288
 51
179.9561790658
  0
ARC
  5
417
100
AcDbEntity
  8
0
100
AcDbCircle
 62
9
  6
CONTINUOUS
 10
11.6443997014
 20
7.37583397
 40
0.0299794642
100
AcDbArc
 50
180.0438209544
 51
270.0437670416
  0
ARC
  5
418
100
AcDbEntity
  8
0
100
AcDbCircle
 62
9
  6
CONTINUOUS
 10
11.9594455063
 20
7.37583397
 40
0.0299794641
100
AcDbArc
 50
269.9562329288
 51
359.9561790658
  0
ARC
  5
419
100
AcDbEntity
  8
0
100
AcDbCircle
 62
9
  6
CONTINUOUS
 10
11.9594455063
 20
7.8944013816
 40
0.0299794642
100
AcDbArc
 50
0.0438209544
 51
90.0437670416
  0
ARC
  5
41A
100
AcDbEntity
  8
0
100
AcDbCircle
 62
9
  6
CONTINUOUS
 10
7.9696697817
 20
15.6571424151
 40
0.0584990995
100
AcDbArc
 50
211.0562499378
 51
212.1829415251
  0
ARC
  5
41B
100
AcDbEntity
  8
0
100
AcDbCircle
 62
7
  6
CONTINUOUS
 10
8.0292213685
 20
15.6558151819
 40
0.0196850394
100
AcDbArc
 50
135.0
 51
180.0012049649
  0
ARC
  5
41C
100
AcDbEntity
  8
0
100
AcDbCircle
 62
7
  6
CONTINUOUS
 10
8.1016023776
 20
15.5834341728
 40
0.0196850394
100
AcDbArc
 50
269.9987950343
 51
315.0
  0
ARC
  5
41D
100
AcDbEntity
  8
0
100
AcDbCircle
 62
7
  6
CONTINUOUS
 10
8.0900711485
 20
15.5834341728
 40
0.0196850394
100
AcDbArc
 50
224.9972511859
 51
269.9986727936
  0
ARC
  5
41E
100
AcDbEntity
  8
0
100
AcDbCircle
 62
7
  6
CONTINUOUS
 10
8.0292213685
 20
15.6442839528
 40
0.0196850394
100
AcDbArc
 50
180.0013272063
 51
225.0027488141
  0
ARC
  5
41F
100
AcDbEntity
  8
0
100
AcDbCircle
 62
7
  6
CONTINUOUS
 10
7.9763765108
 20
15.3837401761
 40
0.0196850394
100
AcDbArc
 50
224.9956275412
 51
269.9974348682
  0
ARC
  5
420
100
AcDbEntity
  8
0
100
AcDbCircle
 62
7
  6
CONTINUOUS
 10
7.9879077399
 20
15.3443700974
 40
0.0196850394
100
AcDbArc
 50
45.0039181287
 51
90.0024249216
  0
ARC
  5
421
100
AcDbEntity
  8
0
100
AcDbCircle
 62
7
  6
CONTINUOUS
 10
7.7842884482
 20
15.5479893891
 40
0.0196850394
100
AcDbArc
 50
359.9975750785
 51
44.9960818716
  0
ARC
  5
422
100
AcDbEntity
  8
0
100
AcDbCircle
 62
7
  6
CONTINUOUS
 10
7.8236585269
 20
15.53645816
 40
0.0196850394
100
AcDbArc
 50
180.0025651318
 51
225.0043724588
  0
ARC
  5
423
100
AcDbEntity
  8
0
100
AcDbCircle
 62
7
  6
CONTINUOUS
 10
7.7238893538
 20
15.6362273331
 40
0.0196850394
100
AcDbArc
 50
224.995716719
 51
269.9974348102
  0
ARC
  5
424
100
AcDbEntity
  8
0
100
AcDbCircle
 62
7
  6
CONTINUOUS
 10
7.7354205829
 20
15.5968572543
 40
0.0196850394
100
AcDbArc
 50
45.00392895
 51
90.0024317524
  0
ARC
  5
425
100
AcDbEntity
  8
0
100
AcDbCircle
 62
7
  6
CONTINUOUS
 10
8.0021939078
 20
15.3579227791
 40
0.0196850394
100
AcDbArc
 50
180.0025651901
 51
225.0140038908
  0
ARC
  5
426
100
AcDbEntity
  8
0
100
AcDbCircle
 62
7
  6
CONTINUOUS
 10
7.9809773549
 20
15.5167260571
 40
0.0118110236
100
AcDbArc
 50
224.9968154332
 51
269.9997468357
  0
ARC
  5
427
100
AcDbEntity
  8
0
100
AcDbCircle
 62
7
  6
CONTINUOUS
 10
7.9990316322
 20
15.5167260571
 40
0.0118110236
100
AcDbArc
 50
269.9997000107
 51
315.0
  0
ARC
  5
428
100
AcDbEntity
  8
0
100
AcDbCircle
 62
7
  6
CONTINUOUS
 10
7.9155150833
 20
15.600242606
 40
0.0118110236
100
AcDbArc
 50
135.0
 51
180.000299988
  0
ARC
  5
429
100
AcDbEntity
  8
0
100
AcDbCircle
 62
7
  6
CONTINUOUS
 10
7.9155150833
 20
15.5821883287
 40
0.0118110236
100
AcDbArc
 50
180.0002531656
 51
225.0031845687
  0
ARC
  5
42A
100
AcDbEntity
  8
0
100
AcDbCircle
 62
7
  6
CONTINUOUS
 10
7.1659975642
 20
16.2445894621
 40
0.2418608364
100
AcDbArc
 50
43.7154823834
 51
44.9889585698
  0
ARC
  5
42B
100
AcDbEntity
  8
0
100
AcDbCircle
 62
9
  6
CONTINUOUS
 10
7.3091997388
 20
16.3418237439
 40
0.0631324568
100
AcDbArc
 50
209.61543583
 51
209.9605520618
  0
ARC
  5
42C
100
AcDbEntity
  8
0
100
AcDbCircle
 62
7
  6
CONTINUOUS
 10
7.3142265788
 20
16.1554240325
 40
0.0393700787
100
AcDbArc
 50
334.9999170467
 51
39.208519173
  0
ARC
  5
42D
100
AcDbEntity
  8
0
100
AcDbCircle
 62
7
  6
CONTINUOUS
 10
7.3503735792
 20
16.39341954
 40
0.0196850394
100
AcDbArc
 50
135.0
 51
180.0024588141
  0
ARC
  5
42E
100
AcDbEntity
  8
0
100
AcDbCircle
 62
7
  6
CONTINUOUS
 10
7.3503735792
 20
16.3818883109
 40
0.0196850394
100
AcDbArc
 50
180.00114329
 51
225.0021632854
  0
ARC
  5
42F
100
AcDbEntity
  8
0
100
AcDbCircle
 62
7
  6
CONTINUOUS
 10
7.2975697713
 20
16.387466779
 40
0.0196850394
100
AcDbArc
 50
135.0
 51
180.0012047956
  0
ARC
  5
430
100
AcDbEntity
  8
0
100
AcDbCircle
 62
7
  6
CONTINUOUS
 10
7.2975697713
 20
16.3759355499
 40
0.0196850394
100
AcDbArc
 50
180.0013272052
 51
225.0023343899
  0
ARC
  5
431
100
AcDbEntity
  8
0
100
AcDbCircle
 62
7
  6
CONTINUOUS
 10
7.3532659104
 20
15.9790119269
 40
0.0196850394
100
AcDbArc
 50
359.9975750784
 51
44.9960818714
  0
ARC
  5
432
100
AcDbEntity
  8
0
100
AcDbCircle
 62
7
  6
CONTINUOUS
 10
7.3326845567
 20
16.0552709799
 40
0.0196850394
100
AcDbArc
 50
155.0000948195
 51
224.9996833625
  0
ARC
  5
433
100
AcDbEntity
  8
0
100
AcDbCircle
 62
7
  6
CONTINUOUS
 10
7.3531465107
 20
16.1445569013
 40
0.0118110236
100
AcDbArc
 50
180.0002531639
 51
225.000268516
  0
ARC
  5
434
100
AcDbEntity
  8
0
100
AcDbCircle
 62
7
  6
CONTINUOUS
 10
7.3531465107
 20
16.1626111786
 40
0.0118110236
100
AcDbArc
 50
135.0
 51
180.0002999894
  0
ARC
  5
435
100
AcDbEntity
  8
0
100
AcDbCircle
 62
7
  6
CONTINUOUS
 10
7.1872339866
 20
16.3285237027
 40
0.0118110236
100
AcDbArc
 50
135.0
 51
180.0002999879
  0
ARC
  5
436
100
AcDbEntity
  8
0
100
AcDbCircle
 62
7
  6
CONTINUOUS
 10
7.1872339866
 20
16.3104694254
 40
0.0118110236
100
AcDbArc
 50
180.0002531652
 51
224.9688745923
  0
ARC
  5
437
100
AcDbEntity
  8
0
100
AcDbCircle
 62
7
  6
CONTINUOUS
 10
7.1695670055
 20
16.3281364065
 40
0.0118110236
100
AcDbArc
 50
180.0002531643
 51
224.9943897753
  0
ARC
  5
438
100
AcDbEntity
  8
0
100
AcDbCircle
 62
7
  6
CONTINUOUS
 10
7.1695670055
 20
16.3461906838
 40
0.0118110236
100
AcDbArc
 50
135.0
 51
180.0002999892
  0
ARC
  5
439
100
AcDbEntity
  8
0
100
AcDbCircle
 62
7
  6
CONTINUOUS
 10
7.3073511306
 20
16.1903522814
 40
0.0118110236
100
AcDbArc
 50
224.9808014761
 51
269.9997468346
  0
ARC
  5
43A
100
AcDbEntity
  8
0
100
AcDbCircle
 62
7
  6
CONTINUOUS
 10
7.3254054079
 20
16.1903522814
 40
0.0118110236
100
AcDbArc
 50
269.9997000108
 51
315.0
  0
ARC
  5
43B
100
AcDbEntity
  8
0
100
AcDbCircle
 62
7
  6
CONTINUOUS
 10
7.2418888589
 20
16.2738688304
 40
0.0118110236
100
AcDbArc
 50
135.0
 51
180.0002999885
  0
ARC
  5
43C
100
AcDbEntity
  8
0
100
AcDbCircle
 62
7
  6
CONTINUOUS
 10
7.2418888589
 20
16.2558145531
 40
0.0118110236
100
AcDbArc
 50
180.0002531654
 51
225.0191985239
  0
ARC
  5
43D
100
AcDbEntity
  8
0
100
AcDbCircle
 62
7
  6
CONTINUOUS
 10
6.7025443744
 20
17.2304032203
 40
0.08
100
AcDbArc
 50
135.0
 51
222.0
  0
ARC
  5
43E
100
AcDbEntity
  8
0
100
AcDbCircle
 62
7
  6
CONTINUOUS
 10
7.2030677018
 20
16.5407254174
 40
0.0196850394
100
AcDbArc
 50
269.9975411859
 51
315.0
  0
ARC
  5
43F
100
AcDbEntity
  8
0
100
AcDbCircle
 62
7
  6
CONTINUOUS
 10
7.1139833829
 20
16.6298097363
 40
0.0196850394
100
AcDbArc
 50
135.0
 51
180.0024588136
  0
ARC
  5
440
100
AcDbEntity
  8
0
100
AcDbCircle
 62
7
  6
CONTINUOUS
 10
7.1139833829
 20
16.6182785072
 40
0.0196850394
100
AcDbArc
 50
180.0011432902
 51
225.0015920142
  0
ARC
  5
441
100
AcDbEntity
  8
0
100
AcDbCircle
 62
7
  6
CONTINUOUS
 10
7.1915364727
 20
16.5407254174
 40
0.0196850394
100
AcDbArc
 50
224.9984079858
 51
269.9988567098
  0
ARC
  5
442
100
AcDbEntity
  8
0
100
AcDbCircle
 62
7
  6
CONTINUOUS
 10
7.0216791245
 20
16.7221139947
 40
0.0196850394
100
AcDbArc
 50
269.9975411863
 51
315.0
  0
ARC
  5
443
100
AcDbEntity
  8
0
100
AcDbCircle
 62
7
  6
CONTINUOUS
 10
6.9325948056
 20
16.8111983136
 40
0.0196850394
100
AcDbArc
 50
135.0
 51
180.0024588143
  0
ARC
  5
444
100
AcDbEntity
  8
0
100
AcDbCircle
 62
7
  6
CONTINUOUS
 10
6.9325948056
 20
16.7996670845
 40
0.0196850394
100
AcDbArc
 50
180.0011432902
 51
225.0140474959
  0
ARC
  5
445
100
AcDbEntity
  8
0
100
AcDbCircle
 62
7
  6
CONTINUOUS
 10
7.0101478954
 20
16.7221139947
 40
0.0196850394
100
AcDbArc
 50
224.9859525041
 51
269.9988567098
  0
ARC
  5
446
100
AcDbEntity
  8
0
100
AcDbCircle
 62
7
  6
CONTINUOUS
 10
6.7796771613
 20
16.9525847288
 40
0.0196850394
100
AcDbArc
 50
180.0010369649
 51
225.0009085171
  0
ARC
  5
447
100
AcDbEntity
  8
0
100
AcDbCircle
 62
7
  6
CONTINUOUS
 10
6.907653498
 20
16.8361396212
 40
0.0196850394
100
AcDbArc
 50
269.9975411863
 51
288.8750990227
  0
ARC
  5
448
100
AcDbEntity
  8
0
100
AcDbCircle
 62
7
  6
CONTINUOUS
 10
6.7796771613
 20
16.9641159579
 40
0.0196850394
100
AcDbArc
 50
135.0
 51
180.0010232871
  0
ARC
  5
449
100
AcDbEntity
  8
0
100
AcDbCircle
 62
7
  6
CONTINUOUS
 10
6.8185691791
 20
16.9252239401
 40
0.0196850394
100
AcDbArc
 50
135.0
 51
180.0024588147
  0
ARC
  5
44A
100
AcDbEntity
  8
0
100
AcDbCircle
 62
7
  6
CONTINUOUS
 10
6.8185691791
 20
16.9136927111
 40
0.0196850394
100
AcDbArc
 50
180.0011432896
 51
224.9832245314
  0
ARC
  5
44B
100
AcDbEntity
  8
0
100
AcDbCircle
 62
7
  6
CONTINUOUS
 10
6.8961222689
 20
16.8361396212
 40
0.0196850394
100
AcDbArc
 50
225.0167754673
 51
269.9988567095
  0
ARC
  5
44C
100
AcDbEntity
  8
0
100
AcDbCircle
 62
7
  6
CONTINUOUS
 10
7.1148844905
 20
16.5701520599
 40
0.0196850394
100
AcDbArc
 50
135.0
 51
180.0012047959
  0
ARC
  5
44D
100
AcDbEntity
  8
0
100
AcDbCircle
 62
7
  6
CONTINUOUS
 10
7.1872654996
 20
16.4977710508
 40
0.0196850394
100
AcDbArc
 50
269.9987952046
 51
315.0
  0
ARC
  5
44E
100
AcDbEntity
  8
0
100
AcDbCircle
 62
7
  6
CONTINUOUS
 10
7.1757342705
 20
16.4977710508
 40
0.0196850394
100
AcDbArc
 50
224.9951362427
 51
269.9986727949
  0
ARC
  5
44F
100
AcDbEntity
  8
0
100
AcDbCircle
 62
7
  6
CONTINUOUS
 10
7.1148844905
 20
16.5586208308
 40
0.0196850394
100
AcDbArc
 50
180.0013272051
 51
225.0048637573
  0
ARC
  5
450
100
AcDbEntity
  8
0
100
AcDbCircle
 62
7
  6
CONTINUOUS
 10
6.9188390359
 20
16.7661975145
 40
0.0196850394
100
AcDbArc
 50
135.0
 51
180.0012049649
  0
ARC
  5
451
100
AcDbEntity
  8
0
100
AcDbCircle
 62
7
  6
CONTINUOUS
 10
6.9796888159
 20
16.6938165054
 40
0.0196850394
100
AcDbArc
 50
225.0260189205
 51
237.5061691349
  0
ARC
  5
452
100
AcDbEntity
  8
0
100
AcDbCircle
 62
7
  6
CONTINUOUS
 10
6.9188390359
 20
16.7546662854
 40
0.0196850394
100
AcDbArc
 50
180.0013272064
 51
224.9739810795
  0
ARC
  5
453
100
AcDbEntity
  8
0
100
AcDbCircle
 62
7
  6
CONTINUOUS
 10
7.0465562696
 20
16.6269490517
 40
0.0196850394
100
AcDbArc
 50
224.9941972838
 51
269.998672795
  0
ARC
  5
454
100
AcDbEntity
  8
0
100
AcDbCircle
 62
7
  6
CONTINUOUS
 10
7.0580874987
 20
16.6269490517
 40
0.0196850394
100
AcDbArc
 50
269.9987952045
 51
315.0
  0
ARC
  5
455
100
AcDbEntity
  8
0
100
AcDbCircle
 62
7
  6
CONTINUOUS
 10
6.9857064896
 20
16.6993300608
 40
0.0196850394
100
AcDbArc
 50
135.0
 51
180.0012047948
  0
ARC
  5
456
100
AcDbEntity
  8
0
100
AcDbCircle
 62
7
  6
CONTINUOUS
 10
6.9857064896
 20
16.6877988317
 40
0.0196850394
100
AcDbArc
 50
180.0013272052
 51
225.0058027165
  0
ARC
  5
457
100
AcDbEntity
  8
0
100
AcDbCircle
 62
7
  6
CONTINUOUS
 10
7.0269432595
 20
16.6225215406
 40
0.0078740157
100
AcDbArc
 50
155.0343536506
 51
214.8534612381
  0
ARC
  5
458
100
AcDbEntity
  8
0
100
AcDbCircle
 62
7
  6
CONTINUOUS
 10
6.746825181
 20
17.0574875563
 40
0.0078740157
100
AcDbArc
 50
210.7100596427
 51
225.0
  0
ARC
  5
459
100
AcDbEntity
  8
0
100
AcDbCircle
 62
7
  6
CONTINUOUS
 10
7.3883127933
 20
15.9777799211
 40
0.2722377335
100
AcDbArc
 50
34.6426938891
 51
35.1619922234
  0
ARC
  5
45A
100
AcDbEntity
  8
0
100
AcDbCircle
 62
9
  6
CONTINUOUS
 10
7.6653920605
 20
15.9660516788
 40
0.0577244707
100
AcDbArc
 50
207.760226279
 51
209.0006819329
  0
ARC
  5
45B
100
AcDbEntity
  8
0
100
AcDbCircle
 62
7
  6
CONTINUOUS
 10
7.5318012912
 20
15.800476546
 40
0.0196850394
100
AcDbArc
 50
359.9975682479
 51
44.9960710504
  0
ARC
  5
45C
100
AcDbEntity
  8
0
100
AcDbCircle
 62
7
  6
CONTINUOUS
 10
7.57117137
 20
15.7889453169
 40
0.0196850394
100
AcDbArc
 50
180.0025651901
 51
225.0042832815
  0
ARC
  5
45D
100
AcDbEntity
  8
0
100
AcDbCircle
 62
7
  6
CONTINUOUS
 10
7.545353973
 20
15.8147627139
 40
0.0196850394
100
AcDbArc
 50
224.9855827433
 51
269.9974348681
  0
ARC
  5
45E
100
AcDbEntity
  8
0
100
AcDbCircle
 62
7
  6
CONTINUOUS
 10
7.3926359891
 20
15.9674806978
 40
0.0196850394
100
AcDbArc
 50
180.0025651318
 51
225.0144172566
  0
ARC
  5
45F
100
AcDbEntity
  8
0
100
AcDbCircle
 62
7
  6
CONTINUOUS
 10
7.6721303164
 20
15.8255730956
 40
0.0118110236
100
AcDbArc
 50
224.9932833699
 51
269.9997499651
  0
ARC
  5
460
100
AcDbEntity
  8
0
100
AcDbCircle
 62
7
  6
CONTINUOUS
 10
7.6066680447
 20
15.9090896445
 40
0.0118110236
100
AcDbArc
 50
135.0
 51
180.0003003629
  0
ARC
  5
461
100
AcDbEntity
  8
0
100
AcDbCircle
 62
7
  6
CONTINUOUS
 10
7.6066680447
 20
15.8910353672
 40
0.0118110236
100
AcDbArc
 50
180.0002500349
 51
225.0067166301
  0
ARC
  5
462
100
AcDbEntity
  8
0
100
AcDbCircle
 62
7
  6
CONTINUOUS
 10
7.6256557933
 20
16.118137326
 40
0.0196850394
100
AcDbArc
 50
135.0
 51
180.0024588139
  0
ARC
  5
463
100
AcDbEntity
  8
0
100
AcDbCircle
 62
7
  6
CONTINUOUS
 10
7.6256557933
 20
16.1066060969
 40
0.0196850394
100
AcDbArc
 50
180.0011432895
 51
225.0046725647
  0
ARC
  5
464
100
AcDbEntity
  8
0
100
AcDbCircle
 62
7
  6
CONTINUOUS
 10
7.4394578981
 20
16.3043352211
 40
0.0196850394
100
AcDbArc
 50
269.9975411859
 51
315.0
  0
ARC
  5
465
100
AcDbEntity
  8
0
100
AcDbCircle
 62
7
  6
CONTINUOUS
 10
7.427926669
 20
16.3043352211
 40
0.0196850394
100
AcDbArc
 50
224.9978367146
 51
269.99885671
  0
ARC
  5
466
100
AcDbEntity
  8
0
100
AcDbCircle
 62
7
  6
CONTINUOUS
 10
7.5213126321
 20
16.1637239182
 40
0.0196850394
100
AcDbArc
 50
135.0
 51
180.0012047948
  0
ARC
  5
467
100
AcDbEntity
  8
0
100
AcDbCircle
 62
7
  6
CONTINUOUS
 10
7.5936936412
 20
16.0913429091
 40
0.0196850394
100
AcDbArc
 50
269.9987952044
 51
315.0
  0
ARC
  5
468
100
AcDbEntity
  8
0
100
AcDbCircle
 62
7
  6
CONTINUOUS
 10
7.5821624121
 20
16.0913429091
 40
0.0196850394
100
AcDbArc
 50
224.9953781699
 51
269.998672795
  0
ARC
  5
469
100
AcDbEntity
  8
0
100
AcDbCircle
 62
7
  6
CONTINUOUS
 10
7.5213126321
 20
16.1521926892
 40
0.0196850394
100
AcDbArc
 50
180.0013272057
 51
225.0046218311
  0
ARC
  5
46A
100
AcDbEntity
  8
0
100
AcDbCircle
 62
7
  6
CONTINUOUS
 10
7.3584195514
 20
16.3150857699
 40
0.0196850394
100
AcDbArc
 50
224.9976656101
 51
269.9986727948
  0
ARC
  5
46B
100
AcDbEntity
  8
0
100
AcDbCircle
 62
7
  6
CONTINUOUS
 10
7.3699507804
 20
16.3150857699
 40
0.0196850394
100
AcDbArc
 50
269.9987952051
 51
315.0
  0
ARC
  5
46C
100
AcDbEntity
  8
0
100
AcDbCircle
 62
9
  6
CONTINUOUS
 10
7.7508796128
 20
15.8825186918
 40
0.0641770092
100
AcDbArc
 50
236.2266692423
 51
236.4642887975
  0
ARC
  5
46D
100
AcDbEntity
  8
0
100
AcDbCircle
 62
9
  6
CONTINUOUS
 10
7.9001041673
 20
15.728375981
 40
0.0591193263
100
AcDbArc
 50
238.6109691656
 51
239.8555524751
  0
ARC
  5
46E
100
AcDbEntity
  8
0
100
AcDbCircle
 62
7
  6
CONTINUOUS
 10
8.010154316
 20
15.7336388032
 40
0.0196850394
100
AcDbArc
 50
269.9975417674
 51
315.0
  0
ARC
  5
46F
100
AcDbEntity
  8
0
100
AcDbCircle
 62
7
  6
CONTINUOUS
 10
7.9210699971
 20
15.8227231221
 40
0.0196850394
100
AcDbArc
 50
135.0
 51
180.0024582326
  0
ARC
  5
470
100
AcDbEntity
  8
0
100
AcDbCircle
 62
7
  6
CONTINUOUS
 10
7.9210699971
 20
15.811191893
 40
0.0196850394
100
AcDbArc
 50
180.0011432897
 51
225.0049941694
  0
ARC
  5
471
100
AcDbEntity
  8
0
100
AcDbCircle
 62
7
  6
CONTINUOUS
 10
7.9986230869
 20
15.7336388032
 40
0.0196850394
100
AcDbArc
 50
224.9950058306
 51
269.9988567103
  0
ARC
  5
472
100
AcDbEntity
  8
0
100
AcDbCircle
 62
7
  6
CONTINUOUS
 10
7.8317151467
 20
15.8417901746
 40
0.0196850394
100
AcDbArc
 50
224.9973602113
 51
269.9986727884
  0
ARC
  5
473
100
AcDbEntity
  8
0
100
AcDbCircle
 62
7
  6
CONTINUOUS
 10
7.8432463758
 20
15.8417901746
 40
0.0196850394
100
AcDbArc
 50
269.9987952044
 51
315.0
  0
ARC
  5
474
100
AcDbEntity
  8
0
100
AcDbCircle
 62
7
  6
CONTINUOUS
 10
7.7708653667
 20
15.9141711837
 40
0.0196850394
100
AcDbArc
 50
135.0
 51
180.0012047956
  0
ARC
  5
475
100
AcDbEntity
  8
0
100
AcDbCircle
 62
7
  6
CONTINUOUS
 10
7.7708653667
 20
15.9026399546
 40
0.0196850394
100
AcDbArc
 50
180.0013272117
 51
225.0026397887
  0
ARC
  5
476
100
AcDbEntity
  8
0
100
AcDbCircle
 62
7
  6
CONTINUOUS
 10
7.8250615864
 20
15.6726418255
 40
0.0118110236
100
AcDbArc
 50
224.9958159902
 51
269.999746835
  0
ARC
  5
477
100
AcDbEntity
  8
0
100
AcDbCircle
 62
7
  6
CONTINUOUS
 10
7.8431158638
 20
15.6726418255
 40
0.0118110236
100
AcDbArc
 50
269.9997000112
 51
315.0
  0
ARC
  5
478
100
AcDbEntity
  8
0
100
AcDbCircle
 62
7
  6
CONTINUOUS
 10
7.7595993148
 20
15.7561583745
 40
0.0118110236
100
AcDbArc
 50
135.0
 51
180.0002999888
  0
ARC
  5
479
100
AcDbEntity
  8
0
100
AcDbCircle
 62
7
  6
CONTINUOUS
 10
7.7595993148
 20
15.7381040972
 40
0.0118110236
100
AcDbArc
 50
180.0002531649
 51
225.0041840097
  0
ARC
  5
47A
100
AcDbEntity
  8
0
100
AcDbCircle
 62
7
  6
CONTINUOUS
 10
7.6901845937
 20
15.8255730956
 40
0.0118110236
100
AcDbArc
 50
269.9996996385
 51
315.0
  0
ARC
  5
47B
100
AcDbEntity
  8
0
100
AcDbCircle
 62
7
  6
CONTINUOUS
 10
7.7147401122
 20
16.0290530071
 40
0.0196850394
100
AcDbArc
 50
269.9975411861
 51
315.0
  0
ARC
  5
47C
100
AcDbEntity
  8
0
100
AcDbCircle
 62
7
  6
CONTINUOUS
 10
7.7032088831
 20
16.0290530071
 40
0.0196850394
100
AcDbArc
 50
224.9953274339
 51
269.9988567095
  0
ARC
  5
47D
100
AcDbEntity
  8
0
100
AcDbCircle
 62
7
  6
CONTINUOUS
 10
8.1667863306
 20
15.2031401072
 40
0.2694841878
100
AcDbArc
 50
54.8465748191
 51
55.3597800404
  0
ARC
  5
47E
100
AcDbEntity
  8
0
100
AcDbCircle
 62
7
  6
CONTINUOUS
 10
8.4264032377
 20
14.9728204681
 40
0.2498959507
100
AcDbArc
 50
45.031516787
 51
46.2640009897
  0
ARC
  5
47F
100
AcDbEntity
  8
0
100
AcDbCircle
 62
7
  6
CONTINUOUS
 10
8.1549118916
 20
15.2052047953
 40
0.0196850394
100
AcDbArc
 50
224.9859961097
 51
269.9974348102
  0
ARC
  5
480
100
AcDbEntity
  8
0
100
AcDbCircle
 62
7
  6
CONTINUOUS
 10
8.1664431207
 20
15.1658347165
 40
0.0196850394
100
AcDbArc
 50
45.00392895
 51
90.0024317524
  0
ARC
  5
481
100
AcDbEntity
  8
0
100
AcDbCircle
 62
7
  6
CONTINUOUS
 10
8.2427021737
 20
15.1452533628
 40
0.0196850394
100
AcDbArc
 50
225.0003166375
 51
294.9999051805
  0
ARC
  5
482
100
AcDbEntity
  8
0
100
AcDbCircle
 62
7
  6
CONTINUOUS
 10
8.3900027953
 20
15.1077006167
 40
0.0118110236
100
AcDbArc
 50
224.9917693692
 51
269.9997466605
  0
ARC
  5
483
100
AcDbEntity
  8
0
100
AcDbCircle
 62
7
  6
CONTINUOUS
 10
8.4080570726
 20
15.1077006167
 40
0.0118110236
100
AcDbArc
 50
269.9997000109
 51
315.0
  0
ARC
  5
484
100
AcDbEntity
  8
0
100
AcDbCircle
 62
7
  6
CONTINUOUS
 10
8.3245405237
 20
15.1912171656
 40
0.0118110236
100
AcDbArc
 50
135.0
 51
180.0002999879
  0
ARC
  5
485
100
AcDbEntity
  8
0
100
AcDbCircle
 62
7
  6
CONTINUOUS
 10
8.3245405237
 20
15.1731628883
 40
0.0118110236
100
AcDbArc
 50
180.0002533395
 51
225.0082306308
  0
ARC
  5
486
100
AcDbEntity
  8
0
100
AcDbCircle
 62
7
  6
CONTINUOUS
 10
8.4013902654
 20
15.0963131466
 40
0.0118110236
100
AcDbArc
 50
181.9125802727
 51
225.0087250402
  0
ARC
  5
487
100
AcDbEntity
  8
0
100
AcDbCircle
 62
7
  6
CONTINUOUS
 10
8.3965713476
 20
15.1011320644
 40
0.0118110236
100
AcDbArc
 50
224.9888903593
 51
241.7896816291
  0
ARC
  5
488
100
AcDbEntity
  8
0
100
AcDbCircle
 62
7
  6
CONTINUOUS
 10
8.3055685198
 20
15.4382245994
 40
0.0196850394
100
AcDbArc
 50
269.9975411863
 51
315.0
  0
ARC
  5
489
100
AcDbEntity
  8
0
100
AcDbCircle
 62
7
  6
CONTINUOUS
 10
8.2164842009
 20
15.5273089183
 40
0.0196850394
100
AcDbArc
 50
135.0
 51
180.0024588147
  0
ARC
  5
48A
100
AcDbEntity
  8
0
100
AcDbCircle
 62
7
  6
CONTINUOUS
 10
8.2164842009
 20
15.5157776892
 40
0.0196850394
100
AcDbArc
 50
180.0011432896
 51
225.0044320919
  0
ARC
  5
48B
100
AcDbEntity
  8
0
100
AcDbCircle
 62
7
  6
CONTINUOUS
 10
8.2940372907
 20
15.4382245994
 40
0.0196850394
100
AcDbArc
 50
224.9955679068
 51
269.9988567094
  0
ARC
  5
48C
100
AcDbEntity
  8
0
100
AcDbCircle
 62
7
  6
CONTINUOUS
 10
8.339623883
 20
15.3338814383
 40
0.0196850394
100
AcDbArc
 50
224.9953487529
 51
269.998672795
  0
ARC
  5
48D
100
AcDbEntity
  8
0
100
AcDbCircle
 62
7
  6
CONTINUOUS
 10
8.3511551121
 20
15.3338814383
 40
0.0196850394
100
AcDbArc
 50
269.9987952045
 51
315.0
  0
ARC
  5
48E
100
AcDbEntity
  8
0
100
AcDbCircle
 62
7
  6
CONTINUOUS
 10
8.278774103
 20
15.4062624474
 40
0.0196850394
100
AcDbArc
 50
135.0
 51
180.0012047948
  0
ARC
  5
48F
100
AcDbEntity
  8
0
100
AcDbCircle
 62
7
  6
CONTINUOUS
 10
8.278774103
 20
15.3947312183
 40
0.0196850394
100
AcDbArc
 50
180.0013272052
 51
225.0046512474
  0
ARC
  5
490
100
AcDbEntity
  8
0
100
AcDbCircle
 62
9
  6
CONTINUOUS
 10
8.5565721022
 20
15.1014394253
 40
0.0671927763
100
AcDbArc
 50
239.2961559642
 51
239.4775596888
  0
ARC
  5
491
100
AcDbEntity
  8
0
100
AcDbCircle
 62
9
  6
CONTINUOUS
 10
8.4932775172
 20
15.015608806
 40
0.0430294256
100
AcDbArc
 50
42.3594303543
 51
43.0790487464
  0
ARC
  5
492
100
AcDbEntity
  8
0
100
AcDbCircle
 62
7
  6
CONTINUOUS
 10
8.7281566113
 20
15.0156365079
 40
0.0196850394
100
AcDbArc
 50
135.0
 51
180.0024588136
  0
ARC
  5
493
100
AcDbEntity
  8
0
100
AcDbCircle
 62
7
  6
CONTINUOUS
 10
8.7281566113
 20
15.0041052789
 40
0.0196850394
100
AcDbArc
 50
180.0011432902
 51
225.0014820775
  0
ARC
  5
494
100
AcDbEntity
  8
0
100
AcDbCircle
 62
7
  6
CONTINUOUS
 10
8.5808507339
 20
15.1629423853
 40
0.0196850394
100
AcDbArc
 50
269.9975411863
 51
315.0
  0
ARC
  5
495
100
AcDbEntity
  8
0
100
AcDbCircle
 62
7
  6
CONTINUOUS
 10
8.5693195048
 20
15.1629423853
 40
0.0196850394
100
AcDbArc
 50
224.997916516
 51
269.9988567098
  0
ARC
  5
496
100
AcDbEntity
  8
0
100
AcDbCircle
 62
7
  6
CONTINUOUS
 10
8.5025169638
 20
15.1825195866
 40
0.0196850394
100
AcDbArc
 50
135.0
 51
180.0012047959
  0
ARC
  5
497
100
AcDbEntity
  8
0
100
AcDbCircle
 62
7
  6
CONTINUOUS
 10
8.5748979729
 20
15.1101385775
 40
0.0196850394
100
AcDbArc
 50
269.9987952047
 51
315.0
  0
ARC
  5
498
100
AcDbEntity
  8
0
100
AcDbCircle
 62
7
  6
CONTINUOUS
 10
8.5633667438
 20
15.1101385775
 40
0.0196850394
100
AcDbArc
 50
224.9978782692
 51
269.998672795
  0
ARC
  5
499
100
AcDbEntity
  8
0
100
AcDbCircle
 62
7
  6
CONTINUOUS
 10
8.5025169638
 20
15.1709883575
 40
0.0196850394
100
AcDbArc
 50
180.001327205
 51
225.0021217308
  0
ARC
  5
49A
100
AcDbEntity
  8
0
100
AcDbCircle
 62
7
  6
CONTINUOUS
 10
8.7460520247
 20
14.9274532966
 40
0.0196850394
100
AcDbArc
 50
224.9955707515
 51
269.9986727947
  0
ARC
  5
49B
100
AcDbEntity
  8
0
100
AcDbCircle
 62
7
  6
CONTINUOUS
 10
8.7575832537
 20
14.9274532966
 40
0.0196850394
100
AcDbArc
 50
269.9987952051
 51
315.0
  0
ARC
  5
49C
100
AcDbEntity
  8
0
100
AcDbCircle
 62
7
  6
CONTINUOUS
 10
8.6852022446
 20
14.9998343057
 40
0.0196850394
100
AcDbArc
 50
135.0
 51
180.0012047956
  0
ARC
  5
49D
100
AcDbEntity
  8
0
100
AcDbCircle
 62
7
  6
CONTINUOUS
 10
8.6852022446
 20
14.9883030766
 40
0.0196850394
100
AcDbArc
 50
180.0013272052
 51
225.0044292485
  0
ARC
  5
49E
100
AcDbEntity
  8
0
100
AcDbCircle
 62
7
  6
CONTINUOUS
 10
8.508558909
 20
14.989144503
 40
0.0118110236
100
AcDbArc
 50
225.0465599882
 51
269.9997468347
  0
ARC
  5
49F
100
AcDbEntity
  8
0
100
AcDbCircle
 62
7
  6
CONTINUOUS
 10
8.5266131863
 20
14.989144503
 40
0.0118110236
100
AcDbArc
 50
269.9996999689
 51
315.0
  0
ARC
  5
4A0
100
AcDbEntity
  8
0
100
AcDbCircle
 62
7
  6
CONTINUOUS
 10
8.466852537
 20
15.030850875
 40
0.0118110236
100
AcDbArc
 50
224.9912749597
 51
269.9997472495
  0
ARC
  5
4A1
100
AcDbEntity
  8
0
100
AcDbCircle
 62
7
  6
CONTINUOUS
 10
8.4849068143
 20
15.030850875
 40
0.0118110236
100
AcDbArc
 50
269.9997000847
 51
315.0
  0
ARC
  5
4A2
100
AcDbEntity
  8
0
100
AcDbCircle
 62
7
  6
CONTINUOUS
 10
8.491766415
 20
15.2520267042
 40
0.0196850394
100
AcDbArc
 50
135.0
 51
180.0024588143
  0
ARC
  5
4A3
100
AcDbEntity
  8
0
100
AcDbCircle
 62
7
  6
CONTINUOUS
 10
8.491766415
 20
15.2404954751
 40
0.0196850394
100
AcDbArc
 50
180.0011432902
 51
225.002083484
  0
ARC
  5
4A4
100
AcDbEntity
  8
0
100
AcDbCircle
 62
7
  6
CONTINUOUS
 10
9.4436121044
 20
14.6206979197
 40
0.5118110236
100
AcDbArc
 50
169.7363065404
 51
249.6710480593
  0
ARC
  5
4A5
100
AcDbEntity
  8
0
100
AcDbCircle
 62
7
  6
CONTINUOUS
 10
9.0376370572
 20
14.0807944783
 40
0.4724409449
100
AcDbArc
 50
34.4249168973
 51
56.7360171921
  0
ARC
  5
4A6
100
AcDbEntity
  8
0
100
AcDbCircle
 62
9
  6
CONTINUOUS
 10
9.4432347189
 20
14.620306024
 40
0.4449202022
100
AcDbArc
 50
169.6341122515
 51
249.6676920831
  0
ARC
  5
4A7
100
AcDbEntity
  8
0
100
AcDbCircle
 62
7
  6
CONTINUOUS
 10
9.3136754696
 20
14.2699783013
 40
0.1377952756
100
AcDbArc
 50
249.6710480599
 51
34.4249168912
  0
ARC
  5
4A8
100
AcDbEntity
  8
0
100
AcDbCircle
 62
7
  6
CONTINUOUS
 10
9.4178344142
 20
14.5151131806
 40
0.08
100
AcDbArc
 50
228.0
 51
315.0
  0
ARC
  5
4A9
100
AcDbEntity
  8
0
100
AcDbCircle
 62
7
  6
CONTINUOUS
 10
9.112655134
 20
14.6311379852
 40
0.0196850394
100
AcDbArc
 50
269.9975411861
 51
315.0
  0
ARC
  5
4AA
100
AcDbEntity
  8
0
100
AcDbCircle
 62
7
  6
CONTINUOUS
 10
9.0235708151
 20
14.7202223041
 40
0.0196850394
100
AcDbArc
 50
161.1249009773
 51
180.0024588139
  0
ARC
  5
4AB
100
AcDbEntity
  8
0
100
AcDbCircle
 62
7
  6
CONTINUOUS
 10
9.0235708151
 20
14.708691075
 40
0.0196850394
100
AcDbArc
 50
180.0011432895
 51
224.9839292213
  0
ARC
  5
4AC
100
AcDbEntity
  8
0
100
AcDbCircle
 62
7
  6
CONTINUOUS
 10
9.1011239049
 20
14.6311379852
 40
0.0196850394
100
AcDbArc
 50
225.0160707772
 51
269.9988567094
  0
ARC
  5
4AD
100
AcDbEntity
  8
0
100
AcDbCircle
 62
7
  6
CONTINUOUS
 10
8.9986295075
 20
14.7451636118
 40
0.0196850394
100
AcDbArc
 50
269.9975411858
 51
315.0
  0
ARC
  5
4AE
100
AcDbEntity
  8
0
100
AcDbCircle
 62
7
  6
CONTINUOUS
 10
8.9870982784
 20
14.7451636118
 40
0.0196850394
100
AcDbArc
 50
224.9866050522
 51
269.99885671
  0
ARC
  5
4AF
100
AcDbEntity
  8
0
100
AcDbCircle
 62
7
  6
CONTINUOUS
 10
8.8867612547
 20
14.7982752957
 40
0.0196850394
100
AcDbArc
 50
269.9987952044
 51
315.0
  0
ARC
  5
4B0
100
AcDbEntity
  8
0
100
AcDbCircle
 62
7
  6
CONTINUOUS
 10
8.8752300256
 20
14.7982752957
 40
0.0196850394
100
AcDbArc
 50
224.9941829962
 51
269.998672795
  0
ARC
  5
4B1
100
AcDbEntity
  8
0
100
AcDbCircle
 62
7
  6
CONTINUOUS
 10
8.9420974793
 20
14.731407842
 40
0.0196850394
100
AcDbArc
 50
225.0254658455
 51
269.9986727884
  0
ARC
  5
4B2
100
AcDbEntity
  8
0
100
AcDbCircle
 62
7
  6
CONTINUOUS
 10
8.9536287083
 20
14.731407842
 40
0.0196850394
100
AcDbArc
 50
269.9987952044
 51
315.0
  0
ARC
  5
4B3
100
AcDbEntity
  8
0
100
AcDbCircle
 62
7
  6
CONTINUOUS
 10
8.8812476992
 20
14.7922576221
 40
0.0196850394
100
AcDbArc
 50
212.4938308644
 51
224.9745341545
  0
ARC
  5
4B4
100
AcDbEntity
  8
0
100
AcDbCircle
 62
7
  6
CONTINUOUS
 10
9.2431008965
 20
14.5614153237
 40
0.0080179026
100
AcDbArc
 50
225.0039089863
 51
239.1605534022
  0
ARC
  5
4B5
100
AcDbEntity
  8
0
100
AcDbCircle
 62
7
  6
CONTINUOUS
 10
8.9095451886
 20
14.8342479306
 40
0.0196850394
100
AcDbArc
 50
135.0
 51
180.0024588142
  0
ARC
  5
4B6
100
AcDbEntity
  8
0
100
AcDbCircle
 62
7
  6
CONTINUOUS
 10
8.9095451886
 20
14.8227167016
 40
0.0196850394
100
AcDbArc
 50
180.00114329
 51
225.0133949478
  0
ARC
  5
4B7
100
AcDbEntity
  8
0
100
AcDbCircle
 62
7
  6
CONTINUOUS
 10
8.8172409302
 20
14.9265521891
 40
0.0196850394
100
AcDbArc
 50
269.9975411859
 51
315.0
  0
ARC
  5
4B8
100
AcDbEntity
  8
0
100
AcDbCircle
 62
7
  6
CONTINUOUS
 10
8.8057097011
 20
14.9265521891
 40
0.0196850394
100
AcDbArc
 50
224.9985179225
 51
269.9988567098
  0
ARC
  5
4B9
100
AcDbEntity
  8
0
100
AcDbCircle
 62
7
  6
CONTINUOUS
 10
8.8143802456
 20
14.8706563048
 40
0.0196850394
100
AcDbArc
 50
135.0
 51
180.0012047948
  0
ARC
  5
4BA
100
AcDbEntity
  8
0
100
AcDbCircle
 62
7
  6
CONTINUOUS
 10
8.8143802456
 20
14.8591250757
 40
0.0196850394
100
AcDbArc
 50
180.0013272057
 51
225.0058170048
  0
ARC
  5
4BB
100
AcDbEntity
  8
0
100
AcDbCircle
 62
7
  6
CONTINUOUS
 10
8.8099527344
 20
14.8395120656
 40
0.0078740157
100
AcDbArc
 50
235.1465387618
 51
294.9656536323
  0
ARC
  5
4BC
100
AcDbEntity
  8
0
100
AcDbCircle
 62
7
  6
CONTINUOUS
 10
9.4341934334
 20
16.5721083897
 40
0.08
100
AcDbArc
 50
0.2317553725
 51
16.0449756281
  0
ARC
  5
4BD
100
AcDbEntity
  8
0
100
AcDbCircle
 62
7
  6
CONTINUOUS
 10
8.7595395836
 20
17.2467622395
 40
0.08
100
AcDbArc
 50
73.9550243719
 51
89.7682446275
  0
ARC
  5
4BE
100
AcDbEntity
  8
0
100
AcDbCircle
 62
7
  6
CONTINUOUS
 10
9.5974981095
 20
15.7554370477
 40
0.08
100
AcDbArc
 50
180.2317553725
 51
225.0
  0
ARC
  5
4BF
100
AcDbEntity
  8
0
100
AcDbCircle
 62
7
  6
CONTINUOUS
 10
9.5672076915
 20
17.3797764977
 40
2.5590551181
100
AcDbArc
 50
222.3528405071
 51
227.6471594929
  0
ARC
  5
4C0
100
AcDbEntity
  8
0
100
AcDbCircle
 62
7
  6
CONTINUOUS
 10
9.6441671571
 20
17.4567359632
 40
0.489
100
AcDbArc
 50
343.8720486571
 51
0.0258404644
  0
ARC
  5
4C1
100
AcDbEntity
  8
0
100
AcDbCircle
 62
7
  6
CONTINUOUS
 10
9.6441671571
 20
17.4567359632
 40
0.489
100
AcDbArc
 50
89.9741595356
 51
106.1279513429
  0
ARC
  5
4C2
100
AcDbEntity
  8
0
100
AcDbCircle
 62
7
  6
CONTINUOUS
 10
9.6444237768
 20
18.0257359054
 40
0.08
100
AcDbArc
 50
269.9741595356
 51
360.0
  0
ARC
  5
4C3
100
AcDbEntity
  8
0
100
AcDbCircle
 62
7
  6
CONTINUOUS
 10
7.9428682416
 20
17.4100669157
 40
0.08
100
AcDbArc
 50
225.0
 51
269.7682446275
  0
ARC
  5
4C4
100
AcDbEntity
  8
0
100
AcDbCircle
 62
7
  6
CONTINUOUS
 10
7.2994010707
 20
17.8272599166
 40
0.08
100
AcDbArc
 50
45.0
 51
135.0
  0
ARC
  5
4C5
100
AcDbEntity
  8
0
100
AcDbCircle
 62
7
  6
CONTINUOUS
 10
10.0146911104
 20
15.1119698768
 40
0.08
100
AcDbArc
 50
315.0
 51
45.0
  0
ARC
  5
4C6
100
AcDbEntity
  8
0
100
AcDbCircle
 62
9
  6
CONTINUOUS
 10
12.7694229506
 20
20.4911622627
 40
6.926579066
100
AcDbArc
 50
239.2610109885
 51
240.0308013472
  0
ARC
  5
4C7
100
AcDbEntity
  8
0
100
AcDbCircle
 62
7
  6
CONTINUOUS
 10
12.5474226038
 20
17.8851176758
 40
2.15625
100
AcDbArc
 50
90.0
 51
135.0
  0
ARC
  5
4C8
100
AcDbEntity
  8
0
100
AcDbCircle
 62
7
  6
CONTINUOUS
 10
12.5474226038
 20
17.8851176758
 40
1.34375
100
AcDbArc
 50
90.0
 51
135.0
  0
ARC
  5
4C9
100
AcDbEntity
  8
0
100
AcDbCircle
 62
7
  6
CONTINUOUS
 10
10.286483264
 20
17.7249925829
 40
0.188
100
AcDbArc
 50
270.0
 51
315.0
  0
ARC
  5
4CA
100
AcDbEntity
  8
0
100
AcDbCircle
 62
7
  6
CONTINUOUS
 10
9.9124237768
 20
18.0990520702
 40
0.188
100
AcDbArc
 50
135.0
 51
180.0
  0
ARC
  5
4CB
100
AcDbEntity
  8
0
100
AcDbCircle
 62
7
  6
CONTINUOUS
 10
10.2131670992
 20
17.4569925829
 40
0.08
100
AcDbArc
 50
90.0
 51
180.0258404644
  0
ARC
  5
4CC
100
AcDbEntity
  8
0
100
AcDbCircle
 62
7
  6
CONTINUOUS
 10
14.4844226038
 20
4.3746828932
 40
0.1254347826
100
AcDbArc
 50
22.9364108859
 51
70.4680059554
  0
ARC
  5
4CD
100
AcDbEntity
  8
0
100
AcDbCircle
 62
7
  6
CONTINUOUS
 10
14.1274226038
 20
8.3845791163
 40
0.08
100
AcDbArc
 50
272.0
 51
340.8012928747
  0
ARC
  5
4CE
100
AcDbEntity
  8
0
100
AcDbCircle
 62
7
  6
CONTINUOUS
 10
14.1274226038
 20
6.8856562354
 40
0.08
100
AcDbArc
 50
19.1987071253
 51
88.0
  0
ARC
  5
4CF
100
AcDbEntity
  8
0
100
AcDbCircle
 62
7
  6
CONTINUOUS
 10
14.5474226038
 20
4.5522741861
 40
0.063
100
AcDbArc
 50
180.0
 51
250.4680059544
  0
ARC
  5
4D0
100
AcDbEntity
  8
0
100
AcDbCircle
 62
7
  6
CONTINUOUS
 10
14.6579593435
 20
4.4481176758
 40
0.063
100
AcDbArc
 50
202.9364108859
 51
270.0
  0
ARC
  5
4D1
100
AcDbEntity
  8
0
100
AcDbCircle
 62
7
  6
CONTINUOUS
 10
14.2407486587
 20
8.3451176758
 40
0.04
100
AcDbArc
 50
90.0
 51
160.8012928749
  0
ARC
  5
4D2
100
AcDbEntity
  8
0
100
AcDbCircle
 62
7
  6
CONTINUOUS
 10
14.2407486587
 20
6.9251176758
 40
0.04
100
AcDbArc
 50
199.1987071251
 51
270.0
  0
ARC
  5
4D3
100
AcDbEntity
  8
0
100
AcDbCircle
 62
7
  6
CONTINUOUS
 10
13.2634226038
 20
5.0776176758
 40
0.031
100
AcDbArc
 50
180.0
 51
256.9592389661
  0
ARC
  5
4D4
100
AcDbEntity
  8
0
100
AcDbCircle
 62
7
  6
CONTINUOUS
 10
13.2634226038
 20
5.8526176758
 40
0.031
100
AcDbArc
 50
103.0407610339
 51
180.0
  0
ARC
  5
4D5
100
AcDbEntity
  8
0
100
AcDbCircle
 62
7
  6
CONTINUOUS
 10
13.3994226038
 20
5.0461176758
 40
0.031
100
AcDbArc
 50
256.9592389661
 51
270.0
  0
ARC
  5
4D6
100
AcDbEntity
  8
0
100
AcDbCircle
 62
7
  6
CONTINUOUS
 10
13.4894226038
 20
5.0461176758
 40
0.031
100
AcDbArc
 50
270.0
 51
315.2453073495
  0
ARC
  5
4D7
100
AcDbEntity
  8
0
100
AcDbCircle
 62
7
  6
CONTINUOUS
 10
13.3994226038
 20
5.8841176758
 40
0.031
100
AcDbArc
 50
90.0
 51
103.0407610339
  0
ARC
  5
4D8
100
AcDbEntity
  8
0
100
AcDbCircle
 62
7
  6
CONTINUOUS
 10
13.4894226038
 20
5.8841176758
 40
0.031
100
AcDbArc
 50
44.7546926505
 51
90.0
  0
ARC
  5
4D9
100
AcDbEntity
  8
0
100
AcDbCircle
 62
7
  6
CONTINUOUS
 10
14.3274226038
 20
8.7051176758
 40
0.03
100
AcDbArc
 50
90.0
 51
180.0
  0
ARC
  5
4DA
100
AcDbEntity
  8
0
100
AcDbCircle
 62
7
  6
CONTINUOUS
 10
14.3274226038
 20
6.5651176758
 40
0.03
100
AcDbArc
 50
180.0
 51
270.0
  0
ARC
  5
4DB
100
AcDbEntity
  8
0
100
AcDbCircle
 62
7
  6
CONTINUOUS
 10
14.3164226038
 20
5.2411176758
 40
0.012
100
AcDbArc
 50
180.0
 51
270.0
  0
ARC
  5
4DC
100
AcDbEntity
  8
0
100
AcDbCircle
 62
7
  6
CONTINUOUS
 10
14.3164226038
 20
5.6891176758
 40
0.012
100
AcDbArc
 50
90.0
 51
180.0
  0
ARC
  5
4DD
100
AcDbEntity
  8
0
100
AcDbCircle
 62
7
  6
CONTINUOUS
 10
12.8996784321
 20
20.7122668013
 40
7.1691060897
100
AcDbArc
 50
219.1377472491
 51
219.2089918143
  0
ARC
  5
4DE
100
AcDbEntity
  8
0
100
AcDbCircle
 62
7
  6
CONTINUOUS
 10
12.8996784321
 20
20.7122668013
 40
7.1691060897
100
AcDbArc
 50
215.6769302766
 51
217.0935642307
  0
ARC
  5
4DF
100
AcDbEntity
  8
0
100
AcDbCircle
 62
7
  6
CONTINUOUS
 10
12.8996979952
 20
20.7122472382
 40
7.1691060897
100
AcDbArc
 50
232.7964712846
 51
234.3230697234
  0
ARC
  5
4E0
100
AcDbEntity
  8
0
100
AcDbCircle
 62
7
  6
CONTINUOUS
 10
12.8997033999
 20
20.7122917692
 40
7.1643816803
100
AcDbArc
 50
214.8532231336
 51
215.5750973652
  0
ARC
  5
4E1
100
AcDbEntity
  8
0
100
AcDbCircle
 62
7
  6
CONTINUOUS
 10
12.8997229631
 20
20.7122722061
 40
7.1643816803
100
AcDbArc
 50
234.4249026348
 51
235.1467768664
  0
ARC
  5
4E2
100
AcDbEntity
  8
0
100
AcDbCircle
 62
7
  6
CONTINUOUS
 10
12.8997033999
 20
20.7122917692
 40
7.1643816803
100
AcDbArc
 50
210.1944718959
 51
210.7102731828
  0
ARC
  5
4E3
100
AcDbEntity
  8
0
100
AcDbCircle
 62
7
  6
CONTINUOUS
 10
12.8993394014
 20
20.7120420026
 40
7.1633226515
100
AcDbArc
 50
239.270521551
 51
239.7914629
  0
ARC
  5
4E4
100
AcDbEntity
  8
0
100
AcDbCircle
 62
9
  6
CONTINUOUS
 10
12.9032217182
 20
20.7182119566
 40
7.1507436041
100
AcDbArc
 50
238.2880417734
 51
238.6171785401
  0
ARC
  5
4E5
100
AcDbEntity
  8
0
100
AcDbCircle
 62
7
  6
CONTINUOUS
 10
18.8525820196
 20
19.687291588
 40
4.5
100
AcDbArc
 50
186.4144817261
 51
195.5395954904
  0
ARC
  5
4E6
100
AcDbEntity
  8
0
100
AcDbCircle
 62
7
  6
CONTINUOUS
 10
18.8525820196
 20
19.5829437637
 40
4.5
100
AcDbArc
 50
164.4604045096
 51
173.5855182739
  0
ARC
  5
4E7
100
AcDbEntity
  8
0
100
AcDbCircle
 62
7
  6
CONTINUOUS
 10
14.4844226038
 20
10.8955524584
 40
0.1254347826
100
AcDbArc
 50
289.5319940446
 51
337.0635891141
  0
ARC
  5
4E8
100
AcDbEntity
  8
0
100
AcDbCircle
 62
7
  6
CONTINUOUS
 10
14.5474226038
 20
10.7179611656
 40
0.063
100
AcDbArc
 50
109.5319940456
 51
180.0
  0
ARC
  5
4E9
100
AcDbEntity
  8
0
100
AcDbCircle
 62
7
  6
CONTINUOUS
 10
14.6579593435
 20
10.8221176758
 40
0.063
100
AcDbArc
 50
90.0
 51
157.0635891141
  0
ARC
  5
4EA
100
AcDbEntity
  8
0
100
AcDbCircle
 62
7
  6
CONTINUOUS
 10
14.5652493566
 20
20.7751176758
 40
0.05
100
AcDbArc
 50
90.0
 51
164.4604045096
  0
ARC
  5
4EB
100
AcDbEntity
  8
0
100
AcDbCircle
 62
7
  6
CONTINUOUS
 10
14.5652493566
 20
18.4951176758
 40
0.05
100
AcDbArc
 50
195.5395954904
 51
270.0
  0
LINE
  5
4EC
100
AcDbEntity
  8
0
100
AcDbLine
 62
7
  6
CONTINUOUS
 10
10.6224832491
 20
17.8605278234
 11
10.6225373884
 21
17.8612767086
  0
LINE
  5
4ED
100
AcDbEntity
  8
0
100
AcDbLine
 62
7
  6
CONTINUOUS
 10
7.2007961507
 20
16.3630693149
 11
7.197980941
 21
16.366712155
  0
LINE
  5
4EE
100
AcDbEntity
  8
0
100
AcDbLine
 62
7
  6
CONTINUOUS
 10
7.197980941
 20
16.366712155
 11
7.197142378
 21
16.3677974582
  0
LINE
  5
4EF
100
AcDbEntity
  8
0
100
AcDbLine
 62
7
  6
CONTINUOUS
 10
7.197142378
 20
16.3677974582
 11
7.1812848659
 21
16.3883731477
  0
LINE
  5
4F0
100
AcDbEntity
  8
0
100
AcDbLine
 62
7
  6
CONTINUOUS
 10
7.1812288783
 20
16.3884470979
 11
7.1810214472
 21
16.3887252275
  0
SPLINE
  5
4F1
100
AcDbEntity
  8
0
100
AcDbSpline
 62
7
  6
CONTINUOUS
 70
0
 71
3
 72
27
 73
23
 74
0
 42
0.0000001
 43
0.0000001
 44
0.0000000001
 40
0.0
 40
0.0
 40
0.0
 40
0.0
 40
0.1932976879
 40
0.2862038841
 40
0.3756136737
 40
0.4608218493
 40
0.5411808446
 40
0.6161026234
 40
0.6850697778
 40
0.7476430275
 40
0.803473483
 40
0.8523215612
 40
0.8740948276
 40
0.8941021134
 40
0.9123636084
 40
0.9289221534
 40
0.9438479719
 40
0.9572494146
 40
0.9692893699
 40
0.9802002648
 40
0.9903021709
 40
1.0
 40
1.0
 40
1.0
 40
1.0
 10
8.1057492036
 20
15.6468806913
 30
0.0
 10
8.1087045091
 20
15.6439253858
 30
0.0
 10
8.1130027675
 20
15.6394707445
 30
0.0
 10
8.1184645994
 20
15.6334596962
 30
0.0
 10
8.1222633336
 20
15.6290969101
 30
0.0
 10
8.1257875449
 20
15.6248566962
 30
0.0
 10
8.1290089351
 20
15.6207741751
 30
0.0
 10
8.1319024132
 20
15.6168825877
 30
0.0
 10
8.1344461831
 20
15.6132130437
 30
0.0
 10
8.1366221313
 20
15.6097941432
 30
0.0
 10
8.1384152493
 20
15.6066519702
 30
0.0
 10
8.1396247804
 20
15.6041969819
 30
0.0
 10
8.1403780252
 20
15.6023873217
 30
0.0
 10
8.1408185781
 20
15.6011655089
 30
0.0
 10
8.1411563168
 20
15.6000283697
 30
0.0
 10
8.1413908654
 20
15.5989776067
 30
0.0
 10
8.1415219706
 20
15.5980145782
 30
0.0
 10
8.1415491508
 20
15.5971402506
 30
0.0
 10
8.1414718222
 20
15.5963553755
 30
0.0
 10
8.1412882279
 20
15.5956608163
 30
0.0
 10
8.1409966751
 20
15.5950591885
 30
0.0
 10
8.1407277154
 20
15.5947206553
 30
0.0
 10
8.1405794409
 20
15.5945723919
 30
0.0
  0
SPLINE
  5
4F2
100
AcDbEntity
  8
0
100
AcDbSpline
 62
7
  6
CONTINUOUS
 70
0
 71
3
 72
13
 73
9
 74
0
 42
0.0000001
 43
0.0000001
 44
0.0000000001
 40
0.0
 40
0.0
 40
0.0
 40
0.0
 40
0.1217836471
 40
0.2475202432
 40
0.5047584142
 40
0.7594968325
 40
0.8822247193
 40
1.0
 40
1.0
 40
1.0
 40
1.0
 10
7.5721235692
 20
16.1805063257
 30
0.0
 10
7.5738507922
 20
16.1787791027
 30
0.0
 10
7.5773189632
 20
16.1752260183
 30
0.0
 10
7.5842305347
 20
16.1678273086
 30
0.0
 10
7.5926688611
 20
16.1582098646
 30
0.0
 10
7.6006835455
 20
16.1483140542
 30
0.0
 10
7.6066863398
 20
16.1403989545
 30
0.0
 10
7.6095141545
 20
16.1364901887
 30
0.0
 10
7.6108745184
 20
16.1345589442
 30
0.0
  0
SPLINE
  5
4F3
100
AcDbEntity
  8
0
100
AcDbSpline
 62
7
  6
CONTINUOUS
 70
0
 71
3
 72
22
 73
18
 74
0
 42
0.0000001
 43
0.0000001
 44
0.0000000001
 40
0.0
 40
0.0
 40
0.0
 40
0.0
 40
0.2080890882
 40
0.3946427133
 40
0.5579647939
 40
0.6304614106
 40
0.6966457949
 40
0.7563976
 40
0.8096379071
 40
0.8563314873
 40
0.8965222977
 40
0.9303674313
 40
0.9582387416
 40
0.9701699874
 40
0.9809503244
 40
0.9907977052
 40
1.0
 40
1.0
 40
1.0
 40
1.0
 10
7.2084956325
 20
16.5217618258
 30
0.0
 10
7.2093230959
 20
16.5203013647
 30
0.0
 10
7.2108641284
 20
16.51751535
 30
0.0
 10
7.212938954
 20
16.5135205889
 30
0.0
 10
7.2144092201
 20
16.5104459019
 30
0.0
 10
7.215382881
 20
16.5082125226
 30
0.0
 10
7.2159827327
 20
16.5067282245
 30
0.0
 10
7.2164802568
 20
16.5053708683
 30
0.0
 10
7.2168742387
 20
16.5041439892
 30
0.0
 10
7.2171636805
 20
16.5030507085
 30
0.0
 10
7.2173481906
 20
16.5020933127
 30
0.0
 10
7.2174273088
 20
16.5012737611
 30
0.0
 10
7.2174043693
 20
16.5006767008
 30
0.0
 10
7.2173227439
 20
16.5002759916
 30
0.0
 10
7.2172370128
 20
16.50002676
 30
0.0
 10
7.2171233083
 20
16.4998134129
 30
0.0
 10
7.2170261058
 20
16.4996928261
 30
0.0
 10
7.2169736201
 20
16.4996403322
 30
0.0
  0
SPLINE
  5
4F4
100
AcDbEntity
  8
0
100
AcDbSpline
 62
7
  6
CONTINUOUS
 70
0
 71
3
 72
15
 73
11
 74
0
 42
0.0000001
 43
0.0000001
 44
0.0000000001
 40
0.0
 40
0.0
 40
0.0
 40
0.0
 40
0.3278002834
 40
0.4757712118
 40
0.6111121164
 40
0.7324238479
 40
0.8384161768
 40
0.9279345642
 40
0.9662028492
 40
1.0
 40
1.0
 40
1.0
 40
1.0
 10
6.9134854969
 20
16.8796848499
 30
0.0
 10
6.9159527493
 20
16.8755375155
 30
0.0
 10
6.9194957132
 20
16.8694951509
 30
0.0
 10
6.9239420972
 20
16.8616740713
 30
0.0
 10
6.9268324562
 20
16.8564654721
 30
0.0
 10
6.9293641292
 20
16.8517649989
 30
0.0
 10
6.9315094628
 20
16.8476233197
 30
0.0
 10
6.9330267538
 20
16.8445336909
 30
0.0
 10
6.9340211534
 20
16.8423726178
 30
0.0
 10
6.9344446483
 20
16.841399757
 30
0.0
 10
6.9346366335
 20
16.8409407419
 30
0.0
  0
SPLINE
  5
4F5
100
AcDbEntity
  8
0
100
AcDbSpline
 62
7
  6
CONTINUOUS
 70
0
 71
3
 72
31
 73
27
 74
0
 42
0.0000001
 43
0.0000001
 44
0.0000000001
 40
0.0
 40
0.0
 40
0.0
 40
0.0
 40
0.0017776691
 40
0.0038846962
 40
0.006450732
 40
0.0095462653
 40
0.0132097405
 40
0.0174622967
 40
0.0223146816
 40
0.0277721748
 40
0.0405062508
 40
0.0556511682
 40
0.0731688569
 40
0.0930039762
 40
0.1150907072
 40
0.1393527322
 40
0.1657061243
 40
0.1940597204
 40
0.2563713496
 40
0.3254439408
 40
0.4003572338
 40
0.4801282495
 40
0.5637199592
 40
0.6500508643
 40
0.8264235716
 40
1.0
 40
1.0
 40
1.0
 40
1.0
 10
8.8149414154
 20
14.8990562981
 30
0.0
 10
8.8149813002
 20
14.8990961903
 30
0.0
 10
8.8150870885
 20
14.899165134
 30
0.0
 10
8.8152857268
 20
14.899221506
 30
0.0
 10
8.8155324645
 20
14.8992417248
 30
0.0
 10
8.8158285651
 20
14.8992265256
 30
0.0
 10
8.8161747171
 20
14.8991762163
 30
0.0
 10
8.8165710018
 20
14.8990906759
 30
0.0
 10
8.8170172329
 20
14.8989699704
 30
0.0
 10
8.8177149458
 20
14.898750526
 30
0.0
 10
8.8187074903
 20
14.8983828496
 30
0.0
 10
8.8200360218
 20
14.8978251851
 30
0.0
 10
8.8215511276
 20
14.8971320187
 30
0.0
 10
8.8232470147
 20
14.8963060506
 30
0.0
 10
8.8251172449
 20
14.895350228
 30
0.0
 10
8.8271548769
 20
14.8942681253
 30
0.0
 10
8.8293524662
 20
14.8930637208
 30
0.0
 10
8.8325885486
 20
14.891242382
 30
0.0
 10
8.8369684097
 20
14.8886900876
 30
0.0
 10
8.8425739059
 20
14.8853082373
 30
0.0
 10
8.8486065734
 20
14.8815630664
 30
0.0
 10
8.8549862686
 20
14.877504291
 30
0.0
 10
8.8616292087
 20
14.8731850524
 30
0.0
 10
8.8707867058
 20
14.8671103991
 30
0.0
 10
8.8822228978
 20
14.8593063738
 30
0.0
 10
8.8912886549
 20
14.8528917453
 30
0.0
 10
8.8957539001
 20
14.8496667071
 30
0.0
  0
LINE
  5
4F6
100
AcDbEntity
  8
0
100
AcDbLine
 62
7
  6
CONTINUOUS
 10
8.8957539001
 20
14.8496667071
 11
8.8963960577
 21
14.8492024413
  0
SPLINE
  5
4F7
100
AcDbEntity
  8
0
100
AcDbSpline
 62
7
  6
CONTINUOUS
 70
0
 71
3
 72
23
 73
19
 74
0
 42
0.0000001
 43
0.0000001
 44
0.0000000001
 40
0.0
 40
0.0
 40
0.0
 40
0.0
 40
0.0083904879
 40
0.0175467428
 40
0.027769317
 40
0.0392718386
 40
0.0521992938
 40
0.0666479719
 40
0.1003331279
 40
0.1406284182
 40
0.1876202996
 40
0.2412903305
 40
0.3015544699
 40
0.3682832717
 40
0.4413153438
 40
0.6055087532
 40
0.7924027818
 40
1.0
 40
1.0
 40
1.0
 40
1.0
 10
8.9111602518
 20
14.8637018404
 30
0.0
 10
8.9112230338
 20
14.8637646161
 30
0.0
 10
8.9113705983
 20
14.8638802268
 30
0.0
 10
8.9116351744
 20
14.8640115131
 30
0.0
 10
8.9119487642
 20
14.8641074595
 30
0.0
 10
8.9123110658
 20
14.8641687565
 30
0.0
 10
8.9127221112
 20
14.8641959898
 30
0.0
 10
8.9133686973
 20
14.8641864528
 30
0.0
 10
8.9143002745
 20
14.8640787505
 30
0.0
 10
8.9155556282
 20
14.8638241086
 30
0.0
 10
8.9169970083
 20
14.8634376721
 30
0.0
 10
8.9186199231
 20
14.8629207218
 30
0.0
 10
8.9204194687
 20
14.8622746791
 30
0.0
 10
8.9223900516
 20
14.8615016582
 30
0.0
 10
8.9253551716
 20
14.8602550954
 30
0.0
 10
8.9294370113
 20
14.8583874729
 30
0.0
 10
8.9347381864
 20
14.8557698831
 30
0.0
 10
8.9384367443
 20
14.8538338289
 30
0.0
 10
8.9403733306
 20
14.852797031
 30
0.0
  0
SPLINE
  5
4F8
100
AcDbEntity
  8
0
100
AcDbSpline
 62
7
  6
CONTINUOUS
 70
0
 71
3
 72
23
 73
19
 74
0
 42
0.0000001
 43
0.0000001
 44
0.0000000001
 40
0.0
 40
0.0
 40
0.0
 40
0.0
 40
0.2075973239
 40
0.3944913564
 40
0.5586847798
 40
0.6317168496
 40
0.6984456081
 40
0.7587097252
 40
0.8123797427
 40
0.8593716233
 40
0.8996668857
 40
0.9333520329
 40
0.9478007025
 40
0.960728154
 40
0.9722306806
 40
0.9824532552
 40
0.9916095096
 40
1.0
 40
1.0
 40
1.0
 40
1.0
 10
7.040228242
 20
16.7529421048
 30
0.0
 10
7.041265039
 20
16.7510055196
 30
0.0
 10
7.0432010911
 20
16.7473069647
 30
0.0
 10
7.0458186779
 20
16.7420057942
 30
0.0
 10
7.0476862975
 20
16.7379239586
 30
0.0
 10
7.0489328585
 20
16.7349588422
 30
0.0
 10
7.0497058777
 20
16.732988262
 30
0.0
 10
7.0503519192
 20
16.7311887191
 30
0.0
 10
7.0508688681
 20
16.7295658064
 30
0.0
 10
7.0512553041
 20
16.7281244283
 30
0.0
 10
7.0515099448
 20
16.7268690764
 30
0.0
 10
7.051617647
 20
16.7259375007
 30
0.0
 10
7.0516271836
 20
16.7252909155
 30
0.0
 10
7.05159995
 20
16.7248798707
 30
0.0
 10
7.0515386533
 20
16.7245175695
 30
0.0
 10
7.0514427068
 20
16.7242039801
 30
0.0
 10
7.0513114204
 20
16.7239394043
 30
0.0
 10
7.0511958098
 20
16.72379184
 30
0.0
 10
7.0511330342
 20
16.723729058
 30
0.0
  0
SPLINE
  5
4F9
100
AcDbEntity
  8
0
100
AcDbSpline
 62
7
  6
CONTINUOUS
 70
0
 71
3
 72
19
 73
15
 74
0
 42
0.0000001
 43
0.0000001
 44
0.0000000001
 40
0.0
 40
0.0
 40
0.0
 40
0.0
 40
0.196540864
 40
0.3726375986
 40
0.527681045
 40
0.6613343817
 40
0.7201622386
 40
0.7737255001
 40
0.8221524456
 40
0.8656576569
 40
0.9045706961
 40
0.9393942369
 40
0.9708636021
 40
1.0
 40
1.0
 40
1.0
 40
1.0
 10
7.2317168598
 20
16.561453487
 30
0.0
 10
7.2321677991
 20
16.5603791913
 30
0.0
 10
7.2329911005
 20
16.5583287613
 30
0.0
 10
7.2340395086
 20
16.5553804244
 30
0.0
 10
7.234829731
 20
16.5527395013
 30
0.0
 10
7.235288501
 20
16.5507284914
 30
0.0
 10
7.2355090576
 20
16.5492860786
 30
0.0
 10
7.2355996196
 20
16.5483364383
 30
0.0
 10
7.2356223878
 20
16.5474734158
 30
0.0
 10
7.2355770639
 20
16.5466979368
 30
0.0
 10
7.235463104
 20
16.5460107095
 30
0.0
 10
7.2352794603
 20
16.5454122403
 30
0.0
 10
7.2350247958
 20
16.5449037348
 30
0.0
 10
7.2348001591
 20
16.5446190409
 30
0.0
 10
7.234678022
 20
16.544496913
 30
0.0
  0
SPLINE
  5
4FA
100
AcDbEntity
  8
0
100
AcDbSpline
 62
7
  6
CONTINUOUS
 70
0
 71
3
 72
15
 73
11
 74
0
 42
0.0000001
 43
0.0000001
 44
0.0000000001
 40
0.0
 40
0.0
 40
0.0
 40
0.0
 40
0.1687696511
 40
0.3232524267
 40
0.4639131281
 40
0.5914682755
 40
0.7069918127
 40
0.8120390853
 40
0.9087624949
 40
1.0
 40
1.0
 40
1.0
 40
1.0
 10
7.4749017176
 20
16.3182686292
 30
0.0
 10
7.4749759211
 20
16.3178430329
 30
0.0
 10
7.4750976956
 20
16.3170240576
 30
0.0
 10
7.4751992055
 20
16.3158399976
 30
0.0
 10
7.475211162
 20
16.3147568344
 30
0.0
 10
7.4751330927
 20
16.3137760143
 30
0.0
 10
7.474964326
 20
16.3128987844
 30
0.0
 10
7.4747037563
 20
16.3121262876
 30
0.0
 10
7.4743499147
 20
16.3114607667
 30
0.0
 10
7.4740450823
 20
16.3110835828
 30
0.0
 10
7.4738799438
 20
16.310918432
 30
0.0
  0
LINE
  5
4FB
100
AcDbEntity
  8
0
100
AcDbLine
 62
7
  6
CONTINUOUS
 10
7.753210169
 20
16.0399601778
 11
7.7524385056
 21
16.0389125666
  0
SPLINE
  5
4FC
100
AcDbEntity
  8
0
100
AcDbSpline
 62
7
  6
CONTINUOUS
 70
0
 71
3
 72
22
 73
18
 74
0
 42
0.0000001
 43
0.0000001
 44
0.0000000001
 40
0.0
 40
0.0
 40
0.0
 40
0.0
 40
0.0108361039
 40
0.0217855268
 40
0.0452564898
 40
0.0726711857
 40
0.1054050567
 40
0.1442324493
 40
0.1895676531
 40
0.2416090161
 40
0.3004208496
 40
0.3659761405
 40
0.4381803684
 40
0.5168884688
 40
0.6019051426
 40
0.789911291
 40
1.0
 40
1.0
 40
1.0
 40
1.0
 10
7.3135128005
 20
16.431248626
 30
0.0
 10
7.3135878159
 20
16.4313236471
 30
0.0
 10
7.3137525814
 20
16.4314612836
 30
0.0
 10
7.3141405614
 20
16.4316798636
 30
0.0
 10
7.3147387463
 20
16.4318289125
 30
0.0
 10
7.3155634553
 20
16.4318073326
 30
0.0
 10
7.3165146662
 20
16.4316031056
 30
0.0
 10
7.317594704
 20
16.4312176235
 30
0.0
 10
7.3188037135
 20
16.4306515076
 30
0.0
 10
7.3201395157
 20
16.4299051586
 30
0.0
 10
7.3215987296
 20
16.4289798903
 30
0.0
 10
7.323177099
 20
16.4278778012
 30
0.0
 10
7.3248697673
 20
16.4266018207
 30
0.0
 10
7.3266713049
 20
16.4251556449
 30
0.0
 10
7.3292999657
 20
16.4229305479
 30
0.0
 10
7.3328034844
 20
16.4197507871
 30
0.0
 10
7.3355975149
 20
16.41703238
 30
0.0
 10
7.337051956
 20
16.415577939
 30
0.0
  0
SPLINE
  5
4FD
100
AcDbEntity
  8
0
100
AcDbSpline
 62
7
  6
CONTINUOUS
 70
0
 71
3
 72
27
 73
23
 74
0
 42
0.0000001
 43
0.0000001
 44
0.0000000001
 40
0.0
 40
0.0
 40
0.0
 40
0.0
 40
0.0096978208
 40
0.0197997151
 40
0.0307106215
 40
0.0427505783
 40
0.0561520202
 40
0.0710778633
 40
0.0876363998
 40
0.1058979154
 40
0.1259051962
 40
0.1476784539
 40
0.1965265218
 40
0.2523569776
 40
0.3149302326
 40
0.3838973859
 40
0.4588191609
 40
0.5391781537
 40
0.6243863284
 40
0.7137961192
 40
0.806702297
 40
1.0
 40
1.0
 40
1.0
 40
1.0
 10
7.7820035852
 20
15.9531482476
 30
0.0
 10
7.782151849
 20
15.9532965215
 30
0.0
 10
7.7824903829
 20
15.953565479
 30
0.0
 10
7.7830920087
 20
15.9538570356
 30
0.0
 10
7.783786569
 20
15.9540406269
 30
0.0
 10
7.784571444
 20
15.9541179569
 30
0.0
 10
7.7854457723
 20
15.9540907776
 30
0.0
 10
7.7864088008
 20
15.9539596703
 30
0.0
 10
7.787459565
 20
15.9537251235
 30
0.0
 10
7.7885967039
 20
15.9533873831
 30
0.0
 10
7.7898185171
 20
15.9529468309
 30
0.0
 10
7.7916281768
 20
15.9521935862
 30
0.0
 10
7.7940831647
 20
15.9509840554
 30
0.0
 10
7.7972253375
 20
15.9491909372
 30
0.0
 10
7.800644238
 20
15.9470149888
 30
0.0
 10
7.804313782
 20
15.9444712188
 30
0.0
 10
7.8082053693
 20
15.941577741
 30
0.0
 10
7.8122878904
 20
15.938356351
 30
0.0
 10
7.8165281041
 20
15.9348321396
 30
0.0
 10
7.8208908899
 20
15.9310334056
 30
0.0
 10
7.8269019383
 20
15.9255715738
 30
0.0
 10
7.8313565795
 20
15.9212733155
 30
0.0
 10
7.8343118852
 20
15.9183180097
 30
0.0
  0
SPLINE
  5
4FE
100
AcDbEntity
  8
0
100
AcDbSpline
 62
7
  6
CONTINUOUS
 70
0
 71
3
 72
13
 73
9
 74
0
 42
0.0000001
 43
0.0000001
 44
0.0000000001
 40
0.0
 40
0.0
 40
0.0
 40
0.0
 40
0.1177438832
 40
0.2404544682
 40
0.4951913132
 40
0.7524537634
 40
0.8782046887
 40
1.0
 40
1.0
 40
1.0
 40
1.0
 10
8.3219466706
 20
15.4234739366
 30
0.0
 10
8.3238793655
 20
15.4221131025
 30
0.0
 10
8.3277912689
 20
15.4192840189
 30
0.0
 10
8.3357133702
 20
15.4132776013
 30
0.0
 10
8.3456187738
 20
15.4052567018
 30
0.0
 10
8.3552457669
 20
15.3968109837
 30
0.0
 10
8.3626519671
 20
15.389892848
 30
0.0
 10
8.3662086052
 20
15.3864212897
 30
0.0
 10
8.3679375196
 20
15.3846923753
 30
0.0
  0
SPLINE
  5
4FF
100
AcDbEntity
  8
0
100
AcDbSpline
 62
7
  6
CONTINUOUS
 70
0
 71
3
 72
19
 73
15
 74
0
 42
0.0000001
 43
0.0000001
 44
0.0000000001
 40
0.0
 40
0.0
 40
0.0
 40
0.0
 40
0.0291363854
 40
0.0606057344
 40
0.0954292723
 40
0.134342309
 40
0.1778475463
 40
0.2262745194
 40
0.2798377774
 40
0.3386656413
 40
0.4723189816
 40
0.6273624667
 40
0.8034592155
 40
1.0
 40
1.0
 40
1.0
 40
1.0
 10
8.731928107
 20
15.047246828
 30
0.0
 10
8.7320502351
 20
15.0473689652
 30
0.0
 10
8.7323349291
 20
15.0475936024
 30
0.0
 10
8.7328434353
 20
15.0478482671
 30
0.0
 10
8.7334419055
 20
15.0480319105
 30
0.0
 10
8.734129134
 20
15.0481458706
 30
0.0
 10
8.7349046146
 20
15.0481911939
 30
0.0
 10
8.7357676387
 20
15.0481684251
 30
0.0
 10
8.7367172806
 20
15.048077863
 30
0.0
 10
8.7381596955
 20
15.047857305
 30
0.0
 10
8.7401707087
 20
15.0473985337
 30
0.0
 10
8.7428116359
 20
15.046608309
 30
0.0
 10
8.7457599769
 20
15.0455598983
 30
0.0
 10
8.7478104096
 20
15.0447365954
 30
0.0
 10
8.7488847064
 20
15.0442856553
 30
0.0
  0
SPLINE
  5
500
100
AcDbEntity
  8
0
100
AcDbSpline
 62
7
  6
CONTINUOUS
 70
0
 71
3
 72
22
 73
18
 74
0
 42
0.0000001
 43
0.0000001
 44
0.0000000001
 40
0.0
 40
0.0
 40
0.0
 40
0.0
 40
0.0092021544
 40
0.0190494552
 40
0.0298297101
 40
0.0417607888
 40
0.0696321513
 40
0.103477308
 40
0.1436683334
 40
0.1903621147
 40
0.2436026542
 40
0.3033547242
 40
0.3695392403
 40
0.4420360185
 40
0.6053580312
 40
0.7919113181
 40
1.0
 40
1.0
 40
1.0
 40
1.0
 10
8.6870715242
 20
15.0295424276
 30
0.0
 10
8.6871240197
 20
15.0295949156
 30
0.0
 10
8.6872446128
 20
15.0296921208
 30
0.0
 10
8.6874579717
 20
15.0298058251
 30
0.0
 10
8.687707215
 20
15.0298915557
 30
0.0
 10
8.6881079437
 20
15.0299731859
 30
0.0
 10
8.6887050359
 20
15.0299961103
 30
0.0
 10
8.6895246316
 20
15.0299169811
 30
0.0
 10
8.6904820787
 20
15.0297324458
 30
0.0
 10
8.6915754188
 20
15.0294429765
 30
0.0
 10
8.6928023639
 20
15.0290489597
 30
0.0
 10
8.6941597915
 20
15.0285513948
 30
0.0
 10
8.6956441672
 20
15.0279514986
 30
0.0
 10
8.6978776578
 20
15.0269777678
 30
0.0
 10
8.7009524952
 20
15.0255074055
 30
0.0
 10
8.7049474482
 20
15.0234324501
 30
0.0
 10
8.707733596
 20
15.0218913246
 30
0.0
 10
8.7091941266
 20
15.0210638116
 30
0.0
  0
SPLINE
  5
501
100
AcDbEntity
  8
0
100
AcDbSpline
 62
9
  6
CONTINUOUS
 70
0
 71
3
 72
37
 73
33
 74
0
 42
0.0000001
 43
0.0000001
 44
0.0000000001
 40
0.0
 40
0.0
 40
0.0
 40
0.0
 40
0.0217667499
 40
0.0466320279
 40
0.0744196099
 40
0.1049364604
 40
0.1732686575
 40
0.2496870473
 40
0.3320352359
 40
0.4180191276
 40
0.5052799893
 40
0.5914580111
 40
0.6742481389
 40
0.7514484218
 40
0.8210053949
 40
0.8523274208
 40
0.8810583892
 40
0.9070038482
 40
0.9299877448
 40
0.9498552582
 40
0.9585793998
 40
0.9664781822
 40
0.9735410412
 40
0.9797593388
 40
0.9851287971
 40
0.9896509814
 40
0.993336459
 40
0.9962165289
 40
0.9973772798
 40
0.9983727467
 40
0.9992319844
 40
1.0
 40
1.0
 40
1.0
 40
1.0
 10
7.2579277961
 20
16.2952873191
 30
0.0
 10
7.2586249283
 20
16.2945910769
 30
0.0
 10
7.2600970465
 20
16.2930780413
 30
0.0
 10
7.2623972444
 20
16.2906168626
 30
0.0
 10
7.2649246613
 20
16.2878265722
 30
0.0
 10
7.2687190022
 20
16.2835298259
 30
0.0
 10
7.2738731377
 20
16.2774980591
 30
0.0
 10
7.2804276585
 20
16.2695788473
 30
0.0
 10
7.2873754189
 20
16.2609492702
 30
0.0
 10
7.2945244462
 20
16.2518527642
 30
0.0
 10
7.301676931
 20
16.242539425
 30
0.0
 10
7.3086394199
 20
16.2332633414
 30
0.0
 10
7.3152246889
 20
16.2242744036
 30
0.0
 10
7.3212570381
 20
16.2158140799
 30
0.0
 10
7.3258370957
 20
16.2091804243
 30
0.0
 10
7.3290970978
 20
16.2043026791
 30
0.0
 10
7.3312223947
 20
16.2010412451
 30
0.0
 10
7.3331003018
 20
16.1980694399
 30
0.0
 10
7.33471772
 20
16.195408157
 30
0.0
 10
7.3358854148
 20
16.1933862422
 30
0.0
 10
7.3366762652
 20
16.1919360619
 30
0.0
 10
7.3371713873
 20
16.1909850153
 30
0.0
 10
7.3375939706
 20
16.1901243545
 30
0.0
 10
7.3379433283
 20
16.1893556297
 30
0.0
 10
7.3382189802
 20
16.1886803066
 30
0.0
 10
7.3384210001
 20
16.1880993654
 30
0.0
 10
7.3385492293
 20
16.187613719
 30
0.0
 10
7.3385992055
 20
16.1872657314
 30
0.0
 10
7.3385943765
 20
16.1870372617
 30
0.0
 10
7.3385717853
 20
16.1869019986
 30
0.0
 10
7.3385295274
 20
16.1867900381
 30
0.0
 10
7.3384857134
 20
16.1867293172
 30
0.0
 10
7.3384611323
 20
16.1867047346
 30
0.0
  0
SPLINE
  5
502
100
AcDbEntity
  8
0
100
AcDbSpline
 62
9
  6
CONTINUOUS
 70
0
 71
3
 72
17
 73
13
 74
0
 42
0.0000001
 43
0.0000001
 44
0.0000000001
 40
0.0
 40
0.0
 40
0.0
 40
0.0
 40
0.0628699528
 40
0.1243887177
 40
0.2431386653
 40
0.3552009493
 40
0.4643963066
 40
0.5835544582
 40
0.7137160051
 40
0.8534219455
 40
0.9260774503
 40
1.0
 40
1.0
 40
1.0
 40
1.0
 10
7.2598098063
 20
16.309946795
 30
0.0
 10
7.260008288
 20
16.3096750004
 30
0.0
 10
7.260372696
 20
16.3091158163
 30
0.0
 10
7.2609647218
 20
16.3079545821
 30
0.0
 10
7.2614626036
 20
16.3064596781
 30
0.0
 10
7.2617168595
 20
16.3046486784
 30
0.0
 10
7.2616699963
 20
16.3028193897
 30
0.0
 10
7.261313112
 20
16.3009250108
 30
0.0
 10
7.2605926268
 20
16.2989607284
 30
0.0
 10
7.259671339
 20
16.2973638377
 30
0.0
 10
7.2587414162
 20
16.2961438063
 30
0.0
 10
7.2582105743
 20
16.2955641691
 30
0.0
 10
7.2579306579
 20
16.2952844553
 30
0.0
  0
SPLINE
  5
503
100
AcDbEntity
  8
0
100
AcDbSpline
 62
7
  6
CONTINUOUS
 70
0
 71
3
 72
32
 73
28
 74
0
 42
0.0000001
 43
0.0000001
 44
0.0000000001
 40
0.0
 40
0.0
 40
0.0
 40
0.0
 40
0.2231980727
 40
0.325630609
 40
0.4215969043
 40
0.510847385
 40
0.5931519112
 40
0.6682993956
 40
0.7360972496
 40
0.7963740926
 40
0.8489796183
 40
0.8723647137
 40
0.8937864752
 40
0.9132327384
 40
0.9306936126
 40
0.9461622346
 40
0.9596337473
 40
0.9711082391
 40
0.9805928093
 40
0.9845945199
 40
0.988107692
 40
0.9911395252
 40
0.9937015277
 40
0.9958131901
 40
0.9975099537
 40
0.998860812
 40
1.0
 40
1.0
 40
1.0
 40
1.0
 10
10.3049560993
 20
18.5113149683
 30
0.0
 10
10.2979446275
 20
18.5178152509
 30
0.0
 10
10.2876994636
 20
18.5272816101
 30
0.0
 10
10.2743890504
 20
18.5394878379
 30
0.0
 10
10.2652834134
 20
18.5477895784
 30
0.0
 10
10.2567883727
 20
18.5554811867
 30
0.0
 10
10.2489250459
 20
18.5625416595
 30
0.0
 10
10.2417129017
 20
18.56895171
 30
0.0
 10
10.2351697508
 20
18.5746938557
 30
0.0
 10
10.2293116406
 20
18.579752299
 30
0.0
 10
10.2248539545
 20
18.5835212069
 30
0.0
 10
10.2216374868
 20
18.5861796315
 30
0.0
 10
10.2195007877
 20
18.5879146922
 30
0.0
 10
10.2175447593
 20
18.5894694713
 30
0.0
 10
10.2157705549
 20
18.5908429099
 30
0.0
 10
10.2141792523
 20
18.5920341249
 30
0.0
 10
10.2127717977
 20
18.5930425306
 30
0.0
 10
10.2115489795
 20
18.5938675274
 30
0.0
 10
10.2106394967
 20
18.5944307666
 30
0.0
 10
10.2100026523
 20
18.5947842019
 30
0.0
 10
10.2095991163
 20
18.5949876842
 30
0.0
 10
10.2092419597
 20
18.5951451972
 30
0.0
 10
10.2089309777
 20
18.5952569099
 30
0.0
 10
10.2086655738
 20
18.5953232234
 30
0.0
 10
10.2084443785
 20
18.5953440616
 30
0.0
 10
10.2082641693
 20
18.595318377
 30
0.0
 10
10.2081688877
 20
18.5952619278
 30
0.0
 10
10.2081343843
 20
18.5952274187
 30
0.0
  0
SPLINE
  5
504
100
AcDbEntity
  8
0
100
AcDbSpline
 62
7
  6
CONTINUOUS
 70
0
 71
3
 72
46
 73
42
 74
0
 42
0.0000001
 43
0.0000001
 44
0.0000000001
 40
0.0
 40
0.0
 40
0.0
 40
0.0
 40
0.0292400588
 40
0.0608104969
 40
0.1301996416
 40
0.2065621125
 40
0.2881307279
 40
0.3730178946
 40
0.4592596423
 40
0.5448612416
 40
0.6278435399
 40
0.6677495874
 40
0.7062889561
 40
0.7432389041
 40
0.7783859154
 40
0.8115270157
 40
0.8424710133
 40
0.8710395203
 40
0.8970681263
 40
0.9204074302
 40
0.9409239786
 40
0.9500866669
 40
0.9585014948
 40
0.9661566907
 40
0.9730419293
 40
0.9791480802
 40
0.9844676638
 40
0.9868306218
 40
0.9889949959
 40
0.9909604178
 40
0.9927267148
 40
0.9942941236
 40
0.9956632819
 40
0.9968354221
 40
0.9978129161
 40
0.9986004137
 40
0.9992072421
 40
0.9994492329
 40
0.9996560681
 40
0.9998356795
 40
1.0
 40
1.0
 40
1.0
 40
1.0
 10
10.1243748617
 20
18.3426585599
 30
0.0
 10
10.1291719554
 20
18.3382876634
 30
0.0
 10
10.1391290415
 20
18.3291761939
 30
0.0
 10
10.1603843537
 20
18.3095987558
 30
0.0
 10
10.1892269508
 20
18.2828215139
 30
0.0
 10
10.2260893155
 20
18.2483732249
 30
0.0
 10
10.2653869773
 20
18.2114932319
 30
0.0
 10
10.3062368799
 20
18.1730631626
 30
0.0
 10
10.3477202696
 20
18.1340001464
 30
0.0
 10
10.3889042766
 20
18.0952359016
 30
0.0
 10
10.422629013
 20
18.0635514496
 30
0.0
 10
10.448774038
 20
18.0390542166
 30
0.0
 10
10.4674836611
 20
18.0215639794
 30
0.0
 10
10.4854457297
 20
18.0048208195
 30
0.0
 10
10.5025597722
 20
17.9889251166
 30
0.0
 10
10.5187302144
 20
17.973972289
 30
0.0
 10
10.5338669347
 20
17.9600522431
 30
0.0
 10
10.5478857892
 20
17.9472488526
 30
0.0
 10
10.5607090146
 20
17.9356393622
 30
0.0
 10
10.5722658316
 20
17.9252941525
 30
0.0
 10
10.5810914538
 20
17.9175106865
 30
0.0
 10
10.5874772612
 20
17.9119692929
 30
0.0
 10
10.5917299702
 20
17.9083253039
 30
0.0
 10
10.5956238196
 20
17.9050395649
 30
0.0
 10
10.5991535443
 20
17.9021171151
 30
0.0
 10
10.6023144552
 20
17.8995624821
 30
0.0
 10
10.6047239567
 20
17.897675339
 30
0.0
 10
10.6064663661
 20
17.8963560202
 30
0.0
 10
10.6076261591
 20
17.8955006646
 30
0.0
 10
10.6086910307
 20
17.8947399447
 30
0.0
 10
10.6096606588
 20
17.8940741403
 30
0.0
 10
10.6105347359
 20
17.893503425
 30
0.0
 10
10.6113130441
 20
17.8930278398
 30
0.0
 10
10.6119953482
 20
17.8926473857
 30
0.0
 10
10.6125818857
 20
17.8923615028
 30
0.0
 10
10.6130726901
 20
17.8921699472
 30
0.0
 10
10.6134271642
 20
17.8920807268
 30
0.0
 10
10.6136617414
 20
17.8920661094
 30
0.0
 10
10.6138013441
 20
17.8920804086
 30
0.0
 10
10.6139183829
 20
17.8921199567
 30
0.0
 10
10.6139816537
 20
17.8921652285
 30
0.0
 10
10.6140074402
 20
17.892191019
 30
0.0
  0
SPLINE
  5
505
100
AcDbEntity
  8
0
100
AcDbSpline
 62
9
  6
CONTINUOUS
 70
0
 71
3
 72
19
 73
15
 74
0
 42
0.0000001
 43
0.0000001
 44
0.0000000001
 40
0.0
 40
0.0
 40
0.0
 40
0.0
 40
0.0106673045
 40
0.0231419091
 40
0.0534105501
 40
0.0905688061
 40
0.1343156144
 40
0.184288549
 40
0.2400738672
 40
0.3671957005
 40
0.5115283242
 40
0.6684345459
 40
0.8329623807
 40
1.0
 40
1.0
 40
1.0
 40
1.0
 10
7.198995586
 20
16.3542195292
 30
0.0
 10
7.1991866115
 20
16.3540288693
 30
0.0
 10
7.1995947544
 20
16.3536089596
 30
0.0
 10
7.2005170491
 20
16.3526212202
 30
0.0
 10
7.2018614888
 20
16.3511111753
 30
0.0
 10
7.2036941249
 20
16.3489772516
 30
0.0
 10
7.2058195468
 20
16.3464379601
 30
0.0
 10
7.2082200011
 20
16.3435145586
 30
0.0
 10
7.2119249469
 20
16.3389330228
 30
0.0
 10
7.2170693475
 20
16.3324455289
 30
0.0
 10
7.223728032
 20
16.3238942499
 30
0.0
 10
7.2309002368
 20
16.3145437499
 30
0.0
 10
7.2383598515
 20
16.3046900603
 30
0.0
 10
7.2433834849
 20
16.2979715915
 30
0.0
 10
7.245904183
 20
16.2945794139
 30
0.0
  0
SPLINE
  5
506
100
AcDbEntity
  8
0
100
AcDbSpline
 62
9
  6
CONTINUOUS
 70
0
 71
3
 72
18
 73
14
 74
0
 42
0.0000001
 43
0.0000001
 44
0.0000000001
 40
0.0
 40
0.0
 40
0.0
 40
0.0
 40
0.0660386436
 40
0.1303706161
 40
0.2534471669
 40
0.3679482105
 40
0.4778801871
 40
0.5961027596
 40
0.72349333
 40
0.7903169016
 40
0.858905337
 40
0.9288991056
 40
1.0
 40
1.0
 40
1.0
 40
1.0
 10
7.2002627908
 20
16.3694938106
 30
0.0
 10
7.2004835477
 20
16.3691998576
 30
0.0
 10
7.2008914587
 20
16.368597855
 30
0.0
 10
7.2015658457
 20
16.3673566546
 30
0.0
 10
7.2021590136
 20
16.3657732506
 30
0.0
 10
7.2025151425
 20
16.3638629806
 30
0.0
 10
7.2025562307
 20
16.3619479502
 30
0.0
 10
7.2022758778
 20
16.3599795898
 30
0.0
 10
7.2017348092
 20
16.3583159185
 30
0.0
 10
7.2010968976
 20
16.3569974526
 30
0.0
 10
7.2005043326
 20
16.3560174833
 30
0.0
 10
7.1998077201
 20
16.3550787617
 30
0.0
 10
7.1992786943
 20
16.3544961599
 30
0.0
 10
7.1989987125
 20
16.3542164008
 30
0.0
  0
SPLINE
  5
507
100
AcDbEntity
  8
0
100
AcDbSpline
 62
9
  6
CONTINUOUS
 70
0
 71
3
 72
33
 73
29
 74
0
 42
0.0000001
 43
0.0000001
 44
0.0000000001
 40
0.0
 40
0.0
 40
0.0
 40
0.0
 40
0.0019764715
 40
0.0043616544
 40
0.0073386403
 40
0.0110000058
 40
0.0153910575
 40
0.0205342388
 40
0.0264395854
 40
0.0331087145
 40
0.0487235474
 40
0.067321549
 40
0.0888091081
 40
0.1130680333
 40
0.1399594576
 40
0.169327558
 40
0.201001578
 40
0.2347968031
 40
0.3079499421
 40
0.3870819302
 40
0.4703387693
 40
0.5557540301
 40
0.641285919
 40
0.7248609929
 40
0.8044242473
 40
0.8779962653
 40
0.9437339999
 40
1.0
 40
1.0
 40
1.0
 40
1.0
 10
8.3215097694
 20
15.2048897164
 30
0.0
 10
8.3215703716
 20
15.2049503292
 30
0.0
 10
8.3217375038
 20
15.2050513219
 30
0.0
 10
8.3220529133
 20
15.2051145921
 30
0.0
 10
8.3224459768
 20
15.2051103312
 30
0.0
 10
8.3229199683
 20
15.2050392817
 30
0.0
 10
8.3234760917
 20
15.2049020443
 30
0.0
 10
8.3241142799
 20
15.2046983022
 30
0.0
 10
8.3248338494
 20
15.2044282092
 30
0.0
 10
8.3259609625
 20
15.2039542822
 30
0.0
 10
8.3275613649
 20
15.2031893997
 30
0.0
 10
8.3296970184
 20
15.2020600019
 30
0.0
 10
8.3321234509
 20
15.2006813929
 30
0.0
 10
8.3348256611
 20
15.1990621143
 30
0.0
 10
8.3377869989
 20
15.1972116655
 30
0.0
 10
8.3409893939
 20
15.195141111
 30
0.0
 10
8.3444135138
 20
15.1928627723
 30
0.0
 10
8.3493799965
 20
15.1894754843
 30
0.0
 10
8.3559758424
 20
15.1848255996
 30
0.0
 10
8.3642258813
 20
15.1788021665
 30
0.0
 10
8.3728108764
 20
15.1723377249
 30
0.0
 10
8.3815258714
 20
15.1655863177
 30
0.0
 10
8.3901602247
 20
15.158709893
 30
0.0
 10
8.3985021784
 20
15.1518752926
 30
0.0
 10
8.4063449813
 20
15.1452515722
 30
0.0
 10
8.4134925224
 20
15.1390053351
 30
0.0
 10
8.4197660458
 20
15.1332969025
 30
0.0
 10
8.4235842574
 20
15.1296326696
 30
0.0
 10
8.4253087207
 20
15.1279063945
 30
0.0
  0
SPLINE
  5
508
100
AcDbEntity
  8
0
100
AcDbSpline
 62
7
  6
CONTINUOUS
 70
0
 71
3
 72
15
 73
11
 74
0
 42
0.0000001
 43
0.0000001
 44
0.0000000001
 40
0.0
 40
0.0
 40
0.0
 40
0.0
 40
0.0912374513
 40
0.1879608109
 40
0.2930080701
 40
0.4085316357
 40
0.5360868023
 40
0.6767475616
 40
0.8312303588
 40
1.0
 40
1.0
 40
1.0
 40
1.0
 10
8.4983496257
 20
15.2864487501
 30
0.0
 10
8.4985147767
 20
15.2866138889
 30
0.0
 10
8.4988919616
 20
15.2869187215
 30
0.0
 10
8.4995574839
 20
15.2872725636
 30
0.0
 10
8.5003299826
 20
15.2875331334
 30
0.0
 10
8.5012072149
 20
15.2877018996
 30
0.0
 10
8.5021880376
 20
15.2877799687
 30
0.0
 10
8.5032712036
 20
15.2877680109
 30
0.0
 10
8.5044552665
 20
15.2876664999
 30
0.0
 10
8.5052742437
 20
15.2875447247
 30
0.0
 10
8.505699841
 20
15.2874705207
 30
0.0
  0
SPLINE
  5
509
100
AcDbEntity
  8
0
100
AcDbSpline
 62
9
  6
CONTINUOUS
 70
0
 71
3
 72
19
 73
15
 74
0
 42
0.0000001
 43
0.0000001
 44
0.0000000001
 40
0.0
 40
0.0
 40
0.0
 40
0.0
 40
0.1843215435
 40
0.3593375997
 40
0.5207834705
 40
0.6646591932
 40
0.7873399468
 40
0.8397306105
 40
0.8856919343
 40
0.9249264473
 40
0.9571812191
 40
0.9822550994
 40
0.9920506299
 40
1.0
 40
1.0
 40
1.0
 40
1.0
 10
8.5068793103
 20
15.0360966112
 30
0.0
 10
8.5097623341
 20
15.0339350394
 30
0.0
 10
8.515375753
 20
15.0297115693
 30
0.0
 10
8.5234888947
 20
15.0235610014
 30
0.0
 10
8.5309481004
 20
15.0178567714
 30
0.0
 10
8.5375684083
 20
15.0127399864
 30
0.0
 10
8.5424768748
 20
15.0088947726
 30
0.0
 10
8.545858367
 20
15.0062045857
 30
0.0
 10
8.5479528305
 20
15.0045170059
 30
0.0
 10
8.5497291773
 20
15.0030620854
 30
0.0
 10
8.5511757154
 20
15.0018491589
 30
0.0
 10
8.5521664899
 20
15.0009884552
 30
0.0
 10
8.5527835409
 20
15.000422757
 30
0.0
 10
8.5530335225
 20
15.0001821334
 30
0.0
 10
8.5531431396
 20
15.0000719756
 30
0.0
  0
SPLINE
  5
50A
100
AcDbEntity
  8
0
100
AcDbSpline
 62
9
  6
CONTINUOUS
 70
0
 71
3
 72
18
 73
14
 74
0
 42
0.0000001
 43
0.0000001
 44
0.0000000001
 40
0.0
 40
0.0
 40
0.0
 40
0.0
 40
0.1339955972
 40
0.2786600063
 40
0.4273978689
 40
0.5733680986
 40
0.7097437281
 40
0.7722789748
 40
0.8300197718
 40
0.8822610526
 40
0.928363777
 40
0.967766444
 40
1.0
 40
1.0
 40
1.0
 40
1.0
 10
8.4264334616
 20
15.1093877907
 30
0.0
 10
8.4302328281
 20
15.1067079458
 30
0.0
 10
8.4380862469
 20
15.1010669693
 30
0.0
 10
8.4500166743
 20
15.0922579042
 30
0.0
 10
8.462172072
 20
15.0830558033
 30
0.0
 10
8.4739897591
 20
15.0738859096
 30
0.0
 10
8.4833482203
 20
15.0664271976
 30
0.0
 10
8.4902434281
 20
15.0607913876
 30
0.0
 10
8.4948430032
 20
15.0569602675
 30
0.0
 10
8.4989659867
 20
15.0534483469
 30
0.0
 10
8.502562043
 20
15.0502996253
 30
0.0
 10
8.5055865286
 20
15.0475529937
 30
0.0
 10
8.5073827162
 20
15.0458339639
 30
0.0
 10
8.5081727903
 20
15.0450423249
 30
0.0
  0
LINE
  5
50B
100
AcDbEntity
  8
0
100
AcDbLine
 62
7
  6
CONTINUOUS
 10
8.2263437605
 20
15.5650073116
 11
8.2273913812
 21
15.5657789805
  0
SPLINE
  5
50C
100
AcDbEntity
  8
0
100
AcDbSpline
 62
9
  6
CONTINUOUS
 70
0
 71
3
 72
27
 73
23
 74
0
 42
0.0000001
 43
0.0000001
 44
0.0000000001
 40
0.0
 40
0.0
 40
0.0
 40
0.0
 40
0.007284166
 40
0.0152020315
 40
0.024271985
 40
0.0348362661
 40
0.047104902
 40
0.0611997832
 40
0.0771902771
 40
0.0951109554
 40
0.114972715
 40
0.1367712733
 40
0.1860905042
 40
0.2428216602
 40
0.3065937799
 40
0.3769427052
 40
0.4533241347
 40
0.5351236384
 40
0.6216643232
 40
0.712217038
 40
0.8060023668
 40
1.0
 40
1.0
 40
1.0
 40
1.0
 10
7.7631222137
 20
15.7763845659
 30
0.0
 10
7.7632379036
 20
15.7765002417
 30
0.0
 10
7.7635205539
 20
15.7767031467
 30
0.0
 10
7.7640424804
 20
15.7768799923
 30
0.0
 10
7.7646621867
 20
15.7769414711
 30
0.0
 10
7.7653793997
 20
15.7768923258
 30
0.0
 10
7.766195142
 20
15.7767342199
 30
0.0
 10
7.7671093477
 20
15.7764676729
 30
0.0
 10
7.7681210523
 20
15.7760928466
 30
0.0
 10
7.7692286749
 20
15.7756101622
 30
0.0
 10
7.7704302844
 20
15.7750203753
 30
0.0
 10
7.7722298452
 20
15.774051602
 30
0.0
 10
7.7746907573
 20
15.7725689121
 30
0.0
 10
7.7778656836
 20
15.770453628
 30
0.0
 10
7.7813462795
 20
15.7679504284
 30
0.0
 10
7.7851032946
 20
15.7650794973
 30
0.0
 10
7.7891046245
 20
15.761864123
 30
0.0
 10
7.7933159413
 20
15.7583315749
 30
0.0
 10
7.7977004808
 20
15.754511943
 30
0.0
 10
7.8022197539
 20
15.7504384991
 30
0.0
 10
7.8084420763
 20
15.7446513553
 30
0.0
 10
7.8130748866
 20
15.7401424738
 30
0.0
 10
7.816154721
 20
15.7370603942
 30
0.0
  0
SPLINE
  5
50D
100
AcDbEntity
  8
0
100
AcDbSpline
 62
9
  6
CONTINUOUS
 70
0
 71
3
 72
27
 73
23
 74
0
 42
0.0000001
 43
0.0000001
 44
0.0000000001
 40
0.0
 40
0.0
 40
0.0
 40
0.0
 40
0.0077502171
 40
0.0159680502
 40
0.025127041
 40
0.0355695703
 40
0.0475244244
 40
0.0611367923
 40
0.0764975211
 40
0.0936633146
 40
0.112664305
 40
0.1335146671
 40
0.1807566317
 40
0.2353028277
 40
0.2969512767
 40
0.3654207574
 40
0.4403637415
 40
0.5213737848
 40
0.6079959513
 40
0.6997293162
 40
0.7960275603
 40
1.0
 40
1.0
 40
1.0
 40
1.0
 10
7.611968721
 20
15.9310935914
 30
0.0
 10
7.6120603351
 20
15.9311847831
 30
0.0
 10
7.612276874
 20
15.9313466565
 30
0.0
 10
7.6126709945
 20
15.9315006566
 30
0.0
 10
7.6131326351
 20
15.931570922
 30
0.0
 10
7.6136607453
 20
15.931560396
 30
0.0
 10
7.6142558646
 20
15.9314705074
 30
0.0
 10
7.6149181944
 20
15.9313017813
 30
0.0
 10
7.6156475178
 20
15.9310543831
 30
0.0
 10
7.6164431703
 20
15.9307283845
 30
0.0
 10
7.6173043008
 20
15.9303241272
 30
0.0
 10
7.618592754
 20
15.9296526261
 30
0.0
 10
7.6203546242
 20
15.9286108095
 30
0.0
 10
7.622629576
 20
15.9271077308
 30
0.0
 10
7.6251319946
 20
15.9253110627
 30
0.0
 10
7.6278472042
 20
15.9232306661
 30
0.0
 10
7.630759173
 20
15.9208782896
 30
0.0
 10
7.6338503044
 20
15.9182675501
 30
0.0
 10
7.6371018308
 20
15.9154139951
 30
0.0
 10
7.6404938355
 20
15.9123349514
 30
0.0
 10
7.6452677967
 20
15.9078674378
 30
0.0
 10
7.648850269
 20
15.9043666988
 30
0.0
 10
7.6512549168
 20
15.9019601984
 30
0.0
  0
SPLINE
  5
50E
100
AcDbEntity
  8
0
100
AcDbSpline
 62
9
  6
CONTINUOUS
 70
0
 71
3
 72
28
 73
24
 74
0
 42
0.0000001
 43
0.0000001
 44
0.0000000001
 40
0.0
 40
0.0
 40
0.0
 40
0.0
 40
0.0033163294
 40
0.0067543769
 40
0.0143444531
 40
0.0233654828
 40
0.0341487407
 40
0.0468745633
 40
0.0616337842
 40
0.0784675343
 40
0.0973828486
 40
0.1183667126
 40
0.1413883168
 40
0.1933624706
 40
0.2528532512
 40
0.3192730918
 40
0.3919267032
 40
0.470024939
 40
0.5526968711
 40
0.6390014099
 40
0.7279395674
 40
0.8184690496
 40
1.0
 40
1.0
 40
1.0
 40
1.0
 10
7.9172281991
 20
15.6186590315
 30
0.0
 10
7.9172945938
 20
15.6187254278
 30
0.0
 10
7.9174428814
 20
15.6188481997
 30
0.0
 10
7.917798498
 20
15.6190481992
 30
0.0
 10
7.9183548152
 20
15.6191978643
 30
0.0
 10
7.9191342452
 20
15.6192210312
 30
0.0
 10
7.9200504185
 20
15.6191023855
 30
0.0
 10
7.9211039084
 20
15.6188423218
 30
0.0
 10
7.9222941614
 20
15.6184416051
 30
0.0
 10
7.9236187054
 20
15.6179005266
 30
0.0
 10
7.9250744069
 20
15.6172202006
 30
0.0
 10
7.9266573946
 20
15.6164020747
 30
0.0
 10
7.9290295425
 20
15.6150754174
 30
0.0
 10
7.9322723542
 20
15.6130763865
 30
0.0
 10
7.9364508831
 20
15.6102628074
 30
0.0
 10
7.9410120187
 20
15.6069744904
 30
0.0
 10
7.9459036634
 20
15.6032477843
 30
0.0
 10
7.9510689939
 20
15.5991239598
 30
0.0
 10
7.9564474322
 20
15.5946499739
 30
0.0
 10
7.9619761881
 20
15.5898787377
 30
0.0
 10
7.9675896011
 20
15.5848666998
 30
0.0
 10
7.9751028465
 20
15.5779363726
 30
0.0
 10
7.9806395888
 20
15.5725782942
 30
0.0
 10
7.9842725945
 20
15.5689425206
 30
0.0
  0
LINE
  5
50F
100
AcDbEntity
  8
0
100
AcDbLine
 62
9
  6
CONTINUOUS
 10
8.5224465181
 20
15.0435575309
 11
8.524609805
 21
15.0423569374
  0
SPLINE
  5
510
100
AcDbEntity
  8
0
100
AcDbSpline
 62
9
  6
CONTINUOUS
 70
0
 71
3
 72
25
 73
21
 74
0
 42
0.0000001
 43
0.0000001
 44
0.0000000001
 40
0.0
 40
0.0
 40
0.0
 40
0.0
 40
0.0971306094
 40
0.180904234
 40
0.2513627592
 40
0.3086573966
 40
0.3531835121
 40
0.3709546664
 40
0.386013578
 40
0.4096909607
 40
0.4202092295
 40
0.4312863792
 40
0.443939269
 40
0.4588637673
 40
0.4970146904
 40
0.5475808032
 40
0.6112142232
 40
0.6881886027
 40
0.7786214163
 40
1.0
 40
1.0
 40
1.0
 40
1.0
 10
8.524609805
 20
15.0423569374
 30
0.0
 10
8.5247875639
 20
15.0422666233
 30
0.0
 10
8.525120779
 20
15.0421025365
 30
0.0
 10
8.5255915373
 20
15.0418909883
 30
0.0
 10
8.5259959081
 20
15.0417320305
 30
0.0
 10
8.5263335532
 20
15.0416258858
 30
0.0
 10
8.5265750746
 20
15.0415769276
 30
0.0
 10
8.5267343224
 20
15.0415696437
 30
0.0
 10
8.5268495478
 20
15.0415797087
 30
0.0
 10
8.5269498428
 20
15.041617392
 30
0.0
 10
8.5270093405
 20
15.0416914215
 30
0.0
 10
8.5270326198
 20
15.0417589545
 30
0.0
 10
8.5270373808
 20
15.0418388634
 30
0.0
 10
8.5270188789
 20
15.0419731079
 30
0.0
 10
8.5269449216
 20
15.0421745161
 30
0.0
 10
8.5267977829
 20
15.0424507472
 30
0.0
 10
8.526583675
 20
15.042780152
 30
0.0
 10
8.5263026594
 20
15.043162372
 30
0.0
 10
8.5258035432
 20
15.0437853488
 30
0.0
 10
8.5253795155
 20
15.0442653097
 30
0.0
 10
8.525073363
 20
15.0446011439
 30
0.0
  0
LINE
  5
511
100
AcDbEntity
  8
0
100
AcDbLine
 62
9
  6
CONTINUOUS
 10
8.5247067294
 20
15.0449981933
 11
8.52309684
 21
15.0466573544
  0
LINE
  5
512
100
AcDbEntity
  8
0
100
AcDbLine
 62
9
  6
CONTINUOUS
 10
8.5685363522
 20
15.0012178422
 11
8.5655411747
 21
15.0039222594
  0
SPLINE
  5
513
100
AcDbEntity
  8
0
100
AcDbSpline
 62
9
  6
CONTINUOUS
 70
0
 71
3
 72
13
 73
9
 74
0
 42
0.0000001
 43
0.0000001
 44
0.0000000001
 40
0.0
 40
0.0
 40
0.0
 40
0.0
 40
0.0701301348
 40
0.1593710599
 40
0.2661668515
 40
0.3887545405
 40
0.6744290755
 40
1.0
 40
1.0
 40
1.0
 40
1.0
 10
8.5655411747
 20
15.0039222594
 30
0.0
 10
8.5645164924
 20
15.0048049808
 30
0.0
 10
8.5621668444
 20
15.0067864774
 30
0.0
 10
8.5582102005
 20
15.0100565747
 30
0.0
 10
8.5534468924
 20
15.0139384459
 30
0.0
 10
8.5457161028
 20
15.0201753565
 30
0.0
 10
8.5346470057
 20
15.0289934973
 30
0.0
 10
8.525385965
 20
15.0362866371
 30
0.0
 10
8.5204447499
 20
15.0401604162
 30
0.0
  0
LINE
  5
514
100
AcDbEntity
  8
0
100
AcDbLine
 62
9
  6
CONTINUOUS
 10
8.5204447499
 20
15.0401604162
 11
8.516170361
 21
15.0435070002
  0
SPLINE
  5
515
100
AcDbEntity
  8
0
100
AcDbSpline
 62
9
  6
CONTINUOUS
 70
0
 71
3
 72
27
 73
23
 74
0
 42
0.0000001
 43
0.0000001
 44
0.0000000001
 40
0.0
 40
0.0
 40
0.0
 40
0.0
 40
0.1978379341
 40
0.2926023118
 40
0.3836241905
 40
0.4702106981
 40
0.5517187893
 40
0.6275553005
 40
0.6971862528
 40
0.7601430908
 40
0.8160312275
 40
0.8645445625
 40
0.885973227
 40
0.9054986801
 40
0.9231226196
 40
0.9388638849
 40
0.9527658697
 40
0.9649051249
 40
0.9754146952
 40
0.9845113087
 40
0.9925391728
 40
1.0
 40
1.0
 40
1.0
 40
1.0
 10
7.9842725945
 20
15.5689425206
 30
0.0
 10
7.9871228409
 20
15.566094005
 30
0.0
 10
7.991283479
 20
15.5618253864
 30
0.0
 10
7.9966124004
 20
15.5561103735
 30
0.0
 10
8.0003326485
 20
15.5519944885
 30
0.0
 10
8.0038050485
 20
15.5480195348
 30
0.0
 10
8.0070033347
 20
15.54421691
 30
0.0
 10
8.0099032538
 20
15.5406158694
 30
0.0
 10
8.0124826864
 20
15.5372434685
 30
0.0
 10
8.0147231798
 20
15.5341252451
 30
0.0
 10
8.0166092378
 20
15.5312847339
 30
0.0
 10
8.0179257257
 20
15.5290839331
 30
0.0
 10
8.0187814085
 20
15.5274746014
 30
0.0
 10
8.0193001388
 20
15.5263997218
 30
0.0
 10
8.0197222969
 20
15.5254080591
 30
0.0
 10
8.020047332
 20
15.5245011138
 30
0.0
 10
8.0202750577
 20
15.5236800999
 30
0.0
 10
8.0204051624
 20
15.5229455986
 30
0.0
 10
8.0204373052
 20
15.5222975769
 30
0.0
 10
8.0203696677
 20
15.5217351552
 30
0.0
 10
8.020198255
 20
15.5212590922
 30
0.0
 10
8.0200088351
 20
15.5209999529
 30
0.0
 10
8.019901381
 20
15.5208924963
 30
0.0
  0
SPLINE
  5
516
100
AcDbEntity
  8
0
100
AcDbSpline
 62
9
  6
CONTINUOUS
 70
0
 71
3
 72
18
 73
14
 74
0
 42
0.0000001
 43
0.0000001
 44
0.0000000001
 40
0.0
 40
0.0
 40
0.0
 40
0.0
 40
0.0232899084
 40
0.0527204734
 40
0.0881093485
 40
0.1288001602
 40
0.1738524016
 40
0.2220412088
 40
0.3299695598
 40
0.4631796377
 40
0.6224385591
 40
0.8039477882
 40
1.0
 40
1.0
 40
1.0
 40
1.0
 10
7.9937331032
 20
15.5760255518
 30
0.0
 10
7.9936406963
 20
15.5760335356
 30
0.0
 10
7.9934287986
 20
15.5760126777
 30
0.0
 10
7.9930912963
 20
15.5759145454
 30
0.0
 10
7.9927027146
 20
15.5757527489
 30
0.0
 10
7.9922724124
 20
15.5755341066
 30
0.0
 10
7.9918104909
 20
15.5752670067
 30
0.0
 10
7.991133582
 20
15.574838189
 30
0.0
 10
7.9901915988
 20
15.5741734858
 30
0.0
 10
7.9889327686
 20
15.5731940331
 30
0.0
 10
7.9874897796
 20
15.5719764241
 30
0.0
 10
7.9859053397
 20
15.5705405762
 30
0.0
 10
7.9848246921
 20
15.5694945994
 30
0.0
 10
7.9842726472
 20
15.5689424681
 30
0.0
  0
LINE
  5
517
100
AcDbEntity
  8
0
100
AcDbLine
 62
9
  6
CONTINUOUS
 10
8.5643309737
 20
15.0034952456
 11
8.5668657491
 21
15.0017533057
  0
SPLINE
  5
518
100
AcDbEntity
  8
0
100
AcDbSpline
 62
9
  6
CONTINUOUS
 70
0
 71
3
 72
29
 73
25
 74
0
 42
0.0000001
 43
0.0000001
 44
0.0000000001
 40
0.0
 40
0.0
 40
0.0
 40
0.0
 40
0.1352633685
 40
0.256798134
 40
0.3645153454
 40
0.458332733
 40
0.5382017243
 40
0.6041183244
 40
0.656117698
 40
0.6769363857
 40
0.6943411819
 40
0.7083984713
 40
0.7192422013
 40
0.732687261
 40
0.7381885154
 40
0.7454262015
 40
0.7554399864
 40
0.7686321849
 40
0.7851795026
 40
0.8051773992
 40
0.8286848044
 40
0.8557422471
 40
0.920620232
 40
1.0
 40
1.0
 40
1.0
 40
1.0
 10
8.5668657491
 20
15.0017533057
 30
0.0
 10
8.5669987753
 20
15.0016647867
 30
0.0
 10
8.5672519186
 20
15.0014976199
 30
0.0
 10
8.5676133796
 20
15.0012635932
 30
0.0
 10
8.5679360713
 20
15.0010598112
 30
0.0
 10
8.5682197202
 20
15.0008864401
 30
0.0
 10
8.5684640681
 20
15.0007435449
 30
0.0
 10
8.5686689872
 20
15.0006312058
 30
0.0
 10
8.5688157676
 20
15.0005582088
 30
0.0
 10
8.5689138657
 20
15.0005162215
 30
0.0
 10
8.5689716014
 20
15.0004947931
 30
0.0
 10
8.5690202924
 20
15.0004809088
 30
0.0
 10
8.5690632875
 20
15.0004734031
 30
0.0
 10
8.5691053763
 20
15.0004764967
 30
0.0
 10
8.5691183197
 20
15.0005073824
 30
0.0
 10
8.569113981
 20
15.0005345153
 30
0.0
 10
8.5691009942
 20
15.0005680977
 30
0.0
 10
8.5690780754
 20
15.0006092427
 30
0.0
 10
8.569045443
 20
15.0006581237
 30
0.0
 10
8.5690027809
 20
15.0007148446
 30
0.0
 10
8.5689500661
 20
15.0007794312
 30
0.0
 10
8.5688606899
 20
15.0008824544
 30
0.0
 10
8.5687226409
 20
15.0010305066
 30
0.0
 10
8.5686028778
 20
15.0011517564
 30
0.0
 10
8.5685363522
 20
15.0012178422
 30
0.0
  0
SPLINE
  5
519
100
AcDbEntity
  8
0
100
AcDbSpline
 62
7
  6
CONTINUOUS
 70
0
 71
3
 72
22
 73
18
 74
0
 42
0.0000001
 43
0.0000001
 44
0.0000000001
 40
0.0
 40
0.0
 40
0.0
 40
0.0
 40
0.0454605067
 40
0.0912716662
 40
0.1377786065
 40
0.1853562552
 40
0.2343998111
 40
0.2853364757
 40
0.3386339586
 40
0.3948032889
 40
0.4543975561
 40
0.517999542
 40
0.5861860429
 40
0.6594505885
 40
0.7380592841
 40
0.8218172801
 40
1.0
 40
1.0
 40
1.0
 40
1.0
 10
9.7770636989
 20
18.1223965241
 30
0.0
 10
9.7758670789
 20
18.1235931441
 30
0.0
 10
9.7735838358
 20
18.1261183152
 30
0.0
 10
9.7705385872
 20
18.1302554399
 30
0.0
 10
9.767883184
 20
18.1347454886
 30
0.0
 10
9.7656394368
 20
18.1395877213
 30
0.0
 10
9.7638356281
 20
18.1447856003
 30
0.0
 10
9.7625072574
 20
18.1503442113
 30
0.0
 10
9.7616981386
 20
18.1562699373
 30
0.0
 10
9.7614622637
 20
18.1625689076
 30
0.0
 10
9.761864696
 20
18.1692442402
 30
0.0
 10
9.7629820715
 20
18.1762915633
 30
0.0
 10
9.7649015458
 20
18.1836916837
 30
0.0
 10
9.7677149537
 20
18.1913983535
 30
0.0
 10
9.7715071923
 20
18.1993239236
 30
0.0
 10
9.7780607175
 20
18.2101913908
 30
0.0
 10
9.7843199599
 20
18.2177755687
 30
0.0
 10
9.789010119
 20
18.2224657279
 30
0.0
  0
SPLINE
  5
51A
100
AcDbEntity
  8
0
100
AcDbSpline
 62
7
  6
CONTINUOUS
 70
0
 71
3
 72
22
 73
18
 74
0
 42
0.0000001
 43
0.0000001
 44
0.0000000001
 40
0.0
 40
0.0
 40
0.0
 40
0.0
 40
0.178183471
 40
0.2619416885
 40
0.340550513
 40
0.4138149181
 40
0.4820011834
 40
0.5456029603
 40
0.60519715
 40
0.6613663694
 40
0.71466378
 40
0.7656003967
 40
0.8146439072
 40
0.8622215079
 40
0.9087283729
 40
0.9545394865
 40
1.0
 40
1.0
 40
1.0
 40
1.0
 10
9.8771329027
 20
18.1343429442
 30
0.0
 10
9.8724427238
 20
18.1296527653
 30
0.0
 10
9.8648585153
 20
18.1233935016
 30
0.0
 10
9.8539910057
 20
18.1168399672
 30
0.0
 10
9.8460654238
 20
18.1130477352
 30
0.0
 10
9.8383587588
 20
18.1102343415
 30
0.0
 10
9.8309586573
 20
18.1083148818
 30
0.0
 10
9.8239113525
 20
18.1071975158
 30
0.0
 10
9.8172360344
 20
18.1067950909
 30
0.0
 10
9.8109370741
 20
18.1070309696
 30
0.0
 10
9.8050113566
 20
18.1078400862
 30
0.0
 10
9.7994527523
 20
18.1091684592
 30
0.0
 10
9.7942548802
 20
18.110972271
 30
0.0
 10
9.7894126529
 20
18.1132160147
 30
0.0
 10
9.784922611
 20
18.1158714167
 30
0.0
 10
9.7807854888
 20
18.1189166615
 30
0.0
 10
9.7782603191
 20
18.1211999039
 30
0.0
 10
9.7770636989
 20
18.1223965241
 30
0.0
  0
SPLINE
  5
51B
100
AcDbEntity
  8
0
100
AcDbSpline
 62
9
  6
CONTINUOUS
 70
0
 71
3
 72
29
 73
25
 74
0
 42
0.0000001
 43
0.0000001
 44
0.0000000001
 40
0.0
 40
0.0
 40
0.0
 40
0.0
 40
0.1720483092
 40
0.3476341187
 40
0.4336690405
 40
0.5169302088
 40
0.5962824126
 40
0.6706626292
 40
0.7390956831
 40
0.8007085169
 40
0.8287172649
 40
0.8547484827
 40
0.8787288563
 40
0.9005973155
 40
0.920304138
 40
0.9378163719
 40
0.9531214086
 40
0.9662376216
 40
0.977232313
 40
0.9862585234
 40
0.9901306906
 40
0.9936507333
 40
0.9969040965
 40
1.0
 40
1.0
 40
1.0
 40
1.0
 10
7.6512549183
 20
15.9019601969
 30
0.0
 10
7.6551428398
 20
15.898074703
 30
0.0
 10
7.6628475491
 20
15.8900718071
 30
0.0
 10
7.6721248992
 20
15.879778075
 30
0.0
 10
7.6792936543
 20
15.8714100552
 30
0.0
 10
7.6843539044
 20
15.8652858165
 30
0.0
 10
7.6890639822
 20
15.8593570186
 30
0.0
 10
7.6933605338
 20
15.8537066061
 30
0.0
 10
7.6971855209
 20
15.8484119671
 30
0.0
 10
7.7000223192
 20
15.8442332936
 30
0.0
 10
7.7020095104
 20
15.8411180013
 30
0.0
 10
7.7033047945
 20
15.8389881063
 30
0.0
 10
7.7044489167
 20
15.8369966527
 30
0.0
 10
7.7054383092
 20
15.8351502809
 30
0.0
 10
7.7062699419
 20
15.8334550565
 30
0.0
 10
7.7069415117
 20
15.8319164721
 30
0.0
 10
7.7074513212
 20
15.8305393566
 30
0.0
 10
7.707798484
 20
15.8293270301
 30
0.0
 10
7.7079825462
 20
15.8282823393
 30
0.0
 10
7.7080004618
 20
15.8275137051
 30
0.0
 10
7.7079173001
 20
15.8269943309
 30
0.0
 10
7.7078152542
 20
15.8266683737
 30
0.0
 10
7.7076697977
 20
15.8263866633
 30
0.0
 10
7.707541704
 20
15.8262271692
 30
0.0
 10
7.7074718832
 20
15.8261571123
 30
0.0
  0
SPLINE
  5
51C
100
AcDbEntity
  8
0
100
AcDbSpline
 62
9
  6
CONTINUOUS
 70
0
 71
3
 72
17
 73
13
 74
0
 42
0.0000001
 43
0.0000001
 44
0.0000000001
 40
0.0
 40
0.0
 40
0.0
 40
0.0
 40
0.0686898004
 40
0.1087667831
 40
0.1524889118
 40
0.1992823019
 40
0.2482164163
 40
0.3553923169
 40
0.485268725
 40
0.6388307073
 40
0.812725316
 40
1.0
 40
1.0
 40
1.0
 40
1.0
 10
7.6572402393
 20
15.9125163215
 30
0.0
 10
7.6573450399
 20
15.9122496478
 30
0.0
 10
7.6573914907
 20
15.9117818657
 30
0.0
 10
7.65732047
 20
15.911150756
 30
0.0
 10
7.6571999344
 20
15.9106179869
 30
0.0
 10
7.657022564
 20
15.910063594
 30
0.0
 10
7.656710578
 20
15.9092762135
 30
0.0
 10
7.6561760731
 20
15.9082073741
 30
0.0
 10
7.6553246037
 20
15.9068163663
 30
0.0
 10
7.6542096769
 20
15.9052663632
 30
0.0
 10
7.6528405761
 20
15.9036105429
 30
0.0
 10
7.6518084386
 20
15.9025114352
 30
0.0
 10
7.6512559888
 20
15.9019591244
 30
0.0
  0
SPLINE
  5
51D
100
AcDbEntity
  8
0
100
AcDbSpline
 62
9
  6
CONTINUOUS
 70
0
 71
3
 72
27
 73
23
 74
0
 42
0.0000001
 43
0.0000001
 44
0.0000000001
 40
0.0
 40
0.0
 40
0.0
 40
0.0
 40
0.1862834421
 40
0.3676310638
 40
0.4540406606
 40
0.5363921686
 40
0.61384418
 40
0.6856231538
 40
0.7510331556
 40
0.8094674006
 40
0.8604219004
 40
0.8829728829
 40
0.9035234304
 40
0.9220541082
 40
0.9385596799
 40
0.953059173
 40
0.9656030825
 40
0.9762957572
 40
0.9853281706
 40
0.9930381299
 40
0.9965716466
 40
1.0
 40
1.0
 40
1.0
 40
1.0
 10
7.8161547225
 20
15.7370603927
 30
0.0
 10
7.8196117638
 20
15.7336053964
 30
0.0
 10
7.8263279722
 20
15.726679824
 30
0.0
 10
7.8343564946
 20
15.7178759733
 30
0.0
 10
7.8403708512
 20
15.7109322462
 30
0.0
 10
7.8445102183
 20
15.705972239
 30
0.0
 10
7.8483070754
 20
15.7012279409
 30
0.0
 10
7.851722461
 20
15.6967495218
 30
0.0
 10
7.8547226189
 20
15.6925840785
 30
0.0
 10
7.8572777135
 20
15.6887744334
 30
0.0
 10
7.8590838284
 20
15.6858192753
 30
0.0
 10
7.8602755768
 20
15.6836579031
 30
0.0
 10
7.8610070198
 20
15.6822152988
 30
0.0
 10
7.8616118348
 20
15.6808876096
 30
0.0
 10
7.862088742
 20
15.6796778143
 30
0.0
 10
7.8624370714
 20
15.6785884832
 30
0.0
 10
7.8626564288
 20
15.6776213707
 30
0.0
 10
7.8627462869
 20
15.6767768071
 30
0.0
 10
7.8627057002
 20
15.6760540991
 30
0.0
 10
7.8625522492
 20
15.6755368952
 30
0.0
 10
7.8623575402
 20
15.6752029854
 30
0.0
 10
7.8622395084
 20
15.6750621684
 30
0.0
 10
7.8621759
 20
15.6749985679
 30
0.0
  0
SPLINE
  5
51E
100
AcDbEntity
  8
0
100
AcDbSpline
 62
9
  6
CONTINUOUS
 70
0
 71
3
 72
19
 73
15
 74
0
 42
0.0000001
 43
0.0000001
 44
0.0000000001
 40
0.0
 40
0.0
 40
0.0
 40
0.0
 40
0.0086491231
 40
0.0192499492
 40
0.0461163474
 40
0.0798859625
 40
0.1196036538
 40
0.1641537364
 40
0.2121877309
 40
0.3205518074
 40
0.4550701705
 40
0.616453131
 40
0.8007503215
 40
1.0
 40
1.0
 40
1.0
 40
1.0
 10
7.8238603598
 20
15.7458962415
 30
0.0
 10
7.8238513423
 20
15.7458635693
 30
0.0
 10
7.8238254348
 20
15.7457924904
 30
0.0
 10
7.8237486218
 20
15.7456287901
 30
0.0
 10
7.8236065814
 20
15.745387906
 30
0.0
 10
7.8233870947
 20
15.7450615393
 30
0.0
 10
7.8231138529
 20
15.7446881665
 30
0.0
 10
7.8227963588
 20
15.7442782498
 30
0.0
 10
7.822301711
 20
15.7436654728
 30
0.0
 10
7.8215640572
 20
15.7427960588
 30
0.0
 10
7.820512099
 20
15.7416113932
 30
0.0
 10
7.8192360273
 20
15.740228232
 30
0.0
 10
7.8177617087
 20
15.7386832774
 30
0.0
 10
7.8167071351
 20
15.737612211
 30
0.0
 10
7.8161550032
 20
15.73706011
 30
0.0
  0
SPLINE
  5
51F
100
AcDbEntity
  8
0
100
AcDbSpline
 62
9
  6
CONTINUOUS
 70
0
 71
3
 72
19
 73
15
 74
0
 42
0.0000001
 43
0.0000001
 44
0.0000000001
 40
0.0
 40
0.0
 40
0.0
 40
0.0
 40
0.1403346969
 40
0.2880369367
 40
0.4371349652
 40
0.5815361456
 40
0.7152257411
 40
0.7763465979
 40
0.8327772444
 40
0.8839125285
 40
0.9291948464
 40
0.9680647834
 40
0.9849422531
 40
1.0
 40
1.0
 40
1.0
 40
1.0
 10
8.4357513714
 20
15.1182563157
 30
0.0
 10
8.4399744232
 20
15.115077853
 30
0.0
 10
8.4486022644
 20
15.1085008566
 30
0.0
 10
8.4615947143
 20
15.0983879181
 30
0.0
 10
8.4746099137
 20
15.0880560413
 30
0.0
 10
8.4871127551
 20
15.0779288431
 30
0.0
 10
8.4969513325
 20
15.0697779525
 30
0.0
 10
8.5041759058
 20
15.0636665545
 30
0.0
 10
8.508994174
 20
15.0595252278
 30
0.0
 10
8.5133247501
 20
15.0557320098
 30
0.0
 10
8.5171185306
 20
15.0523302626
 30
0.0
 10
8.5199126558
 20
15.0497468415
 30
0.0
 10
8.521839392
 20
15.047903004
 30
0.0
 10
8.5226966271
 20
15.0470591838
 30
0.0
 10
8.52309684
 20
15.0466573544
 30
0.0
  0
SPLINE
  5
520
100
AcDbEntity
  8
0
100
AcDbSpline
 62
9
  6
CONTINUOUS
 70
0
 71
3
 72
17
 73
13
 74
0
 42
0.0000001
 43
0.0000001
 44
0.0000000001
 40
0.0
 40
0.0
 40
0.0
 40
0.0
 40
0.0642815281
 40
0.1270520274
 40
0.2477220376
 40
0.3608624204
 40
0.470376312
 40
0.589114368
 40
0.7180553856
 40
0.8558164454
 40
0.9273091645
 40
1.0
 40
1.0
 40
1.0
 40
1.0
 10
8.5230977385
 20
15.0466586897
 30
0.0
 10
8.5228163786
 20
15.0468668202
 30
0.0
 10
8.522238715
 20
15.0472500765
 30
0.0
 10
8.5210429625
 20
15.0478778018
 30
0.0
 10
8.5195098065
 20
15.0484170467
 30
0.0
 10
8.5176557692
 20
15.0487154106
 30
0.0
 10
8.515789355
 20
15.0487065948
 30
0.0
 10
8.5138628142
 20
15.0483826966
 30
0.0
 10
8.5118714433
 20
15.0476887344
 30
0.0
 10
8.5102573915
 20
15.0467804302
 30
0.0
 10
8.5090301188
 20
15.0458557013
 30
0.0
 10
8.5084491707
 20
15.045325628
 30
0.0
 10
8.5081694331
 20
15.0450456802
 30
0.0
  0
SPLINE
  5
521
100
AcDbEntity
  8
0
100
AcDbSpline
 62
9
  6
CONTINUOUS
 70
0
 71
3
 72
19
 73
15
 74
0
 42
0.0000001
 43
0.0000001
 44
0.0000000001
 40
0.0
 40
0.0
 40
0.0
 40
0.0
 40
0.2232586839
 40
0.4180209762
 40
0.5838678615
 40
0.7206728543
 40
0.7782330616
 40
0.8286315512
 40
0.8719879916
 40
0.9085058792
 40
0.9385432465
 40
0.9627678528
 40
0.9824757189
 40
1.0
 40
1.0
 40
1.0
 40
1.0
 10
8.5081727909
 20
15.0450423243
 30
0.0
 10
8.5084680654
 20
15.0447474829
 30
0.0
 10
8.5090160721
 20
15.0441905276
 30
0.0
 10
8.5097625283
 20
15.0433942923
 30
0.0
 10
8.5103759484
 20
15.0426954843
 30
0.0
 10
8.510797173
 20
15.042169734
 30
0.0
 10
8.5110633113
 20
15.0417975038
 30
0.0
 10
8.5112172608
 20
15.0415601192
 30
0.0
 10
8.5113374693
 20
15.0413481607
 30
0.0
 10
8.5114240743
 20
15.0411615438
 30
0.0
 10
8.511477296
 20
15.0409998528
 30
0.0
 10
8.5114970913
 20
15.0408619972
 30
0.0
 10
8.5114816166
 20
15.0407458943
 30
0.0
 10
8.511443569
 20
15.0406844683
 30
0.0
 10
8.5114204692
 20
15.0406612481
 30
0.0
  0
SPLINE
  5
522
100
AcDbEntity
  8
0
100
AcDbSpline
 62
9
  6
CONTINUOUS
 70
0
 71
3
 72
31
 73
27
 74
0
 42
0.0000001
 43
0.0000001
 44
0.0000000001
 40
0.0
 40
0.0
 40
0.0
 40
0.0
 40
0.125501542
 40
0.2368064956
 40
0.334070917
 40
0.4172070443
 40
0.4861675471
 40
0.5153816688
 40
0.5411288903
 40
0.5634614053
 40
0.5824573499
 40
0.5982475577
 40
0.6110659476
 40
0.6213597792
 40
0.6299819936
 40
0.6383024687
 40
0.647809466
 40
0.6595369511
 40
0.6740393671
 40
0.6915997773
 40
0.7123678114
 40
0.7364282894
 40
0.7638376268
 40
0.8288330482
 40
0.9075331872
 40
1.0
 40
1.0
 40
1.0
 40
1.0
 10
7.2598083837
 20
16.3099458108
 30
0.0
 10
7.2593616287
 20
16.3103948751
 30
0.0
 10
7.2585124384
 20
16.3112360721
 30
0.0
 10
7.2572927215
 20
16.312400437
 30
0.0
 10
7.256204948
 20
16.3133929098
 30
0.0
 10
7.2552500755
 20
16.3142131411
 30
0.0
 10
7.254531614
 20
16.3147807238
 30
0.0
 10
7.254022346
 20
16.3151440636
 30
0.0
 10
7.2536958633
 20
16.3153578557
 30
0.0
 10
7.2534033129
 20
16.3155286268
 30
0.0
 10
7.2531446211
 20
16.3156565598
 30
0.0
 10
7.2529194819
 20
16.3157420021
 30
0.0
 10
7.2527269628
 20
16.3157851076
 30
0.0
 10
7.2525648184
 20
16.3157854111
 30
0.0
 10
7.2524317461
 20
16.3157369644
 30
0.0
 10
7.2523376295
 20
16.3156358766
 30
0.0
 10
7.2522867849
 20
16.3154926972
 30
0.0
 10
7.2522720199
 20
16.3153117856
 30
0.0
 10
7.2522908057
 20
16.3150908872
 30
0.0
 10
7.25234281
 20
16.3148289897
 30
0.0
 10
7.2524281237
 20
16.3145256329
 30
0.0
 10
7.2525468492
 20
16.3141807422
 30
0.0
 10
7.2527625735
 20
16.3136337684
 30
0.0
 10
7.2531221827
 20
16.3128479949
 30
0.0
 10
7.2536656577
 20
16.3117868944
 30
0.0
 10
7.2540841664
 20
16.3110309356
 30
0.0
 10
7.2543147909
 20
16.3106251929
 30
0.0
  0
SPLINE
  5
523
100
AcDbEntity
  8
0
100
AcDbSpline
 62
9
  6
CONTINUOUS
 70
0
 71
3
 72
52
 73
48
 74
0
 42
0.0000001
 43
0.0000001
 44
0.0000000001
 40
0.0
 40
0.0
 40
0.0
 40
0.0
 40
0.008304764
 40
0.0155165015
 40
0.0216057324
 40
0.0265921658
 40
0.028683284
 40
0.0305117775
 40
0.0320832895
 40
0.0334073288
 40
0.0345006373
 40
0.0353943054
 40
0.0361449019
 40
0.0368441055
 40
0.0376020058
 40
0.0385072457
 40
0.0396135297
 40
0.0409504981
 40
0.0425348468
 40
0.0443763165
 40
0.048850622
 40
0.0543995767
 40
0.0610307868
 40
0.0687432729
 40
0.0775236396
 40
0.0873499673
 40
0.0981978879
 40
0.1100413579
 40
0.122852381
 40
0.1512557168
 40
0.1831435343
 40
0.2182441409
 40
0.2562740102
 40
0.2968928971
 40
0.3397322196
 40
0.3844241126
 40
0.4305805549
 40
0.5256433118
 40
0.6215939852
 40
0.7150252942
 40
0.8025783055
 40
0.8431653302
 40
0.8811355369
 40
0.9161290567
 40
0.9478078581
 40
0.9758676641
 40
1.0
 40
1.0
 40
1.0
 40
1.0
 10
7.3510965036
 20
16.1890596127
 30
0.0
 10
7.3514278991
 20
16.1887511885
 30
0.0
 10
7.3520525151
 20
16.1881807224
 30
0.0
 10
7.3529429437
 20
16.1874094962
 30
0.0
 10
7.353720218
 20
16.1867849145
 30
0.0
 10
7.3543022897
 20
16.1863639571
 30
0.0
 10
7.3547125682
 20
16.1861041027
 30
0.0
 10
7.3549734346
 20
16.185956965
 30
0.0
 10
7.3552059482
 20
16.1858456771
 30
0.0
 10
7.3554102823
 20
16.1857700973
 30
0.0
 10
7.3555870666
 20
16.1857301727
 30
0.0
 10
7.3557376246
 20
16.1857262538
 30
0.0
 10
7.3558633514
 20
16.1857615342
 30
0.0
 10
7.3559590699
 20
16.1858403208
 30
0.0
 10
7.356019024
 20
16.185957345
 30
0.0
 10
7.3560468102
 20
16.1861070517
 30
0.0
 10
7.3560456008
 20
16.1862902976
 30
0.0
 10
7.3560159302
 20
16.1865082461
 30
0.0
 10
7.3559577999
 20
16.1867615442
 30
0.0
 10
7.3558336864
 20
16.1871741671
 30
0.0
 10
7.3555995339
 20
16.187777933
 30
0.0
 10
7.3552212593
 20
16.1886035268
 30
0.0
 10
7.3547284728
 20
16.1895697797
 30
0.0
 10
7.3541216866
 20
16.1906748238
 30
0.0
 10
7.3534020491
 20
16.1919161308
 30
0.0
 10
7.3525715483
 20
16.1932903845
 30
0.0
 10
7.3516324348
 20
16.1947938565
 30
0.0
 10
7.3505871702
 20
16.1964226739
 30
0.0
 10
7.3489999238
 20
16.1988405942
 30
0.0
 10
7.34676771
 20
16.2021419124
 30
0.0
 10
7.3437973487
 20
16.2064102201
 30
0.0
 10
7.3404757357
 20
16.2110729817
 30
0.0
 10
7.3368307876
 20
16.2160894129
 30
0.0
 10
7.3328947349
 20
16.2214155005
 30
0.0
 10
7.3287029558
 20
16.2270039409
 30
0.0
 10
7.324292102
 20
16.2328052061
 30
0.0
 10
7.3181091282
 20
16.2408350905
 30
0.0
 10
7.3101335233
 20
16.2510109592
 30
0.0
 10
7.3004370242
 20
16.2631111992
 30
0.0
 10
7.2908663927
 20
16.2747865299
 30
0.0
 10
7.2830964566
 20
16.2840345037
 30
0.0
 10
7.2771952573
 20
16.2909026541
 30
0.0
 10
7.2731230118
 20
16.2955645162
 30
0.0
 10
7.2693294865
 20
16.2998247346
 30
0.0
 10
7.2658512788
 20
16.3036419713
 30
0.0
 10
7.2627239544
 20
16.3069773047
 30
0.0
 10
7.2607396375
 20
16.3090166523
 30
0.0
 10
7.2598083837
 20
16.3099458108
 30
0.0
  0
SPLINE
  5
524
100
AcDbEntity
  8
0
100
AcDbSpline
 62
9
  6
CONTINUOUS
 70
0
 71
3
 72
41
 73
37
 74
0
 42
0.0000001
 43
0.0000001
 44
0.0000000001
 40
0.0
 40
0.0
 40
0.0
 40
0.0
 40
0.1041809184
 40
0.2087821561
 40
0.3118665867
 40
0.4115463275
 40
0.505992906
 40
0.5935100211
 40
0.6725562421
 40
0.7084809245
 40
0.7418045054
 40
0.7723916432
 40
0.8001233819
 40
0.8249036779
 40
0.8466552351
 40
0.8653273502
 40
0.8735069116
 40
0.8809205422
 40
0.8875819802
 40
0.893513073
 40
0.898747692
 40
0.903338957
 40
0.907367722
 40
0.9109551524
 40
0.9142733153
 40
0.9175383583
 40
0.9209772765
 40
0.924785327
 40
0.9291064058
 40
0.934038417
 40
0.9396466397
 40
0.945974826
 40
0.9530519891
 40
0.9608941746
 40
0.978899925
 40
1.0
 40
1.0
 40
1.0
 40
1.0
 10
7.9937309374
 20
15.5760232571
 30
0.0
 10
7.9910930589
 20
15.5786626059
 30
0.0
 10
7.985758116
 20
15.5839036381
 30
0.0
 10
7.9776570556
 20
15.5915954194
 30
0.0
 10
7.9695442422
 20
15.5990384176
 30
0.0
 10
7.961572293
 20
15.6060944856
 30
0.0
 10
7.953888692
 20
15.6126323448
 30
0.0
 10
7.9466360778
 20
15.6185328705
 30
0.0
 10
7.9408918995
 20
15.6229627652
 30
0.0
 10
7.9366046857
 20
15.6260989961
 30
0.0
 10
7.9336786755
 20
15.6281550674
 30
0.0
 10
7.9309514115
 20
15.629982277
 30
0.0
 10
7.928434997
 20
15.6315726829
 30
0.0
 10
7.9261407007
 20
15.6329199193
 30
0.0
 10
7.9240788095
 20
15.6340183239
 30
0.0
 10
7.9224988273
 20
15.6347527334
 30
0.0
 10
7.9213565947
 20
15.6352027237
 30
0.0
 10
7.9206017083
 20
15.6354598417
 30
0.0
 10
7.919910834
 20
15.6356518532
 30
0.0
 10
7.9192843408
 20
15.6357787173
 30
0.0
 10
7.9187223509
 20
15.6358403589
 30
0.0
 10
7.918224672
 20
15.6358365732
 30
0.0
 10
7.9177908693
 20
15.6357664915
 30
0.0
 10
7.9174210958
 20
15.635627948
 30
0.0
 10
7.9171180094
 20
15.6354182401
 30
0.0
 10
7.916886829
 20
15.6351377068
 30
0.0
 10
7.916730344
 20
15.6347911036
 30
0.0
 10
7.9166464222
 20
15.6343826644
 30
0.0
 10
7.9166322832
 20
15.6339133058
 30
0.0
 10
7.9166865606
 20
15.6333826031
 30
0.0
 10
7.9168089126
 20
15.6327901096
 30
0.0
 10
7.9169994202
 20
15.6321356814
 30
0.0
 10
7.9172581828
 20
15.6314195406
 30
0.0
 10
7.9177156274
 20
15.6303321131
 30
0.0
 10
7.9184680112
 20
15.6288264217
 30
0.0
 10
7.9191660824
 20
15.6276114299
 30
0.0
 10
7.9195558699
 20
15.6269639378
 30
0.0
  0
SPLINE
  5
525
100
AcDbEntity
  8
0
100
AcDbSpline
 62
9
  6
CONTINUOUS
 70
0
 71
3
 72
28
 73
24
 74
0
 42
0.0000001
 43
0.0000001
 44
0.0000000001
 40
0.0
 40
0.0
 40
0.0
 40
0.0
 40
0.0013118163
 40
0.0028733622
 40
0.0048402812
 40
0.0072914933
 40
0.0102670596
 40
0.0137886265
 40
0.022508378
 40
0.0334927023
 40
0.0467467521
 40
0.0622544216
 40
0.0799876703
 40
0.0999127397
 40
0.1219844436
 40
0.1723654676
 40
0.2306654678
 40
0.2963359233
 40
0.3687535497
 40
0.4472268249
 40
0.6192830908
 40
0.805920133
 40
1.0
 40
1.0
 40
1.0
 40
1.0
 10
11.6144226038
 20
9.0481176758
 30
0.0
 10
11.6144226038
 20
9.0481308625
 30
0.0
 10
11.6144301786
 20
9.0481599085
 30
0.0
 10
11.614460134
 20
9.0481991728
 30
0.0
 10
11.6145069656
 20
9.048237354
 30
0.0
 10
11.6145711232
 20
9.0482752355
 30
0.0
 10
11.6146528355
 20
9.0483130762
 30
0.0
 10
11.6147959316
 20
9.0483673843
 30
0.0
 10
11.6150204346
 20
9.0484325417
 30
0.0
 10
11.6153435196
 20
9.0485062251
 30
0.0
 10
11.6157364043
 20
9.0485793231
 30
0.0
 10
11.6161981951
 20
9.0486516414
 30
0.0
 10
11.6167278983
 20
9.0487228717
 30
0.0
 10
11.6173242571
 20
9.0487927831
 30
0.0
 10
11.6182479651
 20
9.0488882336
 30
0.0
 10
11.6195576125
 20
9.0490005048
 30
0.0
 10
11.6213060459
 20
9.049122307
 30
0.0
 10
11.6232770139
 20
9.0492349206
 30
0.0
 10
11.6254515662
 20
9.0493371943
 30
0.0
 10
11.628695534
 20
9.0494621235
 30
0.0
 10
11.6330885464
 20
9.0495819517
 30
0.0
 10
11.6386445778
 20
9.0496684122
 30
0.0
 10
11.6424716672
 20
9.0496877547
 30
0.0
 10
11.6444226038
 20
9.0496877547
 30
0.0
  0
SPLINE
  5
526
100
AcDbEntity
  8
0
100
AcDbSpline
 62
9
  6
CONTINUOUS
 70
0
 71
3
 72
28
 73
24
 74
0
 42
0.0000001
 43
0.0000001
 44
0.0000000001
 40
0.0
 40
0.0
 40
0.0
 40
0.0
 40
0.0013118151
 40
0.002873355
 40
0.004840263
 40
0.007291461
 40
0.0102670118
 40
0.0137885592
 40
0.0225082325
 40
0.0334924669
 40
0.0467464267
 40
0.0622539382
 40
0.0799870531
 40
0.0999119652
 40
0.1219834594
 40
0.1723641441
 40
0.2306638225
 40
0.2963339252
 40
0.3687511774
 40
0.4472238957
 40
0.6192790773
 40
0.805917092
 40
1.0
 40
1.0
 40
1.0
 40
1.0
 10
11.6144226038
 20
8.0410998134
 30
0.0
 10
11.6144226038
 20
8.041113
 30
0.0
 10
11.6144301785
 20
8.041142046
 30
0.0
 10
11.6144601336
 20
8.0411813102
 30
0.0
 10
11.6145069649
 20
8.0412194913
 30
0.0
 10
11.6145711221
 20
8.0412573727
 30
0.0
 10
11.6146528339
 20
8.0412952132
 30
0.0
 10
11.614795929
 20
8.0413495208
 30
0.0
 10
11.6150204301
 20
8.0414146781
 30
0.0
 10
11.6153435125
 20
8.0414883612
 30
0.0
 10
11.6157363938
 20
8.0415614587
 30
0.0
 10
11.6161981807
 20
8.0416337771
 30
0.0
 10
11.6167278795
 20
8.0417050068
 30
0.0
 10
11.6173242332
 20
8.0417749179
 30
0.0
 10
11.6182479341
 20
8.0418703684
 30
0.0
 10
11.6195575728
 20
8.0419826392
 30
0.0
 10
11.621305996
 20
8.0421044413
 30
0.0
 10
11.6232769533
 20
8.042217055
 30
0.0
 10
11.6254514928
 20
8.0423193288
 30
0.0
 10
11.6286954403
 20
8.042444258
 30
0.0
 10
11.633088446
 20
8.0425640871
 30
0.0
 10
11.6386445068
 20
8.0426505494
 30
0.0
 10
11.6424716366
 20
8.0426698921
 30
0.0
 10
11.6444226038
 20
8.0426698921
 30
0.0
  0
SPLINE
  5
527
100
AcDbEntity
  8
0
100
AcDbSpline
 62
9
  6
CONTINUOUS
 70
0
 71
3
 72
28
 73
24
 74
0
 42
0.0000001
 43
0.0000001
 44
0.0000000001
 40
0.0
 40
0.0
 40
0.0
 40
0.0
 40
0.0013118151
 40
0.002873355
 40
0.004840263
 40
0.007291461
 40
0.0102670118
 40
0.0137885592
 40
0.0225082325
 40
0.0334924669
 40
0.0467464267
 40
0.0622539382
 40
0.0799870531
 40
0.0999119652
 40
0.1219834594
 40
0.1723641441
 40
0.2306638225
 40
0.2963339252
 40
0.3687511774
 40
0.4472238957
 40
0.6192790773
 40
0.805917092
 40
1.0
 40
1.0
 40
1.0
 40
1.0
 10
11.6144226038
 20
7.2291355383
 30
0.0
 10
11.6144226038
 20
7.2291223516
 30
0.0
 10
11.6144301785
 20
7.2290933057
 30
0.0
 10
11.6144601336
 20
7.2290540414
 30
0.0
 10
11.6145069649
 20
7.2290158603
 30
0.0
 10
11.6145711221
 20
7.2289779789
 30
0.0
 10
11.6146528339
 20
7.2289401384
 30
0.0
 10
11.614795929
 20
7.2288858308
 30
0.0
 10
11.6150204301
 20
7.2288206736
 30
0.0
 10
11.6153435125
 20
7.2287469905
 30
0.0
 10
11.6157363938
 20
7.2286738929
 30
0.0
 10
11.6161981807
 20
7.2286015745
 30
0.0
 10
11.6167278795
 20
7.2285303449
 30
0.0
 10
11.6173242332
 20
7.2284604338
 30
0.0
 10
11.6182479341
 20
7.2283649832
 30
0.0
 10
11.6195575728
 20
7.2282527125
 30
0.0
 10
11.621305996
 20
7.2281309104
 30
0.0
 10
11.6232769533
 20
7.2280182966
 30
0.0
 10
11.6254514928
 20
7.2279160229
 30
0.0
 10
11.6286954403
 20
7.2277910937
 30
0.0
 10
11.633088446
 20
7.2276712645
 30
0.0
 10
11.6386445068
 20
7.2275848025
 30
0.0
 10
11.6424716366
 20
7.2275654594
 30
0.0
 10
11.6444226038
 20
7.2275654594
 30
0.0
  0
SPLINE
  5
528
100
AcDbEntity
  8
0
100
AcDbSpline
 62
9
  6
CONTINUOUS
 70
0
 71
3
 72
28
 73
24
 74
0
 42
0.0000001
 43
0.0000001
 44
0.0000000001
 40
0.0
 40
0.0
 40
0.0
 40
0.0
 40
0.0013118163
 40
0.0028733624
 40
0.0048402815
 40
0.0072914939
 40
0.0102670604
 40
0.0137886277
 40
0.0225083809
 40
0.0334927071
 40
0.0467467588
 40
0.0622544318
 40
0.0799876833
 40
0.099912756
 40
0.1219844643
 40
0.1723654944
 40
0.2306654989
 40
0.2963359592
 40
0.368753594
 40
0.4472268829
 40
0.6192831567
 40
0.8059201738
 40
1.0
 40
1.0
 40
1.0
 40
1.0
 10
11.6144226038
 20
6.2221176758
 30
0.0
 10
11.6144226038
 20
6.2221044891
 30
0.0
 10
11.6144301786
 20
6.2220754432
 30
0.0
 10
11.614460134
 20
6.2220361789
 30
0.0
 10
11.6145069656
 20
6.2219979977
 30
0.0
 10
11.6145711233
 20
6.2219601162
 30
0.0
 10
11.6146528355
 20
6.2219222755
 30
0.0
 10
11.6147959316
 20
6.2218679674
 30
0.0
 10
11.6150204347
 20
6.22180281
 30
0.0
 10
11.6153435197
 20
6.2217291265
 30
0.0
 10
11.6157364045
 20
6.2216560285
 30
0.0
 10
11.6161981954
 20
6.2215837102
 30
0.0
 10
11.6167278987
 20
6.2215124799
 30
0.0
 10
11.6173242576
 20
6.2214425685
 30
0.0
 10
11.6182479658
 20
6.221347118
 30
0.0
 10
11.6195576133
 20
6.2212348468
 30
0.0
 10
11.6213060469
 20
6.2211130446
 30
0.0
 10
11.623277015
 20
6.221000431
 30
0.0
 10
11.6254515676
 20
6.2208981573
 30
0.0
 10
11.6286955357
 20
6.2207732281
 30
0.0
 10
11.633088548
 20
6.2206533999
 30
0.0
 10
11.6386445789
 20
6.2205669393
 30
0.0
 10
11.6424716676
 20
6.2205475971
 30
0.0
 10
11.6444226038
 20
6.2205475971
 30
0.0
  0
LINE
  5
529
100
AcDbEntity
  8
0
100
AcDbLine
 62
9
  6
CONTINUOUS
 10
8.5531431399
 20
15.0000719753
 11
8.5536128314
 21
14.9994408373
  0
SPLINE
  5
52A
100
AcDbEntity
  8
0
100
AcDbSpline
 62
9
  6
CONTINUOUS
 70
0
 71
3
 72
41
 73
37
 74
0
 42
0.0000001
 43
0.0000001
 44
0.0000000001
 40
0.0
 40
0.0
 40
0.0
 40
0.0
 40
0.0260136
 40
0.0490145012
 40
0.0689743223
 40
0.0859303662
 40
0.0933111069
 40
0.0999833275
 40
0.1059759949
 40
0.1113314578
 40
0.1161116191
 40
0.1204061639
 40
0.1243414895
 40
0.1280838193
 40
0.1318249912
 40
0.1357560845
 40
0.1400417217
 40
0.1448082167
 40
0.1501463183
 40
0.1561194227
 40
0.1627714884
 40
0.1701331379
 40
0.187060288
 40
0.2070035173
 40
0.2299927689
 40
0.2560107113
 40
0.2850105112
 40
0.316921927
 40
0.3516603974
 40
0.3891272384
 40
0.4717691777
 40
0.5637653152
 40
0.6639248641
 40
0.7709790495
 40
0.8835069885
 40
1.0
 40
1.0
 40
1.0
 40
1.0
 10
8.0267027159
 20
15.5238519239
 30
0.0
 10
8.0273122612
 20
15.523502699
 30
0.0
 10
8.0284712811
 20
15.5228627101
 30
0.0
 10
8.0301389193
 20
15.522031315
 30
0.0
 10
8.0316252094
 20
15.5213895172
 30
0.0
 10
8.0327566983
 20
15.5209957376
 30
0.0
 10
8.0335677905
 20
15.5207856702
 30
0.0
 10
8.0340999122
 20
15.5206837985
 30
0.0
 10
8.0345842061
 20
15.520630133
 30
0.0
 10
8.035020593
 20
15.5206249133
 30
0.0
 10
8.035409073
 20
15.5206685961
 30
0.0
 10
8.0357495616
 20
15.5207621323
 30
0.0
 10
8.0360412169
 20
15.5209070778
 30
0.0
 10
8.0362819999
 20
15.5211042029
 30
0.0
 10
8.0364695274
 20
15.5213523816
 30
0.0
 10
8.0366029861
 20
15.5216490254
 30
0.0
 10
8.036683414
 20
15.5219920928
 30
0.0
 10
8.036712244
 20
15.5223808791
 30
0.0
 10
8.0366903439
 20
15.5228153846
 30
0.0
 10
8.0366180905
 20
15.5232957035
 30
0.0
 10
8.0364956435
 20
15.5238218457
 30
0.0
 10
8.0362538215
 20
15.524622129
 30
0.0
 10
8.0358148205
 20
15.525735011
 30
0.0
 10
8.0351128605
 20
15.527192138
 30
0.0
 10
8.0342134587
 20
15.5288233905
 30
0.0
 10
8.0331189917
 20
15.5306238947
 30
0.0
 10
8.031832379
 20
15.5325878744
 30
0.0
 10
8.0303576391
 20
15.5347088498
 30
0.0
 10
8.0286993965
 20
15.5369797451
 30
0.0
 10
8.0261667023
 20
15.5403074407
 30
0.0
 10
8.0225781241
 20
15.5447731358
 30
0.0
 10
8.0177778619
 20
15.5504332622
 30
0.0
 10
8.0124164411
 20
15.5564792351
 30
0.0
 10
8.0065638498
 20
15.5628284302
 30
0.0
 10
8.0002978402
 20
15.5693944786
 30
0.0
 10
7.9959566086
 20
15.5737999582
 30
0.0
 10
7.9937309374
 20
15.5760232571
 30
0.0
  0
SPLINE
  5
52B
100
AcDbEntity
  8
0
100
AcDbSpline
 62
9
  6
CONTINUOUS
 70
0
 71
3
 72
18
 73
14
 74
0
 42
0.0000001
 43
0.0000001
 44
0.0000000001
 40
0.0
 40
0.0
 40
0.0
 40
0.0
 40
0.0666239453
 40
0.1314775879
 40
0.2553635582
 40
0.3703302889
 40
0.4804134509
 40
0.5984745692
 40
0.725355114
 40
0.7917994049
 40
0.8599388618
 40
0.9294313754
 40
1.0
 40
1.0
 40
1.0
 40
1.0
 10
8.5685373039
 20
15.0012192815
 30
0.0
 10
8.5682390247
 20
15.0014443861
 30
0.0
 10
8.5676286537
 20
15.0018607841
 30
0.0
 10
8.5663718139
 20
15.0025512221
 30
0.0
 10
8.5647711135
 20
15.0031628895
 30
0.0
 10
8.5628415444
 20
15.0035388523
 30
0.0
 10
8.5609098723
 20
15.0035970962
 30
0.0
 10
8.5589271075
 20
15.0033316776
 30
0.0
 10
8.5572524232
 20
15.0028001816
 30
0.0
 10
8.5559272724
 20
15.0021677571
 30
0.0
 10
8.5549438467
 20
15.0015784722
 30
0.0
 10
8.5540029047
 20
15.0008838566
 30
0.0
 10
8.5534197059
 20
15.0003551717
 30
0.0
 10
8.5531399374
 20
15.0000751759
 30
0.0
  0
SPLINE
  5
52C
100
AcDbEntity
  8
0
100
AcDbSpline
 62
9
  6
CONTINUOUS
 70
0
 71
3
 72
51
 73
47
 74
0
 42
0.0000001
 43
0.0000001
 44
0.0000000001
 40
0.0
 40
0.0
 40
0.0
 40
0.0
 40
0.0299479803
 40
0.0632836922
 40
0.0996500969
 40
0.1386996236
 40
0.2234420624
 40
0.3146305781
 40
0.4093101472
 40
0.5043829353
 40
0.551095112
 40
0.5967547708
 40
0.6409997415
 40
0.683479989
 40
0.7238484803
 40
0.7617730203
 40
0.7969471196
 40
0.8290827941
 40
0.8579350995
 40
0.883313273
 40
0.8946492292
 40
0.9050573175
 40
0.9145159093
 40
0.9230004464
 40
0.9304867011
 40
0.9369513301
 40
0.942382653
 40
0.9467947676
 40
0.948631173
 40
0.9502338073
 40
0.951618742
 40
0.9528097727
 40
0.9538428606
 40
0.954771067
 40
0.9556652604
 40
0.956603149
 40
0.9576519948
 40
0.958860168
 40
0.9602592979
 40
0.9618694988
 40
0.9657682875
 40
0.9706165657
 40
0.9764382095
 40
0.9832575998
 40
0.9911079857
 40
1.0
 40
1.0
 40
1.0
 40
1.0
 10
8.4393682727
 20
15.1303859218
 30
0.0
 10
8.4382550293
 20
15.131503011
 30
0.0
 10
8.4358755475
 20
15.1338366094
 30
0.0
 10
8.4320713876
 20
15.1374515524
 30
0.0
 10
8.4278686853
 20
15.1413421752
 30
0.0
 10
8.4216170096
 20
15.1470036558
 30
0.0
 10
8.4131149495
 20
15.1544799831
 30
0.0
 10
8.4022700078
 20
15.1637254852
 30
0.0
 10
8.3908777563
 20
15.1731652957
 30
0.0
 10
8.3811818053
 20
15.1809794969
 30
0.0
 10
8.3734326441
 20
15.1870940914
 30
0.0
 10
8.3677529341
 20
15.1915100401
 30
0.0
 10
8.3622171852
 20
15.1957477549
 30
0.0
 10
8.3568701587
 20
15.199773267
 30
0.0
 10
8.351755367
 20
15.2035534729
 30
0.0
 10
8.3469148936
 20
15.2070570503
 30
0.0
 10
8.3423889367
 20
15.2102551682
 30
0.0
 10
8.3382142586
 20
15.2131218456
 30
0.0
 10
8.3344233873
 20
15.2156351323
 30
0.0
 10
8.3315074839
 20
15.2174849223
 30
0.0
 10
8.3293849494
 20
15.2187706424
 30
0.0
 10
8.3279661709
 20
15.2195996787
 30
0.0
 10
8.3266630068
 20
15.2203284612
 30
0.0
 10
8.3254791225
 20
15.2209546553
 30
0.0
 10
8.3244185807
 20
15.2214758042
 30
0.0
 10
8.3234851446
 20
15.2218897319
 30
0.0
 10
8.322681741
 20
15.2221943715
 30
0.0
 10
8.32209019
 20
15.2223674085
 30
0.0
 10
8.3216834656
 20
15.2224436194
 30
0.0
 10
8.3214303955
 20
15.2224696369
 30
0.0
 10
8.3212097909
 20
15.2224684099
 30
0.0
 10
8.3210210158
 20
15.2224397948
 30
0.0
 10
8.3208635285
 20
15.2223830634
 30
0.0
 10
8.3207379963
 20
15.222296631
 30
0.0
 10
8.3206471434
 20
15.2221802142
 30
0.0
 10
8.3205926005
 20
15.2220365841
 30
0.0
 10
8.3205728726
 20
15.2218682161
 30
0.0
 10
8.3205861925
 20
15.2216753416
 30
0.0
 10
8.3206317778
 20
15.221457449
 30
0.0
 10
8.3207427748
 20
15.2211105081
 30
0.0
 10
8.3209715655
 20
15.2206135621
 30
0.0
 10
8.3213559711
 20
15.21994903
 30
0.0
 10
8.3218676266
 20
15.2191826027
 30
0.0
 10
8.3225083225
 20
15.2183139574
 30
0.0
 10
8.3232809401
 20
15.2173427996
 30
0.0
 10
8.3238494078
 20
15.2166687304
 30
0.0
 10
8.3241550241
 20
15.2163139531
 30
0.0
  0
SPLINE
  5
52D
100
AcDbEntity
  8
0
100
AcDbSpline
 62
9
  6
CONTINUOUS
 70
0
 71
3
 72
28
 73
24
 74
0
 42
0.0000001
 43
0.0000001
 44
0.0000000001
 40
0.0
 40
0.0
 40
0.0
 40
0.0
 40
0.0013118163
 40
0.0028733622
 40
0.0048402812
 40
0.0072914933
 40
0.0102670596
 40
0.0137886265
 40
0.022508378
 40
0.0334927023
 40
0.0467467521
 40
0.0622544216
 40
0.0799876702
 40
0.0999127397
 40
0.1219844436
 40
0.1723654676
 40
0.2306654678
 40
0.2963359233
 40
0.3687535496
 40
0.4472268248
 40
0.6192830907
 40
0.8059201329
 40
1.0
 40
1.0
 40
1.0
 40
1.0
 10
11.9894226038
 20
6.2221176758
 30
0.0
 10
11.9894226038
 20
6.2221044891
 30
0.0
 10
11.9894150291
 20
6.2220754432
 30
0.0
 10
11.9893850737
 20
6.2220361789
 30
0.0
 10
11.9893382421
 20
6.2219979977
 30
0.0
 10
11.9892740845
 20
6.2219601162
 30
0.0
 10
11.9891923722
 20
6.2219222755
 30
0.0
 10
11.9890492761
 20
6.2218679674
 30
0.0
 10
11.9888247731
 20
6.22180281
 30
0.0
 10
11.9885016881
 20
6.2217291265
 30
0.0
 10
11.9881088034
 20
6.2216560285
 30
0.0
 10
11.9876470126
 20
6.2215837102
 30
0.0
 10
11.9871173094
 20
6.22151248
 30
0.0
 10
11.9865209506
 20
6.2214425686
 30
0.0
 10
11.9855972426
 20
6.2213471181
 30
0.0
 10
11.9842875952
 20
6.2212348469
 30
0.0
 10
11.9825391618
 20
6.2211130446
 30
0.0
 10
11.9805681938
 20
6.221000431
 30
0.0
 10
11.9783936415
 20
6.2208981574
 30
0.0
 10
11.9751496737
 20
6.2207732282
 30
0.0
 10
11.9707566613
 20
6.2206533999
 30
0.0
 10
11.9652006299
 20
6.2205669397
 30
0.0
 10
11.9613735405
 20
6.2205475966
 30
0.0
 10
11.9594226038
 20
6.2205475966
 30
0.0
  0
SPLINE
  5
52E
100
AcDbEntity
  8
0
100
AcDbSpline
 62
9
  6
CONTINUOUS
 70
0
 71
3
 72
28
 73
24
 74
0
 42
0.0000001
 43
0.0000001
 44
0.0000000001
 40
0.0
 40
0.0
 40
0.0
 40
0.0
 40
0.0013118151
 40
0.002873355
 40
0.004840263
 40
0.007291461
 40
0.0102670118
 40
0.0137885592
 40
0.0225082325
 40
0.0334924669
 40
0.0467464267
 40
0.0622539382
 40
0.0799870531
 40
0.0999119652
 40
0.1219834594
 40
0.1723641441
 40
0.2306638225
 40
0.2963339252
 40
0.3687511774
 40
0.4472238957
 40
0.6192790773
 40
0.805917092
 40
1.0
 40
1.0
 40
1.0
 40
1.0
 10
11.9894226038
 20
7.2291355383
 30
0.0
 10
11.9894226038
 20
7.2291223516
 30
0.0
 10
11.9894150292
 20
7.2290933057
 30
0.0
 10
11.9893850741
 20
7.2290540414
 30
0.0
 10
11.9893382428
 20
7.2290158603
 30
0.0
 10
11.9892740856
 20
7.2289779789
 30
0.0
 10
11.9891923738
 20
7.2289401384
 30
0.0
 10
11.9890492787
 20
7.2288858308
 30
0.0
 10
11.9888247776
 20
7.2288206736
 30
0.0
 10
11.9885016952
 20
7.2287469905
 30
0.0
 10
11.9881088139
 20
7.2286738929
 30
0.0
 10
11.987647027
 20
7.2286015745
 30
0.0
 10
11.9871173282
 20
7.2285303449
 30
0.0
 10
11.9865209745
 20
7.2284604338
 30
0.0
 10
11.9855972736
 20
7.2283649832
 30
0.0
 10
11.9842876349
 20
7.2282527125
 30
0.0
 10
11.9825392117
 20
7.2281309104
 30
0.0
 10
11.9805682544
 20
7.2280182966
 30
0.0
 10
11.9783937149
 20
7.2279160229
 30
0.0
 10
11.9751497674
 20
7.2277910937
 30
0.0
 10
11.9707567617
 20
7.2276712645
 30
0.0
 10
11.9652007009
 20
7.2275848023
 30
0.0
 10
11.9613735711
 20
7.2275654596
 30
0.0
 10
11.9594226038
 20
7.2275654596
 30
0.0
  0
SPLINE
  5
52F
100
AcDbEntity
  8
0
100
AcDbSpline
 62
9
  6
CONTINUOUS
 70
0
 71
3
 72
28
 73
24
 74
0
 42
0.0000001
 43
0.0000001
 44
0.0000000001
 40
0.0
 40
0.0
 40
0.0
 40
0.0
 40
0.0013118151
 40
0.002873355
 40
0.004840263
 40
0.007291461
 40
0.0102670118
 40
0.0137885592
 40
0.0225082325
 40
0.0334924669
 40
0.0467464267
 40
0.0622539382
 40
0.0799870531
 40
0.0999119652
 40
0.1219834594
 40
0.1723641441
 40
0.2306638225
 40
0.2963339252
 40
0.3687511774
 40
0.4472238957
 40
0.6192790773
 40
0.805917092
 40
1.0
 40
1.0
 40
1.0
 40
1.0
 10
11.9894226038
 20
8.0410998134
 30
0.0
 10
11.9894226038
 20
8.041113
 30
0.0
 10
11.9894150292
 20
8.041142046
 30
0.0
 10
11.9893850741
 20
8.0411813102
 30
0.0
 10
11.9893382428
 20
8.0412194913
 30
0.0
 10
11.9892740856
 20
8.0412573727
 30
0.0
 10
11.9891923738
 20
8.0412952132
 30
0.0
 10
11.9890492787
 20
8.0413495208
 30
0.0
 10
11.9888247776
 20
8.0414146781
 30
0.0
 10
11.9885016952
 20
8.0414883612
 30
0.0
 10
11.9881088139
 20
8.0415614587
 30
0.0
 10
11.987647027
 20
8.0416337771
 30
0.0
 10
11.9871173282
 20
8.0417050068
 30
0.0
 10
11.9865209745
 20
8.0417749179
 30
0.0
 10
11.9855972736
 20
8.0418703684
 30
0.0
 10
11.9842876349
 20
8.0419826392
 30
0.0
 10
11.9825392117
 20
8.0421044413
 30
0.0
 10
11.9805682544
 20
8.042217055
 30
0.0
 10
11.9783937149
 20
8.0423193288
 30
0.0
 10
11.9751497674
 20
8.042444258
 30
0.0
 10
11.9707567617
 20
8.0425640871
 30
0.0
 10
11.9652007009
 20
8.0426505492
 30
0.0
 10
11.9613735711
 20
8.0426698923
 30
0.0
 10
11.9594226038
 20
8.0426698923
 30
0.0
  0
SPLINE
  5
530
100
AcDbEntity
  8
0
100
AcDbSpline
 62
9
  6
CONTINUOUS
 70
0
 71
3
 72
28
 73
24
 74
0
 42
0.0000001
 43
0.0000001
 44
0.0000000001
 40
0.0
 40
0.0
 40
0.0
 40
0.0
 40
0.0013118163
 40
0.0028733624
 40
0.0048402815
 40
0.0072914939
 40
0.0102670604
 40
0.0137886277
 40
0.0225083809
 40
0.0334927071
 40
0.0467467588
 40
0.0622544318
 40
0.0799876833
 40
0.099912756
 40
0.1219844643
 40
0.1723654944
 40
0.2306654989
 40
0.2963359592
 40
0.368753594
 40
0.4472268829
 40
0.6192831567
 40
0.8059201738
 40
1.0
 40
1.0
 40
1.0
 40
1.0
 10
11.9894226038
 20
9.0481176758
 30
0.0
 10
11.9894226038
 20
9.0481308625
 30
0.0
 10
11.9894150291
 20
9.0481599085
 30
0.0
 10
11.9893850737
 20
9.0481991728
 30
0.0
 10
11.9893382421
 20
9.048237354
 30
0.0
 10
11.9892740844
 20
9.0482752355
 30
0.0
 10
11.9891923722
 20
9.0483130762
 30
0.0
 10
11.9890492761
 20
9.0483673843
 30
0.0
 10
11.988824773
 20
9.0484325417
 30
0.0
 10
11.988501688
 20
9.0485062252
 30
0.0
 10
11.9881088032
 20
9.0485793232
 30
0.0
 10
11.9876470123
 20
9.0486516415
 30
0.0
 10
11.987117309
 20
9.0487228717
 30
0.0
 10
11.9865209501
 20
9.0487927831
 30
0.0
 10
11.9855972419
 20
9.0488882336
 30
0.0
 10
11.9842875944
 20
9.0490005048
 30
0.0
 10
11.9825391608
 20
9.0491223071
 30
0.0
 10
11.9805681927
 20
9.0492349207
 30
0.0
 10
11.9783936401
 20
9.0493371943
 30
0.0
 10
11.975149672
 20
9.0494621235
 30
0.0
 10
11.9707566597
 20
9.0495819517
 30
0.0
 10
11.9652006288
 20
9.0496684123
 30
0.0
 10
11.9613735401
 20
9.0496877545
 30
0.0
 10
11.9594226038
 20
9.0496877545
 30
0.0
  0
SPLINE
  5
531
100
AcDbEntity
  8
0
100
AcDbSpline
 62
9
  6
CONTINUOUS
 70
0
 71
3
 72
32
 73
28
 74
0
 42
0.0000001
 43
0.0000001
 44
0.0000000001
 40
0.0
 40
0.0
 40
0.0
 40
0.0
 40
0.0818245427
 40
0.1504988175
 40
0.1798682598
 40
0.2059270969
 40
0.2286970459
 40
0.2482312784
 40
0.2646322237
 40
0.2780911076
 40
0.2889820661
 40
0.2980212644
 40
0.302230252
 40
0.3064624815
 40
0.3156724159
 40
0.326837187
 40
0.3406097945
 40
0.357333265
 40
0.377192639
 40
0.4002928512
 40
0.4266952308
 40
0.4895024745
 40
0.565685011
 40
0.6550944478
 40
0.7574792238
 40
0.8725502258
 40
1.0
 40
1.0
 40
1.0
 40
1.0
 10
8.4427902488
 20
15.1197681451
 30
0.0
 10
8.4433577782
 20
15.1194524588
 30
0.0
 10
8.4444097998
 20
15.1188863078
 30
0.0
 10
8.445693918
 20
15.1182609912
 30
0.0
 10
8.446599174
 20
15.1178723382
 30
0.0
 10
8.4471786941
 20
15.1176496514
 30
0.0
 10
8.4476944363
 20
15.1174801989
 30
0.0
 10
8.4481460979
 20
15.1173640113
 30
0.0
 10
8.4485337514
 20
15.1173008185
 30
0.0
 10
8.4488583429
 20
15.1172909411
 30
0.0
 10
8.4491221731
 20
15.1173349052
 30
0.0
 10
8.4492966502
 20
15.117425367
 30
0.0
 10
8.4493935083
 20
15.1175262033
 30
0.0
 10
8.4494671274
 20
15.1176466473
 30
0.0
 10
8.449512559
 20
15.1178413981
 30
0.0
 10
8.4494944544
 20
15.1181139907
 30
0.0
 10
8.4494119717
 20
15.1184354645
 30
0.0
 10
8.4492648921
 20
15.1188078143
 30
0.0
 10
8.449053107
 20
15.119231992
 30
0.0
 10
8.4487762372
 20
15.1197081302
 30
0.0
 10
8.448291139
 20
15.1204562584
 30
0.0
 10
8.447513224
 20
15.1215147978
 30
0.0
 10
8.4463709683
 20
15.1229228609
 30
0.0
 10
8.4449744665
 20
15.1245274832
 30
0.0
 10
8.4433282467
 20
15.1263226556
 30
0.0
 10
8.4414371104
 20
15.128302039
 30
0.0
 10
8.4400841547
 20
15.1296712753
 30
0.0
 10
8.4393682727
 20
15.1303859218
 30
0.0
  0
SPLINE
  5
532
100
AcDbEntity
  8
0
100
AcDbSpline
 62
9
  6
CONTINUOUS
 70
0
 71
3
 72
37
 73
33
 74
0
 42
0.0000001
 43
0.0000001
 44
0.0000000001
 40
0.0
 40
0.0
 40
0.0
 40
0.0
 40
0.1209098313
 40
0.2359930726
 40
0.3440667099
 40
0.4440802147
 40
0.5350661947
 40
0.6162121183
 40
0.6528729379
 40
0.6867967776
 40
0.717885567
 40
0.7460427621
 40
0.7711969006
 40
0.7933336564
 40
0.8124746187
 40
0.8286973756
 40
0.8421439049
 40
0.8530751808
 40
0.8577537924
 40
0.8620269366
 40
0.8660260204
 40
0.869910749
 40
0.8738550247
 40
0.8780248382
 40
0.882560683
 40
0.8875716313
 40
0.8993057163
 40
0.9136576396
 40
0.9308369501
 40
0.9509382506
 40
0.9739961047
 40
1.0
 40
1.0
 40
1.0
 40
1.0
 10
7.6572389792
 20
15.9125152153
 30
0.0
 10
7.6553451055
 20
15.9144139733
 30
0.0
 10
7.6516199255
 20
15.9180914939
 30
0.0
 10
7.6461059655
 20
15.9233678774
 30
0.0
 10
7.6408418175
 20
15.928233485
 30
0.0
 10
7.6358840366
 20
15.9326414448
 30
0.0
 10
7.6312825297
 20
15.9365489897
 30
0.0
 10
7.6276711634
 20
15.9394494498
 30
0.0
 10
7.62499082
 20
15.9414848882
 30
0.0
 10
7.6231668769
 20
15.9428114289
 30
0.0
 10
7.6214661808
 20
15.9439858015
 30
0.0
 10
7.6198944752
 20
15.9450033671
 30
0.0
 10
7.618456508
 20
15.9458602503
 30
0.0
 10
7.6171562478
 20
15.9465548777
 30
0.0
 10
7.6159960226
 20
15.9470867377
 30
0.0
 10
7.6149766771
 20
15.9474567781
 30
0.0
 10
7.6140986388
 20
15.9476662052
 30
0.0
 10
7.6134496809
 20
15.947708884
 30
0.0
 10
7.6130114593
 20
15.9476468443
 30
0.0
 10
7.6127359222
 20
15.9475604492
 30
0.0
 10
7.6124971449
 20
15.9474311773
 30
0.0
 10
7.612296671
 20
15.9472587363
 30
0.0
 10
7.6121359294
 20
15.9470441535
 30
0.0
 10
7.6120151384
 20
15.9467891074
 30
0.0
 10
7.6119335541
 20
15.9464947267
 30
0.0
 10
7.6118731128
 20
15.946025325
 30
0.0
 10
7.6119078262
 20
15.9453317372
 30
0.0
 10
7.61209564
 20
15.9443888444
 30
0.0
 10
7.612432366
 20
15.9432926518
 30
0.0
 10
7.6129177904
 20
15.9420446059
 30
0.0
 10
7.6135516123
 20
15.9406469768
 30
0.0
 10
7.6140428675
 20
15.9396756466
 30
0.0
 10
7.6143114155
 20
15.9391652096
 30
0.0
  0
SPLINE
  5
533
100
AcDbEntity
  8
0
100
AcDbSpline
 62
9
  6
CONTINUOUS
 70
0
 71
3
 72
41
 73
37
 74
0
 42
0.0000001
 43
0.0000001
 44
0.0000000001
 40
0.0
 40
0.0
 40
0.0
 40
0.0
 40
0.0211332923
 40
0.038988497
 40
0.0466919595
 40
0.0535887722
 40
0.0596961033
 40
0.0650421753
 40
0.0696726948
 40
0.0736622179
 40
0.0771283762
 40
0.0802495969
 40
0.0832678767
 40
0.0864508451
 40
0.0900306233
 40
0.0941738625
 40
0.0989879625
 40
0.1045346702
 40
0.1108491665
 40
0.1179516648
 40
0.1258535829
 40
0.1345604401
 40
0.1543890636
 40
0.1774150728
 40
0.2035516606
 40
0.2326777816
 40
0.2646578914
 40
0.299348457
 40
0.3365894196
 40
0.4179752676
 40
0.5071482482
 40
0.6022373971
 40
0.7012055496
 40
0.8019470403
 40
0.9022886407
 40
1.0
 40
1.0
 40
1.0
 40
1.0
 10
7.7154245991
 20
15.8290244816
 30
0.0
 10
7.716134145
 20
15.8285542295
 30
0.0
 10
7.7174606808
 20
15.8277125765
 30
0.0
 10
7.7191050708
 20
15.8267962132
 30
0.0
 10
7.7202862998
 20
15.8262350802
 30
0.0
 10
7.7210576671
 20
15.8259165588
 30
0.0
 10
7.7217582773
 20
15.8256790372
 30
0.0
 10
7.722387911
 20
15.8255224855
 30
0.0
 10
7.7229468408
 20
15.8254469642
 30
0.0
 10
7.7234359259
 20
15.8254529702
 30
0.0
 10
7.723856156
 20
15.8255426989
 30
0.0
 10
7.7242056458
 20
15.8257209558
 30
0.0
 10
7.7244764959
 20
15.825989846
 30
0.0
 10
7.724662684
 20
15.826342823
 30
0.0
 10
7.7247668038
 20
15.8267730324
 30
0.0
 10
7.7247929274
 20
15.8272794418
 30
0.0
 10
7.7247428066
 20
15.8278628273
 30
0.0
 10
7.7246175894
 20
15.8285235872
 30
0.0
 10
7.7244176758
 20
15.8292614067
 30
0.0
 10
7.7241433626
 20
15.8300755514
 30
0.0
 10
7.7237949371
 20
15.8309651212
 30
0.0
 10
7.723205748
 20
15.8323096632
 30
0.0
 10
7.722276047
 20
15.8341682155
 30
0.0
 10
7.7209173942
 20
15.8365930911
 30
0.0
 10
7.719277938
 20
15.8392874606
 30
0.0
 10
7.7173665904
 20
15.8422366948
 30
0.0
 10
7.7151930041
 20
15.8454252137
 30
0.0
 10
7.7127676171
 20
15.8488366067
 30
0.0
 10
7.7091035605
 20
15.8538079591
 30
0.0
 10
7.7039833768
 20
15.8604306214
 30
0.0
 10
7.6972371868
 20
15.8687370956
 30
0.0
 10
7.6898617464
 20
15.877441606
 30
0.0
 10
7.6820173201
 20
15.8863566139
 30
0.0
 10
7.6738736866
 20
15.8952876401
 30
0.0
 10
7.6656077371
 20
15.9040359943
 30
0.0
 10
7.6600234831
 20
15.9097337634
 30
0.0
 10
7.6572389792
 20
15.9125152153
 30
0.0
  0
SPLINE
  5
534
100
AcDbEntity
  8
0
100
AcDbSpline
 62
9
  6
CONTINUOUS
 70
0
 71
3
 72
25
 73
21
 74
0
 42
0.0000001
 43
0.0000001
 44
0.0000000001
 40
0.0
 40
0.0
 40
0.0
 40
0.0
 40
0.2200437455
 40
0.4137330227
 40
0.5003271368
 40
0.5799424618
 40
0.6524939826
 40
0.7179170123
 40
0.7761695154
 40
0.8272605207
 40
0.8501398475
 40
0.8712573912
 40
0.8906353696
 40
0.8996826465
 40
0.908308402
 40
0.9387110345
 40
0.9630940856
 40
0.982704068
 40
0.9914557744
 40
1.0
 40
1.0
 40
1.0
 40
1.0
 10
8.4253087216
 20
15.1279063936
 30
0.0
 10
8.42605782
 20
15.1271580377
 30
0.0
 10
8.4274532177
 20
15.1257377514
 30
0.0
 10
8.4290974182
 20
15.1239784998
 30
0.0
 10
8.4302471891
 20
15.1226832654
 30
0.0
 10
8.4309931586
 20
15.1218093303
 30
0.0
 10
8.4316545157
 20
15.1209974499
 30
0.0
 10
8.4322303398
 20
15.120248893
 30
0.0
 10
8.4327197873
 20
15.1195647811
 30
0.0
 10
8.4330671274
 20
15.1190313108
 30
0.0
 10
8.4332992053
 20
15.1186368805
 30
0.0
 10
8.4334447477
 20
15.1183688109
 30
0.0
 10
8.4335499694
 20
15.1181547932
 30
0.0
 10
8.4336226574
 20
15.1179919617
 30
0.0
 10
8.43371123
 20
15.1177782691
 30
0.0
 10
8.4338095386
 20
15.1174882482
 30
0.0
 10
8.4338662881
 20
15.1171325358
 30
0.0
 10
8.4338355987
 20
15.1168746565
 30
0.0
 10
8.4337591103
 20
15.1167128156
 30
0.0
 10
8.433706761
 20
15.1166470028
 30
0.0
 10
8.4336776903
 20
15.1166179278
 30
0.0
  0
SPLINE
  5
535
100
AcDbEntity
  8
0
100
AcDbSpline
 62
9
  6
CONTINUOUS
 70
0
 71
3
 72
18
 73
14
 74
0
 42
0.0000001
 43
0.0000001
 44
0.0000000001
 40
0.0
 40
0.0
 40
0.0
 40
0.0
 40
0.0594638757
 40
0.1179780154
 40
0.2321701401
 40
0.3417352349
 40
0.4502412492
 40
0.5704421316
 40
0.7034975847
 40
0.7744400046
 40
0.8478606909
 40
0.9232188152
 40
1.0
 40
1.0
 40
1.0
 40
1.0
 10
8.4393692579
 20
15.1303873016
 30
0.0
 10
8.4391189967
 20
15.130564105
 30
0.0
 10
8.438601343
 20
15.1308861292
 30
0.0
 10
8.4375175915
 20
15.131397729
 30
0.0
 10
8.4361086458
 20
15.1318018954
 30
0.0
 10
8.4343950668
 20
15.1319566995
 30
0.0
 10
8.4326498216
 20
15.1318241811
 30
0.0
 10
8.4308285219
 20
15.1313933376
 30
0.0
 10
8.429275662
 20
15.1307570634
 30
0.0
 10
8.4280240357
 20
15.1300639696
 30
0.0
 10
8.4270789075
 20
15.1294382886
 30
0.0
 10
8.4261624803
 20
15.1287214573
 30
0.0
 10
8.4255857713
 20
15.1281888759
 30
0.0
 10
8.425306097
 20
15.1279090162
 30
0.0
  0
SPLINE
  5
536
100
AcDbEntity
  8
0
100
AcDbSpline
 62
9
  6
CONTINUOUS
 70
0
 71
3
 72
31
 73
27
 74
0
 42
0.0000001
 43
0.0000001
 44
0.0000000001
 40
0.0
 40
0.0
 40
0.0
 40
0.0
 40
0.1000753291
 40
0.1846453209
 40
0.2540911029
 40
0.2832714037
 40
0.3088031751
 40
0.3307224531
 40
0.3490875488
 40
0.3639997584
 40
0.3756523639
 40
0.3844589134
 40
0.3913684949
 40
0.3981575638
 40
0.4066572705
 40
0.4178753937
 40
0.4322468973
 40
0.4499662353
 40
0.4711295206
 40
0.4957889532
 40
0.523973081
 40
0.5909643365
 40
0.6721489728
 40
0.7674685717
 40
0.8767991819
 40
1.0
 40
1.0
 40
1.0
 40
1.0
 10
7.2002613501
 20
16.3694928444
 30
0.0
 10
7.2001193017
 20
16.3696363212
 30
0.0
 10
7.1998549608
 20
16.3698988458
 30
0.0
 10
7.1994825319
 20
16.3702511661
 30
0.0
 10
7.1992056997
 20
16.3704962305
 30
0.0
 10
7.1990116865
 20
16.3706547193
 30
0.0
 10
7.1988887865
 20
16.3707485694
 30
0.0
 10
7.1987798429
 20
16.3708245806
 30
0.0
 10
7.1986848299
 20
16.3708828133
 30
0.0
 10
7.1986036396
 20
16.3709235224
 30
0.0
 10
7.198535874
 20
16.3709467636
 30
0.0
 10
7.1984802543
 20
16.3709531757
 30
0.0
 10
7.1984347893
 20
16.3709385648
 30
0.0
 10
7.1984070953
 20
16.3709003255
 30
0.0
 10
7.1983978527
 20
16.3708467066
 30
0.0
 10
7.1984018805
 20
16.3707777813
 30
0.0
 10
7.1984192935
 20
16.370691951
 30
0.0
 10
7.1984499834
 20
16.3705889046
 30
0.0
 10
7.1984941315
 20
16.3704684862
 30
0.0
 10
7.1985517562
 20
16.3703307095
 30
0.0
 10
7.1986525946
 20
16.3701109405
 30
0.0
 10
7.1988141331
 20
16.3697937802
 30
0.0
 10
7.1990515414
 20
16.369363656
 30
0.0
 10
7.1993422607
 20
16.3688655839
 30
0.0
 10
7.1996858183
 20
16.3683003491
 30
0.0
 10
7.1999350227
 20
16.36790287
 30
0.0
 10
7.2000681543
 20
16.3676929766
 30
0.0
  0
SPLINE
  5
537
100
AcDbEntity
  8
0
100
AcDbSpline
 62
9
  6
CONTINUOUS
 70
0
 71
3
 72
16
 73
12
 74
0
 42
0.0000001
 43
0.0000001
 44
0.0000000001
 40
0.0
 40
0.0
 40
0.0
 40
0.0
 40
0.3191776987
 40
0.4705719212
 40
0.6112721038
 40
0.7376229808
 40
0.8463275491
 40
0.8931758425
 40
0.9345978083
 40
0.9702948889
 40
1.0
 40
1.0
 40
1.0
 40
1.0
 10
7.2538595347
 20
16.3037877436
 30
0.0
 10
7.2484733667
 20
16.3107144816
 30
0.0
 10
7.2404867096
 20
16.3208913869
 30
0.0
 10
7.2300141077
 20
16.3340333497
 30
0.0
 10
7.2227948101
 20
16.3429894009
 30
0.0
 10
7.2162584574
 20
16.3509882935
 30
0.0
 10
7.2113039608
 20
16.3569476464
 30
0.0
 10
7.2078026323
 20
16.3610783982
 30
0.0
 10
7.2055789384
 20
16.3636609649
 30
0.0
 10
7.2036403464
 20
16.3658669095
 30
0.0
 10
7.2024347466
 20
16.3672009197
 30
0.0
 10
7.2018801472
 20
16.3678003187
 30
0.0
  0
LINE
  5
538
100
AcDbEntity
  8
0
100
AcDbLine
 62
9
  6
CONTINUOUS
 10
7.2018801472
 20
16.3678003187
 11
7.2002613501
 21
16.3694928444
  0
SPLINE
  5
539
100
AcDbEntity
  8
0
100
AcDbSpline
 62
9
  6
CONTINUOUS
 70
0
 71
3
 72
37
 73
33
 74
0
 42
0.0000001
 43
0.0000001
 44
0.0000000001
 40
0.0
 40
0.0
 40
0.0
 40
0.0
 40
0.1125988135
 40
0.2225235695
 40
0.3282721418
 40
0.4284585382
 40
0.5218170738
 40
0.6072143753
 40
0.6834906104
 40
0.7178344305
 40
0.7494962218
 40
0.7784001598
 40
0.8044993223
 40
0.8277576654
 40
0.8481499346
 40
0.8656799179
 40
0.880397774
 40
0.886742762
 40
0.8924452524
 40
0.8975466716
 40
0.9021070431
 40
0.9099480362
 40
0.9135420855
 40
0.9171410024
 40
0.9250189805
 40
0.929611017
 40
0.9347525636
 40
0.9405033489
 40
0.946904485
 40
0.9617549481
 40
0.979441415
 40
1.0
 40
1.0
 40
1.0
 40
1.0
 10
7.8238591376
 20
15.7458950568
 30
0.0
 10
7.8215979594
 20
15.7481617281
 30
0.0
 10
7.8170918618
 20
15.752604042
 30
0.0
 10
7.8103417572
 20
15.7590515721
 30
0.0
 10
7.8037442979
 20
15.7651462274
 30
0.0
 10
7.7973909321
 20
15.7708089932
 30
0.0
 10
7.7913653222
 20
15.7759676091
 30
0.0
 10
7.7857494013
 20
15.7805564944
 30
0.0
 10
7.7813357868
 20
15.7839620918
 30
0.0
 10
7.7780622209
 20
15.7863398124
 30
0.0
 10
7.7758440966
 20
15.7878774257
 30
0.0
 10
7.7737829221
 20
15.7892286202
 30
0.0
 10
7.7718846088
 20
15.7903906759
 30
0.0
 10
7.7701544864
 20
15.7913614271
 30
0.0
 10
7.7685972381
 20
15.7921389724
 30
0.0
 10
7.7672173235
 20
15.7927216244
 30
0.0
 10
7.7661709567
 20
15.7930602948
 30
0.0
 10
7.7654264121
 20
15.7932211641
 30
0.0
 10
7.7649425651
 20
15.7932859055
 30
0.0
 10
7.764504727
 20
15.7933005216
 30
0.0
 10
7.7640088298
 20
15.7932559054
 30
0.0
 10
7.7635637843
 20
15.7931102708
 30
0.0
 10
7.7632241602
 20
15.7928444272
 30
0.0
 10
7.7629551449
 20
15.7925059881
 30
0.0
 10
7.7628047675
 20
15.7920604145
 30
0.0
 10
7.7627544378
 20
15.7915619686
 30
0.0
 10
7.7627639117
 20
15.7911205817
 30
0.0
 10
7.7628229523
 20
15.7906318713
 30
0.0
 10
7.7629750793
 20
15.7898786216
 30
0.0
 10
7.763301325
 20
15.7888180641
 30
0.0
 10
7.7638673851
 20
15.7874173394
 30
0.0
 10
7.7643374893
 20
15.7864359796
 30
0.0
 10
7.7646016074
 20
15.7859144779
 30
0.0
  0
LINE
  5
53A
100
AcDbEntity
  8
0
100
AcDbLine
 62
9
  6
CONTINUOUS
 10
7.7646016074
 20
15.7859144779
 11
7.7660545887
 21
15.7832628972
  0
SPLINE
  5
53B
100
AcDbEntity
  8
0
100
AcDbSpline
 62
9
  6
CONTINUOUS
 70
0
 71
3
 72
40
 73
36
 74
0
 42
0.0000001
 43
0.0000001
 44
0.0000000001
 40
0.0
 40
0.0
 40
0.0
 40
0.0
 40
0.0215948492
 40
0.0401727858
 40
0.0557524384
 40
0.0624418262
 40
0.0684203016
 40
0.0737202129
 40
0.0783924018
 40
0.0825180299
 40
0.086219449
 40
0.0896636015
 40
0.0930543556
 40
0.0966037887
 40
0.1004973388
 40
0.1048761921
 40
0.1098394332
 40
0.1154545742
 40
0.1217671443
 40
0.1288046539
 40
0.1365831366
 40
0.1543921023
 40
0.175218002
 40
0.1990370463
 40
0.2258030471
 40
0.2554461469
 40
0.2878745582
 40
0.3229713915
 40
0.4006224173
 40
0.4871879253
 40
0.5812513914
 40
0.6812459581
 40
0.7855438438
 40
0.8924035997
 40
1.0
 40
1.0
 40
1.0
 40
1.0
 10
7.8704155216
 20
15.6772518276
 30
0.0
 10
7.8710391177
 20
15.6768901615
 30
0.0
 10
7.8722130746
 20
15.6762404611
 30
0.0
 10
7.8738907242
 20
15.6754323112
 30
0.0
 10
7.8751631085
 20
15.6749353154
 30
0.0
 10
7.8760692518
 20
15.6746720913
 30
0.0
 10
7.8766564751
 20
15.6745467376
 30
0.0
 10
7.8771860818
 20
15.6744832863
 30
0.0
 10
7.8776580772
 20
15.6744824127
 30
0.0
 10
7.878072638
 20
15.6745451936
 30
0.0
 10
7.8784295706
 20
15.6746731078
 30
0.0
 10
7.8787268034
 20
15.6748680324
 30
0.0
 10
7.8789603862
 20
15.6751294496
 30
0.0
 10
7.879128142
 20
15.67545359
 30
0.0
 10
7.8792313424
 20
15.675836995
 30
0.0
 10
7.879272088
 20
15.6762786064
 30
0.0
 10
7.879251586
 20
15.6767786183
 30
0.0
 10
7.8791702314
 20
15.6773373672
 30
0.0
 10
7.8790280221
 20
15.6779548572
 30
0.0
 10
7.8788252428
 20
15.6786308164
 30
0.0
 10
7.878457337
 20
15.6796563152
 30
0.0
 10
7.8778366174
 20
15.6810776901
 30
0.0
 10
7.8768880884
 20
15.6829351604
 30
0.0
 10
7.8757073713
 20
15.6850068671
 30
0.0
 10
7.8742981321
 20
15.68728484
 30
0.0
 10
7.872664767
 20
15.6897605113
 30
0.0
 10
7.8708131078
 20
15.6924240947
 30
0.0
 10
7.8679652069
 20
15.6963456834
 30
0.0
 10
7.8639095716
 20
15.7016218402
 30
0.0
 10
7.8584691459
 20
15.7083116779
 30
0.0
 10
7.8523934954
 20
15.7154430483
 30
0.0
 10
7.845785721
 20
15.7228959762
 30
0.0
 10
7.8387553951
 20
15.7305428503
 30
0.0
 10
7.8314206579
 20
15.7382523644
 30
0.0
 10
7.8264002458
 20
15.7433565803
 30
0.0
 10
7.8238591376
 20
15.7458950568
 30
0.0
  0
LINE
  5
53C
100
AcDbEntity
  8
0
100
AcDbLine
 62
9
  6
CONTINUOUS
 10
9.2290543617
 20
14.5377342556
 11
9.238990661
 21
14.5545311834
  0
LINE
  5
53D
100
AcDbEntity
  8
0
100
AcDbLine
 62
7
  6
CONTINUOUS
 10
9.3175407055
 20
14.499118912
 11
9.3093521457
 21
14.4907015247
  0
SPLINE
  5
53E
100
AcDbEntity
  8
0
100
AcDbSpline
 62
9
  6
CONTINUOUS
 70
0
 71
3
 72
17
 73
13
 74
0
 42
0.0000001
 43
0.0000001
 44
0.0000000001
 40
0.0
 40
0.0
 40
0.0
 40
0.0
 40
0.01770868
 40
0.0375087184
 40
0.0617188613
 40
0.0916454021
 40
0.1710323348
 40
0.2784394187
 40
0.4148167962
 40
0.5805082364
 40
0.7755822989
 40
1.0
 40
1.0
 40
1.0
 40
1.0
 10
7.1974062967
 20
16.3553992951
 30
0.0
 10
7.1974148396
 20
16.3554077466
 30
0.0
 10
7.1974372503
 20
16.3554217005
 30
0.0
 10
7.1974795376
 20
16.3554276281
 30
0.0
 10
7.1975296211
 20
16.3554207479
 30
0.0
 10
7.1976160552
 20
16.3553925668
 30
0.0
 10
7.1977459667
 20
16.355321798
 30
0.0
 10
7.1979260786
 20
16.3551965744
 30
0.0
 10
7.1981428094
 20
16.3550223396
 30
0.0
 10
7.1983959641
 20
16.3547992764
 30
0.0
 10
7.1986853471
 20
16.3545272571
 30
0.0
 10
7.1988880688
 20
16.3543273815
 30
0.0
 10
7.1989955857
 20
16.3542195295
 30
0.0
  0
SPLINE
  5
53F
100
AcDbEntity
  8
0
100
AcDbSpline
 62
9
  6
CONTINUOUS
 70
0
 71
3
 72
18
 73
14
 74
0
 42
0.0000001
 43
0.0000001
 44
0.0000000001
 40
0.0
 40
0.0
 40
0.0
 40
0.0
 40
0.1249412651
 40
0.249889022
 40
0.3124330768
 40
0.3749773284
 40
0.4999239953
 40
0.6248723195
 40
0.7498235849
 40
0.8123692012
 40
0.8749088432
 40
0.9374633716
 40
1.0
 40
1.0
 40
1.0
 40
1.0
 10
9.2187475611
 20
14.5744054895
 30
0.0
 10
9.2179301995
 20
14.5728597142
 30
0.0
 10
9.216589541
 20
14.5696033126
 30
0.0
 10
9.2157076592
 20
14.5652931183
 30
0.0
 10
9.2154994337
 20
14.5617952237
 30
0.0
 10
9.2156251513
 20
14.5582936899
 30
0.0
 10
9.216407399
 20
14.553962139
 30
0.0
 10
9.2183131112
 20
14.549041772
 30
0.0
 10
9.2206497458
 20
14.5453119699
 30
0.0
 10
9.2229087773
 20
14.5426339948
 30
0.0
 10
9.2247886681
 20
14.5407942815
 30
0.0
 10
9.2268351031
 20
14.5391428533
 30
0.0
 10
9.2283002907
 20
14.5381784638
 30
0.0
 10
9.2290548872
 20
14.5377350956
 30
0.0
  0
LINE
  5
540
100
AcDbEntity
  8
0
100
AcDbLine
 62
7
  6
CONTINUOUS
 10
9.3093586571
 20
14.4907078603
 11
9.2463968854
 21
14.4277232206
  0
SPLINE
  5
541
100
AcDbEntity
  8
0
100
AcDbSpline
 62
9
  6
CONTINUOUS
 70
0
 71
3
 72
14
 73
10
 74
0
 42
0.0000001
 43
0.0000001
 44
0.0000000001
 40
0.0
 40
0.0
 40
0.0
 40
0.0
 40
0.2499314005
 40
0.3749411092
 40
0.4999533416
 40
0.6249656812
 40
0.7499752417
 40
0.8749917316
 40
1.0
 40
1.0
 40
1.0
 40
1.0
 10
9.2463968854
 20
14.4277232206
 30
0.0
 10
9.2587965308
 20
14.4202968202
 30
0.0
 10
9.2767991431
 20
14.4081099973
 30
0.0
 10
9.2993645702
 20
14.3900205483
 30
0.0
 10
9.3155458514
 20
14.3755625831
 30
0.0
 10
9.330930119
 20
14.3602611155
 30
0.0
 10
9.3454747543
 20
14.3441584392
 30
0.0
 10
9.3591384401
 20
14.3273031087
 30
0.0
 10
9.3676340058
 20
14.3155930762
 30
0.0
 10
9.3717182271
 20
14.309628147
 30
0.0
  0
SPLINE
  5
542
100
AcDbEntity
  8
0
100
AcDbSpline
 62
9
  6
CONTINUOUS
 70
0
 71
3
 72
27
 73
23
 74
0
 42
0.0000001
 43
0.0000001
 44
0.0000000001
 40
0.0
 40
0.0
 40
0.0
 40
0.0
 40
0.031266359
 40
0.0625380756
 40
0.0938052802
 40
0.1250741271
 40
0.1875633204
 40
0.2500519732
 40
0.3125397389
 40
0.3750272333
 40
0.4375145308
 40
0.5000016736
 40
0.5624887249
 40
0.6249757584
 40
0.6874628415
 40
0.7499500905
 40
0.8124381695
 40
0.8749267899
 40
0.9061953704
 40
0.9374623278
 40
0.9687338267
 40
1.0
 40
1.0
 40
1.0
 40
1.0
 10
9.3717182271
 20
14.309628147
 30
0.0
 10
9.3727771274
 20
14.3080936568
 30
0.0
 10
9.3747684709
 20
14.3049349473
 30
0.0
 10
9.3773645265
 20
14.2999741069
 30
0.0
 10
9.3795589484
 20
14.2948220845
 30
0.0
 10
9.3819312532
 20
14.2877477868
 30
0.0
 10
9.3838436032
 20
14.2785867657
 30
0.0
 10
9.3843904939
 20
14.2673761387
 30
0.0
 10
9.3831588949
 20
14.2562185709
 30
0.0
 10
9.3801915481
 20
14.2453932344
 30
0.0
 10
9.3755556545
 20
14.2351705872
 30
0.0
 10
9.3693739989
 20
14.2258014229
 30
0.0
 10
9.361792462
 20
14.2175241012
 30
0.0
 10
9.3530066973
 20
14.2105381618
 30
0.0
 10
9.3432300435
 20
14.2050237698
 30
0.0
 10
9.3327084511
 20
14.2011119622
 30
0.0
 10
9.3217022729
 20
14.1989121699
 30
0.0
 10
9.3123514285
 20
14.1985359129
 30
0.0
 10
9.30491245
 20
14.1991139761
 30
0.0
 10
9.2993811756
 20
14.1999876725
 30
0.0
 10
9.2939375175
 20
14.2012974795
 30
0.0
 10
9.2903889843
 20
14.2024596452
 30
0.0
 10
9.2886428343
 20
14.2031129817
 30
0.0
  0
LINE
  5
543
100
AcDbEntity
  8
0
100
AcDbLine
 62
9
  6
CONTINUOUS
 10
7.1799439037
 20
16.3732708846
 11
7.1945193937
 21
16.3534964875
  0
LINE
  5
544
100
AcDbEntity
  8
0
100
AcDbLine
 62
9
  6
CONTINUOUS
 10
7.1945193937
 20
16.3534964875
 11
7.1946261901
 21
16.3533521225
  0
LINE
  5
545
100
AcDbEntity
  8
0
100
AcDbLine
 62
9
  6
CONTINUOUS
 10
7.1946261901
 20
16.3533521225
 11
7.1949214987
 21
16.3529529452
  0
SPLINE
  5
546
100
AcDbEntity
  8
0
100
AcDbSpline
 62
7
  6
CONTINUOUS
 70
0
 71
3
 72
38
 73
34
 74
0
 42
0.0000001
 43
0.0000001
 44
0.0000000001
 40
0.0
 40
0.0
 40
0.0
 40
0.0
 40
0.1917040138
 40
0.2855317969
 40
0.3768736754
 40
0.4648833045
 40
0.5487289467
 40
0.6275962842
 40
0.7006972107
 40
0.7672774276
 40
0.797898397
 40
0.8266270328
 40
0.8533837213
 40
0.8780932425
 40
0.9006844146
 40
0.9210912577
 40
0.9392536055
 40
0.9551207519
 40
0.9686429568
 40
0.9745091833
 40
0.9797705845
 40
0.9844237241
 40
0.9884701519
 40
0.9919119792
 40
0.9947513737
 40
0.99594534
 40
0.9969875017
 40
0.9978765446
 40
0.9986112212
 40
0.9991904247
 40
0.9996133992
 40
0.999880578
 40
1.0
 40
1.0
 40
1.0
 40
1.0
 10
9.2464333261
 20
14.4277366356
 30
0.0
 10
9.2495785215
 20
14.4308841884
 30
0.0
 10
9.2542815216
 20
14.4355539345
 30
0.0
 10
9.2605249981
 20
14.4416809351
 30
0.0
 10
9.265067717
 20
14.4461046526
 30
0.0
 10
9.2694605611
 20
14.4503501059
 30
0.0
 10
9.2736602059
 20
14.4543787572
 30
0.0
 10
9.2776238851
 20
14.4581534584
 30
0.0
 10
9.2813098076
 20
14.4616386694
 30
0.0
 10
9.2841915533
 20
14.4643443885
 30
0.0
 10
9.2863278918
 20
14.4663393213
 30
0.0
 10
9.2877910868
 20
14.4677007638
 30
0.0
 10
9.2891561527
 20
14.4689662376
 30
0.0
 10
9.2904189697
 20
14.4701324607
 30
0.0
 10
9.291575657
 20
14.4711963599
 30
0.0
 10
9.2926226005
 20
14.4721550887
 30
0.0
 10
9.2935565371
 20
14.4730061211
 30
0.0
 10
9.2943744973
 20
14.4737471674
 30
0.0
 10
9.2949828757
 20
14.4742944556
 30
0.0
 10
9.2954096826
 20
14.4746754931
 30
0.0
 10
9.2956836428
 20
14.4749186248
 30
0.0
 10
9.2959267887
 20
14.4751328392
 30
0.0
 10
9.2961390888
 20
14.4753181739
 30
0.0
 10
9.2963206077
 20
14.4754747439
 30
0.0
 10
9.2964529038
 20
14.4755870159
 30
0.0
 10
9.2965434557
 20
14.4756623662
 30
0.0
 10
9.2965996042
 20
14.4757083194
 30
0.0
 10
9.2966478795
 20
14.4757469532
 30
0.0
 10
9.2966883913
 20
14.4757783775
 30
0.0
 10
9.2967205553
 20
14.4758020983
 30
0.0
 10
9.2967455396
 20
14.4758192417
 30
0.0
 10
9.2967606597
 20
14.475827589
 30
0.0
 10
9.2967706736
 20
14.4758319397
 30
0.0
 10
9.2967729917
 20
14.4758304198
 30
0.0
  0
LINE
  5
547
100
AcDbEntity
  8
0
100
AcDbLine
 62
9
  6
CONTINUOUS
 10
9.37171811
 20
14.3096280669
 11
9.4273381945
 21
14.3478774192
  0
LINE
  5
548
100
AcDbEntity
  8
0
100
AcDbLine
 62
9
  6
CONTINUOUS
 10
9.0026530822
 20
14.7259403937
 11
9.0044046167
 21
14.7245712994
  0
SPLINE
  5
549
100
AcDbEntity
  8
0
100
AcDbSpline
 62
9
  6
CONTINUOUS
 70
0
 71
3
 72
40
 73
36
 74
0
 42
0.0000001
 43
0.0000001
 44
0.0000000001
 40
0.0
 40
0.0
 40
0.0
 40
0.0
 40
0.0982563071
 40
0.1955054764
 40
0.2908090599
 40
0.3832665353
 40
0.4719930103
 40
0.5561438719
 40
0.6349164967
 40
0.7075599526
 40
0.7733816134
 40
0.8035353488
 40
0.8317540445
 40
0.8579701269
 40
0.8821208852
 40
0.9041494243
 40
0.9240021182
 40
0.9416330046
 40
0.9569986715
 40
0.9638208025
 40
0.9700637463
 40
0.9757234699
 40
0.9807963391
 40
0.9852797606
 40
0.989171319
 40
0.9924686167
 40
0.9951693401
 40
0.9962955076
 40
0.9972721068
 40
0.9980990846
 40
0.9987764214
 40
0.9993041677
 40
0.9996825559
 40
0.9999124728
 40
1.0
 40
1.0
 40
1.0
 40
1.0
 10
9.2886429909
 20
14.2031134044
 30
0.0
 10
9.2878875189
 20
14.2010740834
 30
0.0
 10
9.2863850371
 20
14.1970160782
 30
0.0
 10
9.2841522983
 20
14.1909791064
 30
0.0
 10
9.2819662665
 20
14.1850617061
 30
0.0
 10
9.2798478316
 20
14.1793204319
 30
0.0
 10
9.2778171431
 20
14.1738098983
 30
0.0
 10
9.2758935765
 20
14.1685826954
 30
0.0
 10
9.2740954567
 20
14.1636886412
 30
0.0
 10
9.2724399237
 20
14.159174405
 30
0.0
 10
9.2711573757
 20
14.1556695729
 30
0.0
 10
9.2702144836
 20
14.1530874927
 30
0.0
 10
9.2695731657
 20
14.1513285164
 30
0.0
 10
9.2689783027
 20
14.1496940257
 30
0.0
 10
9.2684313107
 20
14.1481879147
 30
0.0
 10
9.267933495
 20
14.1468137894
 30
0.0
 10
9.2674860327
 20
14.1455749084
 30
0.0
 10
9.2670899934
 20
14.1444742523
 30
0.0
 10
9.2667928793
 20
14.1436445162
 30
0.0
 10
9.2665817023
 20
14.1430517364
 30
0.0
 10
9.2664431081
 20
14.1426611511
 30
0.0
 10
9.2663179931
 20
14.1423068659
 30
0.0
 10
9.2662064322
 20
14.1419890959
 30
0.0
 10
9.2661084862
 20
14.1417080248
 30
0.0
 10
9.2660242018
 20
14.1414638099
 30
0.0
 10
9.2659536308
 20
14.1412566097
 30
0.0
 10
9.2659036329
 20
14.1411070529
 30
0.0
 10
9.2658706465
 20
14.1410059944
 30
0.0
 10
9.2658508806
 20
14.140944203
 30
0.0
 10
9.2658346083
 20
14.1408918485
 30
0.0
 10
9.2658216379
 20
14.1408485296
 30
0.0
 10
9.2658124474
 20
14.1408153464
 30
0.0
 10
9.2658057852
 20
14.1407896444
 30
0.0
 10
9.2658039805
 20
14.1407768298
 30
0.0
 10
9.2658025113
 20
14.1407671584
 30
0.0
 10
9.265804328
 20
14.1407664857
 30
0.0
  0
SPLINE
  5
54A
100
AcDbEntity
  8
0
100
AcDbSpline
 62
9
  6
CONTINUOUS
 70
0
 71
3
 72
19
 73
15
 74
0
 42
0.0000001
 43
0.0000001
 44
0.0000000001
 40
0.0
 40
0.0
 40
0.0
 40
0.0
 40
0.0174170966
 40
0.0371094201
 40
0.0614049164
 40
0.0915723615
 40
0.1282659471
 40
0.1718361037
 40
0.2224651375
 40
0.2802461665
 40
0.4174044523
 40
0.5833402146
 40
0.7777550608
 40
1.0
 40
1.0
 40
1.0
 40
1.0
 10
7.2514256101
 20
16.3001088473
 30
0.0
 10
7.2514599258
 20
16.3001428364
 30
0.0
 10
7.2515511569
 20
16.3001986043
 30
0.0
 10
7.2517234425
 20
16.3002201779
 30
0.0
 10
7.2519282784
 20
16.3001895636
 30
0.0
 10
7.2521688749
 20
16.3001094107
 30
0.0
 10
7.2524467692
 20
16.2999796846
 30
0.0
 10
7.252762501
 20
16.2998000501
 30
0.0
 10
7.2531160941
 20
16.2995703793
 30
0.0
 10
7.2536700949
 20
16.2991740742
 30
0.0
 10
7.2544517533
 20
16.2985481608
 30
0.0
 10
7.2554893118
 20
16.2976384463
 30
0.0
 10
7.2566685896
 20
16.2965338191
 30
0.0
 10
7.2574923436
 20
16.2957234572
 30
0.0
 10
7.2579277955
 20
16.2952873198
 30
0.0
  0
SPLINE
  5
54B
100
AcDbEntity
  8
0
100
AcDbSpline
 62
7
  6
CONTINUOUS
 70
0
 71
3
 72
25
 73
21
 74
0
 42
0.0000001
 43
0.0000001
 44
0.0000000001
 40
0.0
 40
0.0
 40
0.0
 40
0.0
 40
0.2028632743
 40
0.3884841538
 40
0.4736208106
 40
0.5530687631
 40
0.6264632434
 40
0.6934963641
 40
0.7539258814
 40
0.80758584
 40
0.854410847
 40
0.8944736853
 40
0.9120560258
 40
0.9280809554
 40
0.9426411821
 40
0.9558679124
 40
0.9679432978
 40
0.9791091376
 40
0.9896734655
 40
1.0
 40
1.0
 40
1.0
 40
1.0
 10
8.3679375196
 20
15.3846923753
 30
0.0
 10
8.3701474666
 20
15.3824824284
 30
0.0
 10
8.3743146579
 20
15.3781847576
 30
0.0
 10
8.3792003691
 20
15.3727622147
 30
0.0
 10
8.3826705749
 20
15.3686303429
 30
0.0
 10
8.3849554761
 20
15.3657624687
 30
0.0
 10
8.3869869
 20
15.3630510282
 30
0.0
 10
8.3887548109
 20
15.360510416
 30
0.0
 10
8.3902509809
 20
15.3581538839
 30
0.0
 10
8.3914692109
 20
15.3559930499
 30
0.0
 10
8.3924047267
 20
15.3540383034
 30
0.0
 10
8.3929700094
 20
15.3525275914
 30
0.0
 10
8.3932632261
 20
15.3514302614
 30
0.0
 10
8.3934004866
 20
15.3507001392
 30
0.0
 10
8.39346484
 20
15.3500271314
 30
0.0
 10
8.3934558922
 20
15.3494115873
 30
0.0
 10
8.393373211
 20
15.3488539021
 30
0.0
 10
8.3932158191
 20
15.3483547522
 30
0.0
 10
8.3929829985
 20
15.3479159378
 30
0.0
 10
8.3927774822
 20
15.3476649884
 30
0.0
 10
8.3926649929
 20
15.3475524878
 30
0.0
  0
SPLINE
  5
54C
100
AcDbEntity
  8
0
100
AcDbSpline
 62
7
  6
CONTINUOUS
 70
0
 71
3
 72
64
 73
60
 74
0
 42
0.0000001
 43
0.0000001
 44
0.0000000001
 40
0.0
 40
0.0
 40
0.0
 40
0.0
 40
0.0001740464
 40
0.000375623
 40
0.0006232018
 40
0.0009269539
 40
0.0012923716
 40
0.0017225767
 40
0.0022194472
 40
0.0027841425
 40
0.0041196362
 40
0.0057327545
 40
0.0076250023
 40
0.0097966571
 40
0.0122474312
 40
0.0149766478
 40
0.0179831316
 40
0.0212655224
 40
0.0286514297
 40
0.0371189335
 40
0.0466495668
 40
0.0572222012
 40
0.0688129797
 40
0.0813956056
 40
0.0949415037
 40
0.1094197156
 40
0.1410385286
 40
0.1759624969
 40
0.2138713831
 40
0.2544171244
 40
0.2972274252
 40
0.3419089986
 40
0.3880512682
 40
0.4352302366
 40
0.4830122885
 40
0.5309583057
 40
0.5786275784
 40
0.6255820495
 40
0.6713901567
 40
0.7156309852
 40
0.7578980138
 40
0.7978030418
 40
0.8349795654
 40
0.8690864319
 40
0.8998109493
 40
0.9268718021
 40
0.9389498668
 40
0.9500222438
 40
0.9600639894
 40
0.9690526042
 40
0.9769682017
 40
0.9837939044
 40
0.98951598
 40
0.9919599513
 40
0.9941247925
 40
0.9960102246
 40
0.9976165468
 40
0.9989453011
 40
1.0
 40
1.0
 40
1.0
 40
1.0
 10
10.7763016711
 20
18.0143462175
 30
0.0
 10
10.7762683234
 20
18.0143128698
 30
0.0
 10
10.7761792257
 20
18.0142571134
 30
0.0
 10
10.7760110402
 20
18.0142248588
 30
0.0
 10
10.7758060898
 20
18.0142345301
 30
0.0
 10
10.7755621307
 20
18.0142846937
 30
0.0
 10
10.7752779179
 20
18.0143751683
 30
0.0
 10
10.7749528859
 20
18.014506224
 30
0.0
 10
10.7745868127
 20
18.0146780069
 30
0.0
 10
10.7740109939
 20
18.014978848
 30
0.0
 10
10.7731906754
 20
18.0154630033
 30
0.0
 10
10.7720901969
 20
18.0161772062
 30
0.0
 10
10.7708260031
 20
18.0170539762
 30
0.0
 10
10.769398687
 20
18.0180928625
 30
0.0
 10
10.7678090021
 20
18.019293483
 30
0.0
 10
10.766057793
 20
18.0206551703
 30
0.0
 10
10.7641459558
 20
18.0221770992
 30
0.0
 10
10.7612689565
 20
18.0245123138
 30
0.0
 10
10.757283266
 20
18.0278292467
 30
0.0
 10
10.7520469011
 20
18.0322892622
 30
0.0
 10
10.7461976232
 20
18.0373608865
 30
0.0
 10
10.7397480788
 20
18.0430317181
 30
0.0
 10
10.7327123258
 20
18.0492880145
 30
0.0
 10
10.7251057261
 20
18.0561145878
 30
0.0
 10
10.7169449231
 20
18.0634949011
 30
0.0
 10
10.7049933594
 20
18.074373591
 30
0.0
 10
10.6888197366
 20
18.0892192707
 30
0.0
 10
10.6680449817
 20
18.10844075
 30
0.0
 10
10.6455577362
 20
18.1293728671
 30
0.0
 10
10.6215578517
 20
18.151816161
 30
0.0
 10
10.5962591341
 20
18.1755572811
 30
0.0
 10
10.56988724
 20
18.2003708432
 30
0.0
 10
10.5426776785
 20
18.2260215602
 30
0.0
 10
10.5148736449
 20
18.2522664138
 30
0.0
 10
10.4867237782
 20
18.2788569145
 30
0.0
 10
10.4584799062
 20
18.3055413708
 30
0.0
 10
10.4303947044
 20
18.3320672395
 30
0.0
 10
10.4027194065
 20
18.3581834257
 30
0.0
 10
10.3757014698
 20
18.3836426282
 30
0.0
 10
10.3495823366
 20
18.4082035897
 30
0.0
 10
10.3245951849
 20
18.4316333634
 30
0.0
 10
10.3009628433
 20
18.4537094456
 30
0.0
 10
10.278895699
 20
18.474221845
 30
0.0
 10
10.2585899063
 20
18.4929751626
 30
0.0
 10
10.2402253613
 20
18.5097901149
 30
0.0
 10
10.226189493
 20
18.5224932711
 30
0.0
 10
10.2160435096
 20
18.5315581338
 30
0.0
 10
10.2093061507
 20
18.5375163383
 30
0.0
 10
10.203162391
 20
18.5428818876
 30
0.0
 10
10.197625544
 20
18.5476416897
 30
0.0
 10
10.1927076857
 20
18.5517843523
 30
0.0
 10
10.1884193576
 20
18.5552997323
 30
0.0
 10
10.1852308147
 20
18.5578173914
 30
0.0
 10
10.182996376
 20
18.559503838
 30
0.0
 10
10.1815730086
 20
18.5605387712
 30
0.0
 10
10.180312812
 20
18.5614115124
 30
0.0
 10
10.1792163084
 20
18.5621219613
 30
0.0
 10
10.1782841044
 20
18.5626700168
 30
0.0
 10
10.1777066513
 20
18.5629615409
 30
0.0
 10
10.1774441152
 20
18.5630744545
 30
0.0
  0
LINE
  5
54D
100
AcDbEntity
  8
0
100
AcDbLine
 62
7
  6
CONTINUOUS
 10
10.1774441152
 20
18.5630744545
 11
10.1768789678
 21
18.5632772805
  0
SPLINE
  5
54E
100
AcDbEntity
  8
0
100
AcDbSpline
 62
7
  6
CONTINUOUS
 70
0
 71
3
 72
64
 73
60
 74
0
 42
0.0000001
 43
0.0000001
 44
0.0000000001
 40
0.0
 40
0.0
 40
0.0
 40
0.0
 40
0.0001692857
 40
0.0003667712
 40
0.0006110388
 40
0.000912108
 40
0.0012753098
 40
0.0017036459
 40
0.0021989112
 40
0.002762207
 40
0.0040953713
 40
0.0057066102
 40
0.0075973054
 40
0.0097676575
 40
0.0122173273
 40
0.0149456026
 40
0.0179512822
 40
0.0212329867
 40
0.0286178209
 40
0.0370845807
 40
0.0466147431
 40
0.0571871404
 40
0.0687778867
 40
0.0813606631
 40
0.0949068767
 40
0.1093855547
 40
0.1410057033
 40
0.1759314761
 40
0.2138425676
 40
0.2543908533
 40
0.2972039824
 40
0.3418886128
 40
0.388034116
 40
0.4352164419
 40
0.4830019241
 40
0.5309513915
 40
0.5786240838
 40
0.6255818901
 40
0.6713931962
 40
0.7156370341
 40
0.7579068277
 40
0.7978143209
 40
0.8349929507
 40
0.8691014985
 40
0.8998272004
 40
0.9268886482
 40
0.9389667513
 40
0.9500389686
 40
0.9600803303
 40
0.9690683021
 40
0.9769829497
 40
0.9838073249
 40
0.9895275846
 40
0.9919704059
 40
0.9941338916
 40
0.9960177097
 40
0.9976220788
 40
0.9989484123
 40
1.0
 40
1.0
 40
1.0
 40
1.0
 10
10.158356818
 20
18.5454498838
 30
0.0
 10
10.1583892504
 20
18.5454823162
 30
0.0
 10
10.1584767914
 20
18.5455361877
 30
0.0
 10
10.1586421809
 20
18.5455653369
 30
0.0
 10
10.1588441773
 20
18.5455527839
 30
0.0
 10
10.1590852225
 20
18.5454998169
 30
0.0
 10
10.1593665595
 20
18.5454065724
 30
0.0
 10
10.1596887459
 20
18.5452727485
 30
0.0
 10
10.1600519904
 20
18.5450981945
 30
0.0
 10
10.160623982
 20
18.544793345
 30
0.0
 10
10.1614395083
 20
18.5443043381
 30
0.0
 10
10.1625343756
 20
18.5435846481
 30
0.0
 10
10.1637929694
 20
18.5427023631
 30
0.0
 10
10.1652146924
 20
18.5416579395
 30
0.0
 10
10.1667987864
 20
18.5404517684
 30
0.0
 10
10.1685444061
 20
18.5390845213
 30
0.0
 10
10.1704506539
 20
18.5375570255
 30
0.0
 10
10.1733199584
 20
18.5352140205
 30
0.0
 10
10.1772961143
 20
18.531887504
 30
0.0
 10
10.1825213508
 20
18.527416422
 30
0.0
 10
10.1883594935
 20
18.5223337087
 30
0.0
 10
10.1947978963
 20
18.5166517702
 30
0.0
 10
10.2018225027
 20
18.510384355
 30
0.0
 10
10.2094179511
 20
18.5035466535
 30
0.0
 10
10.2175675985
 20
18.4961552042
 30
0.0
 10
10.2295038714
 20
18.485261166
 30
0.0
 10
10.2456585416
 20
18.4703965075
 30
0.0
 10
10.2664110737
 20
18.4511528628
 30
0.0
 10
10.2888760616
 20
18.4301985353
 30
0.0
 10
10.3128536532
 20
18.407732987
 30
0.0
 10
10.3381300428
 20
18.3839695714
 30
0.0
 10
10.3644795723
 20
18.3591336718
 30
0.0
 10
10.3916667301
 20
18.3334605737
 30
0.0
 10
10.4194483186
 20
18.307193293
 30
0.0
 10
10.4475756952
 20
18.2805803159
 30
0.0
 10
10.4757970336
 20
18.2538733357
 30
0.0
 10
10.5038596615
 20
18.2273248996
 30
0.0
 10
10.5315123482
 20
18.201186106
 30
0.0
 10
10.5585076395
 20
18.1757042605
 30
0.0
 10
10.5846040961
 20
18.151120625
 30
0.0
 10
10.6095685441
 20
18.1276681519
 30
0.0
 10
10.6331781593
 20
18.1055693523
 30
0.0
 10
10.65522256
 20
18.0850342264
 30
0.0
 10
10.6755056009
 20
18.0662581888
 30
0.0
 10
10.6938473927
 20
18.0494205363
 30
0.0
 10
10.7078637206
 20
18.0366977796
 30
0.0
 10
10.7179938691
 20
18.0276169712
 30
0.0
 10
10.7247197552
 20
18.021647315
 30
0.0
 10
10.7308520427
 20
18.0162703257
 30
0.0
 10
10.7363774191
 20
18.0114991006
 30
0.0
 10
10.7412838114
 20
18.0073450471
 30
0.0
 10
10.7455606788
 20
18.0038183186
 30
0.0
 10
10.7487393485
 20
18.0012907326
 30
0.0
 10
10.7509657907
 20
17.9995961243
 30
0.0
 10
10.7523833872
 20
17.998555479
 30
0.0
 10
10.7536378082
 20
17.9976770482
 30
0.0
 10
10.7547285165
 20
17.9969609437
 30
0.0
 10
10.7556549004
 20
17.9964072828
 30
0.0
 10
10.756228315
 20
17.9961113886
 30
0.0
 10
10.7564888892
 20
17.9959961532
 30
0.0
  0
LINE
  5
54F
100
AcDbEntity
  8
0
100
AcDbLine
 62
7
  6
CONTINUOUS
 10
10.7564888892
 20
17.9959961532
 11
10.7570803794
 21
17.9957792745
  0
SPLINE
  5
550
100
AcDbEntity
  8
0
100
AcDbSpline
 62
7
  6
CONTINUOUS
 70
0
 71
3
 72
64
 73
60
 74
0
 42
0.0000001
 43
0.0000001
 44
0.0000000001
 40
0.0
 40
0.0
 40
0.0
 40
0.0
 40
0.0001738957
 40
0.0003753413
 40
0.0006228131
 40
0.0009264778
 40
0.0012918229
 40
0.0017219664
 40
0.0022187837
 40
0.0027834325
 40
0.0041188486
 40
0.005731904
 40
0.0076241001
 40
0.0097957117
 40
0.0122464494
 40
0.0149756353
 40
0.0179820934
 40
0.0212644629
 40
0.0286503394
 40
0.0371178262
 40
0.0466484532
 40
0.0572210893
 40
0.068811879
 40
0.0813945265
 40
0.094940455
 40
0.1094187007
 40
0.1410376011
 40
0.1759616856
 40
0.2138707019
 40
0.2544165996
 40
0.2972270632
 40
0.3419088224
 40
0.3880512758
 40
0.4352304447
 40
0.4830126889
 40
0.5309589025
 40
0.5786283624
 40
0.6255830102
 40
0.6713912847
 40
0.7156322582
 40
0.757899418
 40
0.7978045442
 40
0.8349811455
 40
0.8690880448
 40
0.899812565
 40
0.9268733674
 40
0.9389513891
 40
0.9500237107
 40
0.9600653844
 40
0.9690539074
 40
0.9769693931
 40
0.9837949599
 40
0.9895168682
 40
0.9919607402
 40
0.9941254691
 40
0.9960107728
 40
0.9976169455
 40
0.9989455215
 40
1.0
 40
1.0
 40
1.0
 40
1.0
 10
10.7250186981
 20
17.9630632445
 30
0.0
 10
10.7249853795
 20
17.9630299259
 30
0.0
 10
10.7248963317
 20
17.9629742291
 30
0.0
 10
10.7247282352
 20
17.9629420734
 30
0.0
 10
10.7245233796
 20
17.9629518378
 30
0.0
 10
10.724279515
 20
17.9630020925
 30
0.0
 10
10.7239953963
 20
17.963092658
 30
0.0
 10
10.723670458
 20
17.963223805
 30
0.0
 10
10.7233044787
 20
17.9633956801
 30
0.0
 10
10.722728788
 20
17.9636966555
 30
0.0
 10
10.721908632
 20
17.9641809754
 30
0.0
 10
10.7208083461
 20
17.9648953673
 30
0.0
 10
10.7195443474
 20
17.96577233
 30
0.0
 10
10.718117229
 20
17.9668114127
 30
0.0
 10
10.7165277444
 20
17.9680122328
 30
0.0
 10
10.7147767384
 20
17.9693741227
 30
0.0
 10
10.712865107
 20
17.9708962575
 30
0.0
 10
10.7099883949
 20
17.9732317641
 30
0.0
 10
10.7060030673
 20
17.9765490644
 30
0.0
 10
10.7007671364
 20
17.9810095158
 30
0.0
 10
10.6949183038
 20
17.9860815881
 30
0.0
 10
10.6884692161
 20
17.9917528793
 30
0.0
 10
10.6814339304
 20
17.9980096474
 30
0.0
 10
10.6738278082
 20
18.004836705
 30
0.0
 10
10.6656674934
 20
18.0122175144
 30
0.0
 10
10.6537166146
 20
18.0230969027
 30
0.0
 10
10.6375438687
 20
18.0379434772
 30
0.0
 10
10.6167701835
 20
18.0571660462
 30
0.0
 10
10.5942840493
 20
18.0780993014
 30
0.0
 10
10.5702853203
 20
18.100543779
 30
0.0
 10
10.544987799
 20
18.1242861312
 30
0.0
 10
10.5186171459
 20
18.1491009696
 30
0.0
 10
10.4914088662
 20
18.1747530108
 30
0.0
 10
10.46360616
 20
18.2009992315
 30
0.0
 10
10.4354576632
 20
18.2275911451
 30
0.0
 10
10.4072152069
 20
18.2542770563
 30
0.0
 10
10.3791314661
 20
18.2808044237
 30
0.0
 10
10.3514576719
 20
18.3069221476
 30
0.0
 10
10.3244412755
 20
18.3323829188
 30
0.0
 10
10.2983237121
 20
18.3569454745
 30
0.0
 10
10.2733381558
 20
18.3803768581
 30
0.0
 10
10.2497074267
 20
18.4024545614
 30
0.0
 10
10.2276419094
 20
18.422968582
 30
0.0
 10
10.2073377487
 20
18.4417235164
 30
0.0
 10
10.1889748376
 20
18.4585400702
 30
0.0
 10
10.1749403652
 20
18.4712445959
 30
0.0
 10
10.1647955063
 20
18.4803105587
 30
0.0
 10
10.1580589587
 20
18.4862695457
 30
0.0
 10
10.1519160058
 20
18.4916358687
 30
0.0
 10
10.1463799604
 20
18.4963964344
 30
0.0
 10
10.1414628971
 20
18.5005398494
 30
0.0
 10
10.1371753563
 20
18.5040559693
 30
0.0
 10
10.1339874839
 20
18.5065742675
 30
0.0
 10
10.131753583
 20
18.5082612333
 30
0.0
 10
10.130330602
 20
18.5092965261
 30
0.0
 10
10.1290707898
 20
18.5101696225
 30
0.0
 10
10.1279746691
 20
18.5108804215
 30
0.0
 10
10.127042847
 20
18.5114288209
 30
0.0
 10
10.1264656564
 20
18.5117206116
 30
0.0
 10
10.1262032474
 20
18.5118336658
 30
0.0
  0
LINE
  5
551
100
AcDbEntity
  8
0
100
AcDbLine
 62
7
  6
CONTINUOUS
 10
10.1262032474
 20
18.5118336658
 11
10.1256364814
 21
18.5120373401
  0
SPLINE
  5
552
100
AcDbEntity
  8
0
100
AcDbSpline
 62
7
  6
CONTINUOUS
 70
0
 71
3
 72
28
 73
24
 74
0
 42
0.0000001
 43
0.0000001
 44
0.0000000001
 40
0.0
 40
0.0
 40
0.0
 40
0.0
 40
0.181016792
 40
0.2708300829
 40
0.3588075414
 40
0.4439645852
 40
0.5253709252
 40
0.6021649922
 40
0.6735647636
 40
0.7388801041
 40
0.7975248754
 40
0.8241975699
 40
0.8490390012
 40
0.8720145863
 40
0.8931018199
 40
0.9122940436
 40
0.9296036312
 40
0.9450709128
 40
0.9587730151
 40
0.9708439118
 40
0.9814975989
 40
0.9910625033
 40
1.0
 40
1.0
 40
1.0
 40
1.0
 10
7.8343118852
 20
15.9183180097
 30
0.0
 10
7.8378948755
 20
15.9147350194
 30
0.0
 10
7.8431405204
 20
15.9092573681
 30
0.0
 10
7.8498525864
 20
15.9017848294
 30
0.0
 10
7.8546501391
 20
15.8962017023
 30
0.0
 10
7.8591687161
 20
15.8906916384
 30
0.0
 10
7.8633573594
 20
15.8853184144
 30
0.0
 10
7.8671700273
 20
15.8801432621
 30
0.0
 10
7.8705662077
 20
15.8752239375
 30
0.0
 10
7.8735107723
 20
15.8706142688
 30
0.0
 10
7.8756269194
 20
15.8669649372
 30
0.0
 10
7.8770604392
 20
15.8642343145
 30
0.0
 10
7.8779714264
 20
15.8623582496
 30
0.0
 10
7.8787508008
 20
15.8605933869
 30
0.0
 10
7.8793968149
 20
15.8589440979
 30
0.0
 10
7.879908208
 20
15.8574144284
 30
0.0
 10
7.8802839439
 20
15.8560078867
 30
0.0
 10
7.8805234539
 20
15.8547274751
 30
0.0
 10
7.8806260324
 20
15.8535753754
 30
0.0
 10
7.8805909772
 20
15.8525530438
 30
0.0
 10
7.8804157564
 20
15.8516612552
 30
0.0
 10
7.8800966846
 20
15.8509028058
 30
0.0
 10
7.8797795284
 20
15.850484508
 30
0.0
 10
7.8796026216
 20
15.8503076027
 30
0.0
  0
SPLINE
  5
553
100
AcDbEntity
  8
0
100
AcDbSpline
 62
7
  6
CONTINUOUS
 70
0
 71
3
 72
64
 73
60
 74
0
 42
0.0000001
 43
0.0000001
 44
0.0000000001
 40
0.0
 40
0.0
 40
0.0
 40
0.0
 40
0.0001697318
 40
0.0003675846
 40
0.0006121368
 40
0.000913427
 40
0.0012768036
 40
0.001705281
 40
0.0022006624
 40
0.0027640549
 40
0.0040973694
 40
0.0057087181
 40
0.0075994949
 40
0.0097699079
 40
0.0122196228
 40
0.0149479309
 40
0.0179536337
 40
0.0212353538
 40
0.0286202025
 40
0.0370869618
 40
0.0466171133
 40
0.0571894921
 40
0.0687802181
 40
0.0813629765
 40
0.0949091754
 40
0.1093878378
 40
0.1410079709
 40
0.17593376
 40
0.2138448898
 40
0.2543932551
 40
0.2972064863
 40
0.3418912596
 40
0.3880369216
 40
0.435219439
 40
0.4830051178
 40
0.5309547967
 40
0.5786276963
 40
0.625585702
 40
0.671397195
 40
0.7156411896
 40
0.7579111133
 40
0.797818686
 40
0.8349973502
 40
0.8691058598
 40
0.8998314558
 40
0.9268927006
 40
0.938970664
 40
0.9500427132
 40
0.960083872
 40
0.9690715996
 40
0.9769859568
 40
0.9838099845
 40
0.9895298214
 40
0.9919723936
 40
0.9941355979
 40
0.9960190941
 40
0.9976230878
 40
0.9989489717
 40
1.0
 40
1.0
 40
1.0
 40
1.0
 10
10.108709327
 20
18.4958023929
 30
0.0
 10
10.1087418447
 20
18.4958349105
 30
0.0
 10
10.1088295255
 20
18.4958889578
 30
0.0
 10
10.1089951676
 20
18.4959183879
 30
0.0
 10
10.1091974192
 20
18.4959060822
 30
0.0
 10
10.1094387039
 20
18.4958533458
 30
0.0
 10
10.109720266
 20
18.4957603193
 30
0.0
 10
10.110042664
 20
18.4956267038
 30
0.0
 10
10.1104061083
 20
18.4954523489
 30
0.0
 10
10.1109783536
 20
18.4951477749
 30
0.0
 10
10.1117941708
 20
18.4946590732
 30
0.0
 10
10.112889341
 20
18.4939396905
 30
0.0
 10
10.1141481971
 20
18.4930576781
 30
0.0
 10
10.1155701427
 20
18.4920134919
 30
0.0
 10
10.1171544205
 20
18.4908075227
 30
0.0
 10
10.1189001857
 20
18.4894404422
 30
0.0
 10
10.1208065416
 20
18.4879130774
 30
0.0
 10
10.1236759417
 20
18.485570208
 30
0.0
 10
10.1276521184
 20
18.4822437597
 30
0.0
 10
10.1328772433
 20
18.4777726204
 30
0.0
 10
10.1387151383
 20
18.4726897179
 30
0.0
 10
10.1451531616
 20
18.4670074615
 30
0.0
 10
10.1521772615
 20
18.4607396018
 30
0.0
 10
10.1597720813
 20
18.4539013319
 30
0.0
 10
10.1679209815
 20
18.4465091943
 30
0.0
 10
10.1798560717
 20
18.4356140488
 30
0.0
 10
10.1960089843
 20
18.4207477157
 30
0.0
 10
10.216759059
 20
18.4015017007
 30
0.0
 10
10.2392212206
 20
18.3805446097
 30
0.0
 10
10.2631956468
 20
18.3580759371
 30
0.0
 10
10.2884685672
 20
18.3343090629
 30
0.0
 10
10.3148143513
 20
18.3094694054
 30
0.0
 10
10.3419975226
 20
18.283792278
 30
0.0
 10
10.3697749091
 20
18.2575207332
 30
0.0
 10
10.3978979022
 20
18.2309032875
 30
0.0
 10
10.4261146975
 20
18.204191666
 30
0.0
 10
10.4541726471
 20
18.1776384408
 30
0.0
 10
10.4818205428
 20
18.1514947389
 30
0.0
 10
10.5088109534
 20
18.1260078935
 30
0.0
 10
10.5349024642
 20
18.1014191929
 30
0.0
 10
10.5598619223
 20
18.0779616198
 30
0.0
 10
10.5834665297
 20
18.0558577108
 30
0.0
 10
10.6055059251
 20
18.0353174974
 30
0.0
 10
10.625783991
 20
18.0165364206
 30
0.0
 10
10.6441208597
 20
17.9996938083
 30
0.0
 10
10.6581330261
 20
17.986966852
 30
0.0
 10
10.6682598579
 20
17.9778826975
 30
0.0
 10
10.67498337
 20
17.9719106728
 30
0.0
 10
10.6811133152
 20
17.9665313548
 30
0.0
 10
10.6866363841
 20
17.9617578449
 30
0.0
 10
10.6915405077
 20
17.9576015558
 30
0.0
 10
10.6958151489
 20
17.9540726452
 30
0.0
 10
10.698991938
 20
17.951543192
 30
0.0
 10
10.7012168835
 20
17.9498470794
 30
0.0
 10
10.7026334127
 20
17.9488053947
 30
0.0
 10
10.7038867786
 20
17.947925942
 30
0.0
 10
10.7049764418
 20
17.9472088355
 30
0.0
 10
10.7059017902
 20
17.9466541953
 30
0.0
 10
10.7064744939
 20
17.9463575489
 30
0.0
 10
10.7067347246
 20
17.9462419174
 30
0.0
  0
LINE
  5
554
100
AcDbEntity
  8
0
100
AcDbLine
 62
7
  6
CONTINUOUS
 10
10.7067347246
 20
17.9462419174
 11
10.7073305032
 21
17.9460226567
  0
SPLINE
  5
555
100
AcDbEntity
  8
0
100
AcDbSpline
 62
7
  6
CONTINUOUS
 70
0
 71
3
 72
64
 73
60
 74
0
 42
0.0000001
 43
0.0000001
 44
0.0000000001
 40
0.0
 40
0.0
 40
0.0
 40
0.0
 40
0.0001690005
 40
0.0003662406
 40
0.0006103091
 40
0.0009112167
 40
0.0012742843
 40
0.0017025068
 40
0.0021976741
 40
0.002760884
 40
0.0040939042
 40
0.0057050256
 40
0.0075956227
 40
0.0097658915
 40
0.0122154898
 40
0.0149437033
 40
0.0179493294
 40
0.0212309873
 40
0.0286157468
 40
0.0370824518
 40
0.0466125762
 40
0.0571849498
 40
0.0687756853
 40
0.0813584622
 40
0.0949046868
 40
0.1093833854
 40
0.1410036006
 40
0.1759294697
 40
0.2138406833
 40
0.2543891115
 40
0.2972024011
 40
0.3418872047
 40
0.388032891
 40
0.4352154059
 40
0.4830010796
 40
0.5309507372
 40
0.5786236163
 40
0.6255816023
 40
0.6713930785
 40
0.7156370743
 40
0.7579070107
 40
0.7978146297
 40
0.834993366
 40
0.8691019974
 40
0.8998277593
 40
0.9268892392
 40
0.938967347
 40
0.9500395609
 40
0.9600809099
 40
0.9690688587
 40
0.9769834715
 40
0.983807798
 40
0.9895279916
 40
0.9919707713
 40
0.9941342085
 40
0.9960179692
 40
0.9976222697
 40
0.9989485191
 40
1.0
 40
1.0
 40
1.0
 40
1.0
 10
10.0589006671
 20
18.445993733
 30
0.0
 10
10.0589330447
 20
18.4460261106
 30
0.0
 10
10.0590204926
 20
18.4460798688
 30
0.0
 10
10.0591857134
 20
18.4461088306
 30
0.0
 10
10.0593875309
 20
18.4460961032
 30
0.0
 10
10.0596283987
 20
18.4460429656
 30
0.0
 10
10.0599095599
 20
18.4459495515
 30
0.0
 10
10.0602315714
 20
18.4458155573
 30
0.0
 10
10.0605946412
 20
18.4456408318
 30
0.0
 10
10.0611663949
 20
18.4453357333
 30
0.0
 10
10.0619816213
 20
18.4448464224
 30
0.0
 10
10.0630761348
 20
18.4441263853
 30
0.0
 10
10.0643343723
 20
18.4432437485
 30
0.0
 10
10.0657557365
 20
18.4421989686
 30
0.0
 10
10.0673394691
 20
18.4409924374
 30
0.0
 10
10.0690847247
 20
18.4396248269
 30
0.0
 10
10.070990606
 20
18.4380969644
 30
0.0
 10
10.0738594021
 20
18.4357534429
 30
0.0
 10
10.0778349219
 20
18.4324262837
 30
0.0
 10
10.0830594079
 20
18.4279544503
 30
0.0
 10
10.0888967918
 20
18.4228709756
 30
0.0
 10
10.0953344285
 20
18.4171882671
 30
0.0
 10
10.1023582624
 20
18.4109200741
 30
0.0
 10
10.1099529328
 20
18.4040815883
 30
0.0
 10
10.1181017977
 20
18.3966893491
 30
0.0
 10
10.130036993
 20
18.3857942164
 30
0.0
 10
10.1461903206
 20
18.3709281954
 30
0.0
 10
10.1669412743
 20
18.3516829532
 30
0.0
 10
10.1894046835
 20
18.3307270258
 30
0.0
 10
10.2133807026
 20
18.3082598822
 30
0.0
 10
10.2386555317
 20
18.2844948836
 30
0.0
 10
10.2650035191
 20
18.25965742
 30
0.0
 10
10.2921891592
 20
18.2339827843
 30
0.0
 10
10.3199692602
 20
18.2077139994
 30
0.0
 10
10.3480951861
 20
18.1810995588
 30
0.0
 10
10.3763151123
 20
18.1543911579
 30
0.0
 10
10.4043763659
 20
18.1278413436
 30
0.0
 10
10.4320277164
 20
18.1017012147
 30
0.0
 10
10.4590217098
 20
18.0762180767
 30
0.0
 10
10.4851169068
 20
18.0516331916
 30
0.0
 10
10.510080134
 20
18.0281795119
 30
0.0
 10
10.5336885674
 20
18.0060795485
 30
0.0
 10
10.5557318256
 20
17.985543302
 30
0.0
 10
10.576013764
 20
17.9667661867
 30
0.0
 10
10.5943544938
 20
17.9499274997
 30
0.0
 10
10.6083699445
 20
17.9372038854
 30
0.0
 10
10.6184994049
 20
17.9281224027
 30
0.0
 10
10.6252248032
 20
17.9221522725
 30
0.0
 10
10.6313566134
 20
17.9167748199
 30
0.0
 10
10.636881523
 20
17.9120031423
 30
0.0
 10
10.6417874594
 20
17.9078486474
 30
0.0
 10
10.6460638816
 20
17.9043214889
 30
0.0
 10
10.6492421767
 20
17.9017935353
 30
0.0
 10
10.6514683215
 20
17.9000986306
 30
0.0
 10
10.6528857061
 20
17.8990577802
 30
0.0
 10
10.6541399179
 20
17.8981791476
 30
0.0
 10
10.6552304191
 20
17.8974628449
 30
0.0
 10
10.6561565977
 20
17.8969089897
 30
0.0
 10
10.6567298714
 20
17.8966129461
 30
0.0
 10
10.6569903774
 20
17.8964976319
 30
0.0
  0
LINE
  5
556
100
AcDbEntity
  8
0
100
AcDbLine
 62
7
  6
CONTINUOUS
 10
10.6569903774
 20
17.8964976319
 11
10.6575827271
 21
17.8962802782
  0
SPLINE
  5
557
100
AcDbEntity
  8
0
100
AcDbSpline
 62
7
  6
CONTINUOUS
 70
0
 71
3
 72
64
 73
60
 74
0
 42
0.0000001
 43
0.0000001
 44
0.0000000001
 40
0.0
 40
0.0
 40
0.0
 40
0.0
 40
0.0001747073
 40
0.0003768591
 40
0.0006249096
 40
0.0009290484
 40
0.0012947892
 40
0.0017252696
 40
0.002222379
 40
0.0027872848
 40
0.0041231347
 40
0.0057365469
 40
0.0076290435
 40
0.0098009128
 40
0.0122518739
 40
0.0149812551
 40
0.0179878847
 40
0.0212704051
 40
0.0286565305
 40
0.0371242075
 40
0.0466549767
 40
0.0572277151
 40
0.0688185697
 40
0.0814012468
 40
0.0949471739
 40
0.1094253947
 40
0.1410441716
 40
0.1759680425
 40
0.2138767811
 40
0.2544223342
 40
0.2972324157
 40
0.3419137474
 40
0.3880557615
 40
0.4352344686
 40
0.4830162611
 40
0.5309620272
 40
0.5786310636
 40
0.6255853176
 40
0.6713932306
 40
0.7156338901
 40
0.7579007756
 40
0.7978056852
 40
0.8349821117
 40
0.8690888965
 40
0.8998133388
 40
0.9268741097
 40
0.9389521248
 40
0.950024442
 40
0.9600661135
 40
0.9690546338
 40
0.9769701085
 40
0.9837956486
 40
0.9895175036
 40
0.9919613334
 40
0.9941260053
 40
0.9960112318
 40
0.9976172995
 40
0.9989457297
 40
1.0
 40
1.0
 40
1.0
 40
1.0
 10
10.6737585339
 20
17.9118030803
 30
0.0
 10
10.6737250594
 20
17.9117696058
 30
0.0
 10
10.6736357434
 20
17.9117135887
 30
0.0
 10
10.6734671693
 20
17.9116809018
 30
0.0
 10
10.6732618044
 20
17.9116901661
 30
0.0
 10
10.6730174324
 20
17.9117399306
 30
0.0
 10
10.6727328087
 20
17.9118300077
 30
0.0
 10
10.6724073668
 20
17.9119606632
 30
0.0
 10
10.672040883
 20
17.9121320424
 30
0.0
 10
10.6714645046
 20
17.9124322958
 30
0.0
 10
10.6706434779
 20
17.9129157306
 30
0.0
 10
10.6695421594
 20
17.9136291071
 30
0.0
 10
10.6682771168
 20
17.9145050355
 30
0.0
 10
10.666848943
 20
17.9155430662
 30
0.0
 10
10.6652583911
 20
17.9167428186
 30
0.0
 10
10.6635063059
 20
17.9181036263
 30
0.0
 10
10.6615935838
 20
17.9196246649
 30
0.0
 10
10.6587153545
 20
17.9219586207
 30
0.0
 10
10.6547281184
 20
17.92527398
 30
0.0
 10
10.6494899218
 20
17.929732146
 30
0.0
 10
10.6436387858
 20
17.934801888
 30
0.0
 10
10.6371873603
 20
17.9404708082
 30
0.0
 10
10.6301497064
 20
17.9467251684
 30
0.0
 10
10.6225411894
 20
17.9535497843
 30
0.0
 10
10.6143784556
 20
17.9609281227
 30
0.0
 10
10.6024242324
 20
17.9718040727
 30
0.0
 10
10.5862472965
 20
17.9866463392
 30
0.0
 10
10.5654686564
 20
18.0058638224
 30
0.0
 10
10.5429775428
 20
18.0267919528
 30
0.0
 10
10.5189738309
 20
18.0492312974
 30
0.0
 10
10.4936713503
 20
18.0729685337
 30
0.0
 10
10.4672957807
 20
18.0977783056
 30
0.0
 10
10.4400826544
 20
18.1234253537
 30
0.0
 10
10.41227519
 20
18.1496666872
 30
0.0
 10
10.3841220495
 20
18.176253844
 30
0.0
 10
10.3558750843
 20
18.2029351594
 30
0.0
 10
10.3277869937
 20
18.2294581168
 30
0.0
 10
10.3001090354
 20
18.2555716471
 30
0.0
 10
10.2730886911
 20
18.2810284746
 30
0.0
 10
10.2469674284
 20
18.3055873668
 30
0.0
 10
10.2219784504
 20
18.3290154009
 30
0.0
 10
10.198344612
 20
18.3510900962
 30
0.0
 10
10.1762763265
 20
18.3716014839
 30
0.0
 10
10.1559697746
 20
18.3903541853
 30
0.0
 10
10.1376048797
 20
18.4071689376
 30
0.0
 10
10.1235690791
 20
18.4198722962
 30
0.0
 10
10.1134234076
 20
18.4289375841
 30
0.0
 10
10.1066863981
 20
18.4348962108
 30
0.0
 10
10.1005431123
 20
18.4402623015
 30
0.0
 10
10.0950068673
 20
18.4450227661
 30
0.0
 10
10.090089742
 20
18.4491662126
 30
0.0
 10
10.0858022821
 20
18.4526824988
 30
0.0
 10
10.0826146011
 20
18.4552010632
 30
0.0
 10
10.0803809394
 20
18.4568883334
 30
0.0
 10
10.078958172
 20
18.4579238745
 30
0.0
 10
10.077698613
 20
18.4587972543
 30
0.0
 10
10.0766027871
 20
18.4595083708
 30
0.0
 10
10.0756713023
 20
18.4600571209
 30
0.0
 10
10.0750943694
 20
18.4603492151
 30
0.0
 10
10.0748320918
 20
18.4604624408
 30
0.0
  0
LINE
  5
558
100
AcDbEntity
  8
0
100
AcDbLine
 62
7
  6
CONTINUOUS
 10
10.0748320918
 20
18.4604624408
 11
10.0742631688
 21
18.4606672088
  0
SPLINE
  5
559
100
AcDbEntity
  8
0
100
AcDbSpline
 62
7
  6
CONTINUOUS
 70
0
 71
3
 72
35
 73
31
 74
0
 42
0.0000001
 43
0.0000001
 44
0.0000000001
 40
0.0
 40
0.0
 40
0.0
 40
0.0
 40
0.2188917952
 40
0.3202581148
 40
0.4157295008
 40
0.5049483018
 40
0.5875830728
 40
0.6633265476
 40
0.7318980251
 40
0.7930445549
 40
0.8465423813
 40
0.8703618052
 40
0.8921990881
 40
0.9120359734
 40
0.9298557324
 40
0.9456449507
 40
0.9593933106
 40
0.9710943939
 40
0.9761773267
 40
0.9807492663
 40
0.9848118313
 40
0.9883682212
 40
0.9914237524
 40
0.9939872821
 40
0.9960744625
 40
0.9977154475
 40
0.9983878983
 40
0.9989779459
 40
0.9995059469
 40
1.0
 40
1.0
 40
1.0
 40
1.0
 10
10.4875894104
 20
17.9794440112
 30
0.0
 10
10.4972024916
 20
17.9704676959
 30
0.0
 10
10.5112844802
 20
17.9573529197
 30
0.0
 10
10.5296156688
 20
17.9403837972
 30
0.0
 10
10.5422566945
 20
17.9287375482
 30
0.0
 10
10.5541008804
 20
17.9178875644
 30
0.0
 10
10.5651056738
 20
17.9078762514
 30
0.0
 10
10.5752317082
 20
17.8987427543
 30
0.0
 10
10.5844428019
 20
17.8905228361
 30
0.0
 10
10.5927062475
 20
17.8832488858
 30
0.0
 10
10.5989998573
 20
17.877807182
 30
0.0
 10
10.6035436577
 20
17.8739535962
 30
0.0
 10
10.6065637543
 20
17.8714305655
 30
0.0
 10
10.6093275923
 20
17.8691632764
 30
0.0
 10
10.6118328209
 20
17.8671540017
 30
0.0
 10
10.6140772361
 20
17.8654046183
 30
0.0
 10
10.6160589278
 20
17.8639168339
 30
0.0
 10
10.6175524492
 20
17.862850901
 30
0.0
 10
10.618616933
 20
17.8621341879
 30
0.0
 10
10.6193105342
 20
17.8616887605
 30
0.0
 10
10.6199374418
 20
17.8613096709
 30
0.0
 10
10.6204975996
 20
17.8609968914
 30
0.0
 10
10.6209909474
 20
17.86075031
 30
0.0
 10
10.6214177996
 20
17.860569522
 30
0.0
 10
10.6217783487
 20
17.8604542596
 30
0.0
 10
10.6220408131
 20
17.8604090804
 30
0.0
 10
10.6222158002
 20
17.8604125565
 30
0.0
 10
10.6223222122
 20
17.8604321315
 30
0.0
 10
10.6224125618
 20
17.8604693011
 30
0.0
 10
10.6224622562
 20
17.8605068342
 30
0.0
 10
10.6224832491
 20
17.8605278234
 30
0.0
  0
SPLINE
  5
55A
100
AcDbEntity
  8
0
100
AcDbSpline
 62
7
  6
CONTINUOUS
 70
0
 71
3
 72
25
 73
21
 74
0
 42
0.0000001
 43
0.0000001
 44
0.0000000001
 40
0.0
 40
0.0
 40
0.0
 40
0.0
 40
0.0103265382
 40
0.0208908679
 40
0.0320567208
 40
0.0441320962
 40
0.0573588204
 40
0.0719190631
 40
0.0879439759
 40
0.1055263069
 40
0.1455891479
 40
0.1924141671
 40
0.2460741059
 40
0.3065036299
 40
0.3735367632
 40
0.4469312308
 40
0.5263791849
 40
0.61151585
 40
0.7971367104
 40
1.0
 40
1.0
 40
1.0
 40
1.0
 10
7.5349836822
 20
16.2052337984
 30
0.0
 10
7.5350961828
 20
16.2053462878
 30
0.0
 10
7.5353471315
 20
16.205551805
 30
0.0
 10
7.5357859462
 20
16.2057846263
 30
0.0
 10
7.5362850968
 20
16.2059420159
 30
0.0
 10
7.5368427815
 20
16.2060246988
 30
0.0
 10
7.5374583258
 20
16.2060336467
 30
0.0
 10
7.5381313333
 20
16.2059692917
 30
0.0
 10
7.5388614555
 20
16.2058320325
 30
0.0
 10
7.5399587852
 20
16.2055388158
 30
0.0
 10
7.5414694972
 20
16.204973533
 30
0.0
 10
7.5434242433
 20
16.2040380167
 30
0.0
 10
7.5455850777
 20
16.2028197875
 30
0.0
 10
7.5479416097
 20
16.2013236172
 30
0.0
 10
7.5504822218
 20
16.199555706
 30
0.0
 10
7.5531936627
 20
16.1975242824
 30
0.0
 10
7.5560615367
 20
16.1952393811
 30
0.0
 10
7.5601934083
 20
16.1917691753
 30
0.0
 10
7.5656159514
 20
16.1868834642
 30
0.0
 10
7.5699136221
 20
16.1827162729
 30
0.0
 10
7.5721235692
 20
16.1805063257
 30
0.0
  0
LINE
  5
55B
100
AcDbEntity
  8
0
100
AcDbLine
 62
7
  6
CONTINUOUS
 10
7.0366340659
 20
16.7089642687
 11
7.0370644635
 21
16.7083689991
  0
SPLINE
  5
55C
100
AcDbEntity
  8
0
100
AcDbSpline
 62
7
  6
CONTINUOUS
 70
0
 71
3
 72
31
 73
27
 74
0
 42
0.0000001
 43
0.0000001
 44
0.0000000001
 40
0.0
 40
0.0
 40
0.0
 40
0.0
 40
0.1735235103
 40
0.3498731583
 40
0.4362015375
 40
0.5197955486
 40
0.5995726804
 40
0.6744948673
 40
0.743578081
 40
0.8059010146
 40
0.834260246
 40
0.8606190645
 40
0.8848863272
 40
0.9069778975
 40
0.9268174936
 40
0.9443391268
 40
0.9594874376
 40
0.9722242988
 40
0.9776829156
 40
0.9825362117
 40
0.9867895228
 40
0.9904535868
 40
0.9935494469
 40
0.9961155945
 40
0.9982225646
 40
1.0
 40
1.0
 40
1.0
 40
1.0
 10
7.0370644635
 20
16.7083689991
 30
0.0
 10
7.0402907575
 20
16.7039026581
 30
0.0
 10
7.0467083657
 20
16.6948338028
 30
0.0
 10
7.0545162236
 20
16.6833931893
 30
0.0
 10
7.0605945307
 20
16.6742310931
 30
0.0
 10
7.0649167576
 20
16.6675842036
 30
0.0
 10
7.0689785446
 20
16.6612003971
 30
0.0
 10
7.0727266617
 20
16.6551635875
 30
0.0
 10
7.0761113074
 20
16.6495540487
 30
0.0
 10
7.0786657901
 20
16.6451709307
 30
0.0
 10
7.0804887441
 20
16.6419323864
 30
0.0
 10
7.0816942431
 20
16.6397330927
 30
0.0
 10
7.0827773506
 20
16.63769387
 30
0.0
 10
7.083734078
 20
16.6358221684
 30
0.0
 10
7.0845608488
 20
16.6341249455
 30
0.0
 10
7.0852547074
 20
16.6326086449
 30
0.0
 10
7.0858129509
 20
16.6312790706
 30
0.0
 10
7.0861810325
 20
16.6302857522
 30
0.0
 10
7.0864007388
 20
16.6295875015
 30
0.0
 10
7.086521597
 20
16.6291409327
 30
0.0
 10
7.0866072609
 20
16.6287443527
 30
0.0
 10
7.0866576669
 20
16.6283979493
 30
0.0
 10
7.0866729281
 20
16.6281016409
 30
0.0
 10
7.0866527387
 20
16.62785474
 30
0.0
 10
7.0865963738
 20
16.6276559769
 30
0.0
 10
7.0865274043
 20
16.6275501231
 30
0.0
 10
7.086487493
 20
16.62751022
 30
0.0
  0
LINE
  5
55D
100
AcDbEntity
  8
0
100
AcDbLine
 62
9
  6
CONTINUOUS
 10
10.782648284
 20
18.0522210955
 11
10.7824595724
 21
18.0521253
  0
SPLINE
  5
55E
100
AcDbEntity
  8
0
100
AcDbSpline
 62
9
  6
CONTINUOUS
 70
0
 71
3
 72
9
 73
5
 74
0
 42
0.0000001
 43
0.0000001
 44
0.0000000001
 40
0.0
 40
0.0
 40
0.0
 40
0.0
 40
0.2387495462
 40
1.0
 40
1.0
 40
1.0
 40
1.0
 10
10.7824595724
 20
18.0521253
 30
0.0
 10
10.7824517904
 20
18.0521236829
 30
0.0
 10
10.7824190407
 20
18.0521176599
 30
0.0
 10
10.7823857914
 20
18.0521145186
 30
0.0
 10
10.7823604731
 20
18.0521134052
 30
0.0
  0
SPLINE
  5
55F
100
AcDbEntity
  8
0
100
AcDbSpline
 62
7
  6
CONTINUOUS
 70
0
 71
3
 72
42
 73
38
 74
0
 42
0.0000001
 43
0.0000001
 44
0.0000000001
 40
0.0
 40
0.0
 40
0.0
 40
0.0
 40
0.0001758003
 40
0.0003961963
 40
0.0009753845
 40
0.0017429231
 40
0.0027005809
 40
0.0038489643
 40
0.0051882172
 40
0.0067182507
 40
0.0084387277
 40
0.012448774
 40
0.0172134037
 40
0.022726042
 40
0.0289791814
 40
0.0359640101
 40
0.0436709347
 40
0.0520891742
 40
0.0612072384
 40
0.0814916967
 40
0.1044138212
 40
0.1298498425
 40
0.1576635586
 40
0.187707101
 40
0.2198218908
 40
0.2538395662
 40
0.2895828421
 40
0.3268665953
 40
0.3654988719
 40
0.4460128351
 40
0.5294912787
 40
0.6142582607
 40
0.6986294261
 40
0.7809453606
 40
0.8596035124
 40
0.9330884827
 40
1.0
 40
1.0
 40
1.0
 40
1.0
 10
10.7821767898
 20
18.0521019443
 30
0.0
 10
10.7821392928
 20
18.0521119718
 30
0.0
 10
10.7820567183
 20
18.0521416394
 30
0.0
 10
10.7818613608
 20
18.0522325561
 30
0.0
 10
10.7815623081
 20
18.0524077701
 30
0.0
 10
10.7811390398
 20
18.0526901612
 30
0.0
 10
10.7806250876
 20
18.0530624183
 30
0.0
 10
10.7800206479
 20
18.0535243121
 30
0.0
 10
10.7793260014
 20
18.0540760453
 30
0.0
 10
10.7785414137
 20
18.0547174335
 30
0.0
 10
10.7773115781
 20
18.0557457034
 30
0.0
 10
10.7755542082
 20
18.0572561768
 30
0.0
 10
10.7731859697
 20
18.0593400144
 30
0.0
 10
10.7704666712
 20
18.0617743759
 30
0.0
 10
10.7674001206
 20
18.0645556172
 30
0.0
 10
10.763990559
 20
18.0676797104
 30
0.0
 10
10.7602426724
 20
18.0711420887
 30
0.0
 10
10.7561615107
 20
18.0749377512
 30
0.0
 10
10.7500628411
 20
18.0806417082
 30
0.0
 10
10.7416539731
 20
18.0885635588
 30
0.0
 10
10.7306581673
 20
18.0989933775
 30
0.0
 10
10.7184865914
 20
18.1105991102
 30
0.0
 10
10.7052030817
 20
18.1233170859
 30
0.0
 10
10.6908769045
 20
18.1370782461
 30
0.0
 10
10.6755822857
 20
18.1518084736
 30
0.0
 10
10.6593980217
 20
18.167429057
 30
0.0
 10
10.6424070348
 20
18.1838571352
 30
0.0
 10
10.6246959108
 20
18.2010061543
 30
0.0
 10
10.5998974872
 20
18.2250457785
 30
0.0
 10
10.5677981489
 20
18.2562073374
 30
0.0
 10
10.5284117788
 20
18.2944860825
 30
0.0
 10
10.4884248093
 20
18.3333687732
 30
0.0
 10
10.4486211758
 20
18.3720718326
 30
0.0
 10
10.4097733772
 20
18.409823165
 30
0.0
 10
10.372627581
 20
18.445877088
 30
0.0
 10
10.3378895484
 20
18.4795283891
 30
0.0
 10
10.3155938225
 20
18.5010637117
 30
0.0
 10
10.3049560993
 20
18.5113149683
 30
0.0
  0
SPLINE
  5
560
100
AcDbEntity
  8
0
100
AcDbSpline
 62
7
  6
CONTINUOUS
 70
0
 71
3
 72
64
 73
60
 74
0
 42
0.0000001
 43
0.0000001
 44
0.0000000001
 40
0.0
 40
0.0
 40
0.0
 40
0.0
 40
0.0001801788
 40
0.0003862437
 40
0.0006361621
 40
0.0009402185
 40
0.0013040968
 40
0.0017310609
 40
0.0022230936
 40
0.0027814611
 40
0.004100167
 40
0.0056912771
 40
0.0075563578
 40
0.009695968
 40
0.0121099769
 40
0.0147976443
 40
0.0177579973
 40
0.0209898044
 40
0.0282611258
 40
0.0365969886
 40
0.0459795378
 40
0.0563882909
 40
0.067800308
 40
0.0801900698
 40
0.1077898352
 40
0.1389397892
 40
0.1733594496
 40
0.2107384777
 40
0.2507395289
 40
0.2930016472
 40
0.3371433304
 40
0.3827661556
 40
0.4294583269
 40
0.4767985196
 40
0.5243595842
 40
0.5717124782
 40
0.6184301698
 40
0.6640913995
 40
0.7082846929
 40
0.7506118124
 40
0.7906916068
 40
0.8281633472
 40
0.8626900916
 40
0.8939616517
 40
0.9216976586
 40
0.934161186
 40
0.9456505596
 40
0.9561399313
 40
0.9656076757
 40
0.9740325459
 40
0.9813904503
 40
0.9846686623
 40
0.9876831557
 40
0.990431568
 40
0.9928987319
 40
0.9950674582
 40
0.9969370904
 40
0.9985595451
 40
1.0
 40
1.0
 40
1.0
 40
1.0
 10
10.2152325733
 20
18.5687667219
 30
0.0
 10
10.2152650838
 20
18.5687992319
 30
0.0
 10
10.2153503967
 20
18.568854196
 30
0.0
 10
10.2155110921
 20
18.5688895241
 30
0.0
 10
10.2157061395
 20
18.5688856469
 30
0.0
 10
10.2159372822
 20
18.5688440807
 30
0.0
 10
10.2162056613
 20
18.5687650964
 30
0.0
 10
10.2165118044
 20
18.5686485153
 30
0.0
 10
10.2168559362
 20
18.5684942237
 30
0.0
 10
10.2173961396
 20
18.5682225339
 30
0.0
 10
10.2181645917
 20
18.5677824634
 30
0.0
 10
10.2191940591
 20
18.567130343
 30
0.0
 10
10.2203752134
 20
18.566327659
 30
0.0
 10
10.2217074967
 20
18.5653747759
 30
0.0
 10
10.2231902308
 20
18.564272029
 30
0.0
 10
10.2248226624
 20
18.5630200472
 30
0.0
 10
10.2266039577
 20
18.5616195575
 30
0.0
 10
10.2292833436
 20
18.5594692607
 30
0.0
 10
10.2329934913
 20
18.556412232
 30
0.0
 10
10.2378656418
 20
18.552298219
 30
0.0
 10
10.243306239
 20
18.5476170059
 30
0.0
 10
10.2493037248
 20
18.5423799009
 30
0.0
 10
10.2558452737
 20
18.536599457
 30
0.0
 10
10.2656317566
 20
18.5278667717
 30
0.0
 10
10.2791014428
 20
18.5156973592
 30
0.0
 10
10.2966521182
 20
18.4996603536
 30
0.0
 10
10.3159700704
 20
18.4818585038
 30
0.0
 10
10.3368871729
 20
18.4624594017
 30
0.0
 10
10.3592208421
 20
18.4416449765
 30
0.0
 10
10.382775854
 20
18.4196100935
 30
0.0
 10
10.4073460441
 20
18.3965606294
 30
0.0
 10
10.4327161423
 20
18.372711647
 30
0.0
 10
10.4586637313
 20
18.3482853938
 30
0.0
 10
10.4849612364
 20
18.3235093017
 30
0.0
 10
10.5113779856
 20
18.2986139153
 30
0.0
 10
10.5376822816
 20
18.2738308084
 30
0.0
 10
10.5636434855
 20
18.2493904923
 30
0.0
 10
10.5890341155
 20
18.2255203088
 30
0.0
 10
10.613631859
 20
18.2024424016
 30
0.0
 10
10.637221603
 20
18.1803716783
 30
0.0
 10
10.659597326
 20
18.1595138795
 30
0.0
 10
10.6805639885
 20
18.1400636948
 30
0.0
 10
10.6999391547
 20
18.1222029115
 30
0.0
 10
10.7175548417
 20
18.1060990111
 30
0.0
 10
10.7310834243
 20
18.0938685731
 30
0.0
 10
10.7409208884
 20
18.0850828902
 30
0.0
 10
10.7475038047
 20
18.0792599611
 30
0.0
 10
10.7535445253
 20
18.0739780392
 30
0.0
 10
10.7590306283
 20
18.0692500179
 30
0.0
 10
10.7639501785
 20
18.0650890171
 30
0.0
 10
10.7676983644
 20
18.0619891111
 30
0.0
 10
10.7704105795
 20
18.0598034385
 30
0.0
 10
10.7722223456
 20
18.0583750992
 30
0.0
 10
10.7738883799
 20
18.0570964732
 30
0.0
 10
10.7753980648
 20
18.0559688576
 30
0.0
 10
10.7767414316
 20
18.0549935989
 30
0.0
 10
10.7779231007
 20
18.0541625963
 30
0.0
 10
10.7789774217
 20
18.0534745005
 30
0.0
 10
10.7796573289
 20
18.0530872674
 30
0.0
 10
10.7799847117
 20
18.0529201676
 30
0.0
  0
LINE
  5
561
100
AcDbEntity
  8
0
100
AcDbLine
 62
7
  6
CONTINUOUS
 10
10.7799847117
 20
18.0529201676
 11
10.7816825317
 21
18.0522340313
  0
SPLINE
  5
562
100
AcDbEntity
  8
0
100
AcDbSpline
 62
7
  6
CONTINUOUS
 70
0
 71
3
 72
62
 73
58
 74
0
 42
0.0000001
 43
0.0000001
 44
0.0000000001
 40
0.0
 40
0.0
 40
0.0
 40
0.0
 40
0.0001799254
 40
0.0003851797
 40
0.0006334448
 40
0.0009348968
 40
0.0012952093
 40
0.0017176706
 40
0.0022042926
 40
0.0027563676
 40
0.0040597877
 40
0.0056319697
 40
0.0074746523
 40
0.0095884432
 40
0.0119731157
 40
0.0146280865
 40
0.0175524616
 40
0.02074491
 40
0.0279279352
 40
0.0361628916
 40
0.0454325822
 40
0.0557169676
 40
0.0669936795
 40
0.0792380133
 40
0.10651909
 40
0.13731871
 40
0.1713634044
 40
0.2083503274
 40
0.2479503756
 40
0.289811044
 40
0.3335596009
 40
0.3788065524
 40
0.4251490504
 40
0.4721746138
 40
0.519464632
 40
0.5665983402
 40
0.6131563384
 40
0.6587245509
 40
0.7028977686
 40
0.7452833205
 40
0.7855046036
 40
0.8232044516
 40
0.8580483508
 40
0.8897273534
 40
0.9179612218
 40
0.9307071263
 40
0.9425009064
 40
0.9533167249
 40
0.9631311349
 40
0.9719229116
 40
0.9796734785
 40
0.9863670524
 40
0.9919908008
 40
0.9943986666
 40
0.9965361222
 40
0.9984030759
 40
1.0
 40
1.0
 40
1.0
 40
1.0
 10
10.1659894979
 20
18.5169910367
 30
0.0
 10
10.1660217652
 20
18.5170233108
 30
0.0
 10
10.1661061359
 20
18.5170779996
 30
0.0
 10
10.1662649723
 20
18.5171138536
 30
0.0
 10
10.1664575864
 20
18.5171111611
 30
0.0
 10
10.1666856192
 20
18.5170714603
 30
0.0
 10
10.1669501838
 20
18.5169950238
 30
0.0
 10
10.1672518062
 20
18.5168816788
 30
0.0
 10
10.1675907219
 20
18.516731307
 30
0.0
 10
10.1681225068
 20
18.5164661525
 30
0.0
 10
10.1688787297
 20
18.5160360376
 30
0.0
 10
10.1698915223
 20
18.5153980233
 30
0.0
 10
10.171053225
 20
18.5146121846
 30
0.0
 10
10.1723633035
 20
18.5136788793
 30
0.0
 10
10.1738211162
 20
18.5125984488
 30
0.0
 10
10.1754259198
 20
18.511371474
 30
0.0
 10
10.1771769068
 20
18.5099986559
 30
0.0
 10
10.1798105657
 20
18.50789046
 30
0.0
 10
10.1834571092
 20
18.5048925307
 30
0.0
 10
10.1882455
 20
18.5008570793
 30
0.0
 10
10.1935924841
 20
18.4962642523
 30
0.0
 10
10.1994868828
 20
18.4911250115
 30
0.0
 10
10.2059162723
 20
18.4854515089
 30
0.0
 10
10.2155362442
 20
18.4768781725
 30
0.0
 10
10.2287787721
 20
18.4649271155
 30
0.0
 10
10.246036636
 20
18.449172595
 30
0.0
 10
10.2650380892
 20
18.431676921
 30
0.0
 10
10.2856200853
 20
18.4126026094
 30
0.0
 10
10.3076054647
 20
18.3921261669
 30
0.0
 10
10.3308047349
 20
18.3704367313
 30
0.0
 10
10.3550176527
 20
18.3477342631
 30
0.0
 10
10.3800350111
 20
18.3242277625
 30
0.0
 10
10.4056405132
 20
18.3001333587
 30
0.0
 10
10.4316126664
 20
18.2756724046
 30
0.0
 10
10.4577267795
 20
18.2510694673
 30
0.0
 10
10.4837569249
 20
18.2265503533
 30
0.0
 10
10.5094779863
 20
18.2023400574
 30
0.0
 10
10.534667625
 20
18.1786607834
 30
0.0
 10
10.5591082734
 20
18.1557299401
 30
0.0
 10
10.5825890508
 20
18.1337582162
 30
0.0
 10
10.6049076338
 20
18.1129476745
 30
0.0
 10
10.6258720581
 20
18.0934899545
 30
0.0
 10
10.645302319
 20
18.075564482
 30
0.0
 10
10.6630321516
 20
18.0593370428
 30
0.0
 10
10.6766924869
 20
18.0469654858
 30
0.0
 10
10.686665043
 20
18.038036258
 30
0.0
 10
10.6933725732
 20
18.0320837913
 30
0.0
 10
10.6995529966
 20
18.0266577584
 30
0.0
 10
10.7051933544
 20
18.0217709282
 30
0.0
 10
10.7102818657
 20
18.0174348155
 30
0.0
 10
10.7148078641
 20
18.0136594597
 30
0.0
 10
10.7187620217
 20
18.0104537969
 30
0.0
 10
10.7217080546
 20
18.0081572014
 30
0.0
 10
10.7237777072
 20
18.0066176585
 30
0.0
 10
10.7251004642
 20
18.005671037
 30
0.0
 10
10.7262751535
 20
18.0048716181
 30
0.0
 10
10.7270168769
 20
18.0044001842
 30
0.0
 10
10.7273638527
 20
18.0041911908
 30
0.0
  0
LINE
  5
563
100
AcDbEntity
  8
0
100
AcDbLine
 62
7
  6
CONTINUOUS
 10
10.7273638527
 20
18.0041911908
 11
10.7295096453
 21
18.0031512786
  0
SPLINE
  5
564
100
AcDbEntity
  8
0
100
AcDbSpline
 62
7
  6
CONTINUOUS
 70
0
 71
3
 72
63
 73
59
 74
0
 42
0.0000001
 43
0.0000001
 44
0.0000000001
 40
0.0
 40
0.0
 40
0.0
 40
0.0
 40
0.0001832717
 40
0.0003927624
 40
0.0006466789
 40
0.0009554565
 40
0.0013249007
 40
0.0017583515
 40
0.002257818
 40
0.0028245767
 40
0.0041629419
 40
0.005777671
 40
0.0076704059
 40
0.0098416052
 40
0.0122911592
 40
0.0150183703
 40
0.0180221361
 40
0.0213012018
 40
0.0286785314
 40
0.037135184
 40
0.0466527597
 40
0.0572102414
 40
0.0687838993
 40
0.0813474893
 40
0.109328107
 40
0.1408968597
 40
0.1757649292
 40
0.2136129379
 40
0.2540938503
 40
0.2968364132
 40
0.3414486495
 40
0.387521316
 40
0.4346319077
 40
0.4823483681
 40
0.5302332766
 40
0.5778476463
 40
0.6247551871
 40
0.6705261299
 40
0.7147413379
 40
0.7569960805
 40
0.796903691
 40
0.8340993582
 40
0.8682432913
 40
0.8990239991
 40
0.9261612743
 40
0.938285413
 40
0.9494092433
 40
0.9595078328
 40
0.9685588177
 40
0.9765423478
 40
0.9834415858
 40
0.9892429242
 40
0.991728688
 40
0.9939368036
 40
0.9958669919
 40
0.9975195757
 40
0.9988961058
 40
1.0
 40
1.0
 40
1.0
 40
1.0
 10
10.1169713174
 20
18.4649896789
 30
0.0
 10
10.1170040972
 20
18.4650224521
 30
0.0
 10
10.1170900488
 20
18.4650778827
 30
0.0
 10
10.1172519129
 20
18.4651136627
 30
0.0
 10
10.1174483343
 20
18.465110009
 30
0.0
 10
10.117681056
 20
18.4650684559
 30
0.0
 10
10.1179512289
 20
18.4649892559
 30
0.0
 10
10.118259388
 20
18.4648722289
 30
0.0
 10
10.1186057613
 20
18.4647172686
 30
0.0
 10
10.1191494181
 20
18.4644443376
 30
0.0
 10
10.119922724
 20
18.4640021456
 30
0.0
 10
10.120958621
 20
18.4633467317
 30
0.0
 10
10.1221470611
 20
18.4625398902
 30
0.0
 10
10.1234874883
 20
18.461582019
 30
0.0
 10
10.1249792041
 20
18.4604734508
 30
0.0
 10
10.1266214361
 20
18.459214819
 30
0.0
 10
10.128413344
 20
18.4578068831
 30
0.0
 10
10.1311085119
 20
18.4556451967
 30
0.0
 10
10.1348402186
 20
18.4525720185
 30
0.0
 10
10.139740277
 20
18.448436404
 30
0.0
 10
10.1452114528
 20
18.4437309321
 30
0.0
 10
10.151241941
 20
18.4384671451
 30
0.0
 10
10.1578186634
 20
18.4326578637
 30
0.0
 10
10.1676556057
 20
18.4238834036
 30
0.0
 10
10.1811913139
 20
18.4116586748
 30
0.0
 10
10.1988229625
 20
18.3955532521
 30
0.0
 10
10.2182221016
 20
18.3776827839
 30
0.0
 10
10.23921723
 20
18.3582182224
 30
0.0
 10
10.2616221711
 20
18.3373450822
 30
0.0
 10
10.2852379659
 20
18.3152619578
 30
0.0
 10
10.3098546089
 20
18.2921785583
 30
0.0
 10
10.335252998
 20
18.2683137729
 30
0.0
 10
10.3612069011
 20
18.2438936579
 30
0.0
 10
10.3874850728
 20
18.2191493107
 30
0.0
 10
10.4138533334
 20
18.1943147763
 30
0.0
 10
10.4400767505
 20
18.1696248576
 30
0.0
 10
10.4659217537
 20
18.1453129883
 30
0.0
 10
10.4911583085
 20
18.1216090532
 30
0.0
 10
10.515561995
 20
18.0987372902
 30
0.0
 10
10.5389160594
 20
18.0769142281
 30
0.0
 10
10.5610133922
 20
18.0563466687
 30
0.0
 10
10.5816584096
 20
18.0372298083
 30
0.0
 10
10.6006687464
 20
18.0197452857
 30
0.0
 10
10.6178771031
 20
18.0040598189
 30
0.0
 10
10.6310412088
 20
17.992205064
 30
0.0
 10
10.6405674907
 20
17.9837406724
 30
0.0
 10
10.6469017372
 20
17.9781719654
 30
0.0
 10
10.6526847086
 20
17.9731536049
 30
0.0
 10
10.6579039822
 20
17.9686977933
 30
0.0
 10
10.6625482979
 20
17.9648151575
 30
0.0
 10
10.6666078118
 20
17.9615151741
 30
0.0
 10
10.6696334327
 20
17.9591484182
 30
0.0
 10
10.6717600084
 20
17.9575596023
 30
0.0
 10
10.6731201083
 20
17.9565811577
 30
0.0
 10
10.674328596
 20
17.9557534321
 30
0.0
 10
10.6753849806
 20
17.9550765714
 30
0.0
 10
10.676288697
 20
17.9545506703
 30
0.0
 10
10.6768503211
 20
17.9542690835
 30
0.0
 10
10.6771067181
 20
17.9541585786
 30
0.0
  0
LINE
  5
565
100
AcDbEntity
  8
0
100
AcDbLine
 62
7
  6
CONTINUOUS
 10
10.6771067181
 20
17.9541585786
 11
10.6776978311
 21
17.9539460968
  0
SPLINE
  5
566
100
AcDbEntity
  8
0
100
AcDbSpline
 62
7
  6
CONTINUOUS
 70
0
 71
3
 72
15
 73
11
 74
0
 42
0.0000001
 43
0.0000001
 44
0.0000000001
 40
0.0
 40
0.0
 40
0.0
 40
0.0
 40
0.0337967656
 40
0.0720647363
 40
0.1615826834
 40
0.2675747708
 40
0.3888865016
 40
0.5242275686
 40
0.672198792
 40
1.0
 40
1.0
 40
1.0
 40
1.0
 10
9.0283717891
 20
14.747205501
 30
0.0
 10
9.0288308016
 20
14.7470135185
 30
0.0
 10
9.0298036586
 20
14.7465900283
 30
0.0
 10
9.0319647281
 20
14.7455956351
 30
0.0
 10
9.0350543596
 20
14.744078347
 30
0.0
 10
9.0391960501
 20
14.741933011
 30
0.0
 10
9.0438965448
 20
14.7394013289
 30
0.0
 10
9.0491051744
 20
14.7365109546
 30
0.0
 10
9.0569263078
 20
14.7320645411
 30
0.0
 10
9.0629687155
 20
14.728521552
 30
0.0
 10
9.0671160805
 20
14.7260542812
 30
0.0
  0
LINE
  5
567
100
AcDbEntity
  8
0
100
AcDbLine
 62
7
  6
CONTINUOUS
 10
10.2033746513
 20
18.5561935994
 11
10.2047175244
 21
18.5556126126
  0
SPLINE
  5
568
100
AcDbEntity
  8
0
100
AcDbSpline
 62
7
  6
CONTINUOUS
 70
0
 71
3
 72
63
 73
59
 74
0
 42
0.0000001
 43
0.0000001
 44
0.0000000001
 40
0.0
 40
0.0
 40
0.0
 40
0.0
 40
0.0013607809
 40
0.0029944475
 40
0.0049024252
 40
0.007085188
 40
0.0095424003
 40
0.0122733305
 40
0.0185519761
 40
0.0259095737
 40
0.0343311069
 40
0.0437985934
 40
0.0542912341
 40
0.0657858641
 40
0.0782568594
 40
0.1060137781
 40
0.1373126284
 40
0.1718713386
 40
0.209377986
 40
0.2494939386
 40
0.2918568506
 40
0.3360840769
 40
0.3817760501
 40
0.428520153
 40
0.4758941915
 40
0.5234704355
 40
0.5708193953
 40
0.6175137142
 40
0.6631321363
 40
0.7072631507
 40
0.7495088832
 40
0.789488592
 40
0.826842259
 40
0.8612336538
 40
0.8923536888
 40
0.9199232261
 40
0.9322981761
 40
0.9436958305
 40
0.9540908478
 40
0.9634604366
 40
0.9717843092
 40
0.9790447593
 40
0.9822715953
 40
0.985227311
 40
0.987910711
 40
0.9903208158
 40
0.9924569016
 40
0.9943188747
 40
0.9959072844
 40
0.9972237029
 40
0.9977810932
 40
0.9982722564
 40
0.9986984541
 40
0.9990616636
 40
0.9993651413
 40
0.9996145684
 40
0.99982021
 40
1.0
 40
1.0
 40
1.0
 40
1.0
 10
10.2047175244
 20
18.5556126126
 30
0.0
 10
10.2050234523
 20
18.5554483267
 30
0.0
 10
10.2056839344
 20
18.5550631611
 30
0.0
 10
10.2067371154
 20
18.5543876271
 30
0.0
 10
10.2079420605
 20
18.5535614789
 30
0.0
 10
10.2092981249
 20
18.5525850344
 30
0.0
 10
10.210804668
 20
18.5514587373
 30
0.0
 10
10.2131229278
 20
18.5496731315
 30
0.0
 10
10.216385619
 20
18.5470651279
 30
0.0
 10
10.2207261859
 20
18.5434812416
 30
0.0
 10
10.2256452099
 20
18.539320612
 30
0.0
 10
10.2311322921
 20
18.5345933245
 30
0.0
 10
10.2371756851
 20
18.5293106403
 30
0.0
 10
10.2437624841
 20
18.5234852827
 30
0.0
 10
10.2536074962
 20
18.5146941808
 30
0.0
 10
10.2671479514
 20
18.5024543394
 30
0.0
 10
10.2847801805
 20
18.4863364558
 30
0.0
 10
10.3041744125
 20
18.4684589708
 30
0.0
 10
10.3251617159
 20
18.4489902876
 30
0.0
 10
10.3475587349
 20
18.4281131143
 30
0.0
 10
10.3711695512
 20
18.4060230154
 30
0.0
 10
10.3957873303
 20
18.3829265432
 30
0.0
 10
10.4211962315
 20
18.3590393314
 30
0.0
 10
10.4471733154
 20
18.3345841495
 30
0.0
 10
10.4734905878
 20
18.3097888516
 30
0.0
 10
10.4999170226
 20
18.2848843356
 30
0.0
 10
10.5262206665
 20
18.2601024308
 30
0.0
 10
10.5521707304
 20
18.2356737992
 30
0.0
 10
10.5775396547
 20
18.2118258572
 30
0.0
 10
10.6021051743
 20
18.1887807008
 30
0.0
 10
10.6256522964
 20
18.1667531157
 30
0.0
 10
10.6479752518
 20
18.1459485834
 30
0.0
 10
10.6688793155
 20
18.1265614712
 30
0.0
 10
10.6881824922
 20
18.1087731219
 30
0.0
 10
10.7057173179
 20
18.0927504659
 30
0.0
 10
10.7191734123
 20
18.0805931975
 30
0.0
 10
10.7289490106
 20
18.0718701031
 30
0.0
 10
10.7354826311
 20
18.0660965685
 30
0.0
 10
10.7414724696
 20
18.060866034
 30
0.0
 10
10.7469057968
 20
18.0561909611
 30
0.0
 10
10.7517711417
 20
18.0520825666
 30
0.0
 10
10.7554759329
 20
18.0490298308
 30
0.0
 10
10.7581513252
 20
18.046882635
 30
0.0
 10
10.7599298883
 20
18.0454842171
 30
0.0
 10
10.7615597672
 20
18.0442341101
 30
0.0
 10
10.7630401393
 20
18.0431330351
 30
0.0
 10
10.7643702618
 20
18.0421816131
 30
0.0
 10
10.7655494622
 20
18.0413801654
 30
0.0
 10
10.7665771932
 20
18.040729052
 30
0.0
 10
10.7673443284
 20
18.0402896591
 30
0.0
 10
10.7678835891
 20
18.0400183769
 30
0.0
 10
10.7682271116
 20
18.0398643113
 30
0.0
 10
10.7685327045
 20
18.0397478939
 30
0.0
 10
10.7688005913
 20
18.0396690107
 30
0.0
 10
10.7690313011
 20
18.0396274858
 30
0.0
 10
10.7692259739
 20
18.0396235815
 30
0.0
 10
10.7693863551
 20
18.0396588073
 30
0.0
 10
10.7694715012
 20
18.0397136493
 30
0.0
 10
10.7695039439
 20
18.0397460899
 30
0.0
  0
LINE
  5
569
100
AcDbEntity
  8
0
100
AcDbLine
 62
7
  6
CONTINUOUS
 10
10.154135188
 20
18.5044181612
 11
10.1548667863
 21
18.5041431929
  0
SPLINE
  5
56A
100
AcDbEntity
  8
0
100
AcDbSpline
 62
7
  6
CONTINUOUS
 70
0
 71
3
 72
63
 73
59
 74
0
 42
0.0000001
 43
0.0000001
 44
0.0000000001
 40
0.0
 40
0.0
 40
0.0
 40
0.0
 40
0.0011554225
 40
0.0025843121
 40
0.0042895582
 40
0.0062724301
 40
0.008533077
 40
0.0110711019
 40
0.0169758071
 40
0.0239764132
 40
0.0320588697
 40
0.0412059645
 40
0.0513974858
 40
0.0626107279
 40
0.0748204575
 40
0.1021163283
 40
0.133037097
 40
0.167300789
 40
0.2045944786
 40
0.2445773281
 40
0.2868838873
 40
0.3311272395
 40
0.3769029024
 40
0.4237923328
 40
0.4713668879
 40
0.5191917073
 40
0.5668297356
 40
0.6138457345
 40
0.6598102253
 40
0.7043035042
 40
0.7469193573
 40
0.7872690344
 40
0.8249845244
 40
0.8597221718
 40
0.8911658505
 40
0.9190299497
 40
0.9315394301
 40
0.9430622166
 40
0.9535724214
 40
0.9630466127
 40
0.9714640673
 40
0.9788066605
 40
0.9820700921
 40
0.9850594322
 40
0.9877734387
 40
0.9902110185
 40
0.9923715082
 40
0.9942547985
 40
0.9958613379
 40
0.9971927723
 40
0.9977565241
 40
0.9982532767
 40
0.9986842913
 40
0.9990515563
 40
0.9993583844
 40
0.9996105297
 40
0.9998183563
 40
1.0
 40
1.0
 40
1.0
 40
1.0
 10
10.1548667863
 20
18.5041431929
 30
0.0
 10
10.1551339685
 20
18.5040212629
 30
0.0
 10
10.1557173031
 20
18.5037175217
 30
0.0
 10
10.1566541575
 20
18.503159218
 30
0.0
 10
10.1577442783
 20
18.5024492219
 30
0.0
 10
10.1589870757
 20
18.5015876843
 30
0.0
 10
10.1603820107
 20
18.5005748321
 30
0.0
 10
10.1625558135
 20
18.49893871
 30
0.0
 10
10.1656417499
 20
18.4965119552
 30
0.0
 10
10.1697750196
 20
18.493138931
 30
0.0
 10
10.174494544
 20
18.4891816653
 30
0.0
 10
10.1797902557
 20
18.4846498661
 30
0.0
 10
10.1856506754
 20
18.4795544107
 30
0.0
 10
10.1920631541
 20
18.4739077357
 30
0.0
 10
10.2016944978
 20
18.4653380835
 30
0.0
 10
10.2149903466
 20
18.4533514316
 30
0.0
 10
10.2323563145
 20
18.437508331
 30
0.0
 10
10.2515221848
 20
18.4198679495
 30
0.0
 10
10.2723190745
 20
18.4005985969
 30
0.0
 10
10.2945631616
 20
18.3798833836
 30
0.0
 10
10.3180575461
 20
18.3579188286
 30
0.0
 10
10.3425939753
 20
18.3349128818
 30
0.0
 10
10.3679547239
 20
18.311083047
 30
0.0
 10
10.3939146087
 20
18.2866543284
 30
0.0
 10
10.4202430155
 20
18.2618571929
 30
0.0
 10
10.4467060171
 20
18.2369254339
 30
0.0
 10
10.4730685063
 20
18.2120940307
 30
0.0
 10
10.4990963398
 20
18.1875969953
 30
0.0
 10
10.5245584789
 20
18.1636652205
 30
0.0
 10
10.5492290768
 20
18.1405243812
 30
0.0
 10
10.5728895686
 20
18.1183928327
 30
0.0
 10
10.5953306119
 20
18.0974796247
 30
0.0
 10
10.6163540306
 20
18.0779825747
 30
0.0
 10
10.6357745001
 20
18.0600863501
 30
0.0
 10
10.6534214407
 20
18.0439609881
 30
0.0
 10
10.6669664836
 20
18.0317227939
 30
0.0
 10
10.6768085548
 20
18.0229397366
 30
0.0
 10
10.6833876972
 20
18.0171254371
 30
0.0
 10
10.6894197936
 20
18.0118573899
 30
0.0
 10
10.6948918773
 20
18.007148309
 30
0.0
 10
10.6997922464
 20
18.0030096349
 30
0.0
 10
10.7035238474
 20
17.9999341555
 30
0.0
 10
10.7062186985
 20
17.9977708128
 30
0.0
 10
10.7080102469
 20
17.9963617935
 30
0.0
 10
10.7096520393
 20
17.9951021461
 30
0.0
 10
10.7111432463
 20
17.9939926231
 30
0.0
 10
10.7124831026
 20
17.9930338459
 30
0.0
 10
10.7136709181
 20
17.9922261401
 30
0.0
 10
10.7147061465
 20
17.9915699003
 30
0.0
 10
10.7154788551
 20
17.9911269957
 30
0.0
 10
10.7160220211
 20
17.990853486
 30
0.0
 10
10.7163680201
 20
17.99069813
 30
0.0
 10
10.716675796
 20
17.9905807111
 30
0.0
 10
10.7169455768
 20
17.9905011223
 30
0.0
 10
10.7171778979
 20
17.9904591743
 30
0.0
 10
10.7173739133
 20
17.9904551127
 30
0.0
 10
10.7175353924
 20
17.9904904597
 30
0.0
 10
10.7176211222
 20
17.9905456274
 30
0.0
 10
10.7176537732
 20
17.9905782717
 30
0.0
  0
SPLINE
  5
56B
100
AcDbEntity
  8
0
100
AcDbSpline
 62
7
  6
CONTINUOUS
 70
0
 71
3
 72
66
 73
62
 74
0
 42
0.0000001
 43
0.0000001
 44
0.0000000001
 40
0.0
 40
0.0
 40
0.0
 40
0.0
 40
0.0003934194
 40
0.0008525843
 40
0.0019742758
 40
0.0033733279
 40
0.005053237
 40
0.0070153578
 40
0.0092600246
 40
0.011787014
 40
0.0145954782
 40
0.0210519393
 40
0.0286172074
 40
0.0372753304
 40
0.0470070832
 40
0.0577905503
 40
0.0696011581
 40
0.0824116566
 40
0.0961925061
 40
0.1265353284
 40
0.1603480676
 40
0.1973162341
 40
0.2370958534
 40
0.2793164834
 40
0.3235849255
 40
0.3694888696
 40
0.4166008501
 40
0.4644821262
 40
0.5126869179
 40
0.5607665279
 40
0.6082734985
 40
0.6547659065
 40
0.6998112831
 40
0.7429909542
 40
0.7839036545
 40
0.8221694679
 40
0.8574333457
 40
0.889368544
 40
0.9176796177
 40
0.9303931689
 40
0.9421056644
 40
0.9527904187
 40
0.9624231256
 40
0.9709822289
 40
0.9784490884
 40
0.9817678969
 40
0.9848081144
 40
0.9875683142
 40
0.990047398
 40
0.9922447488
 40
0.9941600968
 40
0.9957938989
 40
0.9971478985
 40
0.9977211376
 40
0.9982261655
 40
0.9986642705
 40
0.9990374974
 40
0.9993491978
 40
0.9996051826
 40
0.9998159606
 40
1.0
 40
1.0
 40
1.0
 40
1.0
 10
10.1051216615
 20
18.4524171674
 30
0.0
 10
10.1052178694
 20
18.4523914508
 30
0.0
 10
10.1054234155
 20
18.4523246426
 30
0.0
 10
10.1058867908
 20
18.4521368103
 30
0.0
 10
10.1065612128
 20
18.4517966293
 30
0.0
 10
10.1074795907
 20
18.4512601554
 30
0.0
 10
10.1085532242
 20
18.4505699271
 30
0.0
 10
10.1097816509
 20
18.4497262589
 30
0.0
 10
10.1111642739
 20
18.4487292046
 30
0.0
 10
10.1127003735
 20
18.4475793029
 30
0.0
 10
10.1150641367
 20
18.4457565202
 30
0.0
 10
10.1183908419
 20
18.4430947582
 30
0.0
 10
10.1228164209
 20
18.4394377116
 30
0.0
 10
10.1278313327
 20
18.4351930734
 30
0.0
 10
10.133424666
 20
18.4303714515
 30
0.0
 10
10.1395840762
 20
18.4249846849
 30
0.0
 10
10.1462959851
 20
18.4190461111
 30
0.0
 10
10.1535455722
 20
18.4125704187
 30
0.0
 10
10.1642556564
 20
18.4029272517
 30
0.0
 10
10.1788493049
 20
18.3896524317
 30
0.0
 10
10.1977027024
 20
18.3723384666
 30
0.0
 10
10.2182475372
 20
18.3533350794
 30
0.0
 10
10.2402990838
 20
18.3328265294
 30
0.0
 10
10.2636585888
 20
18.3110110337
 30
0.0
 10
10.288115224
 20
18.2880991101
 30
0.0
 10
10.3134480177
 20
18.2643114744
 30
0.0
 10
10.3394279002
 20
18.2398770028
 30
0.0
 10
10.3658198421
 20
18.2150305634
 30
0.0
 10
10.3923850312
 20
18.1900108245
 30
0.0
 10
10.4188831029
 20
18.1650580154
 30
0.0
 10
10.4450743803
 20
18.140411675
 30
0.0
 10
10.4707220783
 20
18.1163084368
 30
0.0
 10
10.4955945406
 20
18.0929797829
 30
0.0
 10
10.5194673477
 20
18.0706499153
 30
0.0
 10
10.5421254205
 20
18.0495336182
 30
0.0
 10
10.5633649903
 20
18.029834299
 30
0.0
 10
10.5829954223
 20
18.011741926
 30
0.0
 10
10.6008411349
 20
17.9954315288
 30
0.0
 10
10.6145428461
 20
17.983048335
 30
0.0
 10
10.6245013159
 20
17.9741583015
 30
0.0
 10
10.6311597865
 20
17.9682715488
 30
0.0
 10
10.6372653057
 20
17.9629369302
 30
0.0
 10
10.6428045067
 20
17.9581675545
 30
0.0
 10
10.6477653448
 20
17.9539752279
 30
0.0
 10
10.6515430981
 20
17.9508594254
 30
0.0
 10
10.6542713648
 20
17.9486674067
 30
0.0
 10
10.6560851529
 20
17.947239544
 30
0.0
 10
10.6577473151
 20
17.9459629294
 30
0.0
 10
10.6592569949
 20
17.9448383373
 30
0.0
 10
10.6606133905
 20
17.9438663908
 30
0.0
 10
10.6618158053
 20
17.9430474561
 30
0.0
 10
10.662863678
 20
17.9423819472
 30
0.0
 10
10.6636457411
 20
17.9419325939
 30
0.0
 10
10.6641954308
 20
17.9416549513
 30
0.0
 10
10.6645455212
 20
17.9414971882
 30
0.0
 10
10.6648568879
 20
17.9413778647
 30
0.0
 10
10.6651297652
 20
17.9412968513
 30
0.0
 10
10.6653647
 20
17.9412539468
 30
0.0
 10
10.665562858
 20
17.9412494028
 30
0.0
 10
10.6657260548
 20
17.9412847559
 30
0.0
 10
10.6658126732
 20
17.9413403826
 30
0.0
 10
10.665845612
 20
17.9413733258
 30
0.0
  0
SPLINE
  5
56C
100
AcDbEntity
  8
0
100
AcDbSpline
 62
7
  6
CONTINUOUS
 70
0
 71
3
 72
28
 73
24
 74
0
 42
0.0000001
 43
0.0000001
 44
0.0000000001
 40
0.0
 40
0.0
 40
0.0
 40
0.0
 40
0.0089374432
 40
0.018502291
 40
0.0291559194
 40
0.0412267626
 40
0.0549288056
 40
0.0703960603
 40
0.0877056075
 40
0.1068978353
 40
0.1279850486
 40
0.1509606489
 40
0.1758020658
 40
0.2024747732
 40
0.2611195318
 40
0.3264348661
 40
0.3978346517
 40
0.4746287471
 40
0.5560351286
 40
0.64119222
 40
0.729169733
 40
0.8189830717
 40
1.0
 40
1.0
 40
1.0
 40
1.0
 10
8.0377387961
 20
15.6921714282
 30
0.0
 10
8.0379157002
 20
15.6923483341
 30
0.0
 10
8.038333996
 20
15.6926654876
 30
0.0
 10
8.0390924398
 20
15.69298456
 30
0.0
 10
8.0399842235
 20
15.693159782
 30
0.0
 10
8.0410065502
 20
15.6931948386
 30
0.0
 10
8.0421586463
 20
15.6930922642
 30
0.0
 10
8.0434390544
 20
15.6928527549
 30
0.0
 10
8.0448455955
 20
15.6924770235
 30
0.0
 10
8.0463752634
 20
15.6919656302
 30
0.0
 10
8.0480245535
 20
15.6913196194
 30
0.0
 10
8.0497894156
 20
15.6905402446
 30
0.0
 10
8.0516654818
 20
15.6896292595
 30
0.0
 10
8.0543961041
 20
15.6881957396
 30
0.0
 10
8.0580454366
 20
15.6860795945
 30
0.0
 10
8.0626551057
 20
15.6831350306
 30
0.0
 10
8.0675744318
 20
15.6797388506
 30
0.0
 10
8.0727495865
 20
15.675926182
 30
0.0
 10
8.0781228136
 20
15.6717375372
 30
0.0
 10
8.0836328809
 20
15.6672189581
 30
0.0
 10
8.0892160114
 20
15.6624214029
 30
0.0
 10
8.0966885555
 20
15.6557093327
 30
0.0
 10
8.1021662106
 20
15.6504636844
 30
0.0
 10
8.1057492036
 20
15.6468806913
 30
0.0
  0
SPLINE
  5
56D
100
AcDbEntity
  8
0
100
AcDbSpline
 62
7
  6
CONTINUOUS
 70
0
 71
3
 72
62
 73
58
 74
0
 42
0.0000001
 43
0.0000001
 44
0.0000000001
 40
0.0
 40
0.0
 40
0.0
 40
0.0
 40
0.0001821569
 40
0.0003896363
 40
0.0006401923
 40
0.0009440877
 40
0.0013070624
 40
0.001732449
 40
0.0022222886
 40
0.0027778946
 40
0.0040894007
 40
0.0056710804
 40
0.007524687
 40
0.0096508676
 40
0.0120494032
 40
0.0147196864
 40
0.017660831
 40
0.0208715004
 40
0.0280951933
 40
0.0363763605
 40
0.0456975892
 40
0.0560386092
 40
0.0673768034
 40
0.0796871378
 40
0.107112551
 40
0.1380705607
 40
0.1722845215
 40
0.2094482051
 40
0.2492287837
 40
0.2912699727
 40
0.3351950467
 40
0.3806105164
 40
0.4271094987
 40
0.4742755437
 40
0.5216862097
 40
0.5689170168
 40
0.6155451749
 40
0.6611533837
 40
0.7053336871
 40
0.7476909131
 40
0.7878465018
 40
0.8254417199
 40
0.860141019
 40
0.8916349656
 40
0.9196433328
 40
0.9322615238
 40
0.943917776
 40
0.9545864286
 40
0.9642442681
 40
0.9728703604
 40
0.9804464741
 40
0.9869572608
 40
0.9923904794
 40
0.9947004559
 40
0.9967384793
 40
0.9985047054
 40
1.0
 40
1.0
 40
1.0
 40
1.0
 10
10.0676769347
 20
18.4132706494
 30
0.0
 10
10.0677092981
 20
18.4133030196
 30
0.0
 10
10.0677937311
 20
18.4133579446
 30
0.0
 10
10.0679526286
 20
18.4133943883
 30
0.0
 10
10.0681452213
 20
18.4133923813
 30
0.0
 10
10.0683730999
 20
18.4133534811
 30
0.0
 10
10.0686373695
 20
18.4132779707
 30
0.0
 10
10.0689385533
 20
18.4131656869
 30
0.0
 10
10.0692768872
 20
18.4130165152
 30
0.0
 10
10.0698076124
 20
18.4127532736
 30
0.0
 10
10.0705621764
 20
18.4123258714
 30
0.0
 10
10.0715725568
 20
18.4116914863
 30
0.0
 10
10.0727312906
 20
18.410909838
 30
0.0
 10
10.0740378394
 20
18.4099812794
 30
0.0
 10
10.0754915628
 20
18.4089061537
 30
0.0
 10
10.0770917172
 20
18.4076850469
 30
0.0
 10
10.0788374916
 20
18.4063186589
 30
0.0
 10
10.0814630831
 20
18.4042202092
 30
0.0
 10
10.0850981118
 20
18.4012358728
 30
0.0
 10
10.0898709244
 20
18.397218409
 30
0.0
 10
10.0952000082
 20
18.3926458941
 30
0.0
 10
10.1010741552
 20
18.3875293159
 30
0.0
 10
10.1074809056
 20
18.381880859
 30
0.0
 10
10.1170658558
 20
18.3733458363
 30
0.0
 10
10.1302583507
 20
18.3614488599
 30
0.0
 10
10.1474484723
 20
18.3457668196
 30
0.0
 10
10.1663717501
 20
18.3283540478
 30
0.0
 10
10.1868648174
 20
18.3093733796
 30
0.0
 10
10.2087502198
 20
18.2890016147
 30
0.0
 10
10.2318381786
 20
18.2674281749
 30
0.0
 10
10.2559282181
 20
18.2448532527
 30
0.0
 10
10.2808109373
 20
18.2214860409
 30
0.0
 10
10.3062699167
 20
18.1975427909
 30
0.0
 10
10.3320836185
 20
18.1732448995
 30
0.0
 10
10.358027393
 20
18.148816891
 30
0.0
 10
10.3838754685
 20
18.1244844154
 30
0.0
 10
10.4094029838
 20
18.1004722098
 30
0.0
 10
10.4343880011
 20
18.0770020749
 30
0.0
 10
10.4586134653
 20
18.0542909027
 30
0.0
 10
10.4818691696
 20
18.0325487029
 30
0.0
 10
10.503953591
 20
18.0119767285
 30
0.0
 10
10.5246757258
 20
17.9927656473
 30
0.0
 10
10.5438566684
 20
17.9750937588
 30
0.0
 10
10.5613314025
 20
17.9591255813
 30
0.0
 10
10.5747765101
 20
17.9469734191
 30
0.0
 10
10.5845752575
 20
17.9382217338
 30
0.0
 10
10.5911512454
 20
17.9324029368
 30
0.0
 10
10.5971998214
 20
17.9271108359
 30
0.0
 10
10.6027082453
 20
17.9223579635
 30
0.0
 10
10.6076649609
 20
17.9181555887
 30
0.0
 10
10.612059518
 20
17.9145134586
 30
0.0
 10
10.615882828
 20
17.9114402475
 30
0.0
 10
10.6187206661
 20
17.9092539914
 30
0.0
 10
10.6207045713
 20
17.9078028005
 30
0.0
 10
10.6219630924
 20
17.9069212187
 30
0.0
 10
10.6230738868
 20
17.906186368
 30
0.0
 10
10.6237734953
 20
17.9057588246
 30
0.0
 10
10.6240995406
 20
17.9055720606
 30
0.0
  0
LINE
  5
56E
100
AcDbEntity
  8
0
100
AcDbLine
 62
7
  6
CONTINUOUS
 10
10.6240995406
 20
17.9055720606
 11
10.6258557416
 21
17.9047634728
  0
SPLINE
  5
56F
100
AcDbEntity
  8
0
100
AcDbSpline
 62
7
  6
CONTINUOUS
 70
0
 71
3
 72
22
 73
18
 74
0
 42
0.0000001
 43
0.0000001
 44
0.0000000001
 40
0.0
 40
0.0
 40
0.0
 40
0.0
 40
0.2100887184
 40
0.3980948322
 40
0.4831115341
 40
0.5618196167
 40
0.6340238602
 40
0.6995791343
 40
0.7583909913
 40
0.8104323269
 40
0.8557675556
 40
0.8945949247
 40
0.9273288209
 40
0.9547434979
 40
0.9782144757
 40
0.9891638938
 40
1.0
 40
1.0
 40
1.0
 40
1.0
 10
8.6030091328
 20
15.1496207621
 30
0.0
 10
8.604463574
 20
15.1481663209
 30
0.0
 10
8.607181981
 20
15.1453722907
 30
0.0
 10
8.6103617415
 20
15.1418687717
 30
0.0
 10
8.6125868387
 20
15.1392401115
 30
0.0
 10
8.6140330144
 20
15.1374385734
 30
0.0
 10
8.6153089952
 20
15.1357459055
 30
0.0
 10
8.6164110838
 20
15.1341675355
 30
0.0
 10
8.6173363529
 20
15.1327083223
 30
0.0
 10
8.6180827009
 20
15.1313725194
 30
0.0
 10
8.618648818
 20
15.1301635107
 30
0.0
 10
8.6190342986
 20
15.1290834723
 30
0.0
 10
8.6192385276
 20
15.1281322617
 30
0.0
 10
8.6192601051
 20
15.1273075527
 30
0.0
 10
8.6191110589
 20
15.1267093669
 30
0.0
 10
8.6188924767
 20
15.1263213881
 30
0.0
 10
8.6187548405
 20
15.1261566224
 30
0.0
 10
8.6186798197
 20
15.1260816069
 30
0.0
  0
ELLIPSE
  5
570
100
AcDbEntity
  8
0
100
AcDbEllipse
 62
7
  6
CONTINUOUS
 10
9.9312525103
 20
17.7438213164
 30
0.0
 11
-0.0
 21
0.6181264952
 31
0.0
 40
0.2679491924
 41
-0.5408188012
 42
0.0172200256
  0
ENDSEC
  0
SECTION
  2
OBJECTS
  0
DICTIONARY
  5
C
100
AcDbDictionary
280
0
281
1
  3
ACAD_GROUP
350
D
  3
ACAD_MLINESTYLE
350
17
  3
ACAD_LAYOUT
350
1A
  3
ACAD_PLOTSETTINGS
350
19
  3
ACAD_PLOTSTYLENAME
350
E
  0
DICTIONARY
  5
D
102
{ACAD_REACTORS
330
C
102
}
100
AcDbDictionary
280
0
281
1
  0
ACDBDICTIONARYWDFLT
  5
E
102
{ACAD_REACTORS
330
C
102
}
100
AcDbDictionary
281
1
  3
Normal
350
F
100
AcDbDictionaryWithDefault
340
F
  0
DICTIONARY
  5
17
102
{ACAD_REACTORS
330
C
102
}
100
AcDbDictionary
280
0
281
1
  3
Standard
350
18
  0
DICTIONARY
  5
19
102
{ACAD_REACTORS
330
C
102
}
100
AcDbDictionary
281
1
  0
DICTIONARY
  5
1A
102
{ACAD_REACTORS
330
C
102
}
100
AcDbDictionary
281
1
  3
Model
350
571
  3
Layout1
350
572
  0
ACDBPLACEHOLDER
  5
F
102
{ACAD_REACTORS
330
E
102
}
  0
MLINESTYLE
  5
18
102
{ACAD_REACTORS
330
17
102
}
100
AcDbMlineStyle
  2
STANDARD
 70
0
  3

 62
256
 51
90.0
 52
90.0
 71
2
 49
0.5
 62
256
  6
BYLAYER
 49
-0.5
 62
256
  6
BYLAYER
  0
LAYOUT
  5
571
102
{ACAD_REACTORS
330
1A
102
}
100
AcDbPlotSettings
  1

  2
none_device
  4
ANSI_C_(22.00_x_17.00_Inches)
  6

 40
0.0
 41
0.0
 42
0.0
 43
0.0
 44
558.8
 45
431.8
 46
0.0
 47
0.0
 48
0.0
 49
0.0
140
0.0
141
0.0
142
1.0
143
1.0
 70
1024
 72
0
 73
0
 74
0
  7

 75
0
147
1.0
148
0.0
149
0.0
100
AcDbLayout
  1
Model
 70
0
 71
0
 10
0.0
 20
0.0
 11
22.0
 21
17.0
 12
0.0
 22
0.0
 32
0.0
 14
0.0
 24
0.0
 34
0.0
 15
0.0
 25
0.0
 35
0.0
146
0.0
 13
0.0
 23
0.0
 33
0.0
 16
1.0
 26
0.0
 36
0.0
 17
0.0
 27
1.0
 37
0.0
 76
0
330
205
345
0
346
0
  0
LAYOUT
  5
572
102
{ACAD_REACTORS
330
1A
102
}
100
AcDbPlotSettings
  1

  2
none_device
  4
ANSI_C_(22.00_x_17.00_Inches)
  6

 40
0.0
 41
0.0
 42
0.0
 43
0.0
 44
558.8
 45
431.8
 46
0.0
 47
0.0
 48
0.0
 49
0.0
140
0.0
141
0.0
142
1.0
143
1.0
 70
0
 72
0
 73
0
 74
0
  7

 75
0
147
1.0
148
0.0
149
0.0
100
AcDbLayout
  1
Layout1
 70
0
 71
1
 10
0.0
 20
0.0
 11
22.0
 21
17.0
 12
0.0
 22
0.0
 32
0.0
 14
0.0
 24
0.0
 34
0.0
 15
0.0
 25
0.0
 35
0.0
146
0.0
 13
0.0
 23
0.0
 33
0.0
 16
1.0
 26
0.0
 36
0.0
 17
0.0
 27
1.0
 37
0.0
 76
0
330
206
345
0
346
0
  0
ENDSEC
  0
EOF
