999
DXF file: 3-2984tr_right.dxf
999
Pro/ENGINEER 2018400 by Parametric Technology Corporation
  0
SECTION
  2
HEADER
  9
$ACADVER
  1
AC1027
  9
$DWGCODEPAGE
  3
ANSI_1252
  9
$EXTMAX
 10
11.0
 20
8.5
 30
0.0
  9
$EXTMIN
 10
0.0
 20
0.0
 30
0.0
  9
$LIMMIN
 10
0.0
 20
0.0
  9
$LIMMAX
 10
11.0
 20
8.5
  9
$VIEWCTR
 10
5.5
 20
4.25
  9
$VIEWSIZE
 40
8.5
  9
$CLAYER
  8
0
  9
$LTSCALE
 40
0.605
  9
$CELTYPE
  6
BYLAYER
  9
$DIMSCALE
 40
1.0
  9
$DIMASZ
 40
0.1
  9
$DIMEXO
 40
0.0625
  9
$DIMDLI
 40
0.418
  9
$DIMEXE
 40
0.125
  9
$DIMCEN
 40
0.099
  9
$DIMLFAC
 40
1.0
  9
$DIMBLK
  1
_FILLED
  9
$DIMALT
 70
1
  9
$DIMALTD
 70
2
  9
$DIMALTTD
 70
2
  9
$DIMALTF
 40
25.4
  9
$DIMTXT
 40
0.08
  9
$DIMTOL
 70
1
  9
$DIMLIM
 70
0
  9
$DIMTFAC
 40
1.0
  9
$DIMTP
 40
0.001
  9
$DIMTM
 40
0.001
  9
$DIMGAP
 40
0.09
  9
$DIMDSEP
 70
46
  9
$AUNITS
 70
0
  9
$PDMODE
 70
3
  9
$PDSIZE
 40
0.3125
  9
$HANDSEED
  5
2D8
  9
$TILEMODE
 70
1
  9
$MEASUREMENT
 70
0
  9
$INSUNITS
 70
1
  0
ENDSEC
  0
SECTION
  2
CLASSES
  0
CLASS
  1
ACDBDICTIONARYWDFLT
  2
AcDbDictionaryWithDefault
  3
AutoCAD 2000
 90
0
 91
1
280
0
281
0
  0
CLASS
  1
ACDBPLACEHOLDER
  2
AcDbPlaceHolder
  3
AutoCAD 2000
 90
0
 91
1
280
0
281
0
  0
CLASS
  1
LAYOUT
  2
AcDbLayout
  3
AutoCAD 2000
 90
0
 91
0
280
0
281
0
  0
ENDSEC
  0
SECTION
  2
TABLES
  0
TABLE
  2
VPORT
  5
8
100
AcDbSymbolTable
 70
2
  0
VPORT
  5
1F4
100
AcDbSymbolTableRecord
100
AcDbViewportTableRecord
  2
*ACTIVE
 70
0
 10
0.0
 20
0.0
 11
1.0
 21
1.0
 12
5.5
 22
4.25
 13
0.0
 23
0.0
 14
1.0
 24
1.0
 15
0.0
 25
0.0
 16
0.0
 26
0.0
 36
1.0
 17
0.0
 27
0.0
 37
0.0
 40
8.5
 41
1.2941176471
 42
50.0
 43
0.0
 44
0.0
 50
0.0
 51
0.0
 71
0
 72
100
 73
1
 74
1
 75
0
 76
0
 77
0
 78
0
  0
ENDTAB
  0
TABLE
  2
LTYPE
  5
5
100
AcDbSymbolTable
 70
6
  0
LTYPE
  5
14
100
AcDbSymbolTableRecord
100
AcDbLinetypeTableRecord
  2
BYBLOCK
 70
0
  3

 72
65
 73
0
 40
0.0
  0
LTYPE
  5
15
100
AcDbSymbolTableRecord
100
AcDbLinetypeTableRecord
  2
BYLAYER
 70
0
  3

 72
65
 73
0
 40
0.0
  0
LTYPE
  5
16
100
AcDbSymbolTableRecord
100
AcDbLinetypeTableRecord
  2
CONTINUOUS
 70
64
  3
Solid line
 72
65
 73
0
 40
0.0
  0
LTYPE
  5
1F5
100
AcDbSymbolTableRecord
100
AcDbLinetypeTableRecord
  2
CENTER
 70
64
  3
____ _ ____ _ ____ _ ____ _ ____ _ ____ _ ____
 72
65
 73
4
 40
0.6
 49
0.375
 74
0
 49
-0.075
 74
0
 49
0.075
 74
0
 49
-0.075
 74
0
  0
LTYPE
  5
1F6
100
AcDbSymbolTableRecord
100
AcDbLinetypeTableRecord
  2
HIDDEN
 70
64
  3
- - - - - - - - - - - - - - - - - - - -
 72
65
 73
2
 40
0.2
 49
0.1
 74
0
 49
-0.1
 74
0
  0
LTYPE
  5
1F7
100
AcDbSymbolTableRecord
100
AcDbLinetypeTableRecord
  2
PHANTOM
 70
64
  3
_____ _ _ _____ _ _ _____ _ _ _____
 72
65
 73
6
 40
0.8
 49
0.45
 74
0
 49
-0.05
 74
0
 49
0.1
 74
0
 49
-0.05
 74
0
 49
0.1
 74
0
 49
-0.05
 74
0
  0
LTYPE
  5
1F8
100
AcDbSymbolTableRecord
100
AcDbLinetypeTableRecord
  2
DOT
 70
64
  3
. . . . . . . . . . . . . . . . . . . .
 72
65
 73
2
 40
0.2
 49
0.1
 74
0
 49
-0.1
 74
0
  0
LTYPE
  5
1F9
100
AcDbSymbolTableRecord
100
AcDbLinetypeTableRecord
  2
DASHED
 70
64
  3
- - - - - - - - - - - - - - - - - - - -
 72
65
 73
2
 40
0.2
 49
0.1
 74
0
 49
-0.1
 74
0
  0
ENDTAB
  0
TABLE
  2
LAYER
  5
2
100
AcDbSymbolTable
 70
36
  0
LAYER
  5
10
100
AcDbSymbolTableRecord
100
AcDbLayerTableRecord
  2
0
 70
0
 62
7
  6
CONTINUOUS
370
-3
390
F
  0
LAYER
  5
1FA
100
AcDbSymbolTableRecord
100
AcDbLayerTableRecord
  2
DEFAULT_1
 70
0
 62
7
  6
CENTER
370
-3
390
F
  0
LAYER
  5
1FB
100
AcDbSymbolTableRecord
100
AcDbLayerTableRecord
  2
DEFAULT_2
 70
0
 62
8
  6
HIDDEN
370
-3
390
F
  0
LAYER
  5
1FC
100
AcDbSymbolTableRecord
100
AcDbLayerTableRecord
  2
DEFAULT_3
 70
0
 62
7
  6
PHANTOM
370
-3
390
F
  0
LAYER
  5
1FD
100
AcDbSymbolTableRecord
100
AcDbLayerTableRecord
  2
01_ALL_DTM_PLN
 70
0
 62
7
  6
CONTINUOUS
370
-3
390
F
  0
LAYER
  5
1FE
100
AcDbSymbolTableRecord
100
AcDbLayerTableRecord
  2
01__ASM_ALL_DTM_PLN
 70
0
 62
7
  6
CONTINUOUS
370
-3
390
F
  0
LAYER
  5
1FF
100
AcDbSymbolTableRecord
100
AcDbLayerTableRecord
  2
01__ASM_DEF_DTM_PLN
 70
0
 62
7
  6
CONTINUOUS
370
-3
390
F
  0
LAYER
  5
200
100
AcDbSymbolTableRecord
100
AcDbLayerTableRecord
  2
01___PRT_ALL_DTM_PLN
 70
0
 62
7
  6
CONTINUOUS
370
-3
390
F
  0
LAYER
  5
201
100
AcDbSymbolTableRecord
100
AcDbLayerTableRecord
  2
01___PRT_DEF_DTM_PLN
 70
0
 62
7
  6
CONTINUOUS
370
-3
390
F
  0
LAYER
  5
202
100
AcDbSymbolTableRecord
100
AcDbLayerTableRecord
  2
02_ALL_AXES
 70
0
 62
7
  6
CONTINUOUS
370
-3
390
F
  0
LAYER
  5
203
100
AcDbSymbolTableRecord
100
AcDbLayerTableRecord
  2
02__ASM_ALL_AXES
 70
0
 62
7
  6
CONTINUOUS
370
-3
390
F
  0
LAYER
  5
204
100
AcDbSymbolTableRecord
100
AcDbLayerTableRecord
  2
02___PRT_ALL_AXES
 70
0
 62
7
  6
CONTINUOUS
370
-3
390
F
  0
LAYER
  5
205
100
AcDbSymbolTableRecord
100
AcDbLayerTableRecord
  2
03_ALL_CURVES
 70
0
 62
7
  6
CONTINUOUS
370
-3
390
F
  0
LAYER
  5
206
100
AcDbSymbolTableRecord
100
AcDbLayerTableRecord
  2
03__ASM_ALL_CURVES
 70
0
 62
7
  6
CONTINUOUS
370
-3
390
F
  0
LAYER
  5
207
100
AcDbSymbolTableRecord
100
AcDbLayerTableRecord
  2
03___PRT_ALL_CURVES
 70
0
 62
7
  6
CONTINUOUS
370
-3
390
F
  0
LAYER
  5
208
100
AcDbSymbolTableRecord
100
AcDbLayerTableRecord
  2
04_ALL_DTM_PNT
 70
0
 62
7
  6
CONTINUOUS
370
-3
390
F
  0
LAYER
  5
209
100
AcDbSymbolTableRecord
100
AcDbLayerTableRecord
  2
04__ASM_ALL_DTM_PNT
 70
0
 62
7
  6
CONTINUOUS
370
-3
390
F
  0
LAYER
  5
20A
100
AcDbSymbolTableRecord
100
AcDbLayerTableRecord
  2
04___PRT_ALL_DTM_PNT
 70
0
 62
7
  6
CONTINUOUS
370
-3
390
F
  0
LAYER
  5
20B
100
AcDbSymbolTableRecord
100
AcDbLayerTableRecord
  2
05_ALL_DTM_CSYS
 70
0
 62
7
  6
CONTINUOUS
370
-3
390
F
  0
LAYER
  5
20C
100
AcDbSymbolTableRecord
100
AcDbLayerTableRecord
  2
05__ASM_ALL_DTM_CSYS
 70
0
 62
7
  6
CONTINUOUS
370
-3
390
F
  0
LAYER
  5
20D
100
AcDbSymbolTableRecord
100
AcDbLayerTableRecord
  2
05__ASM_DEF_DTM_CSYS
 70
0
 62
7
  6
CONTINUOUS
370
-3
390
F
  0
LAYER
  5
20E
100
AcDbSymbolTableRecord
100
AcDbLayerTableRecord
  2
05___PRT_ALL_DTM_CSYS
 70
0
 62
7
  6
CONTINUOUS
370
-3
390
F
  0
LAYER
  5
20F
100
AcDbSymbolTableRecord
100
AcDbLayerTableRecord
  2
05___PRT_DEF_DTM_CSYS
 70
0
 62
7
  6
CONTINUOUS
370
-3
390
F
  0
LAYER
  5
210
100
AcDbSymbolTableRecord
100
AcDbLayerTableRecord
  2
06_ALL_SURFS
 70
0
 62
7
  6
CONTINUOUS
370
-3
390
F
  0
LAYER
  5
211
100
AcDbSymbolTableRecord
100
AcDbLayerTableRecord
  2
06__ASM_ALL_SURFS
 70
0
 62
7
  6
CONTINUOUS
370
-3
390
F
  0
LAYER
  5
212
100
AcDbSymbolTableRecord
100
AcDbLayerTableRecord
  2
06___PRT_ALL_SURFS
 70
0
 62
7
  6
CONTINUOUS
370
-3
390
F
  0
LAYER
  5
213
100
AcDbSymbolTableRecord
100
AcDbLayerTableRecord
  2
07__ASM_ALL_SKELETONS
 70
0
 62
7
  6
CONTINUOUS
370
-3
390
F
  0
LAYER
  5
214
100
AcDbSymbolTableRecord
100
AcDbLayerTableRecord
  2
ALL_ASSEMBLY_MEMBERS
 70
0
 62
7
  6
CONTINUOUS
370
-3
390
F
  0
LAYER
  5
215
100
AcDbSymbolTableRecord
100
AcDbLayerTableRecord
  2
ALL_FEATURES
 70
0
 62
7
  6
CONTINUOUS
370
-3
390
F
  0
LAYER
  5
216
100
AcDbSymbolTableRecord
100
AcDbLayerTableRecord
  2
AXES_FEATURES
 70
0
 62
7
  6
CONTINUOUS
370
-3
390
F
  0
LAYER
  5
217
100
AcDbSymbolTableRecord
100
AcDbLayerTableRecord
  2
BROACH_SKETCH
 70
0
 62
7
  6
CONTINUOUS
370
-3
390
F
  0
LAYER
  5
218
100
AcDbSymbolTableRecord
100
AcDbLayerTableRecord
  2
CHAMFER_FEATURES
 70
0
 62
7
  6
CONTINUOUS
370
-3
390
F
  0
LAYER
  5
219
100
AcDbSymbolTableRecord
100
AcDbLayerTableRecord
  2
COLOR1
 70
0
 62
7
  6
CONTINUOUS
370
-3
390
F
  0
LAYER
  5
21A
100
AcDbSymbolTableRecord
100
AcDbLayerTableRecord
  2
CURVES
 70
0
 62
7
  6
CONTINUOUS
370
-3
390
F
  0
LAYER
  5
21B
100
AcDbSymbolTableRecord
100
AcDbLayerTableRecord
  2
CUT_FEATURES
 70
0
 62
7
  6
CONTINUOUS
370
-3
390
F
  0
LAYER
  5
21C
100
AcDbSymbolTableRecord
100
AcDbLayerTableRecord
  2
DATUM_CURVES
 70
0
 62
7
  6
CONTINUOUS
370
-3
390
F
  0
LAYER
  5
21D
100
AcDbSymbolTableRecord
100
AcDbLayerTableRecord
  2
DATUM_PLANES
 70
0
 62
7
  6
CONTINUOUS
370
-3
390
F
  0
LAYER
  5
21E
100
AcDbSymbolTableRecord
100
AcDbLayerTableRecord
  2
DATUM_POINTS
 70
0
 62
7
  6
CONTINUOUS
370
-3
390
F
  0
LAYER
  5
21F
100
AcDbSymbolTableRecord
100
AcDbLayerTableRecord
  2
DEFAULT_COORDINATE_SYSTEM
 70
0
 62
7
  6
CONTINUOUS
370
-3
390
F
  0
LAYER
  5
220
100
AcDbSymbolTableRecord
100
AcDbLayerTableRecord
  2
DEFAULT_DATUM_AXES
 70
0
 62
7
  6
CONTINUOUS
370
-3
390
F
  0
LAYER
  5
221
100
AcDbSymbolTableRecord
100
AcDbLayerTableRecord
  2
DEFAULT_DATUM_CURVES
 70
0
 62
7
  6
CONTINUOUS
370
-3
390
F
  0
LAYER
  5
222
100
AcDbSymbolTableRecord
100
AcDbLayerTableRecord
  2
DEFAULT_DATUM_PLANES
 70
0
 62
7
  6
CONTINUOUS
370
-3
390
F
  0
LAYER
  5
223
100
AcDbSymbolTableRecord
100
AcDbLayerTableRecord
  2
DEFAULT_SURFACES
 70
0
 62
7
  6
CONTINUOUS
370
-3
390
F
  0
LAYER
  5
224
100
AcDbSymbolTableRecord
100
AcDbLayerTableRecord
  2
DIMENSIONS
 70
0
 62
7
  6
CONTINUOUS
370
-3
390
F
  0
LAYER
  5
225
100
AcDbSymbolTableRecord
100
AcDbLayerTableRecord
  2
HOLE_FEATURES
 70
0
 62
7
  6
CONTINUOUS
370
-3
390
F
  0
LAYER
  5
226
100
AcDbSymbolTableRecord
100
AcDbLayerTableRecord
  2
IMPORTED_FEATURE
 70
0
 62
7
  6
CONTINUOUS
370
-3
390
F
  0
LAYER
  5
227
100
AcDbSymbolTableRecord
100
AcDbLayerTableRecord
  2
INTF_1
 70
0
 62
7
  6
CONTINUOUS
370
-3
390
F
  0
LAYER
  5
228
100
AcDbSymbolTableRecord
100
AcDbLayerTableRecord
  2
INTF_12
 70
0
 62
7
  6
CONTINUOUS
370
-3
390
F
  0
LAYER
  5
229
100
AcDbSymbolTableRecord
100
AcDbLayerTableRecord
  2
INTF_13
 70
0
 62
7
  6
CONTINUOUS
370
-3
390
F
  0
LAYER
  5
22A
100
AcDbSymbolTableRecord
100
AcDbLayerTableRecord
  2
INTF_BLANK
 70
0
 62
7
  6
CONTINUOUS
370
-3
390
F
  0
LAYER
  5
22B
100
AcDbSymbolTableRecord
100
AcDbLayerTableRecord
  2
INTF_CYAN
 70
0
 62
7
  6
CONTINUOUS
370
-3
390
F
  0
LAYER
  5
22C
100
AcDbSymbolTableRecord
100
AcDbLayerTableRecord
  2
INTF_YELLOW
 70
0
 62
7
  6
CONTINUOUS
370
-3
390
F
  0
LAYER
  5
22D
100
AcDbSymbolTableRecord
100
AcDbLayerTableRecord
  2
NOTES
 70
0
 62
7
  6
CONTINUOUS
370
-3
390
F
  0
LAYER
  5
22E
100
AcDbSymbolTableRecord
100
AcDbLayerTableRecord
  2
PART_REFERENCE_DIMENSIONS
 70
0
 62
7
  6
CONTINUOUS
370
-3
390
F
  0
LAYER
  5
22F
100
AcDbSymbolTableRecord
100
AcDbLayerTableRecord
  2
PLATED_SURFACE_AREA
 70
0
 62
7
  6
CONTINUOUS
370
-3
390
F
  0
LAYER
  5
230
100
AcDbSymbolTableRecord
100
AcDbLayerTableRecord
  2
POINTS
 70
0
 62
7
  6
CONTINUOUS
370
-3
390
F
  0
LAYER
  5
231
100
AcDbSymbolTableRecord
100
AcDbLayerTableRecord
  2
PROTRUSION
 70
0
 62
7
  6
CONTINUOUS
370
-3
390
F
  0
LAYER
  5
232
100
AcDbSymbolTableRecord
100
AcDbLayerTableRecord
  2
PROTRUSION_FEATURES
 70
0
 62
7
  6
CONTINUOUS
370
-3
390
F
  0
LAYER
  5
233
100
AcDbSymbolTableRecord
100
AcDbLayerTableRecord
  2
QUILT
 70
0
 62
7
  6
CONTINUOUS
370
-3
390
F
  0
LAYER
  5
234
100
AcDbSymbolTableRecord
100
AcDbLayerTableRecord
  2
QUILTS
 70
0
 62
7
  6
CONTINUOUS
370
-3
390
F
  0
LAYER
  5
235
100
AcDbSymbolTableRecord
100
AcDbLayerTableRecord
  2
REFERENCE_DIMENSIONS
 70
0
 62
7
  6
CONTINUOUS
370
-3
390
F
  0
LAYER
  5
236
100
AcDbSymbolTableRecord
100
AcDbLayerTableRecord
  2
ROUND_FEATURES
 70
0
 62
7
  6
CONTINUOUS
370
-3
390
F
  0
LAYER
  5
237
100
AcDbSymbolTableRecord
100
AcDbLayerTableRecord
  2
SURFACE_FEATURES
 70
0
 62
7
  6
CONTINUOUS
370
-3
390
F
  0
LAYER
  5
238
100
AcDbSymbolTableRecord
100
AcDbLayerTableRecord
  2
XSEC_DATUMS
 70
0
 62
7
  6
CONTINUOUS
370
-3
390
F
  0
LAYER
  5
239
100
AcDbSymbolTableRecord
100
AcDbLayerTableRecord
  2
_BLACK_HOLE
 70
0
 62
7
  6
CONTINUOUS
370
-3
390
F
  0
ENDTAB
  0
TABLE
  2
STYLE
  5
3
100
AcDbSymbolTable
 70
1
  0
STYLE
  5
11
100
AcDbSymbolTableRecord
100
AcDbTextStyleTableRecord
  2
STANDARD
 70
0
 40
0.0
 41
0.8
 50
0.0
 71
0
 42
0.2
  3
txt
  4

  0
STYLE
  5
23A
100
AcDbSymbolTableRecord
100
AcDbTextStyleTableRecord
  2
TEXTSTYLE_1
 70
0
 40
0.0
 41
0.8
 50
0.0
 71
0
 42
0.2
  3
gdt
  4

  0
ENDTAB
  0
TABLE
  2
VIEW
  5
6
100
AcDbSymbolTable
 70
0
  0
ENDTAB
  0
TABLE
  2
UCS
  5
7
100
AcDbSymbolTable
 70
0
  0
ENDTAB
  0
TABLE
  2
APPID
  5
9
100
AcDbSymbolTable
 70
1
  0
APPID
  5
23B
100
AcDbSymbolTableRecord
100
AcDbRegAppTableRecord
  2
ACAD
 70
0
  0
ENDTAB
  0
TABLE
  2
BLOCK_RECORD
  5
1
100
AcDbSymbolTable
 70
0
  0
BLOCK_RECORD
  5
23C
100
AcDbSymbolTableRecord
100
AcDbBlockTableRecord
  2
*Model_Space
  0
BLOCK_RECORD
  5
23D
100
AcDbSymbolTableRecord
100
AcDbBlockTableRecord
  2
*Paper_Space
  0
BLOCK_RECORD
  5
23E
100
AcDbSymbolTableRecord
100
AcDbBlockTableRecord
  2
_FILLED
  0
ENDTAB
  0
TABLE
  2
DIMSTYLE
  5
A
100
AcDbSymbolTable
 70
1
100
AcDbDimStyleTable
 71
0
  0
DIMSTYLE
105
23F
100
AcDbSymbolTableRecord
100
AcDbDimStyleTableRecord
  2
STANDARD
 70
0
  3

  4

 40
1.0
 41
0.1
 42
0.0625
 43
0.38
 44
0.125
 45
0.0
 46
0.0
 47
0.001
 48
0.001
140
0.08
141
0.09
142
0.0
143
25.4
144
1.0
145
0.0
146
1.0
147
0.09
 71
1.0
 72
0.0
 73
1
 74
1
 75
0
 76
0
 77
0
 78
4
 79
1
170
1
171
2
172
0
173
0
174
0
175
0
176
0
177
0
178
0
270
2
179
3
271
3
272
3
273
2
274
2
275
0
280
0
281
0
282
0
283
1
284
4
285
0
286
0
287
3
288
0
340
11
278
46
341
23E
342
23E
343
23E
344
23E
  0
ENDTAB
  0
ENDSEC
  0
SECTION
  2
BLOCKS
  0
BLOCK
  5
20
100
AcDbEntity
  8
0
100
AcDbBlockBegin
  2
*Model_Space
 70
0
 10
0.0
 20
0.0
 30
0.0
  3
*Model_Space
  1

  0
ENDBLK
  5
21
100
AcDbEntity
  8
0
100
AcDbBlockEnd
  0
BLOCK
  5
1C
100
AcDbEntity
  8
0
100
AcDbBlockBegin
  2
*Paper_Space
 70
0
 10
0.0
 20
0.0
 30
0.0
  3
*Paper_Space
  1

  0
ENDBLK
  5
1D
100
AcDbEntity
  8
0
100
AcDbBlockEnd
  0
BLOCK
  5
240
100
AcDbEntity
  8
0
100
AcDbBlockBegin
  2
_FILLED
 70
64
 10
0.0
 20
0.0
  3
_FILLED
  1

  0
SOLID
  5
241
100
AcDbEntity
  8
0
  6
BYBLOCK
 62
0
100
AcDbTrace
 10
0.0
 20
0.0
 11
-1.0
 21
0.2
 12
-1.0
 22
-0.2
 13
-1.0
 23
-0.2
  0
ENDBLK
  5
242
100
AcDbEntity
  8
0
  6
BYBLOCK
 62
0
100
AcDbBlockEnd
  0
ENDSEC
  0
SECTION
  2
ENTITIES
  0
MTEXT
  5
243
100
AcDbEntity
  8
0
100
AcDbMText
 62
2
  6
CONTINUOUS
  7
STANDARD
 71
3
 72
1
 10
4.8543478261
 20
3.2158348313
 30
0.0
 11
1.0
 21
0.0
 31
0.0
 73
2
 44
0.9
  1
SCALE  .500
 40
0.08
 41
0.704
  0
LINE
  5
244
100
AcDbEntity
  8
0
100
AcDbLine
 62
7
  6
CONTINUOUS
 10
0.0
 20
0.0
 11
0.0
 21
8.5
  0
LINE
  5
245
100
AcDbEntity
  8
0
100
AcDbLine
 62
7
  6
CONTINUOUS
 10
0.0
 20
0.0
 11
11.0
 21
0.0
  0
LINE
  5
246
100
AcDbEntity
  8
0
100
AcDbLine
 62
7
  6
CONTINUOUS
 10
0.0
 20
8.5
 11
11.0
 21
8.5
  0
LINE
  5
247
100
AcDbEntity
  8
0
100
AcDbLine
 62
7
  6
CONTINUOUS
 10
11.0
 20
0.0
 11
11.0
 21
8.5
  0
LINE
  5
248
100
AcDbEntity
  8
0
100
AcDbLine
 62
7
  6
CONTINUOUS
 10
5.7093478261
 20
3.3121979084
 11
5.5809762687
 21
3.3234289644
  0
LINE
  5
249
100
AcDbEntity
  8
0
100
AcDbLine
 62
7
  6
CONTINUOUS
 10
3.8403478261
 20
4.3228234752
 11
3.8403478261
 21
5.2928234752
  0
LINE
  5
24A
100
AcDbEntity
  8
0
100
AcDbLine
 62
7
  6
CONTINUOUS
 10
3.8553478261
 20
4.3078234752
 11
3.8553478261
 21
5.3078234752
  0
LINE
  5
24B
100
AcDbEntity
  8
0
100
AcDbLine
 62
7
  6
CONTINUOUS
 10
4.0128478261
 20
5.3078234752
 11
4.0128478261
 21
4.3078234752
  0
LINE
  5
24C
100
AcDbEntity
  8
0
100
AcDbLine
 62
7
  6
CONTINUOUS
 10
4.0278478261
 20
5.2928234752
 11
4.0278478261
 21
4.3228234752
  0
LINE
  5
24D
100
AcDbEntity
  8
0
100
AcDbLine
 62
7
  6
CONTINUOUS
 10
4.0478478261
 20
4.9640734752
 11
4.0478478261
 21
4.6515734752
  0
LINE
  5
24E
100
AcDbEntity
  8
ALL_FEATURES
100
AcDbLine
 62
7
  6
CONTINUOUS
 10
4.1598347388
 20
4.6645279042
 11
4.1598347388
 21
4.6873349938
  0
LINE
  5
24F
100
AcDbEntity
  8
ALL_FEATURES
100
AcDbLine
 62
7
  6
CONTINUOUS
 10
4.1800863457
 20
4.6700778084
 11
4.1800863457
 21
4.6817777794
  0
LINE
  5
250
100
AcDbEntity
  8
ALL_FEATURES
100
AcDbLine
 62
7
  6
CONTINUOUS
 10
4.192892826
 20
4.6774100685
 11
4.192892826
 21
4.6803312363
  0
LINE
  5
251
100
AcDbEntity
  8
ALL_FEATURES
100
AcDbLine
 62
7
  6
CONTINUOUS
 10
4.1406093064
 20
4.6820663102
 11
4.1400962192
 21
4.6705221551
  0
LINE
  5
252
100
AcDbEntity
  8
ALL_FEATURES
100
AcDbLine
 62
7
  6
CONTINUOUS
 10
4.1800863457
 20
4.6700778084
 11
4.180599433
 21
4.6816219636
  0
LINE
  5
253
100
AcDbEntity
  8
0
100
AcDbLine
 62
7
  6
CONTINUOUS
 10
4.3103478261
 20
4.3303234752
 11
4.3103478261
 21
5.2853234752
  0
LINE
  5
254
100
AcDbEntity
  8
0
100
AcDbLine
 62
7
  6
CONTINUOUS
 10
4.3253478261
 20
4.3153234752
 11
4.3253478261
 21
5.3003234752
  0
LINE
  5
255
100
AcDbEntity
  8
0
100
AcDbLine
 62
7
  6
CONTINUOUS
 10
3.8553478261
 20
4.3078234752
 11
4.0128478261
 21
4.3078234752
  0
LINE
  5
256
100
AcDbEntity
  8
ALL_FEATURES
100
AcDbLine
 62
7
  6
CONTINUOUS
 10
5.5718478261
 20
4.3153234752
 11
5.1603478261
 21
4.3153234752
  0
LINE
  5
257
100
AcDbEntity
  8
0
100
AcDbLine
 62
7
  6
CONTINUOUS
 10
5.1603478261
 20
4.3153234752
 11
4.3253478261
 21
4.3153234752
  0
LINE
  5
258
100
AcDbEntity
  8
0
100
AcDbLine
 62
7
  6
CONTINUOUS
 10
3.8553478261
 20
4.3220384359
 11
4.0128478261
 21
4.3220384359
  0
LINE
  5
259
100
AcDbEntity
  8
ALL_FEATURES
100
AcDbLine
 62
7
  6
CONTINUOUS
 10
4.1350364321
 20
4.6671231302
 11
4.1307985238
 21
4.6701197839
  0
LINE
  5
25A
100
AcDbEntity
  8
0
100
AcDbLine
 62
7
  6
CONTINUOUS
 10
4.5703478261
 20
5.2973513362
 11
4.5703478261
 21
5.3998567433
  0
LINE
  5
25B
100
AcDbEntity
  8
ALL_FEATURES
100
AcDbLine
 62
7
  6
CONTINUOUS
 10
4.1856592201
 20
4.6671231302
 11
4.1874376449
 21
4.6683806664
  0
LINE
  5
25C
100
AcDbEntity
  8
ALL_FEATURES
100
AcDbLine
 62
7
  6
CONTINUOUS
 10
4.1400962192
 20
4.6705221551
 11
4.1598347388
 21
4.6645279042
  0
LINE
  5
25D
100
AcDbEntity
  8
ALL_FEATURES
100
AcDbLine
 62
7
  6
CONTINUOUS
 10
4.180599433
 20
4.6816219636
 11
4.1608609133
 21
4.6876162145
  0
LINE
  5
25E
100
AcDbEntity
  8
ALL_FEATURES
100
AcDbLine
 62
7
  6
CONTINUOUS
 10
4.7003478261
 20
5.2973519445
 11
4.7003478261
 21
5.3998567433
  0
LINE
  5
25F
100
AcDbEntity
  8
0
100
AcDbLine
 62
7
  6
CONTINUOUS
 10
3.8553478261
 20
4.6150776192
 11
4.0128478261
 21
4.6150776192
  0
LINE
  5
260
100
AcDbEntity
  8
ALL_FEATURES
100
AcDbLine
 62
7
  6
CONTINUOUS
 10
4.0478478261
 20
4.6515734752
 11
4.3103478261
 21
4.6515734752
  0
LINE
  5
261
100
AcDbEntity
  8
0
100
AcDbLine
 62
7
  6
CONTINUOUS
 10
3.8553478261
 20
4.6742209679
 11
4.0128478261
 21
4.6742209679
  0
LINE
  5
262
100
AcDbEntity
  8
0
100
AcDbLine
 62
7
  6
CONTINUOUS
 10
3.8553478261
 20
4.6895785007
 11
4.0128478261
 21
4.6895785007
  0
LINE
  5
263
100
AcDbEntity
  8
0
100
AcDbLine
 62
7
  6
CONTINUOUS
 10
3.8403478261
 20
4.7045579438
 11
4.0278478261
 21
4.7045579438
  0
LINE
  5
264
100
AcDbEntity
  8
ALL_FEATURES
100
AcDbLine
 62
7
  6
CONTINUOUS
 10
4.1598347388
 20
4.6645279042
 11
4.1800863457
 21
4.6700778084
  0
LINE
  5
265
100
AcDbEntity
  8
ALL_FEATURES
100
AcDbLine
 62
7
  6
CONTINUOUS
 10
4.1608609133
 20
4.6876162145
 11
4.1406093064
 21
4.6820663102
  0
LINE
  5
266
100
AcDbEntity
  8
0
100
AcDbLine
 62
7
  6
CONTINUOUS
 10
3.8403478261
 20
4.9110890067
 11
4.0278478261
 21
4.9110890067
  0
LINE
  5
267
100
AcDbEntity
  8
0
100
AcDbLine
 62
7
  6
CONTINUOUS
 10
3.8553478261
 20
4.9260684498
 11
4.0128478261
 21
4.9260684498
  0
LINE
  5
268
100
AcDbEntity
  8
0
100
AcDbLine
 62
7
  6
CONTINUOUS
 10
3.8553478261
 20
4.9414259826
 11
4.0128478261
 21
4.9414259826
  0
LINE
  5
269
100
AcDbEntity
  8
ALL_FEATURES
100
AcDbLine
 62
7
  6
CONTINUOUS
 10
4.0478478261
 20
4.9640734752
 11
4.3103478261
 21
4.9640734752
  0
LINE
  5
26A
100
AcDbEntity
  8
0
100
AcDbLine
 62
7
  6
CONTINUOUS
 10
3.8553478261
 20
5.0005693313
 11
4.0128478261
 21
5.0005693313
  0
LINE
  5
26B
100
AcDbEntity
  8
02___PRT_ALL_AXES
100
AcDbLine
 62
7
  6
CONTINUOUS
 10
5.1603478261
 20
5.3003234752
 11
5.1603478261
 21
4.3153234752
  0
LINE
  5
26C
100
AcDbEntity
  8
ALL_FEATURES
100
AcDbLine
 62
7
  6
CONTINUOUS
 10
5.1603478261
 20
4.3153234752
 11
5.1603478261
 21
5.3003234752
  0
LINE
  5
26D
100
AcDbEntity
  8
0
100
AcDbLine
 62
7
  6
CONTINUOUS
 10
3.8553478261
 20
5.2936085146
 11
4.0128478261
 21
5.2936085146
  0
LINE
  5
26E
100
AcDbEntity
  8
ALL_FEATURES
100
AcDbLine
 62
7
  6
CONTINUOUS
 10
5.5718478261
 20
5.3003234752
 11
5.1603478261
 21
5.3003234752
  0
LINE
  5
26F
100
AcDbEntity
  8
0
100
AcDbLine
 62
7
  6
CONTINUOUS
 10
5.1603478261
 20
5.3003234752
 11
4.7228478261
 21
5.3003234752
  0
LINE
  5
270
100
AcDbEntity
  8
0
100
AcDbLine
 62
7
  6
CONTINUOUS
 10
4.5478478261
 20
5.3003234752
 11
4.3253478261
 21
5.3003234752
  0
LINE
  5
271
100
AcDbEntity
  8
0
100
AcDbLine
 62
7
  6
CONTINUOUS
 10
3.8553478261
 20
5.3078234752
 11
4.0128478261
 21
5.3078234752
  0
LINE
  5
272
100
AcDbEntity
  8
ALL_FEATURES
100
AcDbLine
 62
7
  6
CONTINUOUS
 10
4.5703478261
 20
5.3998567433
 11
4.7003478261
 21
5.3998567433
  0
LINE
  5
273
100
AcDbEntity
  8
ALL_FEATURES
100
AcDbLine
 62
7
  6
CONTINUOUS
 10
4.6798932806
 20
5.4282976346
 11
4.5908023715
 21
5.4282976346
  0
LINE
  5
274
100
AcDbEntity
  8
0
100
AcDbLine
 62
7
  6
CONTINUOUS
 10
5.5718478261
 20
3.3333909978
 11
5.5718478261
 21
6.2822559527
  0
LINE
  5
275
100
AcDbEntity
  8
0
100
AcDbLine
 62
7
  6
CONTINUOUS
 10
5.5809762687
 20
3.3234289644
 11
5.5809762687
 21
6.2922179861
  0
LINE
  5
276
100
AcDbEntity
  8
0
100
AcDbLine
 62
7
  6
CONTINUOUS
 10
5.7093478261
 20
3.3121979084
 11
5.7093478261
 21
3.31521809
  0
LINE
  5
277
100
AcDbEntity
  8
0
100
AcDbLine
 62
7
  6
CONTINUOUS
 10
5.7593478261
 20
3.3108348313
 11
5.7593478261
 21
6.3078233873
  0
LINE
  5
278
100
AcDbEntity
  8
0
100
AcDbLine
 62
7
  6
CONTINUOUS
 10
5.7593478261
 20
6.3078234752
 11
5.5809762687
 21
6.2922179861
  0
ARC
  5
279
100
AcDbEntity
  8
ALL_FEATURES
100
AcDbCircle
 62
7
  6
CONTINUOUS
 10
4.1646384246
 20
4.6244982942
 40
0.0789889591
100
AcDbArc
 50
86.9339262244
 51
93.1137804734
  0
ARC
  5
27A
100
AcDbEntity
  8
0
100
AcDbCircle
 62
7
  6
CONTINUOUS
 10
4.1789061283
 20
4.7426094324
 40
0.0756107072
100
AcDbArc
 50
275.3545528115
 51
275.4780925723
  0
ARC
  5
27B
100
AcDbEntity
  8
ALL_FEATURES
100
AcDbCircle
 62
7
  6
CONTINUOUS
 10
4.1646340143
 20
4.6391880787
 40
0.0643253081
100
AcDbArc
 50
86.2741350373
 51
93.8206083254
  0
ARC
  5
27C
100
AcDbEntity
  8
0
100
AcDbCircle
 62
7
  6
CONTINUOUS
 10
4.1595275435
 20
4.6509384576
 40
0.057200079
100
AcDbArc
 50
61.7879227671
 51
64.0663377809
  0
ARC
  5
27D
100
AcDbEntity
  8
0
100
AcDbCircle
 62
7
  6
CONTINUOUS
 10
4.1595361327
 20
4.6509516224
 40
0.0571844178
100
AcDbArc
 50
58.2990665239
 51
61.7892707352
  0
ARC
  5
27E
100
AcDbEntity
  8
0
100
AcDbCircle
 62
7
  6
CONTINUOUS
 10
4.1609878253
 20
4.6512597716
 40
0.0568322744
100
AcDbArc
 50
115.9088663821
 51
125.197395114
  0
ARC
  5
27F
100
AcDbEntity
  8
0
100
AcDbCircle
 62
7
  6
CONTINUOUS
 10
4.1599073716
 20
4.65155461
 40
0.0564763137
100
AcDbArc
 50
54.7662311672
 51
58.2980415899
  0
ARC
  5
280
100
AcDbEntity
  8
0
100
AcDbCircle
 62
7
  6
CONTINUOUS
 10
4.1603348339
 20
4.6522107196
 40
0.055678808
100
AcDbArc
 50
125.2123327865
 51
125.8548159207
  0
ARC
  5
281
100
AcDbEntity
  8
ALL_FEATURES
100
AcDbCircle
 62
7
  6
CONTINUOUS
 10
4.1685376112
 20
4.6474853803
 40
0.0556179742
100
AcDbArc
 50
73.3707865914
 51
75.0472466894
  0
ARC
  5
282
100
AcDbEntity
  8
0
100
AcDbCircle
 62
7
  6
CONTINUOUS
 10
4.1597681115
 20
4.652979243
 40
0.0547239694
100
AcDbArc
 50
125.8452035588
 51
128.8106141425
  0
ARC
  5
283
100
AcDbEntity
  8
0
100
AcDbCircle
 62
7
  6
CONTINUOUS
 10
4.1611713466
 20
4.6533242351
 40
0.0543016716
100
AcDbArc
 50
47.5665956973
 51
54.778365242
  0
ARC
  5
284
100
AcDbEntity
  8
0
100
AcDbCircle
 62
7
  6
CONTINUOUS
 10
4.1588615819
 20
4.654101951
 40
0.053280965
100
AcDbArc
 50
128.8076757782
 51
130.8912896815
  0
ARC
  5
285
100
AcDbEntity
  8
ALL_FEATURES
100
AcDbCircle
 62
7
  6
CONTINUOUS
 10
4.1692308125
 20
4.6498073923
 40
0.053194698
100
AcDbArc
 50
72.4525925786
 51
73.370466774
  0
ARC
  5
286
100
AcDbEntity
  8
ALL_FEATURES
100
AcDbCircle
 62
7
  6
CONTINUOUS
 10
4.1697448058
 20
4.6514272041
 40
0.0514952933
100
AcDbArc
 50
71.6299644049
 51
72.4544965113
  0
ARC
  5
287
100
AcDbEntity
  8
0
100
AcDbCircle
 62
7
  6
CONTINUOUS
 10
4.1580126435
 20
4.6587590565
 40
0.050797057
100
AcDbArc
 50
49.5163826994
 51
50.5137534031
  0
ARC
  5
288
100
AcDbEntity
  8
0
100
AcDbCircle
 62
7
  6
CONTINUOUS
 10
4.1569082962
 20
4.6562937236
 40
0.0503454339
100
AcDbArc
 50
130.8437178852
 51
135.7079452073
  0
ARC
  5
289
100
AcDbEntity
  8
0
100
AcDbCircle
 62
7
  6
CONTINUOUS
 10
4.1583430985
 20
4.6591467808
 40
0.0502876158
100
AcDbArc
 50
48.3066363643
 51
49.515948383
  0
ARC
  5
28A
100
AcDbEntity
  8
0
100
AcDbCircle
 62
7
  6
CONTINUOUS
 10
4.1640249329
 20
4.6565312599
 40
0.0500093132
100
AcDbArc
 50
43.748137473
 51
47.5004188112
  0
ARC
  5
28B
100
AcDbEntity
  8
0
100
AcDbCircle
 62
7
  6
CONTINUOUS
 10
4.1553639676
 20
4.6578216141
 40
0.0481730716
100
AcDbArc
 50
135.7260458568
 51
136.2344397354
  0
ARC
  5
28C
100
AcDbEntity
  8
0
100
AcDbCircle
 62
7
  6
CONTINUOUS
 10
4.1548216712
 20
4.6583393863
 40
0.0474232903
100
AcDbArc
 50
136.2330035539
 51
137.0753098268
  0
ARC
  5
28D
100
AcDbEntity
  8
ALL_FEATURES
100
AcDbCircle
 62
7
  6
CONTINUOUS
 10
4.1712972598
 20
4.6559314117
 40
0.0467313867
100
AcDbArc
 50
67.9181492878
 51
71.6959623992
  0
ARC
  5
28E
100
AcDbEntity
  8
0
100
AcDbCircle
 62
7
  6
CONTINUOUS
 10
4.1751743597
 20
4.7068833505
 40
0.0386882471
100
AcDbArc
 50
293.7966983773
 51
295.7947348816
  0
ARC
  5
28F
100
AcDbEntity
  8
0
100
AcDbCircle
 62
7
  6
CONTINUOUS
 10
4.1764406748
 20
4.7042738602
 40
0.035787735
100
AcDbArc
 50
295.7873342959
 51
297.4385996638
  0
ARC
  5
290
100
AcDbEntity
  8
0
100
AcDbCircle
 62
7
  6
CONTINUOUS
 10
4.16447105
 20
4.6780962113
 40
0.0306096217
100
AcDbArc
 50
54.9897179188
 51
58.2397806476
  0
ARC
  5
291
100
AcDbEntity
  8
0
100
AcDbCircle
 62
7
  6
CONTINUOUS
 10
4.1515874398
 20
4.6785673412
 40
0.0275851719
100
AcDbArc
 50
143.4847573528
 51
144.9970254834
  0
ARC
  5
292
100
AcDbEntity
  8
ALL_FEATURES
100
AcDbCircle
 62
7
  6
CONTINUOUS
 10
4.1826178617
 20
4.6659248655
 40
0.0270684886
100
AcDbArc
 50
65.919492615
 51
68.484879852
  0
ARC
  5
293
100
AcDbEntity
  8
0
100
AcDbCircle
 62
7
  6
CONTINUOUS
 10
4.0478478261
 20
4.6315734752
 40
0.02
100
AcDbArc
 50
90.0
 51
180.0
  0
ARC
  5
294
100
AcDbEntity
  8
ALL_FEATURES
100
AcDbCircle
 62
7
  6
CONTINUOUS
 10
4.1864631428
 20
4.6734596251
 40
0.0186021847
100
AcDbArc
 50
56.936071873
 51
60.2322408747
  0
ARC
  5
295
100
AcDbEntity
  8
ALL_FEATURES
100
AcDbCircle
 62
7
  6
CONTINUOUS
 10
4.1877829749
 20
4.6754651183
 40
0.0162013941
100
AcDbArc
 50
53.3625963462
 51
56.9783529729
  0
ARC
  5
296
100
AcDbEntity
  8
0
100
AcDbCircle
 62
7
  6
CONTINUOUS
 10
3.8553478261
 20
4.3228234752
 40
0.015
100
AcDbArc
 50
180.0
 51
270.0
  0
ARC
  5
297
100
AcDbEntity
  8
0
100
AcDbCircle
 62
7
  6
CONTINUOUS
 10
4.0128478261
 20
4.3228234752
 40
0.015
100
AcDbArc
 50
270.0
 51
360.0
  0
ARC
  5
298
100
AcDbEntity
  8
0
100
AcDbCircle
 62
7
  6
CONTINUOUS
 10
4.3253478261
 20
4.3303234752
 40
0.015
100
AcDbArc
 50
180.0
 51
270.0
  0
ARC
  5
299
100
AcDbEntity
  8
ALL_FEATURES
100
AcDbCircle
 62
7
  6
CONTINUOUS
 10
4.6353478261
 20
5.2955734752
 40
0.14
100
AcDbArc
 50
71.446995465
 51
108.553004535
  0
ARC
  5
29A
100
AcDbEntity
  8
ALL_FEATURES
100
AcDbCircle
 62
7
  6
CONTINUOUS
 10
4.6003478261
 20
5.3998567433
 40
0.03
100
AcDbArc
 50
108.553004535
 51
180.0
  0
ARC
  5
29B
100
AcDbEntity
  8
ALL_FEATURES
100
AcDbCircle
 62
7
  6
CONTINUOUS
 10
4.6703478261
 20
5.3998567433
 40
0.03
100
AcDbArc
 50
0.0
 51
71.446995465
  0
ARC
  5
29C
100
AcDbEntity
  8
0
100
AcDbCircle
 62
7
  6
CONTINUOUS
 10
4.0478478261
 20
4.9840734752
 40
0.02
100
AcDbArc
 50
180.0
 51
270.0
  0
ARC
  5
29D
100
AcDbEntity
  8
0
100
AcDbCircle
 62
7
  6
CONTINUOUS
 10
3.8553478261
 20
5.2928234752
 40
0.015
100
AcDbArc
 50
90.0
 51
180.0
  0
ARC
  5
29E
100
AcDbEntity
  8
0
100
AcDbCircle
 62
7
  6
CONTINUOUS
 10
4.0128478261
 20
5.2928234752
 40
0.015
100
AcDbArc
 50
0.0
 51
90.0
  0
ARC
  5
29F
100
AcDbEntity
  8
0
100
AcDbCircle
 62
7
  6
CONTINUOUS
 10
4.3253478261
 20
5.2853234752
 40
0.015
100
AcDbArc
 50
90.0
 51
180.0
  0
ARC
  5
2A0
100
AcDbEntity
  8
0
100
AcDbCircle
 62
7
  6
CONTINUOUS
 10
5.5818478261
 20
3.3333909114
 40
0.01
100
AcDbArc
 50
180.0
 51
265.0
  0
ARC
  5
2A1
100
AcDbEntity
  8
0
100
AcDbCircle
 62
7
  6
CONTINUOUS
 10
5.5818478261
 20
6.2822560391
 40
0.01
100
AcDbArc
 50
95.0
 51
180.0
  0
SPLINE
  5
2A2
100
AcDbEntity
  8
ALL_FEATURES
100
AcDbSpline
 62
7
  6
CONTINUOUS
 70
0
 71
3
 72
15
 73
11
 74
0
 42
0.0000001
 43
0.0000001
 44
0.0000000001
 40
0.0
 40
0.0
 40
0.0
 40
0.0
 40
0.1029942417
 40
0.2110865087
 40
0.3251240819
 40
0.4457344926
 40
0.5733396349
 40
0.7081988379
 40
0.850421838
 40
1.0
 40
1.0
 40
1.0
 40
1.0
 10
4.2006169865
 20
4.6811126827
 30
0.0
 10
4.2004485076
 20
4.6807194965
 30
0.0
 10
4.200050658
 20
4.6799353793
 30
0.0
 10
4.1993029815
 20
4.6788078742
 30
0.0
 10
4.1983951894
 20
4.6777083255
 30
0.0
 10
4.1973314238
 20
4.6766415949
 30
0.0
 10
4.1961161442
 20
4.6756121562
 30
0.0
 10
4.1947542866
 20
4.6746246465
 30
0.0
 10
4.1932515357
 20
4.6736833565
 30
0.0
 10
4.1921861596
 20
4.6731039519
 30
0.0
 10
4.1916325188
 20
4.6728221401
 30
0.0
  0
LINE
  5
2A3
100
AcDbEntity
  8
ALL_FEATURES
100
AcDbLine
 62
7
  6
CONTINUOUS
 10
4.1284540217
 20
4.6719824055
 11
4.1307985578
 21
4.6701197972
  0
SPLINE
  5
2A4
100
AcDbEntity
  8
ALL_FEATURES
100
AcDbSpline
 62
7
  6
CONTINUOUS
 70
0
 71
3
 72
11
 73
7
 74
0
 42
0.0000001
 43
0.0000001
 44
0.0000000001
 40
0.0
 40
0.0
 40
0.0
 40
0.0
 40
0.2569734901
 40
0.5080953613
 40
0.7551058452
 40
1.0
 40
1.0
 40
1.0
 40
1.0
 10
4.1921511407
 20
4.6739558609
 30
0.0
 10
4.1922725303
 20
4.6742352732
 30
0.0
 10
4.1924869608
 20
4.674799339
 30
0.0
 10
4.1927208203
 20
4.6756649854
 30
0.0
 10
4.1928614915
 20
4.6765361241
 30
0.0
 10
4.192892825
 20
4.6771197467
 30
0.0
 10
4.1928928268
 20
4.6774100685
 30
0.0
  0
SPLINE
  5
2A5
100
AcDbEntity
  8
ALL_FEATURES
100
AcDbSpline
 62
7
  6
CONTINUOUS
 70
0
 71
3
 72
11
 73
7
 74
0
 42
0.0000001
 43
0.0000001
 44
0.0000000001
 40
0.0
 40
0.0
 40
0.0
 40
0.0
 40
0.2388514125
 40
0.4861353295
 40
0.7403790935
 40
1.0
 40
1.0
 40
1.0
 40
1.0
 10
4.1828882969
 20
4.70122007
 30
0.0
 10
4.1817950827
 20
4.7015122764
 30
0.0
 10
4.179552163
 20
4.7020416968
 30
0.0
 10
4.1760983956
 20
4.7026628171
 30
0.0
 10
4.1725198561
 20
4.7031191436
 30
0.0
 10
4.1700915596
 20
4.7033080033
 30
0.0
 10
4.1688633502
 20
4.7033741819
 30
0.0
  0
SPLINE
  5
2A6
100
AcDbEntity
  8
ALL_FEATURES
100
AcDbSpline
 62
7
  6
CONTINUOUS
 70
0
 71
3
 72
22
 73
18
 74
0
 42
0.0000001
 43
0.0000001
 44
0.0000000001
 40
0.0
 40
0.0
 40
0.0
 40
0.0
 40
0.1429107992
 40
0.2137183125
 40
0.2837874886
 40
0.3528996593
 40
0.420843359
 40
0.4874164003
 40
0.5524297876
 40
0.6157078035
 40
0.6770941867
 40
0.7364511568
 40
0.7936678569
 40
0.8486592894
 40
0.9013777767
 40
0.95181207
 40
1.0
 40
1.0
 40
1.0
 40
1.0
 10
4.1603478254
 20
4.7033706367
 30
0.0
 10
4.1586278188
 20
4.7032771651
 30
0.0
 10
4.1560590177
 20
4.7030534245
 30
0.0
 10
4.1526703404
 20
4.7025840219
 30
0.0
 10
4.1501761946
 20
4.702150059
 30
0.0
 10
4.147732955
 20
4.7016343334
 30
0.0
 10
4.1453513357
 20
4.7010386367
 30
0.0
 10
4.143042015
 20
4.7003647897
 30
0.0
 10
4.1408153011
 20
4.6996153638
 30
0.0
 10
4.1386813383
 20
4.6987928363
 30
0.0
 10
4.1366497766
 20
4.6979004921
 30
0.0
 10
4.1347300691
 20
4.696941439
 30
0.0
 10
4.1329310172
 20
4.6959196193
 30
0.0
 10
4.1312612151
 20
4.6948387375
 30
0.0
 10
4.1297284112
 20
4.6937032415
 30
0.0
 10
4.1283402523
 20
4.6925174915
 30
0.0
 10
4.1274966994
 20
4.6916777898
 30
0.0
 10
4.1271030341
 20
4.6912507268
 30
0.0
  0
SPLINE
  5
2A7
100
AcDbEntity
  8
ALL_FEATURES
100
AcDbSpline
 62
7
  6
CONTINUOUS
 70
0
 71
3
 72
24
 73
20
 74
0
 42
0.0000001
 43
0.0000001
 44
0.0000000001
 40
0.0
 40
0.0
 40
0.0
 40
0.0
 40
0.0685036289
 40
0.1017306462
 40
0.1343064281
 40
0.1976208739
 40
0.2587800018
 40
0.3181752051
 40
0.3762654069
 40
0.4335673888
 40
0.4906359239
 40
0.5480416975
 40
0.6063457472
 40
0.66607035
 40
0.7276819646
 40
0.7915879653
 40
0.8581290266
 40
0.9275566229
 40
1.0
 40
1.0
 40
1.0
 40
1.0
 10
4.1271030341
 20
4.6912507268
 30
0.0
 10
4.1267631068
 20
4.6908819608
 30
0.0
 10
4.1262783287
 20
4.6903151589
 30
0.0
 10
4.1256870877
 20
4.6895291701
 30
0.0
 10
4.1251517583
 20
4.6887497475
 30
0.0
 10
4.12456463
 20
4.6877590558
 30
0.0
 10
4.1239930734
 20
4.6865377849
 30
0.0
 10
4.1235639227
 20
4.6852996123
 30
0.0
 10
4.1232799523
 20
4.684049071
 30
0.0
 10
4.1231426261
 20
4.6827910607
 30
0.0
 10
4.1231534809
 20
4.6815305813
 30
0.0
 10
4.1233125142
 20
4.6802727736
 30
0.0
 10
4.1236195902
 20
4.6790227896
 30
0.0
 10
4.1240732639
 20
4.6777856009
 30
0.0
 10
4.1246717306
 20
4.6765659814
 30
0.0
 10
4.1254127173
 20
4.6753684985
 30
0.0
 10
4.1262933309
 20
4.6741974495
 30
0.0
 10
4.1273100063
 20
4.6730575565
 30
0.0
 10
4.128059339
 20
4.6723367065
 30
0.0
 10
4.1284540217
 20
4.6719824055
 30
0.0
  0
SPLINE
  5
2A8
100
AcDbEntity
  8
ALL_FEATURES
100
AcDbSpline
 62
7
  6
CONTINUOUS
 70
0
 71
3
 72
36
 73
32
 74
0
 42
0.0000001
 43
0.0000001
 44
0.0000000001
 40
0.0
 40
0.0
 40
0.0
 40
0.0
 40
0.0251937035
 40
0.0514206524
 40
0.0786619007
 40
0.1068854396
 40
0.136048873
 40
0.1661028609
 40
0.1969878803
 40
0.2286391064
 40
0.2609858897
 40
0.2939511469
 40
0.3274550437
 40
0.3614130584
 40
0.4303316274
 40
0.4999923618
 40
0.5348733109
 40
0.5696611099
 40
0.6042629776
 40
0.6385878996
 40
0.7060411841
 40
0.7390070176
 40
0.7713534534
 40
0.8030048404
 40
0.8338906233
 40
0.8639446529
 40
0.8931089871
 40
0.9213313678
 40
0.9485705551
 40
0.9747996774
 40
1.0
 40
1.0
 40
1.0
 40
1.0
 10
4.1856592139
 20
4.6671231323
 30
0.0
 10
4.1852955329
 20
4.6668659845
 30
0.0
 10
4.1845371368
 20
4.6663636423
 30
0.0
 10
4.1833368938
 20
4.6656599974
 30
0.0
 10
4.1820549633
 20
4.6649934891
 30
0.0
 10
4.18069598
 20
4.6643664077
 30
0.0
 10
4.1792647506
 20
4.6637808783
 30
0.0
 10
4.1777662822
 20
4.6632391585
 30
0.0
 10
4.1762059487
 20
4.6627429632
 30
0.0
 10
4.1745892494
 20
4.6622941547
 30
0.0
 10
4.1729219163
 20
4.6618943678
 30
0.0
 10
4.1712099018
 20
4.6615448666
 30
0.0
 10
4.1694592378
 20
4.6612470804
 30
0.0
 10
4.1670702461
 20
4.6609186513
 30
0.0
 10
4.1640301542
 20
4.6606449658
 30
0.0
 10
4.1609629138
 20
4.6605537002
 30
0.0
 10
4.1584996244
 20
4.660590456
 30
0.0
 10
4.1566577517
 20
4.6606729865
 30
0.0
 10
4.154828992
 20
4.6608103446
 30
0.0
 10
4.1524310201
 20
4.66106425
 30
0.0
 10
4.1500743081
 20
4.6614248256
 30
0.0
 10
4.1477741587
 20
4.6618942276
 30
0.0
 10
4.146106811
 20
4.6622940611
 30
0.0
 10
4.1444901072
 20
4.6627428672
 30
0.0
 10
4.1429297239
 20
4.663238972
 30
0.0
 10
4.1414312674
 20
4.6637808127
 30
0.0
 10
4.1400000096
 20
4.6643662567
 30
0.0
 10
4.1386410409
 20
4.6649932779
 30
0.0
 10
4.1373591452
 20
4.6656598085
 30
0.0
 10
4.1361587323
 20
4.6663634011
 30
0.0
 10
4.1354002566
 20
4.6668659096
 30
0.0
 10
4.1350365007
 20
4.6671231544
 30
0.0
  0
SPLINE
  5
2A9
100
AcDbEntity
  8
ALL_FEATURES
100
AcDbSpline
 62
7
  6
CONTINUOUS
 70
0
 71
3
 72
15
 73
11
 74
0
 42
0.0000001
 43
0.0000001
 44
0.0000000001
 40
0.0
 40
0.0
 40
0.0
 40
0.0
 40
0.143870072
 40
0.2818686013
 40
0.4141174229
 40
0.5408380525
 40
0.6623448286
 40
0.7790400645
 40
0.8914021052
 40
1.0
 40
1.0
 40
1.0
 40
1.0
 10
4.1874376231
 20
4.6683806734
 30
0.0
 10
4.1877277451
 20
4.6685858354
 30
0.0
 10
4.1882858181
 20
4.6690027066
 30
0.0
 10
4.1890690482
 20
4.6696614031
 30
0.0
 10
4.1897787634
 20
4.6703388703
 30
0.0
 10
4.1904130198
 20
4.6710333306
 30
0.0
 10
4.190970076
 20
4.6717430205
 30
0.0
 10
4.1914480712
 20
4.6724662163
 30
0.0
 10
4.1918455356
 20
4.6732005925
 30
0.0
 10
4.1920591614
 20
4.6737039073
 30
0.0
 10
4.1921511407
 20
4.6739558609
 30
0.0
  0
SPLINE
  5
2AA
100
AcDbEntity
  8
ALL_FEATURES
100
AcDbSpline
 62
7
  6
CONTINUOUS
 70
0
 71
3
 72
24
 73
20
 74
0
 42
0.0000001
 43
0.0000001
 44
0.0000000001
 40
0.0
 40
0.0
 40
0.0
 40
0.0
 40
0.072423858
 40
0.141790633
 40
0.2082469478
 40
0.2720319937
 40
0.3334957583
 40
0.3930565947
 40
0.4511958668
 40
0.5084440409
 40
0.5653694518
 40
0.6225578224
 40
0.6805827949
 40
0.7399841842
 40
0.8012433213
 40
0.8647793722
 40
0.8975200808
 40
0.9309522684
 40
1.0
 40
1.0
 40
1.0
 40
1.0
 10
4.1875323555
 20
4.6835219144
 30
0.0
 10
4.187817101
 20
4.6832621552
 30
0.0
 10
4.1883575502
 20
4.6827344464
 30
0.0
 10
4.1890906712
 20
4.6819018575
 30
0.0
 10
4.1897255103
 20
4.6810484887
 30
0.0
 10
4.190259246
 20
4.6801772783
 30
0.0
 10
4.1906901094
 20
4.679291303
 30
0.0
 10
4.1910162295
 20
4.6783933753
 30
0.0
 10
4.1912363158
 20
4.6774866906
 30
0.0
 10
4.1913494683
 20
4.6765745865
 30
0.0
 10
4.191354747
 20
4.675660528
 30
0.0
 10
4.1912524499
 20
4.6747480762
 30
0.0
 10
4.1910429867
 20
4.6738406773
 30
0.0
 10
4.190727198
 20
4.6729417438
 30
0.0
 10
4.1903067855
 20
4.672054383
 30
0.0
 10
4.189874767
 20
4.6713343352
 30
0.0
 10
4.1894805687
 20
4.6707674481
 30
0.0
 10
4.1890444046
 20
4.6701948485
 30
0.0
 10
4.1886867713
 20
4.6697820821
 30
0.0
 10
4.1884359541
 20
4.6695135337
 30
0.0
  0
LINE
  5
2AB
100
AcDbEntity
  8
ALL_FEATURES
100
AcDbLine
 62
7
  6
CONTINUOUS
 10
4.1884359541
 20
4.6695135337
 11
4.187364929
 21
4.6684715146
  0
LINE
  5
2AC
100
AcDbEntity
  8
ALL_FEATURES
100
AcDbLine
 62
7
  6
CONTINUOUS
 10
4.187364929
 20
4.6684715146
 11
4.1856592139
 21
4.6671231323
  0
LINE
  5
2AD
100
AcDbEntity
  8
ALL_FEATURES
100
AcDbLine
 62
7
  6
CONTINUOUS
 10
4.1996562608
 20
4.6863847487
 11
4.197451138
 21
4.6884655718
  0
LINE
  5
2AE
100
AcDbEntity
  8
ALL_FEATURES
100
AcDbLine
 62
7
  6
CONTINUOUS
 10
4.1956988593
 20
4.6896071579
 11
4.1936623432
 21
4.6906376659
  0
SPLINE
  5
2AF
100
AcDbEntity
  8
ALL_FEATURES
100
AcDbSpline
 62
7
  6
CONTINUOUS
 70
0
 71
3
 72
19
 73
15
 74
0
 42
0.0000001
 43
0.0000001
 44
0.0000000001
 40
0.0
 40
0.0
 40
0.0
 40
0.0
 40
0.0498022229
 40
0.1016576296
 40
0.1555274865
 40
0.211352871
 40
0.3285823812
 40
0.4527083193
 40
0.5171193381
 40
0.5829349752
 40
0.7182717069
 40
0.8577049382
 40
0.9285920046
 40
1.0
 40
1.0
 40
1.0
 40
1.0
 10
4.1925451418
 20
4.691107244
 30
0.0
 10
4.1921495368
 20
4.6912634859
 30
0.0
 10
4.1913349087
 20
4.6915646601
 30
0.0
 10
4.1900711264
 20
4.6919746305
 30
0.0
 10
4.1887431063
 20
4.692350072
 30
0.0
 10
4.1868599622
 20
4.6928097133
 30
0.0
 10
4.1843641393
 20
4.6932820128
 30
0.0
 10
4.1817709991
 20
4.6936045797
 30
0.0
 10
4.1796052551
 20
4.6937768962
 30
0.0
 10
4.1773397373
 20
4.6938904405
 30
0.0
 10
4.1744293102
 20
4.6939092279
 30
0.0
 10
4.1714792175
 20
4.6937612762
 30
0.0
 10
4.1690831076
 20
4.6935391662
 30
0.0
 10
4.1678765062
 20
4.693392403
 30
0.0
 10
4.1672722335
 20
4.6933099868
 30
0.0
  0
LINE
  5
2B0
100
AcDbEntity
  8
ALL_FEATURES
100
AcDbLine
 62
7
  6
CONTINUOUS
 10
4.1350365007
 20
4.6671231544
 11
4.1331632967
 21
4.6686222043
  0
SPLINE
  5
2B1
100
AcDbEntity
  8
ALL_FEATURES
100
AcDbSpline
 62
7
  6
CONTINUOUS
 70
0
 71
3
 72
19
 73
15
 74
0
 42
0.0000001
 43
0.0000001
 44
0.0000000001
 40
0.0
 40
0.0
 40
0.0
 40
0.0
 40
0.0492596348
 40
0.1005062058
 40
0.1537330595
 40
0.2089275044
 40
0.2660674924
 40
0.3251094646
 40
0.3859875295
 40
0.4486241027
 40
0.5787801976
 40
0.7147422062
 40
0.8555246244
 40
1.0
 40
1.0
 40
1.0
 40
1.0
 10
4.1888871973
 20
4.6852312147
 30
0.0
 10
4.1886030666
 20
4.685490413
 30
0.0
 10
4.1880061838
 20
4.6860007014
 30
0.0
 10
4.18704963
 20
4.6867266977
 30
0.0
 10
4.1860169779
 20
4.6874260504
 30
0.0
 10
4.1849113642
 20
4.6880967082
 30
0.0
 10
4.1837358791
 20
4.6887368346
 30
0.0
 10
4.1824938167
 20
4.6893446468
 30
0.0
 10
4.1811887061
 20
4.6899184993
 30
0.0
 10
4.1793458945
 20
4.6906452785
 30
0.0
 10
4.1769075651
 20
4.6914543289
 30
0.0
 10
4.1738309113
 20
4.6922542659
 30
0.0
 10
4.1706016315
 20
4.6928862763
 30
0.0
 10
4.1683936022
 20
4.6931878979
 30
0.0
 10
4.1672722335
 20
4.6933099868
 30
0.0
  0
SPLINE
  5
2B2
100
AcDbEntity
  8
ALL_FEATURES
100
AcDbSpline
 62
7
  6
CONTINUOUS
 70
0
 71
3
 72
55
 73
51
 74
0
 42
0.0000001
 43
0.0000001
 44
0.0000000001
 40
0.0
 40
0.0
 40
0.0
 40
0.0
 40
0.0129386382
 40
0.0254188694
 40
0.0490617178
 40
0.0603002432
 40
0.0712035601
 40
0.0818246953
 40
0.0922233364
 40
0.1024644594
 40
0.1126173202
 40
0.1227543983
 40
0.1329486955
 40
0.1432714558
 40
0.15379037
 40
0.1645670003
 40
0.1756564818
 40
0.1871071295
 40
0.1989586128
 40
0.2239740634
 40
0.2371950873
 40
0.2509051
 40
0.2651112297
 40
0.2798146704
 40
0.295011406
 40
0.310694319
 40
0.3268522558
 40
0.3434697283
 40
0.3780053888
 40
0.4141325839
 40
0.4516421489
 40
0.4902954874
 40
0.5298335026
 40
0.5699805735
 40
0.6104504948
 40
0.6509518517
 40
0.6911922359
 40
0.7308843261
 40
0.7697494687
 40
0.8075244301
 40
0.8259281514
 40
0.8439706226
 40
0.8788632022
 40
0.8956724468
 40
0.9120281732
 40
0.9279145511
 40
0.9433207628
 40
0.9726539696
 40
0.9865777318
 40
1.0
 40
1.0
 40
1.0
 40
1.0
 10
4.1331632967
 20
4.6686222043
 30
0.0
 10
4.1329240994
 20
4.6688404121
 30
0.0
 10
4.1324662325
 20
4.6692826875
 30
0.0
 10
4.13163764
 20
4.670189226
 30
0.0
 10
4.1309251041
 20
4.6711425017
 30
0.0
 10
4.130351411
 20
4.6721354413
 30
0.0
 10
4.1300005646
 20
4.6728775568
 30
0.0
 10
4.1297230809
 20
4.6736277851
 30
0.0
 10
4.1295196603
 20
4.6743843195
 30
0.0
 10
4.1293907859
 20
4.6751452234
 30
0.0
 10
4.1293370253
 20
4.6759085674
 30
0.0
 10
4.1293586173
 20
4.6766723267
 30
0.0
 10
4.1294552869
 20
4.6774345122
 30
0.0
 10
4.1296268272
 20
4.6781931675
 30
0.0
 10
4.1298728312
 20
4.6789463199
 30
0.0
 10
4.1301923848
 20
4.6796921628
 30
0.0
 10
4.1305846404
 20
4.680428889
 30
0.0
 10
4.1310487209
 20
4.68115469
 30
0.0
 10
4.1317743621
 20
4.6821229406
 30
0.0
 10
4.132630301
 20
4.683044279
 30
0.0
 10
4.1335955285
 20
4.6839155593
 30
0.0
 10
4.1343971529
 20
4.6845622699
 30
0.0
 10
4.1352610866
 20
4.6851883367
 30
0.0
 10
4.1361853043
 20
4.6857923948
 30
0.0
 10
4.1371675174
 20
4.6863730779
 30
0.0
 10
4.1382054383
 20
4.6869289249
 30
0.0
 10
4.1392965973
 20
4.6874585973
 30
0.0
 10
4.1408386536
 20
4.6881370602
 30
0.0
 10
4.1428839849
 20
4.6889083866
 30
0.0
 10
4.1454743167
 20
4.6896997674
 30
0.0
 10
4.1482069778
 20
4.6903607992
 30
0.0
 10
4.1510557592
 20
4.6908853385
 30
0.0
 10
4.153993496
 20
4.6912682808
 30
0.0
 10
4.156992084
 20
4.6915058816
 30
0.0
 10
4.1600228083
 20
4.6915960145
 30
0.0
 10
4.1630566464
 20
4.6915376506
 30
0.0
 10
4.1660645364
 20
4.6913314206
 30
0.0
 10
4.1690177038
 20
4.6909793799
 30
0.0
 10
4.1718877986
 20
4.69048473
 30
0.0
 10
4.174207445
 20
4.6899532877
 30
0.0
 10
4.1759980311
 20
4.6894589843
 30
0.0
 10
4.1777038451
 20
4.6889319946
 30
0.0
 10
4.1793468456
 20
4.6883388137
 30
0.0
 10
4.1809164029
 20
4.6876770462
 30
0.0
 10
4.1820294839
 20
4.687158966
 30
0.0
 10
4.1830904755
 20
4.6866141481
 30
0.0
 10
4.1844106616
 20
4.685866171
 30
0.0
 10
4.1856407532
 20
4.6850602488
 30
0.0
 10
4.1867649209
 20
4.6841946018
 30
0.0
 10
4.1872842173
 20
4.6837482785
 30
0.0
 10
4.1875323555
 20
4.6835219144
 30
0.0
  0
SPLINE
  5
2B3
100
AcDbEntity
  8
ALL_FEATURES
100
AcDbSpline
 62
7
  6
CONTINUOUS
 70
0
 71
3
 72
15
 73
11
 74
0
 42
0.0000001
 43
0.0000001
 44
0.0000000001
 40
0.0
 40
0.0
 40
0.0
 40
0.0
 40
0.112879462
 40
0.2270781044
 40
0.3438426348
 40
0.4642992576
 40
0.5894221827
 40
0.7200297227
 40
0.8567629027
 40
1.0
 40
1.0
 40
1.0
 40
1.0
 10
4.1928928268
 20
4.6774100685
 30
0.0
 10
4.192892829
 20
4.6777504476
 30
0.0
 10
4.1928495812
 20
4.6784359401
 30
0.0
 10
4.1926559304
 20
4.6794570395
 30
0.0
 10
4.1923342983
 20
4.6804693091
 30
0.0
 10
4.1918865418
 20
4.68146837
 30
0.0
 10
4.1913147464
 20
4.6824503407
 30
0.0
 10
4.1906214838
 20
4.6834116004
 30
0.0
 10
4.189809729
 20
4.6843483061
 30
0.0
 10
4.18920629
 20
4.6849401223
 30
0.0
 10
4.1888871973
 20
4.6852312147
 30
0.0
  0
SPLINE
  5
2B4
100
AcDbEntity
  8
ALL_FEATURES
100
AcDbSpline
 62
7
  6
CONTINUOUS
 70
0
 71
3
 72
29
 73
25
 74
0
 42
0.0000001
 43
0.0000001
 44
0.0000000001
 40
0.0
 40
0.0
 40
0.0
 40
0.0
 40
0.0863863783
 40
0.1709042155
 40
0.2530448112
 40
0.3324146047
 40
0.4086458017
 40
0.4813925681
 40
0.5503687709
 40
0.6153489829
 40
0.6462983035
 40
0.6762004015
 40
0.7050515881
 40
0.7328569571
 40
0.7853649764
 40
0.8101383006
 40
0.8339711914
 40
0.8790115307
 40
0.9003972329
 40
0.9211383377
 40
0.9413425989
 40
0.9611318003
 40
0.9806378408
 40
1.0
 40
1.0
 40
1.0
 40
1.0
 10
4.1672722335
 20
4.6933099868
 30
0.0
 10
4.1681622651
 20
4.6932733617
 30
0.0
 10
4.1699217835
 20
4.6931632917
 30
0.0
 10
4.1725171265
 20
4.6928857048
 30
0.0
 10
4.1750255551
 20
4.6925000458
 30
0.0
 10
4.1774287397
 20
4.6920106171
 30
0.0
 10
4.1797098467
 20
4.6914222848
 30
0.0
 10
4.1818527074
 20
4.6907403753
 30
0.0
 10
4.183842034
 20
4.6899712403
 30
0.0
 10
4.1853845279
 20
4.6892516696
 30
0.0
 10
4.186526973
 20
4.6886358893
 30
0.0
 10
4.18732293
 20
4.6881641512
 30
0.0
 10
4.1880705606
 20
4.6876759724
 30
0.0
 10
4.1889836705
 20
4.6870172527
 30
0.0
 10
4.1898156002
 20
4.6863190146
 30
0.0
 10
4.1905523092
 20
4.6855803106
 30
0.0
 10
4.191190478
 20
4.6848550482
 30
0.0
 10
4.1917353093
 20
4.68409563
 30
0.0
 10
4.1921696833
 20
4.6833077712
 30
0.0
 10
4.1924327461
 20
4.6827204531
 30
0.0
 10
4.1926379053
 20
4.6821278535
 30
0.0
 10
4.1927848047
 20
4.6815312258
 30
0.0
 10
4.1928731484
 20
4.6809319602
 30
0.0
 10
4.1928928298
 20
4.6805308919
 30
0.0
 10
4.1928928208
 20
4.6803312364
 30
0.0
  0
SPLINE
  5
2B5
100
AcDbEntity
  8
ALL_FEATURES
100
AcDbSpline
 62
7
  6
CONTINUOUS
 70
0
 71
3
 72
15
 73
11
 74
0
 42
0.0000001
 43
0.0000001
 44
0.0000000001
 40
0.0
 40
0.0
 40
0.0
 40
0.0
 40
0.1059744706
 40
0.2172343234
 40
0.3340496667
 40
0.456517095
 40
0.5845858112
 40
0.7180688752
 40
0.8566726339
 40
1.0
 40
1.0
 40
1.0
 40
1.0
 10
4.1301739057
 20
4.6940215539
 30
0.0
 10
4.1305037055
 20
4.6944878527
 30
0.0
 10
4.1312318982
 20
4.6954076226
 30
0.0
 10
4.1324804649
 20
4.6967078378
 30
0.0
 10
4.13390302
 20
4.6979542852
 30
0.0
 10
4.1354903591
 20
4.6991405025
 30
0.0
 10
4.1372327502
 20
4.7002603004
 30
0.0
 10
4.1391192527
 20
4.7013081409
 30
0.0
 10
4.1411382018
 20
4.7022784038
 30
0.0
 10
4.1425422487
 20
4.7028613813
 30
0.0
 10
4.1432628436
 20
4.7031396348
 30
0.0
  0
SPLINE
  5
2B6
100
AcDbEntity
  8
ALL_FEATURES
100
AcDbSpline
 62
7
  6
CONTINUOUS
 70
0
 71
3
 72
20
 73
16
 74
0
 42
0.0000001
 43
0.0000001
 44
0.0000000001
 40
0.0
 40
0.0
 40
0.0
 40
0.0
 40
0.059315973
 40
0.119853876
 40
0.1814656705
 40
0.2439921198
 40
0.3710917954
 40
0.4997498073
 40
0.6284733057
 40
0.6923922766
 40
0.7557577982
 40
0.8183821468
 40
0.8800825099
 40
0.940678873
 40
1.0
 40
1.0
 40
1.0
 40
1.0
 10
4.1432628436
 20
4.7031396348
 30
0.0
 10
4.1438498584
 20
4.7033663071
 30
0.0
 10
4.1450454563
 20
4.703800132
 30
0.0
 10
4.1468793143
 20
4.7043871339
 30
0.0
 10
4.1487662919
 20
4.7049156623
 30
0.0
 10
4.1513569667
 20
4.705543764
 30
0.0
 10
4.1546775874
 20
4.7061706865
 30
0.0
 10
4.1587285457
 20
4.706668036
 30
0.0
 10
4.162133482
 20
4.7068710793
 30
0.0
 10
4.164849508
 20
4.7069054892
 30
0.0
 10
4.1668641722
 20
4.7068677508
 30
0.0
 10
4.1688530895
 20
4.7067670663
 30
0.0
 10
4.170808458
 20
4.7066045634
 30
0.0
 10
4.1727225283
 20
4.7063812439
 30
0.0
 10
4.173980632
 20
4.7061906271
 30
0.0
 10
4.1746010489
 20
4.7060851836
 30
0.0
  0
SPLINE
  5
2B7
100
AcDbEntity
  8
0
100
AcDbSpline
 62
7
  6
CONTINUOUS
 70
0
 71
3
 72
11
 73
7
 74
0
 42
0.0000001
 43
0.0000001
 44
0.0000000001
 40
0.0
 40
0.0
 40
0.0
 40
0.0
 40
0.2557590731
 40
0.5094011598
 40
0.7580921666
 40
1.0
 40
1.0
 40
1.0
 40
1.0
 10
4.1603478261
 20
4.7080117743
 30
0.0
 10
4.1624827518
 20
4.7080214948
 30
0.0
 10
4.1667401495
 20
4.7077635231
 30
0.0
 10
4.1729806504
 20
4.7066382751
 30
0.0
 10
4.1789454992
 20
4.7048578456
 30
0.0
 10
4.1827268802
 20
4.7032616456
 30
0.0
 10
4.1845428665
 20
4.7023785456
 30
0.0
  0
LINE
  5
2B8
100
AcDbEntity
  8
0
100
AcDbLine
 62
7
  6
CONTINUOUS
 10
4.1820325071
 20
4.7031669944
 11
4.1853138094
 21
4.7004768606
  0
SPLINE
  5
2B9
100
AcDbEntity
  8
0
100
AcDbSpline
 62
7
  6
CONTINUOUS
 70
0
 71
3
 72
11
 73
7
 74
0
 42
0.0000001
 43
0.0000001
 44
0.0000000001
 40
0.0
 40
0.0
 40
0.0
 40
0.0
 40
0.2419174257
 40
0.4906128483
 40
0.7442455029
 40
1.0
 40
1.0
 40
1.0
 40
1.0
 10
4.1361554752
 20
4.702379844
 30
0.0
 10
4.1379713603
 20
4.7032627829
 30
0.0
 10
4.1417524444
 20
4.7048587281
 30
0.0
 10
4.147716727
 20
4.7066385951
 30
0.0
 10
4.1539564326
 20
4.7077634779
 30
0.0
 10
4.1582131936
 20
4.708021419
 30
0.0
 10
4.1603478261
 20
4.7080117743
 30
0.0
  0
LINE
  5
2BA
100
AcDbEntity
  8
0
100
AcDbLine
 62
7
  6
CONTINUOUS
 10
4.1271085921
 20
4.6912486056
 11
4.1289918113
 21
4.6943907188
  0
SPLINE
  5
2BB
100
AcDbEntity
  8
0
100
AcDbSpline
 62
7
  6
CONTINUOUS
 70
0
 71
3
 72
9
 73
5
 74
0
 42
0.0000001
 43
0.0000001
 44
0.0000000001
 40
0.0
 40
0.0
 40
0.0
 40
0.0
 40
0.4720271311
 40
1.0
 40
1.0
 40
1.0
 40
1.0
 10
4.1294172761
 20
4.6949815286
 30
0.0
 10
4.1306717053
 20
4.696676189
 30
0.0
 10
4.1337351373
 20
4.6999748787
 30
0.0
 10
4.1373792385
 20
4.7026108613
 30
0.0
 10
4.1394074384
 20
4.7038142288
 30
0.0
  0
LINE
  5
2BC
100
AcDbEntity
  8
0
100
AcDbLine
 62
7
  6
CONTINUOUS
 10
4.1978982051
 20
4.6900986054
 11
4.1996404554
 21
4.6864344336
  0
SPLINE
  5
2BD
100
AcDbEntity
  8
0
100
AcDbSpline
 62
7
  6
CONTINUOUS
 70
0
 71
3
 72
9
 73
5
 74
0
 42
0.0000001
 43
0.0000001
 44
0.0000000001
 40
0.0
 40
0.0
 40
0.0
 40
0.0
 40
0.2591475591
 40
1.0
 40
1.0
 40
1.0
 40
1.0
 10
4.1996404554
 20
4.6864344336
 30
0.0
 10
4.1997481197
 20
4.6861340465
 30
0.0
 10
4.2001339
 20
4.6849646792
 30
0.0
 10
4.2003962812
 20
4.6837531396
 30
0.0
 10
4.2005048094
 20
4.6828473772
 30
0.0
  0
SPLINE
  5
2BE
100
AcDbEntity
  8
0
100
AcDbSpline
 62
7
  6
CONTINUOUS
 70
0
 71
3
 72
16
 73
12
 74
0
 42
0.0000001
 43
0.0000001
 44
0.0000000001
 40
0.0
 40
0.0
 40
0.0
 40
0.0
 40
0.1172861826
 40
0.2306498996
 40
0.3430026141
 40
0.4576272752
 40
0.5778130592
 40
0.7066728918
 40
0.775228428
 40
0.8468463158
 40
1.0
 40
1.0
 40
1.0
 40
1.0
 10
4.2005048094
 20
4.6828473772
 30
0.0
 10
4.2005955264
 20
4.682090264
 30
0.0
 10
4.2006566171
 20
4.6805836046
 30
0.0
 10
4.2003533601
 20
4.6783623755
 30
0.0
 10
4.1996505003
 20
4.6762505658
 30
0.0
 10
4.198548488
 20
4.6742665965
 30
0.0
 10
4.1970503788
 20
4.6724234005
 30
0.0
 10
4.1955074665
 20
4.6710394515
 30
0.0
 10
4.1940947462
 20
4.6700066138
 30
0.0
 10
4.1924868111
 20
4.6689793239
 30
0.0
 10
4.1911872908
 20
4.6683028152
 30
0.0
 10
4.1902835568
 20
4.6678848185
 30
0.0
  0
SPLINE
  5
2BF
100
AcDbEntity
  8
0
100
AcDbSpline
 62
7
  6
CONTINUOUS
 70
0
 71
3
 72
9
 73
5
 74
0
 42
0.0000001
 43
0.0000001
 44
0.0000000001
 40
0.0
 40
0.0
 40
0.0
 40
0.0
 40
0.5163611622
 40
1.0
 40
1.0
 40
1.0
 40
1.0
 10
4.1917915978
 20
4.6966973093
 30
0.0
 10
4.1929485507
 20
4.6956666709
 30
0.0
 10
4.1950980591
 20
4.6935656396
 30
0.0
 10
4.1970304159
 20
4.6912618173
 30
0.0
 10
4.1978982051
 20
4.6900986054
 30
0.0
  0
SPLINE
  5
2C0
100
AcDbEntity
  8
0
100
AcDbSpline
 62
7
  6
CONTINUOUS
 70
0
 71
3
 72
25
 73
21
 74
0
 42
0.0000001
 43
0.0000001
 44
0.0000000001
 40
0.0
 40
0.0
 40
0.0
 40
0.0
 40
0.0028178664
 40
0.0047880674
 40
0.0072439402
 40
0.0137435832
 40
0.022461572
 40
0.0334379074
 40
0.0466823183
 40
0.0621907224
 40
0.0799345864
 40
0.1219404938
 40
0.1723086066
 40
0.2306212917
 40
0.2963174093
 40
0.3687266796
 40
0.4471726875
 40
0.6192084196
 40
0.8060711184
 40
1.0
 40
1.0
 40
1.0
 40
1.0
 10
3.8403478261
 20
4.9997842919
 30
0.0
 10
3.8403478261
 20
4.9997984539
 30
0.0
 10
3.8403619239
 20
4.9998214674
 30
0.0
 10
3.8403901661
 20
4.999843843
 30
0.0
 10
3.840437716
 20
4.9998719709
 30
0.0
 10
3.8405205945
 20
4.9999046134
 30
0.0
 10
3.8406470054
 20
4.9999416525
 30
0.0
 10
3.8408084804
 20
4.9999784741
 30
0.0
 10
3.8410047875
 20
5.0000151291
 30
0.0
 10
3.841235678
 20
5.0000513105
 30
0.0
 10
3.8416105614
 20
5.0001016742
 30
0.0
 10
3.8421608874
 20
5.0001609584
 30
0.0
 10
3.8429154594
 20
5.0002257585
 30
0.0
 10
3.8437897562
 20
5.0002865824
 30
0.0
 10
3.8447753205
 20
5.0003428664
 30
0.0
 10
3.8458624695
 20
5.0003940408
 30
0.0
 10
3.8474840567
 20
5.0004565232
 30
0.0
 10
3.8496813034
 20
5.00051647
 30
0.0
 10
3.8524593989
 20
5.0005595833
 30
0.0
 10
3.8543731847
 20
5.0005693313
 30
0.0
 10
3.8553478261
 20
5.0005693313
 30
0.0
  0
SPLINE
  5
2C1
100
AcDbEntity
  8
0
100
AcDbSpline
 62
7
  6
CONTINUOUS
 70
0
 71
3
 72
25
 73
21
 74
0
 42
0.0000001
 43
0.0000001
 44
0.0000000001
 40
0.0
 40
0.0
 40
0.0
 40
0.0
 40
0.0028179132
 40
0.004788204
 40
0.0072442075
 40
0.0137442103
 40
0.0224626498
 40
0.0334394821
 40
0.0466843937
 40
0.0621933655
 40
0.0799382074
 40
0.1219466934
 40
0.1723169134
 40
0.2306305179
 40
0.2963288239
 40
0.3687412995
 40
0.4471910727
 40
0.6192326008
 40
0.8060810818
 40
1.0
 40
1.0
 40
1.0
 40
1.0
 10
3.8403478261
 20
5.2928234752
 30
0.0
 10
3.8403478261
 20
5.2928376374
 30
0.0
 10
3.8403619255
 20
5.2928606512
 30
0.0
 10
3.8403901694
 20
5.2928830266
 30
0.0
 10
3.8404377225
 20
5.2929111548
 30
0.0
 10
3.8405206059
 20
5.2929437978
 30
0.0
 10
3.8406470233
 20
5.2929808377
 30
0.0
 10
3.8408085056
 20
5.2930176603
 30
0.0
 10
3.8410048204
 20
5.2930543167
 30
0.0
 10
3.8412357209
 20
5.2930905001
 30
0.0
 10
3.8416106251
 20
5.2931408652
 30
0.0
 10
3.8421609796
 20
5.2932001499
 30
0.0
 10
3.8429155797
 20
5.2932649507
 30
0.0
 10
3.8437899025
 20
5.2933257769
 30
0.0
 10
3.8447754986
 20
5.2933820594
 30
0.0
 10
3.8458626936
 20
5.2934332329
 30
0.0
 10
3.8474843448
 20
5.2934957159
 30
0.0
 10
3.8496815681
 20
5.2935556549
 30
0.0
 10
3.8524595707
 20
5.2935987736
 30
0.0
 10
3.8543732348
 20
5.2936085148
 30
0.0
 10
3.8553478261
 20
5.2936085148
 30
0.0
  0
SPLINE
  5
2C2
100
AcDbEntity
  8
0
100
AcDbSpline
 62
7
  6
CONTINUOUS
 70
0
 71
3
 72
11
 73
7
 74
0
 42
0.0000001
 43
0.0000001
 44
0.0000000001
 40
0.0
 40
0.0
 40
0.0
 40
0.0
 40
0.2230371625
 40
0.4635927292
 40
0.7224891324
 40
1.0
 40
1.0
 40
1.0
 40
1.0
 10
4.2002279322
 20
4.6780954101
 30
0.0
 10
4.1997926443
 20
4.6775634591
 30
0.0
 10
4.1988107655
 20
4.676519574
 30
0.0
 10
4.1971062235
 20
4.6750810691
 30
0.0
 10
4.1951303968
 20
4.6737226032
 30
0.0
 10
4.1936905647
 20
4.6729062126
 30
0.0
 10
4.1929315841
 20
4.6725120611
 30
0.0
  0
SPLINE
  5
2C3
100
AcDbEntity
  8
0
100
AcDbSpline
 62
7
  6
CONTINUOUS
 70
0
 71
3
 72
25
 73
21
 74
0
 42
0.0000001
 43
0.0000001
 44
0.0000000001
 40
0.0
 40
0.0
 40
0.0
 40
0.0
 40
0.002817912
 40
0.0047882004
 40
0.0072442006
 40
0.0137441947
 40
0.022462624
 40
0.0334394463
 40
0.0466843496
 40
0.0621933142
 40
0.079938142
 40
0.121946585
 40
0.1723167584
 40
0.2306303169
 40
0.2963285394
 40
0.3687409264
 40
0.447190642
 40
0.6192321559
 40
0.8060809212
 40
1.0
 40
1.0
 40
1.0
 40
1.0
 10
3.8403478261
 20
4.3228234752
 30
0.0
 10
3.8403478261
 20
4.3228093131
 30
0.0
 10
3.8403619254
 20
4.3227862993
 30
0.0
 10
3.8403901693
 20
4.3227639239
 30
0.0
 10
3.8404377224
 20
4.3227357957
 30
0.0
 10
3.8405206056
 20
4.3227031527
 30
0.0
 10
3.8406470229
 20
4.3226661129
 30
0.0
 10
3.840808505
 20
4.3226292903
 30
0.0
 10
3.8410048197
 20
4.3225926338
 30
0.0
 10
3.8412357201
 20
4.3225564506
 30
0.0
 10
3.8416106239
 20
4.3225060855
 30
0.0
 10
3.8421609779
 20
4.3224468008
 30
0.0
 10
3.8429155773
 20
4.322382
 30
0.0
 10
3.8437898992
 20
4.3223211739
 30
0.0
 10
3.8447754943
 20
4.3222648913
 30
0.0
 10
3.8458626881
 20
4.3222137178
 30
0.0
 10
3.8474843385
 20
4.3221512348
 30
0.0
 10
3.8496815628
 20
4.3220912956
 30
0.0
 10
3.8524595677
 20
4.322048177
 30
0.0
 10
3.854373234
 20
4.3220384359
 30
0.0
 10
3.8553478261
 20
4.3220384359
 30
0.0
  0
SPLINE
  5
2C4
100
AcDbEntity
  8
0
100
AcDbSpline
 62
7
  6
CONTINUOUS
 70
0
 71
3
 72
25
 73
21
 74
0
 42
0.0000001
 43
0.0000001
 44
0.0000000001
 40
0.0
 40
0.0
 40
0.0
 40
0.0
 40
0.0028178664
 40
0.0047880674
 40
0.0072439402
 40
0.0137435832
 40
0.022461572
 40
0.0334379074
 40
0.0466823183
 40
0.0621907224
 40
0.0799345863
 40
0.1219404937
 40
0.1723086065
 40
0.2306212917
 40
0.2963174094
 40
0.3687266797
 40
0.4471726876
 40
0.6192084197
 40
0.8060711184
 40
1.0
 40
1.0
 40
1.0
 40
1.0
 10
3.8403478261
 20
4.6158626586
 30
0.0
 10
3.8403478261
 20
4.6158484966
 30
0.0
 10
3.8403619239
 20
4.6158254831
 30
0.0
 10
3.8403901661
 20
4.6158031075
 30
0.0
 10
3.840437716
 20
4.6157749796
 30
0.0
 10
3.8405205945
 20
4.6157423371
 30
0.0
 10
3.8406470054
 20
4.615705298
 30
0.0
 10
3.8408084804
 20
4.6156684764
 30
0.0
 10
3.8410047875
 20
4.6156318214
 30
0.0
 10
3.841235678
 20
4.61559564
 30
0.0
 10
3.8416105614
 20
4.6155452763
 30
0.0
 10
3.8421608874
 20
4.6154859921
 30
0.0
 10
3.8429154594
 20
4.615421192
 30
0.0
 10
3.8437897562
 20
4.6153603681
 30
0.0
 10
3.8447753205
 20
4.6153040841
 30
0.0
 10
3.8458624695
 20
4.6152529097
 30
0.0
 10
3.8474840567
 20
4.6151904273
 30
0.0
 10
3.8496813034
 20
4.6151304805
 30
0.0
 10
3.8524593989
 20
4.6150873672
 30
0.0
 10
3.8543731847
 20
4.6150776192
 30
0.0
 10
3.8553478261
 20
4.6150776192
 30
0.0
  0
SPLINE
  5
2C5
100
AcDbEntity
  8
0
100
AcDbSpline
 62
7
  6
CONTINUOUS
 70
0
 71
3
 72
17
 73
13
 74
0
 42
0.0000001
 43
0.0000001
 44
0.0000000001
 40
0.0
 40
0.0
 40
0.0
 40
0.0
 40
0.1247771034
 40
0.1873809233
 40
0.2499472501
 40
0.3748433153
 40
0.4997806775
 40
0.6247513818
 40
0.749742631
 40
0.8123753363
 40
0.8750549653
 40
1.0
 40
1.0
 40
1.0
 40
1.0
 10
3.8403478261
 20
4.6892004109
 30
0.0
 10
3.8403478261
 20
4.6882223764
 30
0.0
 10
3.840494624
 20
4.6867485664
 30
0.0
 10
3.8409704075
 20
4.6848457605
 30
0.0
 10
3.8416322788
 20
4.6829977536
 30
0.0
 10
3.8427955251
 20
4.680823551
 30
0.0
 10
3.844674079
 20
4.6785407296
 30
0.0
 10
3.8469600905
 20
4.6766649051
 30
0.0
 10
3.8491369771
 20
4.6755035361
 30
0.0
 10
3.8509873049
 20
4.6748426644
 30
0.0
 10
3.8528927727
 20
4.6743675357
 30
0.0
 10
3.8543684752
 20
4.6742209679
 30
0.0
 10
3.8553478261
 20
4.6742209679
 30
0.0
  0
SPLINE
  5
2C6
100
AcDbEntity
  8
0
100
AcDbSpline
 62
7
  6
CONTINUOUS
 70
0
 71
3
 72
17
 73
13
 74
0
 42
0.0000001
 43
0.0000001
 44
0.0000000001
 40
0.0
 40
0.0
 40
0.0
 40
0.0
 40
0.1247786402
 40
0.1873844454
 40
0.249953102
 40
0.3748524854
 40
0.4997909159
 40
0.6247648032
 40
0.7497583034
 40
0.8123876408
 40
0.8750615863
 40
1.0
 40
1.0
 40
1.0
 40
1.0
 10
4.0278478261
 20
4.9110890067
 30
0.0
 10
4.0278478261
 20
4.9120670535
 30
0.0
 10
4.0277010104
 20
4.9135408902
 30
0.0
 10
4.0272252128
 20
4.9154437395
 30
0.0
 10
4.0265633188
 20
4.9172918029
 30
0.0
 10
4.0254000104
 20
4.9194660342
 30
0.0
 10
4.0235213985
 20
4.9217488831
 30
0.0
 10
4.0212352999
 20
4.9236246964
 30
0.0
 10
4.0190583472
 20
4.9247859623
 30
0.0
 10
4.0172080895
 20
4.9254468651
 30
0.0
 10
4.0153027375
 20
4.9259219684
 30
0.0
 10
4.0138271252
 20
4.9260684498
 30
0.0
 10
4.0128478261
 20
4.9260684498
 30
0.0
  0
SPLINE
  5
2C7
100
AcDbEntity
  8
0
100
AcDbSpline
 62
7
  6
CONTINUOUS
 70
0
 71
3
 72
17
 73
13
 74
0
 42
0.0000001
 43
0.0000001
 44
0.0000000001
 40
0.0
 40
0.0
 40
0.0
 40
0.0
 40
0.1247786402
 40
0.1873844454
 40
0.249953102
 40
0.3748524854
 40
0.4997909159
 40
0.6247648033
 40
0.7497583035
 40
0.8123876408
 40
0.8750615863
 40
1.0
 40
1.0
 40
1.0
 40
1.0
 10
4.0278478261
 20
4.7045579438
 30
0.0
 10
4.0278478261
 20
4.703579897
 30
0.0
 10
4.0277010104
 20
4.7021060603
 30
0.0
 10
4.0272252128
 20
4.700203211
 30
0.0
 10
4.0265633188
 20
4.6983551476
 30
0.0
 10
4.0254000104
 20
4.6961809163
 30
0.0
 10
4.0235213985
 20
4.6938980674
 30
0.0
 10
4.0212352999
 20
4.6920222541
 30
0.0
 10
4.0190583472
 20
4.6908609882
 30
0.0
 10
4.0172080895
 20
4.6902000854
 30
0.0
 10
4.0153027375
 20
4.6897249821
 30
0.0
 10
4.0138271252
 20
4.6895785007
 30
0.0
 10
4.0128478261
 20
4.6895785007
 30
0.0
  0
SPLINE
  5
2C8
100
AcDbEntity
  8
0
100
AcDbSpline
 62
7
  6
CONTINUOUS
 70
0
 71
3
 72
17
 73
13
 74
0
 42
0.0000001
 43
0.0000001
 44
0.0000000001
 40
0.0
 40
0.0
 40
0.0
 40
0.0
 40
0.1247771033
 40
0.1873809233
 40
0.2499472501
 40
0.3748433153
 40
0.4997806775
 40
0.6247513819
 40
0.7497426311
 40
0.8123753364
 40
0.8750549654
 40
1.0
 40
1.0
 40
1.0
 40
1.0
 10
4.0278478261
 20
4.6892004109
 30
0.0
 10
4.0278478261
 20
4.6882223764
 30
0.0
 10
4.0277010282
 20
4.6867485664
 30
0.0
 10
4.0272252446
 20
4.6848457605
 30
0.0
 10
4.0265633734
 20
4.6829977536
 30
0.0
 10
4.0254001271
 20
4.680823551
 30
0.0
 10
4.0235215732
 20
4.6785407296
 30
0.0
 10
4.0212355616
 20
4.6766649051
 30
0.0
 10
4.019058675
 20
4.6755035361
 30
0.0
 10
4.0172083472
 20
4.6748426644
 30
0.0
 10
4.0153028795
 20
4.6743675357
 30
0.0
 10
4.0138271769
 20
4.6742209679
 30
0.0
 10
4.0128478261
 20
4.6742209679
 30
0.0
  0
SPLINE
  5
2C9
100
AcDbEntity
  8
0
100
AcDbSpline
 62
7
  6
CONTINUOUS
 70
0
 71
3
 72
25
 73
21
 74
0
 42
0.0000001
 43
0.0000001
 44
0.0000000001
 40
0.0
 40
0.0
 40
0.0
 40
0.0
 40
0.0028178664
 40
0.0047880674
 40
0.0072439402
 40
0.0137435832
 40
0.022461572
 40
0.0334379074
 40
0.0466823183
 40
0.0621907224
 40
0.0799345864
 40
0.1219404938
 40
0.1723086066
 40
0.2306212917
 40
0.2963174093
 40
0.3687266796
 40
0.4471726875
 40
0.6192084196
 40
0.8060711184
 40
1.0
 40
1.0
 40
1.0
 40
1.0
 10
4.0278478261
 20
4.6158626586
 30
0.0
 10
4.0278478261
 20
4.6158484966
 30
0.0
 10
4.0278337283
 20
4.6158254831
 30
0.0
 10
4.0278054861
 20
4.6158031075
 30
0.0
 10
4.0277579362
 20
4.6157749796
 30
0.0
 10
4.0276750576
 20
4.6157423371
 30
0.0
 10
4.0275486468
 20
4.615705298
 30
0.0
 10
4.0273871717
 20
4.6156684764
 30
0.0
 10
4.0271908646
 20
4.6156318214
 30
0.0
 10
4.0269599742
 20
4.61559564
 30
0.0
 10
4.0265850907
 20
4.6155452763
 30
0.0
 10
4.0260347647
 20
4.6154859921
 30
0.0
 10
4.0252801928
 20
4.615421192
 30
0.0
 10
4.024405896
 20
4.6153603681
 30
0.0
 10
4.0234203316
 20
4.6153040841
 30
0.0
 10
4.0223331827
 20
4.6152529097
 30
0.0
 10
4.0207115955
 20
4.6151904273
 30
0.0
 10
4.0185143488
 20
4.6151304805
 30
0.0
 10
4.0157362533
 20
4.6150873672
 30
0.0
 10
4.0138224675
 20
4.6150776192
 30
0.0
 10
4.0128478261
 20
4.6150776192
 30
0.0
  0
SPLINE
  5
2CA
100
AcDbEntity
  8
0
100
AcDbSpline
 62
7
  6
CONTINUOUS
 70
0
 71
3
 72
25
 73
21
 74
0
 42
0.0000001
 43
0.0000001
 44
0.0000000001
 40
0.0
 40
0.0
 40
0.0
 40
0.0
 40
0.0028179132
 40
0.004788204
 40
0.0072442074
 40
0.0137442102
 40
0.0224626496
 40
0.0334394819
 40
0.0466843936
 40
0.0621933656
 40
0.0799382077
 40
0.1219466941
 40
0.1723169142
 40
0.2306305184
 40
0.2963288238
 40
0.368741299
 40
0.4471910724
 40
0.6192326015
 40
0.8060810824
 40
1.0
 40
1.0
 40
1.0
 40
1.0
 10
4.0278478261
 20
4.3228234752
 30
0.0
 10
4.0278478261
 20
4.3228093131
 30
0.0
 10
4.0278337267
 20
4.3227862993
 30
0.0
 10
4.0278054828
 20
4.3227639239
 30
0.0
 10
4.0277579296
 20
4.3227357957
 30
0.0
 10
4.0276750463
 20
4.3227031527
 30
0.0
 10
4.0275486288
 20
4.3226661128
 30
0.0
 10
4.0273871466
 20
4.3226292902
 30
0.0
 10
4.0271908318
 20
4.3225926338
 30
0.0
 10
4.0269599312
 20
4.3225564504
 30
0.0
 10
4.0265850271
 20
4.3225060853
 30
0.0
 10
4.0260346726
 20
4.3224468006
 30
0.0
 10
4.0252800725
 20
4.3223819998
 30
0.0
 10
4.0244057497
 20
4.3223211736
 30
0.0
 10
4.0234201536
 20
4.3222648911
 30
0.0
 10
4.0223329586
 20
4.3222137176
 30
0.0
 10
4.0207113074
 20
4.3221512346
 30
0.0
 10
4.0185140841
 20
4.3220912955
 30
0.0
 10
4.0157360814
 20
4.322048177
 30
0.0
 10
4.0138224173
 20
4.322038436
 30
0.0
 10
4.0128478261
 20
4.322038436
 30
0.0
  0
SPLINE
  5
2CB
100
AcDbEntity
  8
0
100
AcDbSpline
 62
7
  6
CONTINUOUS
 70
0
 71
3
 72
32
 73
28
 74
0
 42
0.0000001
 43
0.0000001
 44
0.0000000001
 40
0.0
 40
0.0
 40
0.0
 40
0.0
 40
0.0684402598
 40
0.1311016798
 40
0.1878575561
 40
0.2141086919
 40
0.2390453909
 40
0.2628079495
 40
0.2855787788
 40
0.3076092841
 40
0.3292004974
 40
0.3506764246
 40
0.3723791895
 40
0.3946554586
 40
0.4178178478
 40
0.4421350278
 40
0.4678337721
 40
0.4950925041
 40
0.5240434079
 40
0.5547772847
 40
0.5873445633
 40
0.6580219763
 40
0.7358084485
 40
0.8198520936
 40
0.8637778648
 40
0.9086747394
 40
1.0
 40
1.0
 40
1.0
 40
1.0
 10
4.2001509827
 20
4.6911121786
 30
0.0
 10
4.2013898111
 20
4.6898164326
 30
0.0
 10
4.2036273662
 20
4.6871983737
 30
0.0
 10
4.2063345361
 20
4.6830735365
 30
0.0
 10
4.2079522722
 20
4.6795975038
 30
0.0
 10
4.2087916565
 20
4.6768937039
 30
0.0
 10
4.2091900821
 20
4.6749678642
 30
0.0
 10
4.20937213
 20
4.6731007822
 30
0.0
 10
4.2093353085
 20
4.6713007482
 30
0.0
 10
4.2090788205
 20
4.6695757175
 30
0.0
 10
4.2086035053
 20
4.6679326924
 30
0.0
 10
4.2079102241
 20
4.6663783381
 30
0.0
 10
4.2070008696
 20
4.6649187537
 30
0.0
 10
4.2058806648
 20
4.6635569503
 30
0.0
 10
4.2045542325
 20
4.662294396
 30
0.0
 10
4.2030255471
 20
4.6611322922
 30
0.0
 10
4.2012997375
 20
4.6600693637
 30
0.0
 10
4.1993817524
 20
4.6591029737
 30
0.0
 10
4.197276011
 20
4.6582310466
 30
0.0
 10
4.1949874836
 20
4.6574510638
 30
0.0
 10
4.191607377
 20
4.6565022445
 30
0.0
 10
4.1869560178
 20
4.6555505312
 30
0.0
 10
4.1809174466
 20
4.6547373191
 30
0.0
 10
4.1755449238
 20
4.6542879701
 30
0.0
 10
4.171023757
 20
4.6540382158
 30
0.0
 10
4.166308399
 20
4.6538576641
 30
0.0
 10
4.1627399219
 20
4.6538058761
 30
0.0
 10
4.1603478261
 20
4.6538082345
 30
0.0
  0
LINE
  5
2CC
100
AcDbEntity
  8
0
100
AcDbLine
 62
7
  6
CONTINUOUS
 10
4.1902835568
 20
4.6678848185
 11
4.1861243157
 21
4.6673440565
  0
SPLINE
  5
2CD
100
AcDbEntity
  8
0
100
AcDbSpline
 62
7
  6
CONTINUOUS
 70
0
 71
3
 72
25
 73
21
 74
0
 42
0.0000001
 43
0.0000001
 44
0.0000000001
 40
0.0
 40
0.0
 40
0.0
 40
0.0
 40
0.002817912
 40
0.0047882004
 40
0.0072442006
 40
0.0137441947
 40
0.022462624
 40
0.0334394463
 40
0.0466843496
 40
0.0621933142
 40
0.079938142
 40
0.1219465851
 40
0.1723167584
 40
0.2306303169
 40
0.2963285394
 40
0.3687409264
 40
0.447190642
 40
0.619232156
 40
0.8060809212
 40
1.0
 40
1.0
 40
1.0
 40
1.0
 10
4.0278478261
 20
5.2928234752
 30
0.0
 10
4.0278478261
 20
5.2928376374
 30
0.0
 10
4.0278337267
 20
5.2928606512
 30
0.0
 10
4.0278054829
 20
5.2928830266
 30
0.0
 10
4.0277579298
 20
5.2929111548
 30
0.0
 10
4.0276750466
 20
5.2929437978
 30
0.0
 10
4.0275486293
 20
5.2929808376
 30
0.0
 10
4.0273871472
 20
5.2930176602
 30
0.0
 10
4.0271908325
 20
5.2930543167
 30
0.0
 10
4.0269599321
 20
5.2930904999
 30
0.0
 10
4.0265850282
 20
5.293140865
 30
0.0
 10
4.0260346743
 20
5.2932001497
 30
0.0
 10
4.0252800748
 20
5.2932649505
 30
0.0
 10
4.0244057529
 20
5.2933257766
 30
0.0
 10
4.0234201579
 20
5.2933820592
 30
0.0
 10
4.0223329641
 20
5.2934332327
 30
0.0
 10
4.0207113137
 20
5.2934957157
 30
0.0
 10
4.0185140893
 20
5.2935556549
 30
0.0
 10
4.0157360845
 20
5.2935987735
 30
0.0
 10
4.0138224182
 20
5.2936085146
 30
0.0
 10
4.0128478261
 20
5.2936085146
 30
0.0
  0
SPLINE
  5
2CE
100
AcDbEntity
  8
0
100
AcDbSpline
 62
7
  6
CONTINUOUS
 70
0
 71
3
 72
25
 73
21
 74
0
 42
0.0000001
 43
0.0000001
 44
0.0000000001
 40
0.0
 40
0.0
 40
0.0
 40
0.0
 40
0.0028178664
 40
0.0047880674
 40
0.0072439402
 40
0.0137435832
 40
0.022461572
 40
0.0334379073
 40
0.0466823183
 40
0.0621907224
 40
0.0799345863
 40
0.1219404937
 40
0.1723086065
 40
0.2306212917
 40
0.2963174094
 40
0.3687266797
 40
0.4471726877
 40
0.6192084198
 40
0.8060711184
 40
1.0
 40
1.0
 40
1.0
 40
1.0
 10
4.0278478261
 20
4.9997842919
 30
0.0
 10
4.0278478261
 20
4.9997984539
 30
0.0
 10
4.0278337283
 20
4.9998214674
 30
0.0
 10
4.0278054861
 20
4.999843843
 30
0.0
 10
4.0277579362
 20
4.9998719709
 30
0.0
 10
4.0276750576
 20
4.9999046134
 30
0.0
 10
4.0275486468
 20
4.9999416525
 30
0.0
 10
4.0273871717
 20
4.9999784741
 30
0.0
 10
4.0271908646
 20
5.0000151291
 30
0.0
 10
4.0269599742
 20
5.0000513105
 30
0.0
 10
4.0265850907
 20
5.0001016742
 30
0.0
 10
4.0260347647
 20
5.0001609584
 30
0.0
 10
4.0252801928
 20
5.0002257585
 30
0.0
 10
4.024405896
 20
5.0002865824
 30
0.0
 10
4.0234203316
 20
5.0003428664
 30
0.0
 10
4.0223331827
 20
5.0003940408
 30
0.0
 10
4.0207115955
 20
5.0004565232
 30
0.0
 10
4.0185143488
 20
5.00051647
 30
0.0
 10
4.0157362533
 20
5.0005595833
 30
0.0
 10
4.0138224675
 20
5.0005693313
 30
0.0
 10
4.0128478261
 20
5.0005693313
 30
0.0
  0
SPLINE
  5
2CF
100
AcDbEntity
  8
0
100
AcDbSpline
 62
7
  6
CONTINUOUS
 70
0
 71
3
 72
17
 73
13
 74
0
 42
0.0000001
 43
0.0000001
 44
0.0000000001
 40
0.0
 40
0.0
 40
0.0
 40
0.0
 40
0.1247771034
 40
0.1873809233
 40
0.2499472501
 40
0.3748433153
 40
0.4997806775
 40
0.6247513818
 40
0.749742631
 40
0.8123753363
 40
0.8750549653
 40
1.0
 40
1.0
 40
1.0
 40
1.0
 10
4.0278478261
 20
4.9264465396
 30
0.0
 10
4.0278478261
 20
4.9274245741
 30
0.0
 10
4.0277010282
 20
4.9288983841
 30
0.0
 10
4.0272252446
 20
4.93080119
 30
0.0
 10
4.0265633734
 20
4.9326491969
 30
0.0
 10
4.0254001271
 20
4.9348233995
 30
0.0
 10
4.0235215732
 20
4.9371062209
 30
0.0
 10
4.0212355616
 20
4.9389820454
 30
0.0
 10
4.019058675
 20
4.9401434144
 30
0.0
 10
4.0172083472
 20
4.9408042861
 30
0.0
 10
4.0153028795
 20
4.9412794148
 30
0.0
 10
4.0138271769
 20
4.9414259826
 30
0.0
 10
4.0128478261
 20
4.9414259826
 30
0.0
  0
SPLINE
  5
2D0
100
AcDbEntity
  8
0
100
AcDbSpline
 62
7
  6
CONTINUOUS
 70
0
 71
3
 72
32
 73
28
 74
0
 42
0.0000001
 43
0.0000001
 44
0.0000000001
 40
0.0
 40
0.0
 40
0.0
 40
0.0
 40
0.0914233961
 40
0.1363822084
 40
0.1803802281
 40
0.2646095298
 40
0.3426449754
 40
0.4136356787
 40
0.4463780907
 40
0.4772961216
 40
0.5064363757
 40
0.5338844885
 40
0.5597669046
 40
0.5842545334
 40
0.6075662618
 40
0.6299619033
 40
0.6517442815
 40
0.6732523582
 40
0.6948265357
 40
0.7167888687
 40
0.7394405623
 40
0.7630411242
 40
0.7877800749
 40
0.8138021416
 40
0.8700349267
 40
0.9321301745
 40
1.0
 40
1.0
 40
1.0
 40
1.0
 10
4.1603478261
 20
4.6538082345
 30
0.0
 10
4.1579730759
 20
4.6538058736
 30
0.0
 10
4.1544301229
 20
4.6538568614
 30
0.0
 10
4.1497479046
 20
4.6540348324
 30
0.0
 10
4.1452559357
 20
4.6542809532
 30
0.0
 10
4.1399146756
 20
4.6547235678
 30
0.0
 10
4.1339059893
 20
4.6555239779
 30
0.0
 10
4.1292723491
 20
4.6564598854
 30
0.0
 10
4.1258999686
 20
4.6573925637
 30
0.0
 10
4.123613225
 20
4.6581593799
 30
0.0
 10
4.1215061333
 20
4.6590164399
 30
0.0
 10
4.1195836801
 20
4.6599664193
 30
0.0
 10
4.1178501881
 20
4.6610112737
 30
0.0
 10
4.1163103488
 20
4.6621535043
 30
0.0
 10
4.1149693237
 20
4.6633947397
 30
0.0
 10
4.1138309889
 20
4.6647338831
 30
0.0
 10
4.1128997408
 20
4.6661695619
 30
0.0
 10
4.1121807371
 20
4.6676991836
 30
0.0
 10
4.1116763849
 20
4.6693171571
 30
0.0
 10
4.1113874718
 20
4.6710169477
 30
0.0
 10
4.1113148345
 20
4.6727918497
 30
0.0
 10
4.1114582232
 20
4.6746342208
 30
0.0
 10
4.1118151752
 20
4.6765360252
 30
0.0
 10
4.1125937641
 20
4.6792078181
 30
0.0
 10
4.1141291308
 20
4.6826489767
 30
0.0
 10
4.1167312681
 20
4.6867416052
 30
0.0
 10
4.1188953789
 20
4.6893454516
 30
0.0
 10
4.120095991
 20
4.6906363768
 30
0.0
  0
SPLINE
  5
2D1
100
AcDbEntity
  8
0
100
AcDbSpline
 62
7
  6
CONTINUOUS
 70
0
 71
3
 72
17
 73
13
 74
0
 42
0.0000001
 43
0.0000001
 44
0.0000000001
 40
0.0
 40
0.0
 40
0.0
 40
0.0
 40
0.1247786402
 40
0.1873844454
 40
0.249953102
 40
0.3748524854
 40
0.4997909159
 40
0.6247648033
 40
0.7497583036
 40
0.8123876409
 40
0.8750615863
 40
1.0
 40
1.0
 40
1.0
 40
1.0
 10
3.8403478261
 20
4.7045579438
 30
0.0
 10
3.8403478261
 20
4.703579897
 30
0.0
 10
3.8404946418
 20
4.7021060603
 30
0.0
 10
3.8409704394
 20
4.700203211
 30
0.0
 10
3.8416323334
 20
4.6983551476
 30
0.0
 10
3.8427956418
 20
4.6961809163
 30
0.0
 10
3.8446742537
 20
4.6938980674
 30
0.0
 10
3.8469603523
 20
4.6920222541
 30
0.0
 10
3.849137305
 20
4.6908609882
 30
0.0
 10
3.8509875627
 20
4.6902000854
 30
0.0
 10
3.8528929147
 20
4.6897249821
 30
0.0
 10
3.854368527
 20
4.6895785007
 30
0.0
 10
3.8553478261
 20
4.6895785007
 30
0.0
  0
SPLINE
  5
2D2
100
AcDbEntity
  8
0
100
AcDbSpline
 62
7
  6
CONTINUOUS
 70
0
 71
3
 72
17
 73
13
 74
0
 42
0.0000001
 43
0.0000001
 44
0.0000000001
 40
0.0
 40
0.0
 40
0.0
 40
0.0
 40
0.1247786402
 40
0.1873844454
 40
0.249953102
 40
0.3748524854
 40
0.4997909159
 40
0.6247648033
 40
0.7497583035
 40
0.8123876408
 40
0.8750615863
 40
1.0
 40
1.0
 40
1.0
 40
1.0
 10
3.8403478261
 20
4.9110890067
 30
0.0
 10
3.8403478261
 20
4.9120670535
 30
0.0
 10
3.8404946418
 20
4.9135408902
 30
0.0
 10
3.8409704394
 20
4.9154437395
 30
0.0
 10
3.8416323334
 20
4.9172918029
 30
0.0
 10
3.8427956418
 20
4.9194660342
 30
0.0
 10
3.8446742537
 20
4.9217488831
 30
0.0
 10
3.8469603523
 20
4.9236246964
 30
0.0
 10
3.849137305
 20
4.9247859623
 30
0.0
 10
3.8509875627
 20
4.9254468651
 30
0.0
 10
3.8528929147
 20
4.9259219684
 30
0.0
 10
3.854368527
 20
4.9260684498
 30
0.0
 10
3.8553478261
 20
4.9260684498
 30
0.0
  0
SPLINE
  5
2D3
100
AcDbEntity
  8
0
100
AcDbSpline
 62
7
  6
CONTINUOUS
 70
0
 71
3
 72
17
 73
13
 74
0
 42
0.0000001
 43
0.0000001
 44
0.0000000001
 40
0.0
 40
0.0
 40
0.0
 40
0.0
 40
0.1247771034
 40
0.1873809233
 40
0.2499472501
 40
0.3748433153
 40
0.4997806775
 40
0.6247513819
 40
0.7497426311
 40
0.8123753364
 40
0.8750549653
 40
1.0
 40
1.0
 40
1.0
 40
1.0
 10
3.8403478261
 20
4.9264465396
 30
0.0
 10
3.8403478261
 20
4.9274245741
 30
0.0
 10
3.840494624
 20
4.9288983841
 30
0.0
 10
3.8409704075
 20
4.93080119
 30
0.0
 10
3.8416322788
 20
4.9326491969
 30
0.0
 10
3.8427955251
 20
4.9348233995
 30
0.0
 10
3.844674079
 20
4.9371062209
 30
0.0
 10
3.8469600906
 20
4.9389820454
 30
0.0
 10
3.8491369771
 20
4.9401434144
 30
0.0
 10
3.8509873049
 20
4.9408042861
 30
0.0
 10
3.8528927727
 20
4.9412794148
 30
0.0
 10
3.8543684752
 20
4.9414259826
 30
0.0
 10
3.8553478261
 20
4.9414259826
 30
0.0
  0
LINE
  5
2D4
100
AcDbEntity
  8
0
100
AcDbLine
 62
7
  6
CONTINUOUS
 10
5.7593478261
 20
3.3108348313
 11
5.7093478261
 21
3.31521809
  0
SPLINE
  5
2D5
100
AcDbEntity
  8
0
100
AcDbSpline
 62
7
  6
CONTINUOUS
 70
0
 71
3
 72
15
 73
11
 74
0
 42
0.0000001
 43
0.0000001
 44
0.0000000001
 40
0.0
 40
0.0
 40
0.0
 40
0.0
 40
0.0413886599
 40
0.1544241533
 40
0.3154799328
 40
0.4999966735
 40
0.6845138246
 40
0.845569841
 40
0.9586076352
 40
1.0
 40
1.0
 40
1.0
 40
1.0
 10
4.7228478261
 20
5.3003234752
 30
0.0
 10
4.7204515532
 20
5.2999619527
 30
0.0
 10
4.7115029128
 20
5.298664869
 30
0.0
 10
4.6931648105
 20
5.2964160955
 30
0.0
 10
4.6663908365
 20
5.2942269455
 30
0.0
 10
4.6353483866
 20
5.2933364257
 30
0.0
 10
4.6043059208
 20
5.2942268796
 30
0.0
 10
4.5775317703
 20
5.2964159922
 30
0.0
 10
4.5591933023
 20
5.2986647887
 30
0.0
 10
4.5502443134
 20
5.2999619199
 30
0.0
 10
4.5478478261
 20
5.3003234752
 30
0.0
  0
ENDSEC
  0
SECTION
  2
OBJECTS
  0
DICTIONARY
  5
C
100
AcDbDictionary
280
0
281
1
  3
ACAD_GROUP
350
D
  3
ACAD_MLINESTYLE
350
17
  3
ACAD_LAYOUT
350
1A
  3
ACAD_PLOTSETTINGS
350
19
  3
ACAD_PLOTSTYLENAME
350
E
  0
DICTIONARY
  5
D
102
{ACAD_REACTORS
330
C
102
}
100
AcDbDictionary
280
0
281
1
  0
ACDBDICTIONARYWDFLT
  5
E
102
{ACAD_REACTORS
330
C
102
}
100
AcDbDictionary
281
1
  3
Normal
350
F
100
AcDbDictionaryWithDefault
340
F
  0
DICTIONARY
  5
17
102
{ACAD_REACTORS
330
C
102
}
100
AcDbDictionary
280
0
281
1
  3
Standard
350
18
  0
DICTIONARY
  5
19
102
{ACAD_REACTORS
330
C
102
}
100
AcDbDictionary
281
1
  0
DICTIONARY
  5
1A
102
{ACAD_REACTORS
330
C
102
}
100
AcDbDictionary
281
1
  3
Model
350
2D6
  3
Layout1
350
2D7
  0
ACDBPLACEHOLDER
  5
F
102
{ACAD_REACTORS
330
E
102
}
  0
MLINESTYLE
  5
18
102
{ACAD_REACTORS
330
17
102
}
100
AcDbMlineStyle
  2
STANDARD
 70
0
  3

 62
256
 51
90.0
 52
90.0
 71
2
 49
0.5
 62
256
  6
BYLAYER
 49
-0.5
 62
256
  6
BYLAYER
  0
LAYOUT
  5
2D6
102
{ACAD_REACTORS
330
1A
102
}
100
AcDbPlotSettings
  1

  2
none_device
  4
ANSI_A_(11.00_x_8.50_Inches)
  6

 40
0.0
 41
0.0
 42
0.0
 43
0.0
 44
279.4
 45
215.9
 46
0.0
 47
0.0
 48
0.0
 49
0.0
140
0.0
141
0.0
142
1.0
143
1.0
 70
1024
 72
0
 73
0
 74
0
  7

 75
0
147
1.0
148
0.0
149
0.0
100
AcDbLayout
  1
Model
 70
0
 71
0
 10
0.0
 20
0.0
 11
11.0
 21
8.5
 12
0.0
 22
0.0
 32
0.0
 14
0.0
 24
0.0
 34
0.0
 15
0.0
 25
0.0
 35
0.0
146
0.0
 13
0.0
 23
0.0
 33
0.0
 16
1.0
 26
0.0
 36
0.0
 17
0.0
 27
1.0
 37
0.0
 76
0
330
23C
345
0
346
0
  0
LAYOUT
  5
2D7
102
{ACAD_REACTORS
330
1A
102
}
100
AcDbPlotSettings
  1

  2
none_device
  4
ANSI_A_(11.00_x_8.50_Inches)
  6

 40
0.0
 41
0.0
 42
0.0
 43
0.0
 44
279.4
 45
215.9
 46
0.0
 47
0.0
 48
0.0
 49
0.0
140
0.0
141
0.0
142
1.0
143
1.0
 70
0
 72
0
 73
0
 74
0
  7

 75
0
147
1.0
148
0.0
149
0.0
100
AcDbLayout
  1
Layout1
 70
0
 71
1
 10
0.0
 20
0.0
 11
11.0
 21
8.5
 12
0.0
 22
0.0
 32
0.0
 14
0.0
 24
0.0
 34
0.0
 15
0.0
 25
0.0
 35
0.0
146
0.0
 13
0.0
 23
0.0
 33
0.0
 16
1.0
 26
0.0
 36
0.0
 17
0.0
 27
1.0
 37
0.0
 76
0
330
23D
345
0
346
0
  0
ENDSEC
  0
EOF
