999
DXF file: 3-2985_TOP.dxf
999
Pro/ENGINEER 2018400 by Parametric Technology Corporation
  0
SECTION
  2
HEADER
  9
$ACADVER
  1
AC1027
  9
$DWGCODEPAGE
  3
ANSI_1252
  9
$EXTMAX
 10
11.0
 20
8.5
 30
0.0
  9
$EXTMIN
 10
0.0
 20
0.0
 30
0.0
  9
$LIMMIN
 10
0.0
 20
0.0
  9
$LIMMAX
 10
11.0
 20
8.5
  9
$VIEWCTR
 10
5.5
 20
4.25
  9
$VIEWSIZE
 40
8.5
  9
$CLAYER
  8
0
  9
$LTSCALE
 40
0.605
  9
$CELTYPE
  6
BYLAYER
  9
$DIMSCALE
 40
1.0
  9
$DIMASZ
 40
0.1
  9
$DIMEXO
 40
0.0625
  9
$DIMDLI
 40
0.418
  9
$DIMEXE
 40
0.125
  9
$DIMCEN
 40
0.099
  9
$DIMLFAC
 40
1.0
  9
$DIMBLK
  1
_FILLED
  9
$DIMALT
 70
1
  9
$DIMALTD
 70
2
  9
$DIMALTTD
 70
2
  9
$DIMALTF
 40
25.4
  9
$DIMTXT
 40
0.08
  9
$DIMTOL
 70
1
  9
$DIMLIM
 70
0
  9
$DIMTFAC
 40
1.0
  9
$DIMTP
 40
0.001
  9
$DIMTM
 40
0.001
  9
$DIMGAP
 40
0.09
  9
$DIMDSEP
 70
46
  9
$AUNITS
 70
0
  9
$PDMODE
 70
3
  9
$PDSIZE
 40
0.3125
  9
$HANDSEED
  5
2C6
  9
$TILEMODE
 70
1
  9
$MEASUREMENT
 70
0
  9
$INSUNITS
 70
1
  0
ENDSEC
  0
SECTION
  2
CLASSES
  0
CLASS
  1
ACDBDICTIONARYWDFLT
  2
AcDbDictionaryWithDefault
  3
AutoCAD 2000
 90
0
 91
1
280
0
281
0
  0
CLASS
  1
ACDBPLACEHOLDER
  2
AcDbPlaceHolder
  3
AutoCAD 2000
 90
0
 91
1
280
0
281
0
  0
CLASS
  1
LAYOUT
  2
AcDbLayout
  3
AutoCAD 2000
 90
0
 91
0
280
0
281
0
  0
ENDSEC
  0
SECTION
  2
TABLES
  0
TABLE
  2
VPORT
  5
8
100
AcDbSymbolTable
 70
2
  0
VPORT
  5
1F4
100
AcDbSymbolTableRecord
100
AcDbViewportTableRecord
  2
*ACTIVE
 70
0
 10
0.0
 20
0.0
 11
1.0
 21
1.0
 12
5.5
 22
4.25
 13
0.0
 23
0.0
 14
1.0
 24
1.0
 15
0.0
 25
0.0
 16
0.0
 26
0.0
 36
1.0
 17
0.0
 27
0.0
 37
0.0
 40
8.5
 41
1.2941176471
 42
50.0
 43
0.0
 44
0.0
 50
0.0
 51
0.0
 71
0
 72
100
 73
1
 74
1
 75
0
 76
0
 77
0
 78
0
  0
ENDTAB
  0
TABLE
  2
LTYPE
  5
5
100
AcDbSymbolTable
 70
6
  0
LTYPE
  5
14
100
AcDbSymbolTableRecord
100
AcDbLinetypeTableRecord
  2
BYBLOCK
 70
0
  3

 72
65
 73
0
 40
0.0
  0
LTYPE
  5
15
100
AcDbSymbolTableRecord
100
AcDbLinetypeTableRecord
  2
BYLAYER
 70
0
  3

 72
65
 73
0
 40
0.0
  0
LTYPE
  5
16
100
AcDbSymbolTableRecord
100
AcDbLinetypeTableRecord
  2
CONTINUOUS
 70
64
  3
Solid line
 72
65
 73
0
 40
0.0
  0
LTYPE
  5
1F5
100
AcDbSymbolTableRecord
100
AcDbLinetypeTableRecord
  2
CENTER
 70
64
  3
____ _ ____ _ ____ _ ____ _ ____ _ ____ _ ____
 72
65
 73
4
 40
0.6
 49
0.375
 74
0
 49
-0.075
 74
0
 49
0.075
 74
0
 49
-0.075
 74
0
  0
LTYPE
  5
1F6
100
AcDbSymbolTableRecord
100
AcDbLinetypeTableRecord
  2
HIDDEN
 70
64
  3
- - - - - - - - - - - - - - - - - - - -
 72
65
 73
2
 40
0.2
 49
0.1
 74
0
 49
-0.1
 74
0
  0
LTYPE
  5
1F7
100
AcDbSymbolTableRecord
100
AcDbLinetypeTableRecord
  2
PHANTOM
 70
64
  3
_____ _ _ _____ _ _ _____ _ _ _____
 72
65
 73
6
 40
0.8
 49
0.45
 74
0
 49
-0.05
 74
0
 49
0.1
 74
0
 49
-0.05
 74
0
 49
0.1
 74
0
 49
-0.05
 74
0
  0
LTYPE
  5
1F8
100
AcDbSymbolTableRecord
100
AcDbLinetypeTableRecord
  2
DOT
 70
64
  3
. . . . . . . . . . . . . . . . . . . .
 72
65
 73
2
 40
0.2
 49
0.1
 74
0
 49
-0.1
 74
0
  0
LTYPE
  5
1F9
100
AcDbSymbolTableRecord
100
AcDbLinetypeTableRecord
  2
DASHED
 70
64
  3
- - - - - - - - - - - - - - - - - - - -
 72
65
 73
2
 40
0.2
 49
0.1
 74
0
 49
-0.1
 74
0
  0
ENDTAB
  0
TABLE
  2
LAYER
  5
2
100
AcDbSymbolTable
 70
36
  0
LAYER
  5
10
100
AcDbSymbolTableRecord
100
AcDbLayerTableRecord
  2
0
 70
0
 62
7
  6
CONTINUOUS
370
-3
390
F
  0
LAYER
  5
1FA
100
AcDbSymbolTableRecord
100
AcDbLayerTableRecord
  2
DEFAULT_1
 70
0
 62
7
  6
CENTER
370
-3
390
F
  0
LAYER
  5
1FB
100
AcDbSymbolTableRecord
100
AcDbLayerTableRecord
  2
DEFAULT_2
 70
0
 62
8
  6
HIDDEN
370
-3
390
F
  0
LAYER
  5
1FC
100
AcDbSymbolTableRecord
100
AcDbLayerTableRecord
  2
DEFAULT_3
 70
0
 62
7
  6
PHANTOM
370
-3
390
F
  0
LAYER
  5
1FD
100
AcDbSymbolTableRecord
100
AcDbLayerTableRecord
  2
2-242_ASSY_DATUMS
 70
0
 62
7
  6
CONTINUOUS
370
-3
390
F
  0
LAYER
  5
1FE
100
AcDbSymbolTableRecord
100
AcDbLayerTableRecord
  2
2-247_ASSY_DATUMS
 70
0
 62
7
  6
CONTINUOUS
370
-3
390
F
  0
LAYER
  5
1FF
100
AcDbSymbolTableRecord
100
AcDbLayerTableRecord
  2
3-234_ASSY_DATUMS
 70
0
 62
7
  6
CONTINUOUS
370
-3
390
F
  0
LAYER
  5
200
100
AcDbSymbolTableRecord
100
AcDbLayerTableRecord
  2
3-985_ASSY_PLANES
 70
0
 62
7
  6
CONTINUOUS
370
-3
390
F
  0
LAYER
  5
201
100
AcDbSymbolTableRecord
100
AcDbLayerTableRecord
  2
ALL_ASSEMBLY_MEMBERS
 70
0
 62
7
  6
CONTINUOUS
370
-3
390
F
  0
LAYER
  5
202
100
AcDbSymbolTableRecord
100
AcDbLayerTableRecord
  2
ALL_FEATURES
 70
0
 62
7
  6
CONTINUOUS
370
-3
390
F
  0
LAYER
  5
203
100
AcDbSymbolTableRecord
100
AcDbLayerTableRecord
  2
AXES_FEATURES
 70
0
 62
7
  6
CONTINUOUS
370
-3
390
F
  0
LAYER
  5
204
100
AcDbSymbolTableRecord
100
AcDbLayerTableRecord
  2
CHAMFER_FEATURES
 70
0
 62
7
  6
CONTINUOUS
370
-3
390
F
  0
LAYER
  5
205
100
AcDbSymbolTableRecord
100
AcDbLayerTableRecord
  2
CURVES
 70
0
 62
7
  6
CONTINUOUS
370
-3
390
F
  0
LAYER
  5
206
100
AcDbSymbolTableRecord
100
AcDbLayerTableRecord
  2
CUT_FEATURES
 70
0
 62
7
  6
CONTINUOUS
370
-3
390
F
  0
LAYER
  5
207
100
AcDbSymbolTableRecord
100
AcDbLayerTableRecord
  2
DATUM_CURVES
 70
0
 62
7
  6
CONTINUOUS
370
-3
390
F
  0
LAYER
  5
208
100
AcDbSymbolTableRecord
100
AcDbLayerTableRecord
  2
DATUM_PLANES
 70
0
 62
7
  6
CONTINUOUS
370
-3
390
F
  0
LAYER
  5
209
100
AcDbSymbolTableRecord
100
AcDbLayerTableRecord
  2
DATUM_POINTS
 70
0
 62
7
  6
CONTINUOUS
370
-3
390
F
  0
LAYER
  5
20A
100
AcDbSymbolTableRecord
100
AcDbLayerTableRecord
  2
DEFAULT_COORDINATE_SYSTEM
 70
0
 62
7
  6
CONTINUOUS
370
-3
390
F
  0
LAYER
  5
20B
100
AcDbSymbolTableRecord
100
AcDbLayerTableRecord
  2
DEFAULT_DATUM_AXES
 70
0
 62
7
  6
CONTINUOUS
370
-3
390
F
  0
LAYER
  5
20C
100
AcDbSymbolTableRecord
100
AcDbLayerTableRecord
  2
DEFAULT_DATUM_CURVES
 70
0
 62
7
  6
CONTINUOUS
370
-3
390
F
  0
LAYER
  5
20D
100
AcDbSymbolTableRecord
100
AcDbLayerTableRecord
  2
DEFAULT_DATUM_PLANES
 70
0
 62
7
  6
CONTINUOUS
370
-3
390
F
  0
LAYER
  5
20E
100
AcDbSymbolTableRecord
100
AcDbLayerTableRecord
  2
DEFAULT_SURFACES
 70
0
 62
7
  6
CONTINUOUS
370
-3
390
F
  0
LAYER
  5
20F
100
AcDbSymbolTableRecord
100
AcDbLayerTableRecord
  2
DIMENSIONS
 70
0
 62
7
  6
CONTINUOUS
370
-3
390
F
  0
LAYER
  5
210
100
AcDbSymbolTableRecord
100
AcDbLayerTableRecord
  2
HIDE_91208
 70
0
 62
7
  6
CONTINUOUS
370
-3
390
F
  0
LAYER
  5
211
100
AcDbSymbolTableRecord
100
AcDbLayerTableRecord
  2
HOLE_FEATURES
 70
0
 62
7
  6
CONTINUOUS
370
-3
390
F
  0
LAYER
  5
212
100
AcDbSymbolTableRecord
100
AcDbLayerTableRecord
  2
NONE
 70
0
 62
7
  6
CONTINUOUS
370
-3
390
F
  0
LAYER
  5
213
100
AcDbSymbolTableRecord
100
AcDbLayerTableRecord
  2
NOTES
 70
0
 62
7
  6
CONTINUOUS
370
-3
390
F
  0
LAYER
  5
214
100
AcDbSymbolTableRecord
100
AcDbLayerTableRecord
  2
PART_REFERENCE_DIMENSIONS
 70
0
 62
7
  6
CONTINUOUS
370
-3
390
F
  0
LAYER
  5
215
100
AcDbSymbolTableRecord
100
AcDbLayerTableRecord
  2
PLATED_SURFACE_AREA
 70
0
 62
7
  6
CONTINUOUS
370
-3
390
F
  0
LAYER
  5
216
100
AcDbSymbolTableRecord
100
AcDbLayerTableRecord
  2
POINTS
 70
0
 62
7
  6
CONTINUOUS
370
-3
390
F
  0
LAYER
  5
217
100
AcDbSymbolTableRecord
100
AcDbLayerTableRecord
  2
PROTRUSION_FEATURES
 70
0
 62
7
  6
CONTINUOUS
370
-3
390
F
  0
LAYER
  5
218
100
AcDbSymbolTableRecord
100
AcDbLayerTableRecord
  2
QUILT
 70
0
 62
7
  6
CONTINUOUS
370
-3
390
F
  0
LAYER
  5
219
100
AcDbSymbolTableRecord
100
AcDbLayerTableRecord
  2
QUILTS
 70
0
 62
7
  6
CONTINUOUS
370
-3
390
F
  0
LAYER
  5
21A
100
AcDbSymbolTableRecord
100
AcDbLayerTableRecord
  2
REFERENCE_DIMENSIONS
 70
0
 62
7
  6
CONTINUOUS
370
-3
390
F
  0
LAYER
  5
21B
100
AcDbSymbolTableRecord
100
AcDbLayerTableRecord
  2
ROUND_FEATURES
 70
0
 62
7
  6
CONTINUOUS
370
-3
390
F
  0
LAYER
  5
21C
100
AcDbSymbolTableRecord
100
AcDbLayerTableRecord
  2
SHELL_FEATURES
 70
0
 62
7
  6
CONTINUOUS
370
-3
390
F
  0
LAYER
  5
21D
100
AcDbSymbolTableRecord
100
AcDbLayerTableRecord
  2
SIZE_REF
 70
0
 62
7
  6
CONTINUOUS
370
-3
390
F
  0
LAYER
  5
21E
100
AcDbSymbolTableRecord
100
AcDbLayerTableRecord
  2
SURFACE_FEATURES
 70
0
 62
7
  6
CONTINUOUS
370
-3
390
F
  0
LAYER
  5
21F
100
AcDbSymbolTableRecord
100
AcDbLayerTableRecord
  2
WETTED_SURFACES
 70
0
 62
7
  6
CONTINUOUS
370
-3
390
F
  0
LAYER
  5
220
100
AcDbSymbolTableRecord
100
AcDbLayerTableRecord
  2
XSEC_DATUMS
 70
0
 62
7
  6
CONTINUOUS
370
-3
390
F
  0
ENDTAB
  0
TABLE
  2
STYLE
  5
3
100
AcDbSymbolTable
 70
1
  0
STYLE
  5
11
100
AcDbSymbolTableRecord
100
AcDbTextStyleTableRecord
  2
STANDARD
 70
0
 40
0.0
 41
0.8
 50
0.0
 71
0
 42
0.2
  3
txt
  4

  0
STYLE
  5
221
100
AcDbSymbolTableRecord
100
AcDbTextStyleTableRecord
  2
TEXTSTYLE_1
 70
0
 40
0.0
 41
0.8
 50
0.0
 71
0
 42
0.2
  3
gdt
  4

  0
ENDTAB
  0
TABLE
  2
VIEW
  5
6
100
AcDbSymbolTable
 70
0
  0
ENDTAB
  0
TABLE
  2
UCS
  5
7
100
AcDbSymbolTable
 70
0
  0
ENDTAB
  0
TABLE
  2
APPID
  5
9
100
AcDbSymbolTable
 70
1
  0
APPID
  5
222
100
AcDbSymbolTableRecord
100
AcDbRegAppTableRecord
  2
ACAD
 70
0
  0
ENDTAB
  0
TABLE
  2
BLOCK_RECORD
  5
1
100
AcDbSymbolTable
 70
0
  0
BLOCK_RECORD
  5
223
100
AcDbSymbolTableRecord
100
AcDbBlockTableRecord
  2
*Model_Space
  0
BLOCK_RECORD
  5
224
100
AcDbSymbolTableRecord
100
AcDbBlockTableRecord
  2
*Paper_Space
  0
BLOCK_RECORD
  5
225
100
AcDbSymbolTableRecord
100
AcDbBlockTableRecord
  2
_FILLED
  0
ENDTAB
  0
TABLE
  2
DIMSTYLE
  5
A
100
AcDbSymbolTable
 70
1
100
AcDbDimStyleTable
 71
0
  0
DIMSTYLE
105
226
100
AcDbSymbolTableRecord
100
AcDbDimStyleTableRecord
  2
STANDARD
 70
0
  3

  4

 40
1.0
 41
0.1
 42
0.0625
 43
0.38
 44
0.125
 45
0.0
 46
0.0
 47
0.001
 48
0.001
140
0.08
141
0.09
142
0.0
143
25.4
144
1.0
145
0.0
146
1.0
147
0.09
 71
1.0
 72
0.0
 73
1
 74
1
 75
0
 76
0
 77
0
 78
4
 79
1
170
1
171
2
172
0
173
0
174
0
175
0
176
0
177
0
178
0
270
2
179
3
271
3
272
3
273
2
274
2
275
0
280
0
281
0
282
0
283
1
284
4
285
0
286
0
287
3
288
0
340
11
278
46
341
225
342
225
343
225
344
225
  0
ENDTAB
  0
ENDSEC
  0
SECTION
  2
BLOCKS
  0
BLOCK
  5
20
100
AcDbEntity
  8
0
100
AcDbBlockBegin
  2
*Model_Space
 70
0
 10
0.0
 20
0.0
 30
0.0
  3
*Model_Space
  1

  0
ENDBLK
  5
21
100
AcDbEntity
  8
0
100
AcDbBlockEnd
  0
BLOCK
  5
1C
100
AcDbEntity
  8
0
100
AcDbBlockBegin
  2
*Paper_Space
 70
0
 10
0.0
 20
0.0
 30
0.0
  3
*Paper_Space
  1

  0
ENDBLK
  5
1D
100
AcDbEntity
  8
0
100
AcDbBlockEnd
  0
BLOCK
  5
227
100
AcDbEntity
  8
0
100
AcDbBlockBegin
  2
_FILLED
 70
64
 10
0.0
 20
0.0
  3
_FILLED
  1

  0
SOLID
  5
228
100
AcDbEntity
  8
0
  6
BYBLOCK
 62
0
100
AcDbTrace
 10
0.0
 20
0.0
 11
-1.0
 21
0.2
 12
-1.0
 22
-0.2
 13
-1.0
 23
-0.2
  0
ENDBLK
  5
229
100
AcDbEntity
  8
0
  6
BYBLOCK
 62
0
100
AcDbBlockEnd
  0
ENDSEC
  0
SECTION
  2
ENTITIES
  0
MTEXT
  5
22A
100
AcDbEntity
  8
0
100
AcDbMText
 62
2
  6
CONTINUOUS
  7
STANDARD
 71
3
 72
1
 10
2.7040954969
 20
2.2578571429
 30
0.0
 11
1.0
 21
0.0
 31
0.0
 73
2
 44
0.9
  1
SCALE  .500
 40
0.08
 41
0.704
  0
LINE
  5
22B
100
AcDbEntity
  8
0
100
AcDbLine
 62
7
  6
CONTINUOUS
 10
0.0
 20
0.0
 11
0.0
 21
8.5
  0
LINE
  5
22C
100
AcDbEntity
  8
0
100
AcDbLine
 62
7
  6
CONTINUOUS
 10
0.0
 20
0.0
 11
11.0
 21
0.0
  0
LINE
  5
22D
100
AcDbEntity
  8
0
100
AcDbLine
 62
7
  6
CONTINUOUS
 10
0.0
 20
8.5
 11
11.0
 21
8.5
  0
LINE
  5
22E
100
AcDbEntity
  8
0
100
AcDbLine
 62
7
  6
CONTINUOUS
 10
11.0
 20
0.0
 11
11.0
 21
8.5
  0
LINE
  5
22F
100
AcDbEntity
  8
ALL_ASSEMBLY_MEMBERS
100
AcDbLine
 62
7
  6
CONTINUOUS
 10
2.9538687888
 20
4.6694953416
 11
2.9538687888
 21
4.8269953416
  0
LINE
  5
230
100
AcDbEntity
  8
ALL_ASSEMBLY_MEMBERS
100
AcDbLine
 62
7
  6
CONTINUOUS
 10
2.9680837495
 20
4.6694953416
 11
2.9680837495
 21
4.8269953416
  0
LINE
  5
231
100
AcDbEntity
  8
ALL_ASSEMBLY_MEMBERS
100
AcDbLine
 62
7
  6
CONTINUOUS
 10
3.1253687888
 20
6.0894953416
 11
3.1253687888
 21
6.0109953416
  0
LINE
  5
232
100
AcDbEntity
  8
ALL_ASSEMBLY_MEMBERS
100
AcDbLine
 62
7
  6
CONTINUOUS
 10
3.3406137017
 20
5.9123913215
 11
3.3696144167
 21
5.0819194999
  0
LINE
  5
233
100
AcDbEntity
  8
ALL_ASSEMBLY_MEMBERS
100
AcDbLine
 62
7
  6
CONTINUOUS
 10
3.3003687888
 20
5.9909953416
 11
3.3003687888
 21
5.9676583691
  0
LINE
  5
234
100
AcDbEntity
  8
ALL_ASSEMBLY_MEMBERS
100
AcDbLine
 62
7
  6
CONTINUOUS
 10
3.3566187888
 20
5.9959953416
 11
3.3566187888
 21
5.9909953416
  0
LINE
  5
235
100
AcDbEntity
  8
ALL_ASSEMBLY_MEMBERS
100
AcDbLine
 62
7
  6
CONTINUOUS
 10
3.4715926807
 20
4.6694953416
 11
3.4715926807
 21
4.8269953416
  0
LINE
  5
236
100
AcDbEntity
  8
ALL_ASSEMBLY_MEMBERS
100
AcDbLine
 62
7
  6
CONTINUOUS
 10
3.5191187888
 20
4.8619953416
 11
3.5191187888
 21
5.0504953416
  0
LINE
  5
237
100
AcDbEntity
  8
ALL_ASSEMBLY_MEMBERS
100
AcDbLine
 62
7
  6
CONTINUOUS
 10
3.5307360294
 20
4.6694953416
 11
3.5307360294
 21
4.8269953416
  0
LINE
  5
238
100
AcDbEntity
  8
ALL_ASSEMBLY_MEMBERS
100
AcDbLine
 62
7
  6
CONTINUOUS
 10
3.5441187888
 20
5.0504953416
 11
3.5441187888
 21
5.0659953416
  0
LINE
  5
239
100
AcDbEntity
  8
ALL_ASSEMBLY_MEMBERS
100
AcDbLine
 62
7
  6
CONTINUOUS
 10
3.5571238143
 20
4.6694953416
 11
3.5571238143
 21
4.8269953416
  0
LINE
  5
23A
100
AcDbEntity
  8
ALL_ASSEMBLY_MEMBERS
100
AcDbLine
 62
7
  6
CONTINUOUS
 10
3.5721032573
 20
4.6544953416
 11
3.5721032573
 21
4.8419953416
  0
LINE
  5
23B
100
AcDbEntity
  8
ALL_ASSEMBLY_MEMBERS
100
AcDbLine
 62
7
  6
CONTINUOUS
 10
3.7786343203
 20
4.6544953416
 11
3.7786343203
 21
4.8419953416
  0
LINE
  5
23C
100
AcDbEntity
  8
ALL_ASSEMBLY_MEMBERS
100
AcDbLine
 62
7
  6
CONTINUOUS
 10
3.7936137633
 20
4.6694953416
 11
3.7936137633
 21
4.8269953416
  0
LINE
  5
23D
100
AcDbEntity
  8
ALL_ASSEMBLY_MEMBERS
100
AcDbLine
 62
7
  6
CONTINUOUS
 10
3.8066187888
 20
5.0504953416
 11
3.8066187888
 21
5.0659953416
  0
LINE
  5
23E
100
AcDbEntity
  8
ALL_ASSEMBLY_MEMBERS
100
AcDbLine
 62
7
  6
CONTINUOUS
 10
3.8200015483
 20
4.8269953416
 11
3.8200015483
 21
4.6694953416
  0
LINE
  5
23F
100
AcDbEntity
  8
ALL_ASSEMBLY_MEMBERS
100
AcDbLine
 62
7
  6
CONTINUOUS
 10
3.8316187888
 20
4.8619953416
 11
3.8316187888
 21
5.0504953416
  0
LINE
  5
240
100
AcDbEntity
  8
ALL_ASSEMBLY_MEMBERS
100
AcDbLine
 62
7
  6
CONTINUOUS
 10
3.8791448969
 20
4.8269953416
 11
3.8791448969
 21
4.6694953416
  0
LINE
  5
241
100
AcDbEntity
  8
ALL_ASSEMBLY_MEMBERS
100
AcDbLine
 62
7
  6
CONTINUOUS
 10
3.9941187888
 20
5.9959953416
 11
3.9941187888
 21
5.9909953416
  0
LINE
  5
242
100
AcDbEntity
  8
ALL_ASSEMBLY_MEMBERS
100
AcDbLine
 62
7
  6
CONTINUOUS
 10
4.010123876
 20
5.9123913215
 11
3.9811231609
 21
5.0819194999
  0
LINE
  5
243
100
AcDbEntity
  8
ALL_ASSEMBLY_MEMBERS
100
AcDbLine
 62
7
  6
CONTINUOUS
 10
4.0503687888
 20
5.9909953416
 11
4.0503687888
 21
5.9676583691
  0
LINE
  5
244
100
AcDbEntity
  8
ALL_ASSEMBLY_MEMBERS
100
AcDbLine
 62
7
  6
CONTINUOUS
 10
4.2253687888
 20
6.0894953416
 11
4.2253687888
 21
6.0109953416
  0
LINE
  5
245
100
AcDbEntity
  8
ALL_ASSEMBLY_MEMBERS
100
AcDbLine
 62
7
  6
CONTINUOUS
 10
4.3826538282
 20
4.6694953416
 11
4.3826538282
 21
4.8269953416
  0
LINE
  5
246
100
AcDbEntity
  8
ALL_ASSEMBLY_MEMBERS
100
AcDbLine
 62
7
  6
CONTINUOUS
 10
4.3968687888
 20
4.6694953416
 11
4.3968687888
 21
4.8269953416
  0
LINE
  5
247
100
AcDbEntity
  8
ALL_ASSEMBLY_MEMBERS
100
AcDbLine
 62
7
  6
CONTINUOUS
 10
5.0491187888
 20
5.9019953416
 11
5.0491187888
 21
6.0894953416
  0
LINE
  5
248
100
AcDbEntity
  8
ALL_ASSEMBLY_MEMBERS
100
AcDbLine
 62
7
  6
CONTINUOUS
 10
5.2991187888
 20
5.3394953416
 11
5.2991187888
 21
5.9019953416
  0
LINE
  5
249
100
AcDbEntity
  8
ALL_ASSEMBLY_MEMBERS
100
AcDbLine
 62
7
  6
CONTINUOUS
 10
5.4241187888
 20
3.3094953416
 11
5.4241187888
 21
5.3394953416
  0
LINE
  5
24A
100
AcDbEntity
  8
ALL_ASSEMBLY_MEMBERS
100
AcDbLine
 62
7
  6
CONTINUOUS
 10
5.4241187888
 20
4.3094953416
 11
5.8616187888
 21
4.3094953416
  0
LINE
  5
24B
100
AcDbEntity
  8
ALL_ASSEMBLY_MEMBERS
100
AcDbLine
 62
7
  6
CONTINUOUS
 10
5.8616187888
 20
3.3094953416
 11
5.8616187888
 21
5.3394953416
  0
LINE
  5
24C
100
AcDbEntity
  8
ALL_ASSEMBLY_MEMBERS
100
AcDbLine
 62
7
  6
CONTINUOUS
 10
8.3193687888
 20
4.6544953416
 11
6.9063687888
 21
4.6544953416
  0
LINE
  5
24D
100
AcDbEntity
  8
ALL_ASSEMBLY_MEMBERS
100
AcDbLine
 62
7
  6
CONTINUOUS
 10
4.3818687888
 20
4.6544953416
 11
2.9688687888
 21
4.6544953416
  0
LINE
  5
24E
100
AcDbEntity
  8
ALL_ASSEMBLY_MEMBERS
100
AcDbLine
 62
7
  6
CONTINUOUS
 10
8.3343687888
 20
4.6694953416
 11
6.8913687888
 21
4.6694953416
  0
LINE
  5
24F
100
AcDbEntity
  8
ALL_ASSEMBLY_MEMBERS
100
AcDbLine
 62
7
  6
CONTINUOUS
 10
4.3968687888
 20
4.6694953416
 11
2.9538687888
 21
4.6694953416
  0
LINE
  5
250
100
AcDbEntity
  8
ALL_ASSEMBLY_MEMBERS
100
AcDbLine
 62
7
  6
CONTINUOUS
 10
5.9866187888
 20
5.3394953416
 11
5.9866187888
 21
5.9019953416
  0
LINE
  5
251
100
AcDbEntity
  8
ALL_ASSEMBLY_MEMBERS
100
AcDbLine
 62
7
  6
CONTINUOUS
 10
2.9538687888
 20
4.8269953416
 11
4.3968687888
 21
4.8269953416
  0
LINE
  5
252
100
AcDbEntity
  8
ALL_ASSEMBLY_MEMBERS
100
AcDbLine
 62
7
  6
CONTINUOUS
 10
6.8913687888
 20
4.8269953416
 11
8.3343687888
 21
4.8269953416
  0
LINE
  5
253
100
AcDbEntity
  8
ALL_ASSEMBLY_MEMBERS
100
AcDbLine
 62
7
  6
CONTINUOUS
 10
2.9688687888
 20
4.8419953416
 11
4.3818687888
 21
4.8419953416
  0
LINE
  5
254
100
AcDbEntity
  8
ALL_ASSEMBLY_MEMBERS
100
AcDbLine
 62
7
  6
CONTINUOUS
 10
6.9063687888
 20
4.8419953416
 11
8.3193687888
 21
4.8419953416
  0
LINE
  5
255
100
AcDbEntity
  8
ALL_ASSEMBLY_MEMBERS
100
AcDbLine
 62
7
  6
CONTINUOUS
 10
3.5191187888
 20
4.8619953416
 11
3.8316187888
 21
4.8619953416
  0
LINE
  5
256
100
AcDbEntity
  8
ALL_ASSEMBLY_MEMBERS
100
AcDbLine
 62
7
  6
CONTINUOUS
 10
7.4566187888
 20
4.8619953416
 11
7.7691187888
 21
4.8619953416
  0
LINE
  5
257
100
AcDbEntity
  8
ALL_ASSEMBLY_MEMBERS
100
AcDbLine
 62
7
  6
CONTINUOUS
 10
6.2366187888
 20
5.9019953416
 11
6.2366187888
 21
6.0894953416
  0
LINE
  5
258
100
AcDbEntity
  8
ALL_ASSEMBLY_MEMBERS
100
AcDbLine
 62
7
  6
CONTINUOUS
 10
3.5191206196
 20
5.0504953416
 11
3.831616958
 21
5.0504953416
  0
LINE
  5
259
100
AcDbEntity
  8
ALL_ASSEMBLY_MEMBERS
100
AcDbLine
 62
7
  6
CONTINUOUS
 10
7.4566206196
 20
5.0504953416
 11
7.769116958
 21
5.0504953416
  0
LINE
  5
25A
100
AcDbEntity
  8
ALL_ASSEMBLY_MEMBERS
100
AcDbLine
 62
7
  6
CONTINUOUS
 10
7.9021332123
 20
5.0659953416
 11
7.3236043654
 21
5.0659953416
  0
LINE
  5
25B
100
AcDbEntity
  8
ALL_ASSEMBLY_MEMBERS
100
AcDbLine
 62
7
  6
CONTINUOUS
 10
3.9646332123
 20
5.0659953416
 11
3.3861043654
 21
5.0659953416
  0
LINE
  5
25C
100
AcDbEntity
  8
ALL_ASSEMBLY_MEMBERS
100
AcDbLine
 62
7
  6
CONTINUOUS
 10
7.9186231609
 20
5.0819194999
 11
7.3071144167
 21
5.0819194999
  0
LINE
  5
25D
100
AcDbEntity
  8
ALL_ASSEMBLY_MEMBERS
100
AcDbLine
 62
7
  6
CONTINUOUS
 10
3.9811231609
 20
5.0819194999
 11
3.3696144167
 21
5.0819194999
  0
LINE
  5
25E
100
AcDbEntity
  8
ALL_ASSEMBLY_MEMBERS
100
AcDbLine
 62
7
  6
CONTINUOUS
 10
5.2991187888
 20
5.3394953416
 11
5.9866187888
 21
5.3394953416
  0
LINE
  5
25F
100
AcDbEntity
  8
ALL_ASSEMBLY_MEMBERS
100
AcDbLine
 62
7
  6
CONTINUOUS
 10
6.8913687888
 20
4.6694953416
 11
6.8913687888
 21
4.8269953416
  0
LINE
  5
260
100
AcDbEntity
  8
ALL_ASSEMBLY_MEMBERS
100
AcDbLine
 62
7
  6
CONTINUOUS
 10
6.9055837495
 20
4.6694953416
 11
6.9055837495
 21
4.8269953416
  0
LINE
  5
261
100
AcDbEntity
  8
ALL_ASSEMBLY_MEMBERS
100
AcDbLine
 62
7
  6
CONTINUOUS
 10
7.0628687888
 20
6.0894953416
 11
7.0628687888
 21
6.0109953416
  0
LINE
  5
262
100
AcDbEntity
  8
ALL_ASSEMBLY_MEMBERS
100
AcDbLine
 62
7
  6
CONTINUOUS
 10
5.0491196915
 20
5.9019953416
 11
6.2366178861
 21
5.9019953416
  0
LINE
  5
263
100
AcDbEntity
  8
ALL_ASSEMBLY_MEMBERS
100
AcDbLine
 62
7
  6
CONTINUOUS
 10
7.947623876
 20
5.9123913215
 11
7.2781137017
 21
5.9123913215
  0
LINE
  5
264
100
AcDbEntity
  8
ALL_ASSEMBLY_MEMBERS
100
AcDbLine
 62
7
  6
CONTINUOUS
 10
4.010123876
 20
5.9123913215
 11
3.3406137017
 21
5.9123913215
  0
LINE
  5
265
100
AcDbEntity
  8
ALL_ASSEMBLY_MEMBERS
100
AcDbLine
 62
7
  6
CONTINUOUS
 10
7.9744456956
 20
5.9487706932
 11
7.2512918821
 21
5.9487706932
  0
LINE
  5
266
100
AcDbEntity
  8
ALL_ASSEMBLY_MEMBERS
100
AcDbLine
 62
7
  6
CONTINUOUS
 10
4.0369456956
 20
5.9487706932
 11
3.3137918821
 21
5.9487706932
  0
LINE
  5
267
100
AcDbEntity
  8
ALL_ASSEMBLY_MEMBERS
100
AcDbLine
 62
7
  6
CONTINUOUS
 10
7.9878687888
 20
5.9676583691
 11
7.2378687888
 21
5.9676583691
  0
LINE
  5
268
100
AcDbEntity
  8
ALL_ASSEMBLY_MEMBERS
100
AcDbLine
 62
7
  6
CONTINUOUS
 10
4.0503687888
 20
5.9676583691
 11
3.3003687888
 21
5.9676583691
  0
LINE
  5
269
100
AcDbEntity
  8
ALL_ASSEMBLY_MEMBERS
100
AcDbLine
 62
7
  6
CONTINUOUS
 10
3.3003687888
 20
5.9909953416
 11
4.0503687888
 21
5.9909953416
  0
LINE
  5
26A
100
AcDbEntity
  8
ALL_ASSEMBLY_MEMBERS
100
AcDbLine
 62
7
  6
CONTINUOUS
 10
7.2378687888
 20
5.9909953416
 11
7.9878687888
 21
5.9909953416
  0
LINE
  5
26B
100
AcDbEntity
  8
ALL_ASSEMBLY_MEMBERS
100
AcDbLine
 62
7
  6
CONTINUOUS
 10
8.1478687888
 20
5.9959953416
 11
7.0778687888
 21
5.9959953416
  0
LINE
  5
26C
100
AcDbEntity
  8
ALL_ASSEMBLY_MEMBERS
100
AcDbLine
 62
7
  6
CONTINUOUS
 10
4.2103687888
 20
5.9959953416
 11
3.1403687888
 21
5.9959953416
  0
LINE
  5
26D
100
AcDbEntity
  8
ALL_ASSEMBLY_MEMBERS
100
AcDbLine
 62
7
  6
CONTINUOUS
 10
8.1628687888
 20
6.0109953416
 11
7.0628687888
 21
6.0109953416
  0
LINE
  5
26E
100
AcDbEntity
  8
ALL_ASSEMBLY_MEMBERS
100
AcDbLine
 62
7
  6
CONTINUOUS
 10
4.2253687888
 20
6.0109953416
 11
3.1253687888
 21
6.0109953416
  0
LINE
  5
26F
100
AcDbEntity
  8
ALL_ASSEMBLY_MEMBERS
100
AcDbLine
 62
7
  6
CONTINUOUS
 10
7.2378687888
 20
5.9909953416
 11
7.2378687888
 21
5.9676583691
  0
LINE
  5
270
100
AcDbEntity
  8
ALL_ASSEMBLY_MEMBERS
100
AcDbLine
 62
7
  6
CONTINUOUS
 10
7.2941187888
 20
5.9959953416
 11
7.2941187888
 21
5.9909953416
  0
LINE
  5
271
100
AcDbEntity
  8
ALL_ASSEMBLY_MEMBERS
100
AcDbLine
 62
7
  6
CONTINUOUS
 10
8.1628687888
 20
6.0894953416
 11
7.0628687888
 21
6.0894953416
  0
LINE
  5
272
100
AcDbEntity
  8
ALL_ASSEMBLY_MEMBERS
100
AcDbLine
 62
7
  6
CONTINUOUS
 10
4.2253687888
 20
6.0894953416
 11
3.1253687888
 21
6.0894953416
  0
LINE
  5
273
100
AcDbEntity
  8
ALL_ASSEMBLY_MEMBERS
100
AcDbLine
 62
7
  6
CONTINUOUS
 10
5.0491196915
 20
6.0894953416
 11
6.2366178861
 21
6.0894953416
  0
LINE
  5
274
100
AcDbEntity
  8
ALL_ASSEMBLY_MEMBERS
100
AcDbLine
 62
7
  6
CONTINUOUS
 10
7.2781137017
 20
5.9123913215
 11
7.3071144167
 21
5.0819194999
  0
LINE
  5
275
100
AcDbEntity
  8
ALL_ASSEMBLY_MEMBERS
100
AcDbLine
 62
7
  6
CONTINUOUS
 10
7.4090926807
 20
4.6694953416
 11
7.4090926807
 21
4.8269953416
  0
LINE
  5
276
100
AcDbEntity
  8
ALL_ASSEMBLY_MEMBERS
100
AcDbLine
 62
7
  6
CONTINUOUS
 10
7.4566187888
 20
4.8619953416
 11
7.4566187888
 21
5.0504953416
  0
LINE
  5
277
100
AcDbEntity
  8
ALL_ASSEMBLY_MEMBERS
100
AcDbLine
 62
7
  6
CONTINUOUS
 10
7.4682360294
 20
4.6694953416
 11
7.4682360294
 21
4.8269953416
  0
LINE
  5
278
100
AcDbEntity
  8
ALL_ASSEMBLY_MEMBERS
100
AcDbLine
 62
7
  6
CONTINUOUS
 10
7.4816187888
 20
5.0504953416
 11
7.4816187888
 21
5.0659953416
  0
LINE
  5
279
100
AcDbEntity
  8
ALL_ASSEMBLY_MEMBERS
100
AcDbLine
 62
7
  6
CONTINUOUS
 10
7.4946238143
 20
4.6694953416
 11
7.4946238143
 21
4.8269953416
  0
LINE
  5
27A
100
AcDbEntity
  8
ALL_ASSEMBLY_MEMBERS
100
AcDbLine
 62
7
  6
CONTINUOUS
 10
7.5096032573
 20
4.6544953416
 11
7.5096032573
 21
4.8419953416
  0
LINE
  5
27B
100
AcDbEntity
  8
ALL_ASSEMBLY_MEMBERS
100
AcDbLine
 62
7
  6
CONTINUOUS
 10
7.7161343203
 20
4.6544953416
 11
7.7161343203
 21
4.8419953416
  0
LINE
  5
27C
100
AcDbEntity
  8
ALL_ASSEMBLY_MEMBERS
100
AcDbLine
 62
7
  6
CONTINUOUS
 10
7.7311137633
 20
4.6694953416
 11
7.7311137633
 21
4.8269953416
  0
LINE
  5
27D
100
AcDbEntity
  8
ALL_ASSEMBLY_MEMBERS
100
AcDbLine
 62
7
  6
CONTINUOUS
 10
7.7441187888
 20
5.0504953416
 11
7.7441187888
 21
5.0659953416
  0
LINE
  5
27E
100
AcDbEntity
  8
ALL_ASSEMBLY_MEMBERS
100
AcDbLine
 62
7
  6
CONTINUOUS
 10
7.7575015483
 20
4.6694953416
 11
7.7575015483
 21
4.8269953416
  0
LINE
  5
27F
100
AcDbEntity
  8
ALL_ASSEMBLY_MEMBERS
100
AcDbLine
 62
7
  6
CONTINUOUS
 10
7.7691187888
 20
4.8619953416
 11
7.7691187888
 21
5.0504953416
  0
LINE
  5
280
100
AcDbEntity
  8
ALL_ASSEMBLY_MEMBERS
100
AcDbLine
 62
7
  6
CONTINUOUS
 10
7.8166448969
 20
4.6694953416
 11
7.8166448969
 21
4.8269953416
  0
LINE
  5
281
100
AcDbEntity
  8
ALL_ASSEMBLY_MEMBERS
100
AcDbLine
 62
7
  6
CONTINUOUS
 10
7.947623876
 20
5.9123913215
 11
7.9186231609
 21
5.0819194999
  0
LINE
  5
282
100
AcDbEntity
  8
ALL_ASSEMBLY_MEMBERS
100
AcDbLine
 62
7
  6
CONTINUOUS
 10
7.9316187888
 20
5.9959953416
 11
7.9316187888
 21
5.9909953416
  0
LINE
  5
283
100
AcDbEntity
  8
ALL_ASSEMBLY_MEMBERS
100
AcDbLine
 62
7
  6
CONTINUOUS
 10
7.9878687888
 20
5.9909953416
 11
7.9878687888
 21
5.9676583691
  0
LINE
  5
284
100
AcDbEntity
  8
ALL_ASSEMBLY_MEMBERS
100
AcDbLine
 62
7
  6
CONTINUOUS
 10
8.1628687888
 20
6.0894953416
 11
8.1628687888
 21
6.0109953416
  0
LINE
  5
285
100
AcDbEntity
  8
ALL_ASSEMBLY_MEMBERS
100
AcDbLine
 62
7
  6
CONTINUOUS
 10
8.3201538282
 20
4.6694953416
 11
8.3201538282
 21
4.8269953416
  0
LINE
  5
286
100
AcDbEntity
  8
ALL_ASSEMBLY_MEMBERS
100
AcDbLine
 62
7
  6
CONTINUOUS
 10
8.3343687888
 20
4.6694953416
 11
8.3343687888
 21
4.8269953416
  0
ARC
  5
287
100
AcDbEntity
  8
ALL_ASSEMBLY_MEMBERS
100
AcDbCircle
 62
7
  6
CONTINUOUS
 10
5.6428687888
 20
3.3094953416
 40
0.21875
100
AcDbArc
 50
180.0
 51
360.0
  0
ARC
  5
288
100
AcDbEntity
  8
ALL_ASSEMBLY_MEMBERS
100
AcDbCircle
 62
7
  6
CONTINUOUS
 10
4.050099509
 20
5.9109953416
 40
0.04
100
AcDbArc
 50
109.1987071253
 51
178.0
  0
ARC
  5
289
100
AcDbEntity
  8
ALL_ASSEMBLY_MEMBERS
100
AcDbCircle
 62
7
  6
CONTINUOUS
 10
3.3006380686
 20
5.9109953416
 40
0.04
100
AcDbArc
 50
2.0
 51
70.8012928747
  0
ARC
  5
28A
100
AcDbEntity
  8
ALL_ASSEMBLY_MEMBERS
100
AcDbCircle
 62
7
  6
CONTINUOUS
 10
4.0303687888
 20
5.9676583691
 40
0.02
100
AcDbArc
 50
289.1987071251
 51
360.0
  0
ARC
  5
28B
100
AcDbEntity
  8
ALL_ASSEMBLY_MEMBERS
100
AcDbCircle
 62
7
  6
CONTINUOUS
 10
3.3203687888
 20
5.9676583691
 40
0.02
100
AcDbArc
 50
180.0
 51
250.8012928749
  0
ARC
  5
28C
100
AcDbEntity
  8
ALL_ASSEMBLY_MEMBERS
100
AcDbCircle
 62
7
  6
CONTINUOUS
 10
3.4991187888
 20
4.8619953416
 40
0.02
100
AcDbArc
 50
270.0
 51
360.0
  0
ARC
  5
28D
100
AcDbEntity
  8
ALL_ASSEMBLY_MEMBERS
100
AcDbCircle
 62
7
  6
CONTINUOUS
 10
3.8516187888
 20
4.8619953416
 40
0.02
100
AcDbArc
 50
180.0
 51
270.0
  0
ARC
  5
28E
100
AcDbEntity
  8
ALL_ASSEMBLY_MEMBERS
100
AcDbCircle
 62
7
  6
CONTINUOUS
 10
3.3861043654
 20
5.0824953416
 40
0.0165
100
AcDbArc
 50
182.0
 51
270.0
  0
ARC
  5
28F
100
AcDbEntity
  8
ALL_ASSEMBLY_MEMBERS
100
AcDbCircle
 62
7
  6
CONTINUOUS
 10
3.9646332123
 20
5.0824953416
 40
0.0165
100
AcDbArc
 50
270.0
 51
358.0
  0
ARC
  5
290
100
AcDbEntity
  8
ALL_ASSEMBLY_MEMBERS
100
AcDbCircle
 62
7
  6
CONTINUOUS
 10
4.2103687888
 20
6.0109953416
 40
0.015
100
AcDbArc
 50
270.0
 51
360.0
  0
ARC
  5
291
100
AcDbEntity
  8
ALL_ASSEMBLY_MEMBERS
100
AcDbCircle
 62
7
  6
CONTINUOUS
 10
3.1403687888
 20
6.0109953416
 40
0.015
100
AcDbArc
 50
180.0
 51
270.0
  0
ARC
  5
292
100
AcDbEntity
  8
ALL_ASSEMBLY_MEMBERS
100
AcDbCircle
 62
7
  6
CONTINUOUS
 10
4.3818687888
 20
4.6694953416
 40
0.015
100
AcDbArc
 50
270.0
 51
360.0
  0
ARC
  5
293
100
AcDbEntity
  8
ALL_ASSEMBLY_MEMBERS
100
AcDbCircle
 62
7
  6
CONTINUOUS
 10
2.9688687888
 20
4.6694953416
 40
0.015
100
AcDbArc
 50
180.0
 51
270.0
  0
ARC
  5
294
100
AcDbEntity
  8
ALL_ASSEMBLY_MEMBERS
100
AcDbCircle
 62
7
  6
CONTINUOUS
 10
2.9688687888
 20
4.8269953416
 40
0.015
100
AcDbArc
 50
90.0
 51
180.0
  0
ARC
  5
295
100
AcDbEntity
  8
ALL_ASSEMBLY_MEMBERS
100
AcDbCircle
 62
7
  6
CONTINUOUS
 10
4.3818687888
 20
4.8269953416
 40
0.015
100
AcDbArc
 50
0.0
 51
90.0
  0
ARC
  5
296
100
AcDbEntity
  8
ALL_ASSEMBLY_MEMBERS
100
AcDbCircle
 62
7
  6
CONTINUOUS
 10
3.5721146603
 20
4.8270068255
 40
0.014989453
100
AcDbArc
 50
90.0435893872
 51
180.0438920126
  0
ARC
  5
297
100
AcDbEntity
  8
ALL_ASSEMBLY_MEMBERS
100
AcDbCircle
 62
7
  6
CONTINUOUS
 10
3.7786229181
 20
4.6694838578
 40
0.0149894526
100
AcDbArc
 50
270.0435865449
 51
0.0438915642
  0
ARC
  5
298
100
AcDbEntity
  8
ALL_ASSEMBLY_MEMBERS
100
AcDbCircle
 62
7
  6
CONTINUOUS
 10
3.7786229275
 20
4.8270068487
 40
0.0149894325
100
AcDbArc
 50
359.9560192989
 51
89.9564492063
  0
ARC
  5
299
100
AcDbEntity
  8
ALL_ASSEMBLY_MEMBERS
100
AcDbCircle
 62
7
  6
CONTINUOUS
 10
3.5721146481
 20
4.6694838351
 40
0.0149894313
100
AcDbArc
 50
179.9560213987
 51
269.9564571463
  0
ARC
  5
29A
100
AcDbEntity
  8
ALL_ASSEMBLY_MEMBERS
100
AcDbCircle
 62
7
  6
CONTINUOUS
 10
3.8050107264
 20
4.8270068786
 40
0.014989404
100
AcDbArc
 50
359.9559050408
 51
89.9565023858
  0
ARC
  5
29B
100
AcDbEntity
  8
ALL_ASSEMBLY_MEMBERS
100
AcDbCircle
 62
7
  6
CONTINUOUS
 10
3.5457268503
 20
4.8270068783
 40
0.0149894034
100
AcDbArc
 50
90.0434936918
 51
180.04409385
  0
ARC
  5
29C
100
AcDbEntity
  8
ALL_ASSEMBLY_MEMBERS
100
AcDbCircle
 62
7
  6
CONTINUOUS
 10
3.8050107282
 20
4.6694838051
 40
0.0149894029
100
AcDbArc
 50
270.0434904554
 51
0.044093312
  0
ARC
  5
29D
100
AcDbEntity
  8
ALL_ASSEMBLY_MEMBERS
100
AcDbCircle
 62
7
  6
CONTINUOUS
 10
3.5457268494
 20
4.6694838051
 40
0.0149894029
100
AcDbArc
 50
179.9559066732
 51
269.956509547
  0
ARC
  5
29E
100
AcDbEntity
  8
ALL_ASSEMBLY_MEMBERS
100
AcDbCircle
 62
7
  6
CONTINUOUS
 10
7.2381380686
 20
5.9109953416
 40
0.04
100
AcDbArc
 50
2.0
 51
70.8012928747
  0
ARC
  5
29F
100
AcDbEntity
  8
ALL_ASSEMBLY_MEMBERS
100
AcDbCircle
 62
7
  6
CONTINUOUS
 10
7.987599509
 20
5.9109953416
 40
0.04
100
AcDbArc
 50
109.1987071253
 51
178.0
  0
ARC
  5
2A0
100
AcDbEntity
  8
ALL_ASSEMBLY_MEMBERS
100
AcDbCircle
 62
7
  6
CONTINUOUS
 10
7.2578687888
 20
5.9676583691
 40
0.02
100
AcDbArc
 50
180.0
 51
250.8012928749
  0
ARC
  5
2A1
100
AcDbEntity
  8
ALL_ASSEMBLY_MEMBERS
100
AcDbCircle
 62
7
  6
CONTINUOUS
 10
7.9678687888
 20
5.9676583691
 40
0.02
100
AcDbArc
 50
289.1987071251
 51
360.0
  0
ARC
  5
2A2
100
AcDbEntity
  8
ALL_ASSEMBLY_MEMBERS
100
AcDbCircle
 62
7
  6
CONTINUOUS
 10
7.7891187888
 20
4.8619953416
 40
0.02
100
AcDbArc
 50
180.0
 51
270.0
  0
ARC
  5
2A3
100
AcDbEntity
  8
ALL_ASSEMBLY_MEMBERS
100
AcDbCircle
 62
7
  6
CONTINUOUS
 10
7.4366187888
 20
4.8619953416
 40
0.02
100
AcDbArc
 50
270.0
 51
360.0
  0
ARC
  5
2A4
100
AcDbEntity
  8
ALL_ASSEMBLY_MEMBERS
100
AcDbCircle
 62
7
  6
CONTINUOUS
 10
7.9021332123
 20
5.0824953416
 40
0.0165
100
AcDbArc
 50
270.0
 51
358.0
  0
ARC
  5
2A5
100
AcDbEntity
  8
ALL_ASSEMBLY_MEMBERS
100
AcDbCircle
 62
7
  6
CONTINUOUS
 10
7.3236043654
 20
5.0824953416
 40
0.0165
100
AcDbArc
 50
182.0
 51
270.0
  0
ARC
  5
2A6
100
AcDbEntity
  8
ALL_ASSEMBLY_MEMBERS
100
AcDbCircle
 62
7
  6
CONTINUOUS
 10
7.0778687888
 20
6.0109953416
 40
0.015
100
AcDbArc
 50
180.0
 51
270.0
  0
ARC
  5
2A7
100
AcDbEntity
  8
ALL_ASSEMBLY_MEMBERS
100
AcDbCircle
 62
7
  6
CONTINUOUS
 10
8.1478687888
 20
6.0109953416
 40
0.015
100
AcDbArc
 50
270.0
 51
360.0
  0
ARC
  5
2A8
100
AcDbEntity
  8
ALL_ASSEMBLY_MEMBERS
100
AcDbCircle
 62
7
  6
CONTINUOUS
 10
6.9063687888
 20
4.6694953416
 40
0.015
100
AcDbArc
 50
180.0
 51
270.0
  0
ARC
  5
2A9
100
AcDbEntity
  8
ALL_ASSEMBLY_MEMBERS
100
AcDbCircle
 62
7
  6
CONTINUOUS
 10
8.3193687888
 20
4.6694953416
 40
0.015
100
AcDbArc
 50
270.0
 51
360.0
  0
ARC
  5
2AA
100
AcDbEntity
  8
ALL_ASSEMBLY_MEMBERS
100
AcDbCircle
 62
7
  6
CONTINUOUS
 10
8.3193687888
 20
4.8269953416
 40
0.015
100
AcDbArc
 50
0.0
 51
90.0
  0
ARC
  5
2AB
100
AcDbEntity
  8
ALL_ASSEMBLY_MEMBERS
100
AcDbCircle
 62
7
  6
CONTINUOUS
 10
6.9063687888
 20
4.8269953416
 40
0.015
100
AcDbArc
 50
90.0
 51
180.0
  0
ARC
  5
2AC
100
AcDbEntity
  8
ALL_ASSEMBLY_MEMBERS
100
AcDbCircle
 62
7
  6
CONTINUOUS
 10
7.7161229275
 20
4.8270068487
 40
0.0149894325
100
AcDbArc
 50
359.9560193098
 51
89.9564491955
  0
ARC
  5
2AD
100
AcDbEntity
  8
ALL_ASSEMBLY_MEMBERS
100
AcDbCircle
 62
7
  6
CONTINUOUS
 10
7.5096146493
 20
4.8270068484
 40
0.014989432
100
AcDbArc
 50
90.0435475738
 51
180.0439795348
  0
ARC
  5
2AE
100
AcDbEntity
  8
ALL_ASSEMBLY_MEMBERS
100
AcDbCircle
 62
7
  6
CONTINUOUS
 10
7.7161229296
 20
4.6694838351
 40
0.0149894312
100
AcDbArc
 50
270.0435428306
 51
0.0439786392
  0
ARC
  5
2AF
100
AcDbEntity
  8
ALL_ASSEMBLY_MEMBERS
100
AcDbCircle
 62
7
  6
CONTINUOUS
 10
7.5096146481
 20
4.6694838351
 40
0.0149894312
100
AcDbArc
 50
179.9560213947
 51
269.9564571502
  0
ARC
  5
2B0
100
AcDbEntity
  8
ALL_ASSEMBLY_MEMBERS
100
AcDbCircle
 62
7
  6
CONTINUOUS
 10
7.7425107264
 20
4.8270068786
 40
0.014989404
100
AcDbArc
 50
359.9559050496
 51
89.9565023767
  0
ARC
  5
2B1
100
AcDbEntity
  8
ALL_ASSEMBLY_MEMBERS
100
AcDbCircle
 62
7
  6
CONTINUOUS
 10
7.4832268503
 20
4.8270068783
 40
0.0149894034
100
AcDbArc
 50
90.0434936917
 51
180.0440938505
  0
ARC
  5
2B2
100
AcDbEntity
  8
ALL_ASSEMBLY_MEMBERS
100
AcDbCircle
 62
7
  6
CONTINUOUS
 10
7.4832268494
 20
4.6694838051
 40
0.0149894029
100
AcDbArc
 50
179.9559066737
 51
269.9565095464
  0
ARC
  5
2B3
100
AcDbEntity
  8
ALL_ASSEMBLY_MEMBERS
100
AcDbCircle
 62
7
  6
CONTINUOUS
 10
7.7425107282
 20
4.6694838051
 40
0.0149894029
100
AcDbArc
 50
270.0434904625
 51
0.0440933048
  0
SPLINE
  5
2B4
100
AcDbEntity
  8
ALL_ASSEMBLY_MEMBERS
100
AcDbSpline
 62
7
  6
CONTINUOUS
 70
0
 71
3
 72
25
 73
21
 74
0
 42
0.0000001
 43
0.0000001
 44
0.0000000001
 40
0.0
 40
0.0
 40
0.0
 40
0.0
 40
0.0028178664
 40
0.0047880674
 40
0.0072439402
 40
0.0137435832
 40
0.022461572
 40
0.0334379074
 40
0.0466823183
 40
0.0621907224
 40
0.0799345864
 40
0.1219404938
 40
0.1723086066
 40
0.2306212917
 40
0.2963174093
 40
0.3687266796
 40
0.4471726875
 40
0.6192084196
 40
0.8060711184
 40
1.0
 40
1.0
 40
1.0
 40
1.0
 10
7.4098777201
 20
4.6544953416
 30
0.0
 10
7.4098635581
 20
4.6544953416
 30
0.0
 10
7.4098405446
 20
4.6545094394
 30
0.0
 10
7.409818169
 20
4.6545376816
 30
0.0
 10
7.4097900411
 20
4.6545852315
 30
0.0
 10
7.4097573985
 20
4.6546681101
 30
0.0
 10
7.4097203595
 20
4.6547945209
 30
0.0
 10
7.4096835379
 20
4.654955996
 30
0.0
 10
7.4096468829
 20
4.6551523031
 30
0.0
 10
7.4096107015
 20
4.6553831935
 30
0.0
 10
7.4095603377
 20
4.655758077
 30
0.0
 10
7.4095010536
 20
4.656308403
 30
0.0
 10
7.4094362535
 20
4.6570629749
 30
0.0
 10
7.4093754296
 20
4.6579372717
 30
0.0
 10
7.4093191456
 20
4.6589228361
 30
0.0
 10
7.4092679712
 20
4.660009985
 30
0.0
 10
7.4092054888
 20
4.6616315722
 30
0.0
 10
7.4091455419
 20
4.6638288189
 30
0.0
 10
7.4091024287
 20
4.6666069144
 30
0.0
 10
7.4090926807
 20
4.6685207002
 30
0.0
 10
7.4090926807
 20
4.6694953416
 30
0.0
  0
SPLINE
  5
2B5
100
AcDbEntity
  8
ALL_ASSEMBLY_MEMBERS
100
AcDbSpline
 62
7
  6
CONTINUOUS
 70
0
 71
3
 72
25
 73
21
 74
0
 42
0.0000001
 43
0.0000001
 44
0.0000000001
 40
0.0
 40
0.0
 40
0.0
 40
0.0
 40
0.0028179754
 40
0.0047883819
 40
0.0072445452
 40
0.0137449405
 40
0.0224637724
 40
0.033440887
 40
0.0466858635
 40
0.0621946511
 40
0.0799393612
 40
0.1219481153
 40
0.1723197542
 40
0.2306367231
 40
0.2963406866
 40
0.3687585516
 40
0.4472108717
 40
0.6192500326
 40
0.8060865228
 40
1.0
 40
1.0
 40
1.0
 40
1.0
 10
6.9063687888
 20
4.6544953416
 30
0.0
 10
6.9063546263
 20
4.6544953416
 30
0.0
 10
6.9063316122
 20
4.6545094432
 30
0.0
 10
6.9063092372
 20
4.6545376893
 30
0.0
 10
6.9062811088
 20
4.6545852463
 30
0.0
 10
6.9062484657
 20
4.6546681346
 30
0.0
 10
6.9062114252
 20
4.6547945574
 30
0.0
 10
6.906174602
 20
4.6549560433
 30
0.0
 10
6.9061379447
 20
4.6551523588
 30
0.0
 10
6.9061017603
 20
4.6553832578
 30
0.0
 10
6.9060513945
 20
4.6557581616
 30
0.0
 10
6.9059921095
 20
4.6563085239
 30
0.0
 10
6.9059273083
 20
4.6570631493
 30
0.0
 10
6.9058664809
 20
4.6579375245
 30
0.0
 10
6.905810198
 20
4.658923193
 30
0.0
 10
6.9057590233
 20
4.6600104562
 30
0.0
 10
6.9056965371
 20
4.661632135
 30
0.0
 10
6.9056366064
 20
4.6638292988
 30
0.0
 10
6.9055934874
 20
4.6666072016
 30
0.0
 10
6.9055837494
 20
4.6685207778
 30
0.0
 10
6.9055837494
 20
4.6694953416
 30
0.0
  0
SPLINE
  5
2B6
100
AcDbEntity
  8
ALL_ASSEMBLY_MEMBERS
100
AcDbSpline
 62
7
  6
CONTINUOUS
 70
0
 71
3
 72
25
 73
21
 74
0
 42
0.0000001
 43
0.0000001
 44
0.0000000001
 40
0.0
 40
0.0
 40
0.0
 40
0.0
 40
0.002817911
 40
0.0047881975
 40
0.007244195
 40
0.0137441816
 40
0.0224626019
 40
0.0334394148
 40
0.0466843094
 40
0.0621932649
 40
0.0799380764
 40
0.1219464746
 40
0.172316608
 40
0.2306301423
 40
0.2963283168
 40
0.3687406485
 40
0.4471903223
 40
0.6192318085
 40
0.8060807905
 40
1.0
 40
1.0
 40
1.0
 40
1.0
 10
8.3193687888
 20
4.6544953416
 30
0.0
 10
8.319382951
 20
4.6544953416
 30
0.0
 10
8.3194059648
 20
4.6545094409
 30
0.0
 10
8.3194283402
 20
4.6545376847
 30
0.0
 10
8.3194564683
 20
4.6545852378
 30
0.0
 10
8.3194891113
 20
4.6546681209
 30
0.0
 10
8.3195261512
 20
4.6547945381
 30
0.0
 10
8.3195629738
 20
4.65495602
 30
0.0
 10
8.3195996301
 20
4.6551523346
 30
0.0
 10
8.3196358134
 20
4.6553832348
 30
0.0
 10
8.3196861784
 20
4.6557581383
 30
0.0
 10
8.3197454631
 20
4.6563084918
 30
0.0
 10
8.3198102639
 20
4.6570630906
 30
0.0
 10
8.31987109
 20
4.657937412
 30
0.0
 10
8.3199273726
 20
4.6589230064
 30
0.0
 10
8.3199785461
 20
4.6600101995
 30
0.0
 10
8.3200410291
 20
4.6616318492
 30
0.0
 10
8.3201009684
 20
4.6638290743
 30
0.0
 10
8.3201440869
 20
4.6666070808
 30
0.0
 10
8.3201538282
 20
4.6685207489
 30
0.0
 10
8.3201538282
 20
4.6694953416
 30
0.0
  0
SPLINE
  5
2B7
100
AcDbEntity
  8
ALL_ASSEMBLY_MEMBERS
100
AcDbSpline
 62
7
  6
CONTINUOUS
 70
0
 71
3
 72
25
 73
21
 74
0
 42
0.0000001
 43
0.0000001
 44
0.0000000001
 40
0.0
 40
0.0
 40
0.0
 40
0.0
 40
0.0028178664
 40
0.0047880674
 40
0.0072439401
 40
0.0137435831
 40
0.0224615718
 40
0.0334379071
 40
0.046682318
 40
0.0621907221
 40
0.0799345861
 40
0.1219404935
 40
0.1723086064
 40
0.2306212917
 40
0.2963174097
 40
0.3687266803
 40
0.4471726885
 40
0.6192084209
 40
0.8060711189
 40
1.0
 40
1.0
 40
1.0
 40
1.0
 10
7.8158598576
 20
4.6544953416
 30
0.0
 10
7.8158740195
 20
4.6544953416
 30
0.0
 10
7.8158970331
 20
4.6545094394
 30
0.0
 10
7.8159194087
 20
4.6545376816
 30
0.0
 10
7.8159475365
 20
4.6545852315
 30
0.0
 10
7.8159801791
 20
4.6546681101
 30
0.0
 10
7.8160172182
 20
4.6547945209
 30
0.0
 10
7.8160540398
 20
4.6549559959
 30
0.0
 10
7.8160906948
 20
4.6551523031
 30
0.0
 10
7.8161268761
 20
4.6553831935
 30
0.0
 10
7.8161772399
 20
4.655758077
 30
0.0
 10
7.816236524
 20
4.656308403
 30
0.0
 10
7.8163013241
 20
4.6570629749
 30
0.0
 10
7.8163621481
 20
4.6579372717
 30
0.0
 10
7.8164184321
 20
4.6589228361
 30
0.0
 10
7.8164696065
 20
4.660009985
 30
0.0
 10
7.8165320888
 20
4.6616315722
 30
0.0
 10
7.8165920357
 20
4.6638288189
 30
0.0
 10
7.816635149
 20
4.6666069144
 30
0.0
 10
7.816644897
 20
4.6685207002
 30
0.0
 10
7.816644897
 20
4.6694953416
 30
0.0
  0
SPLINE
  5
2B8
100
AcDbEntity
  8
ALL_ASSEMBLY_MEMBERS
100
AcDbSpline
 62
7
  6
CONTINUOUS
 70
0
 71
3
 72
25
 73
21
 74
0
 42
0.0000001
 43
0.0000001
 44
0.0000000001
 40
0.0
 40
0.0
 40
0.0
 40
0.0
 40
0.0028178664
 40
0.0047880674
 40
0.0072439402
 40
0.0137435832
 40
0.022461572
 40
0.0334379074
 40
0.0466823183
 40
0.0621907224
 40
0.0799345864
 40
0.1219404938
 40
0.1723086066
 40
0.2306212917
 40
0.2963174093
 40
0.3687266796
 40
0.4471726875
 40
0.6192084196
 40
0.8060711184
 40
1.0
 40
1.0
 40
1.0
 40
1.0
 10
7.8158598576
 20
4.8419953416
 30
0.0
 10
7.8158740195
 20
4.8419953416
 30
0.0
 10
7.8158970331
 20
4.8419812438
 30
0.0
 10
7.8159194087
 20
4.8419530016
 30
0.0
 10
7.8159475365
 20
4.8419054517
 30
0.0
 10
7.8159801791
 20
4.8418225732
 30
0.0
 10
7.8160172182
 20
4.8416961623
 30
0.0
 10
7.8160540398
 20
4.8415346873
 30
0.0
 10
7.8160906948
 20
4.8413383802
 30
0.0
 10
7.8161268761
 20
4.8411074897
 30
0.0
 10
7.8161772399
 20
4.8407326063
 30
0.0
 10
7.816236524
 20
4.8401822803
 30
0.0
 10
7.8163013241
 20
4.8394277083
 30
0.0
 10
7.8163621481
 20
4.8385534115
 30
0.0
 10
7.8164184321
 20
4.8375678472
 30
0.0
 10
7.8164696065
 20
4.8364806982
 30
0.0
 10
7.8165320888
 20
4.834859111
 30
0.0
 10
7.8165920357
 20
4.8326618643
 30
0.0
 10
7.816635149
 20
4.8298837688
 30
0.0
 10
7.8166448969
 20
4.827969983
 30
0.0
 10
7.8166448969
 20
4.8269953416
 30
0.0
  0
SPLINE
  5
2B9
100
AcDbEntity
  8
ALL_ASSEMBLY_MEMBERS
100
AcDbSpline
 62
7
  6
CONTINUOUS
 70
0
 71
3
 72
25
 73
21
 74
0
 42
0.0000001
 43
0.0000001
 44
0.0000000001
 40
0.0
 40
0.0
 40
0.0
 40
0.0
 40
0.0028179755
 40
0.0047883823
 40
0.0072445457
 40
0.0137449416
 40
0.0224637741
 40
0.033440889
 40
0.0466858652
 40
0.0621946518
 40
0.0799393608
 40
0.1219481121
 40
0.1723197487
 40
0.2306367166
 40
0.2963406795
 40
0.3687585453
 40
0.4472108692
 40
0.6192500407
 40
0.8060865282
 40
1.0
 40
1.0
 40
1.0
 40
1.0
 10
8.3193687888
 20
4.8419953416
 30
0.0
 10
8.3193829513
 20
4.8419953416
 30
0.0
 10
8.3194059654
 20
4.84198124
 30
0.0
 10
8.3194283404
 20
4.841952994
 30
0.0
 10
8.3194564688
 20
4.8419054369
 30
0.0
 10
8.319489112
 20
4.8418225486
 30
0.0
 10
8.3195261524
 20
4.8416961258
 30
0.0
 10
8.3195629757
 20
4.8415346399
 30
0.0
 10
8.3195996329
 20
4.8413383244
 30
0.0
 10
8.3196358174
 20
4.8411074254
 30
0.0
 10
8.3196861831
 20
4.8407325217
 30
0.0
 10
8.3197454681
 20
4.8401821594
 30
0.0
 10
8.3198102693
 20
4.839427534
 30
0.0
 10
8.3198710967
 20
4.8385531588
 30
0.0
 10
8.3199273797
 20
4.8375674903
 30
0.0
 10
8.3199785543
 20
4.8364802271
 30
0.0
 10
8.3200410406
 20
4.8348585482
 30
0.0
 10
8.3201009713
 20
4.8326613843
 30
0.0
 10
8.3201440903
 20
4.8298834816
 30
0.0
 10
8.3201538284
 20
4.8279699054
 30
0.0
 10
8.3201538284
 20
4.8269953416
 30
0.0
  0
SPLINE
  5
2BA
100
AcDbEntity
  8
ALL_ASSEMBLY_MEMBERS
100
AcDbSpline
 62
7
  6
CONTINUOUS
 70
0
 71
3
 72
25
 73
21
 74
0
 42
0.0000001
 43
0.0000001
 44
0.0000000001
 40
0.0
 40
0.0
 40
0.0
 40
0.0
 40
0.002817911
 40
0.0047881975
 40
0.007244195
 40
0.0137441816
 40
0.0224626019
 40
0.0334394148
 40
0.0466843094
 40
0.0621932649
 40
0.0799380764
 40
0.1219464746
 40
0.172316608
 40
0.2306301423
 40
0.2963283168
 40
0.3687406485
 40
0.4471903223
 40
0.6192318085
 40
0.8060807904
 40
1.0
 40
1.0
 40
1.0
 40
1.0
 10
6.9063687888
 20
4.8419953416
 30
0.0
 10
6.9063546267
 20
4.8419953416
 30
0.0
 10
6.9063316129
 20
4.8419812423
 30
0.0
 10
6.9063092375
 20
4.8419529985
 30
0.0
 10
6.9062811093
 20
4.8419054455
 30
0.0
 10
6.9062484663
 20
4.8418225623
 30
0.0
 10
6.9062114265
 20
4.8416961452
 30
0.0
 10
6.9061746039
 20
4.8415346632
 30
0.0
 10
6.9061379475
 20
4.8413383486
 30
0.0
 10
6.9061017643
 20
4.8411074484
 30
0.0
 10
6.9060513992
 20
4.8407325449
 30
0.0
 10
6.9059921145
 20
4.8401821914
 30
0.0
 10
6.9059273137
 20
4.8394275926
 30
0.0
 10
6.9058664876
 20
4.8385532712
 30
0.0
 10
6.905810205
 20
4.8375676768
 30
0.0
 10
6.9057590315
 20
4.8364804838
 30
0.0
 10
6.9056965485
 20
4.834858834
 30
0.0
 10
6.9056366092
 20
4.8326616089
 30
0.0
 10
6.9055934907
 20
4.8298836024
 30
0.0
 10
6.9055837495
 20
4.8279699343
 30
0.0
 10
6.9055837495
 20
4.8269953416
 30
0.0
  0
SPLINE
  5
2BB
100
AcDbEntity
  8
ALL_ASSEMBLY_MEMBERS
100
AcDbSpline
 62
7
  6
CONTINUOUS
 70
0
 71
3
 72
25
 73
21
 74
0
 42
0.0000001
 43
0.0000001
 44
0.0000000001
 40
0.0
 40
0.0
 40
0.0
 40
0.0
 40
0.0028178664
 40
0.0047880674
 40
0.0072439401
 40
0.013743583
 40
0.0224615717
 40
0.0334379069
 40
0.0466823178
 40
0.0621907219
 40
0.0799345859
 40
0.1219404934
 40
0.1723086063
 40
0.2306212918
 40
0.2963174099
 40
0.3687266807
 40
0.4471726891
 40
0.6192084217
 40
0.8060711193
 40
1.0
 40
1.0
 40
1.0
 40
1.0
 10
7.4098777201
 20
4.8419953416
 30
0.0
 10
7.4098635581
 20
4.8419953416
 30
0.0
 10
7.4098405446
 20
4.8419812438
 30
0.0
 10
7.409818169
 20
4.8419530016
 30
0.0
 10
7.4097900411
 20
4.8419054517
 30
0.0
 10
7.4097573985
 20
4.8418225732
 30
0.0
 10
7.4097203595
 20
4.8416961623
 30
0.0
 10
7.4096835379
 20
4.8415346873
 30
0.0
 10
7.4096468829
 20
4.8413383802
 30
0.0
 10
7.4096107015
 20
4.8411074897
 30
0.0
 10
7.4095603377
 20
4.8407326063
 30
0.0
 10
7.4095010536
 20
4.8401822803
 30
0.0
 10
7.4094362535
 20
4.8394277083
 30
0.0
 10
7.4093754296
 20
4.8385534115
 30
0.0
 10
7.4093191456
 20
4.8375678472
 30
0.0
 10
7.4092679712
 20
4.8364806982
 30
0.0
 10
7.4092054888
 20
4.834859111
 30
0.0
 10
7.409145542
 20
4.8326618643
 30
0.0
 10
7.4091024286
 20
4.8298837688
 30
0.0
 10
7.4090926806
 20
4.827969983
 30
0.0
 10
7.4090926806
 20
4.8269953416
 30
0.0
  0
SPLINE
  5
2BC
100
AcDbEntity
  8
ALL_ASSEMBLY_MEMBERS
100
AcDbSpline
 62
7
  6
CONTINUOUS
 70
0
 71
3
 72
25
 73
21
 74
0
 42
0.0000001
 43
0.0000001
 44
0.0000000001
 40
0.0
 40
0.0
 40
0.0
 40
0.0
 40
0.002817911
 40
0.0047881975
 40
0.007244195
 40
0.0137441816
 40
0.0224626019
 40
0.0334394148
 40
0.0466843094
 40
0.0621932649
 40
0.0799380764
 40
0.1219464746
 40
0.172316608
 40
0.2306301423
 40
0.2963283168
 40
0.3687406485
 40
0.4471903223
 40
0.6192318085
 40
0.8060807905
 40
1.0
 40
1.0
 40
1.0
 40
1.0
 10
4.3818687888
 20
4.6544953416
 30
0.0
 10
4.381882951
 20
4.6544953416
 30
0.0
 10
4.3819059648
 20
4.6545094409
 30
0.0
 10
4.3819283402
 20
4.6545376847
 30
0.0
 10
4.3819564683
 20
4.6545852378
 30
0.0
 10
4.3819891113
 20
4.6546681209
 30
0.0
 10
4.3820261512
 20
4.6547945381
 30
0.0
 10
4.3820629738
 20
4.65495602
 30
0.0
 10
4.3820996301
 20
4.6551523346
 30
0.0
 10
4.3821358134
 20
4.6553832348
 30
0.0
 10
4.3821861784
 20
4.6557581383
 30
0.0
 10
4.3822454631
 20
4.6563084918
 30
0.0
 10
4.3823102639
 20
4.6570630906
 30
0.0
 10
4.38237109
 20
4.657937412
 30
0.0
 10
4.3824273726
 20
4.6589230064
 30
0.0
 10
4.3824785461
 20
4.6600101995
 30
0.0
 10
4.3825410291
 20
4.6616318492
 30
0.0
 10
4.3826009684
 20
4.6638290743
 30
0.0
 10
4.3826440869
 20
4.6666070808
 30
0.0
 10
4.3826538282
 20
4.6685207489
 30
0.0
 10
4.3826538282
 20
4.6694953416
 30
0.0
  0
SPLINE
  5
2BD
100
AcDbEntity
  8
ALL_ASSEMBLY_MEMBERS
100
AcDbSpline
 62
7
  6
CONTINUOUS
 70
0
 71
3
 72
25
 73
21
 74
0
 42
0.0000001
 43
0.0000001
 44
0.0000000001
 40
0.0
 40
0.0
 40
0.0
 40
0.0
 40
0.0028178664
 40
0.0047880674
 40
0.0072439401
 40
0.013743583
 40
0.0224615717
 40
0.0334379069
 40
0.0466823178
 40
0.0621907219
 40
0.0799345859
 40
0.1219404934
 40
0.1723086063
 40
0.2306212918
 40
0.2963174099
 40
0.3687266807
 40
0.4471726891
 40
0.6192084217
 40
0.8060711193
 40
1.0
 40
1.0
 40
1.0
 40
1.0
 10
3.8783598576
 20
4.6544953416
 30
0.0
 10
3.8783740195
 20
4.6544953416
 30
0.0
 10
3.8783970331
 20
4.6545094394
 30
0.0
 10
3.8784194087
 20
4.6545376816
 30
0.0
 10
3.8784475365
 20
4.6545852315
 30
0.0
 10
3.8784801791
 20
4.6546681101
 30
0.0
 10
3.8785172182
 20
4.6547945209
 30
0.0
 10
3.8785540398
 20
4.6549559959
 30
0.0
 10
3.8785906948
 20
4.6551523031
 30
0.0
 10
3.8786268761
 20
4.6553831935
 30
0.0
 10
3.8786772399
 20
4.655758077
 30
0.0
 10
3.878736524
 20
4.656308403
 30
0.0
 10
3.8788013241
 20
4.6570629749
 30
0.0
 10
3.8788621481
 20
4.6579372717
 30
0.0
 10
3.8789184321
 20
4.6589228361
 30
0.0
 10
3.8789696065
 20
4.660009985
 30
0.0
 10
3.8790320888
 20
4.6616315722
 30
0.0
 10
3.8790920357
 20
4.663828819
 30
0.0
 10
3.879135149
 20
4.6666069144
 30
0.0
 10
3.879144897
 20
4.6685207002
 30
0.0
 10
3.879144897
 20
4.6694953416
 30
0.0
  0
SPLINE
  5
2BE
100
AcDbEntity
  8
ALL_ASSEMBLY_MEMBERS
100
AcDbSpline
 62
7
  6
CONTINUOUS
 70
0
 71
3
 72
25
 73
21
 74
0
 42
0.0000001
 43
0.0000001
 44
0.0000000001
 40
0.0
 40
0.0
 40
0.0
 40
0.0
 40
0.0028178664
 40
0.0047880674
 40
0.0072439402
 40
0.0137435832
 40
0.022461572
 40
0.0334379074
 40
0.0466823183
 40
0.0621907224
 40
0.0799345864
 40
0.1219404938
 40
0.1723086066
 40
0.2306212917
 40
0.2963174093
 40
0.3687266796
 40
0.4471726875
 40
0.6192084196
 40
0.8060711184
 40
1.0
 40
1.0
 40
1.0
 40
1.0
 10
3.4723777201
 20
4.6544953416
 30
0.0
 10
3.4723635581
 20
4.6544953416
 30
0.0
 10
3.4723405446
 20
4.6545094394
 30
0.0
 10
3.472318169
 20
4.6545376816
 30
0.0
 10
3.4722900411
 20
4.6545852315
 30
0.0
 10
3.4722573985
 20
4.6546681101
 30
0.0
 10
3.4722203595
 20
4.6547945209
 30
0.0
 10
3.4721835379
 20
4.654955996
 30
0.0
 10
3.4721468829
 20
4.6551523031
 30
0.0
 10
3.4721107015
 20
4.6553831935
 30
0.0
 10
3.4720603377
 20
4.655758077
 30
0.0
 10
3.4720010536
 20
4.656308403
 30
0.0
 10
3.4719362535
 20
4.6570629749
 30
0.0
 10
3.4718754296
 20
4.6579372717
 30
0.0
 10
3.4718191456
 20
4.6589228361
 30
0.0
 10
3.4717679712
 20
4.660009985
 30
0.0
 10
3.4717054888
 20
4.6616315722
 30
0.0
 10
3.4716455419
 20
4.6638288189
 30
0.0
 10
3.4716024287
 20
4.6666069144
 30
0.0
 10
3.4715926807
 20
4.6685207002
 30
0.0
 10
3.4715926807
 20
4.6694953416
 30
0.0
  0
SPLINE
  5
2BF
100
AcDbEntity
  8
ALL_ASSEMBLY_MEMBERS
100
AcDbSpline
 62
7
  6
CONTINUOUS
 70
0
 71
3
 72
25
 73
21
 74
0
 42
0.0000001
 43
0.0000001
 44
0.0000000001
 40
0.0
 40
0.0
 40
0.0
 40
0.0
 40
0.0028179754
 40
0.0047883819
 40
0.0072445452
 40
0.0137449405
 40
0.0224637724
 40
0.033440887
 40
0.0466858635
 40
0.0621946511
 40
0.0799393612
 40
0.1219481153
 40
0.1723197542
 40
0.2306367231
 40
0.2963406866
 40
0.3687585516
 40
0.4472108717
 40
0.6192500326
 40
0.8060865228
 40
1.0
 40
1.0
 40
1.0
 40
1.0
 10
2.9688687888
 20
4.6544953416
 30
0.0
 10
2.9688546263
 20
4.6544953416
 30
0.0
 10
2.9688316122
 20
4.6545094432
 30
0.0
 10
2.9688092372
 20
4.6545376893
 30
0.0
 10
2.9687811088
 20
4.6545852463
 30
0.0
 10
2.9687484657
 20
4.6546681346
 30
0.0
 10
2.9687114252
 20
4.6547945574
 30
0.0
 10
2.968674602
 20
4.6549560433
 30
0.0
 10
2.9686379447
 20
4.6551523588
 30
0.0
 10
2.9686017603
 20
4.6553832578
 30
0.0
 10
2.9685513945
 20
4.6557581616
 30
0.0
 10
2.9684921095
 20
4.6563085239
 30
0.0
 10
2.9684273083
 20
4.6570631493
 30
0.0
 10
2.9683664809
 20
4.6579375245
 30
0.0
 10
2.968310198
 20
4.658923193
 30
0.0
 10
2.9682590233
 20
4.6600104562
 30
0.0
 10
2.9681965371
 20
4.661632135
 30
0.0
 10
2.9681366064
 20
4.6638292988
 30
0.0
 10
2.9680934874
 20
4.6666072016
 30
0.0
 10
2.9680837494
 20
4.6685207778
 30
0.0
 10
2.9680837494
 20
4.6694953416
 30
0.0
  0
SPLINE
  5
2C0
100
AcDbEntity
  8
ALL_ASSEMBLY_MEMBERS
100
AcDbSpline
 62
7
  6
CONTINUOUS
 70
0
 71
3
 72
25
 73
21
 74
0
 42
0.0000001
 43
0.0000001
 44
0.0000000001
 40
0.0
 40
0.0
 40
0.0
 40
0.0
 40
0.002817911
 40
0.0047881975
 40
0.007244195
 40
0.0137441816
 40
0.0224626019
 40
0.0334394148
 40
0.0466843094
 40
0.0621932649
 40
0.0799380764
 40
0.1219464746
 40
0.172316608
 40
0.2306301423
 40
0.2963283168
 40
0.3687406485
 40
0.4471903223
 40
0.6192318085
 40
0.8060807904
 40
1.0
 40
1.0
 40
1.0
 40
1.0
 10
2.9688687888
 20
4.8419953416
 30
0.0
 10
2.9688546267
 20
4.8419953416
 30
0.0
 10
2.9688316129
 20
4.8419812423
 30
0.0
 10
2.9688092375
 20
4.8419529985
 30
0.0
 10
2.9687811093
 20
4.8419054455
 30
0.0
 10
2.9687484663
 20
4.8418225623
 30
0.0
 10
2.9687114265
 20
4.8416961452
 30
0.0
 10
2.9686746039
 20
4.8415346632
 30
0.0
 10
2.9686379475
 20
4.8413383486
 30
0.0
 10
2.9686017643
 20
4.8411074484
 30
0.0
 10
2.9685513992
 20
4.8407325449
 30
0.0
 10
2.9684921145
 20
4.8401821914
 30
0.0
 10
2.9684273137
 20
4.8394275926
 30
0.0
 10
2.9683664876
 20
4.8385532712
 30
0.0
 10
2.968310205
 20
4.8375676768
 30
0.0
 10
2.9682590315
 20
4.8364804838
 30
0.0
 10
2.9681965485
 20
4.834858834
 30
0.0
 10
2.9681366092
 20
4.8326616089
 30
0.0
 10
2.9680934907
 20
4.8298836024
 30
0.0
 10
2.9680837495
 20
4.8279699343
 30
0.0
 10
2.9680837495
 20
4.8269953416
 30
0.0
  0
SPLINE
  5
2C1
100
AcDbEntity
  8
ALL_ASSEMBLY_MEMBERS
100
AcDbSpline
 62
7
  6
CONTINUOUS
 70
0
 71
3
 72
25
 73
21
 74
0
 42
0.0000001
 43
0.0000001
 44
0.0000000001
 40
0.0
 40
0.0
 40
0.0
 40
0.0
 40
0.0028178664
 40
0.0047880674
 40
0.0072439401
 40
0.013743583
 40
0.0224615717
 40
0.0334379069
 40
0.0466823178
 40
0.0621907219
 40
0.0799345859
 40
0.1219404934
 40
0.1723086063
 40
0.2306212918
 40
0.2963174099
 40
0.3687266807
 40
0.4471726891
 40
0.6192084217
 40
0.8060711193
 40
1.0
 40
1.0
 40
1.0
 40
1.0
 10
3.4723777201
 20
4.8419953416
 30
0.0
 10
3.4723635581
 20
4.8419953416
 30
0.0
 10
3.4723405446
 20
4.8419812438
 30
0.0
 10
3.472318169
 20
4.8419530016
 30
0.0
 10
3.4722900411
 20
4.8419054517
 30
0.0
 10
3.4722573985
 20
4.8418225732
 30
0.0
 10
3.4722203595
 20
4.8416961623
 30
0.0
 10
3.4721835379
 20
4.8415346873
 30
0.0
 10
3.4721468829
 20
4.8413383802
 30
0.0
 10
3.4721107015
 20
4.8411074897
 30
0.0
 10
3.4720603377
 20
4.8407326063
 30
0.0
 10
3.4720010536
 20
4.8401822803
 30
0.0
 10
3.4719362535
 20
4.8394277083
 30
0.0
 10
3.4718754296
 20
4.8385534115
 30
0.0
 10
3.4718191456
 20
4.8375678472
 30
0.0
 10
3.4717679712
 20
4.8364806982
 30
0.0
 10
3.4717054888
 20
4.834859111
 30
0.0
 10
3.471645542
 20
4.8326618643
 30
0.0
 10
3.4716024286
 20
4.8298837688
 30
0.0
 10
3.4715926806
 20
4.827969983
 30
0.0
 10
3.4715926806
 20
4.8269953416
 30
0.0
  0
SPLINE
  5
2C2
100
AcDbEntity
  8
ALL_ASSEMBLY_MEMBERS
100
AcDbSpline
 62
7
  6
CONTINUOUS
 70
0
 71
3
 72
25
 73
21
 74
0
 42
0.0000001
 43
0.0000001
 44
0.0000000001
 40
0.0
 40
0.0
 40
0.0
 40
0.0
 40
0.0028178664
 40
0.0047880674
 40
0.0072439402
 40
0.0137435832
 40
0.022461572
 40
0.0334379074
 40
0.0466823183
 40
0.0621907224
 40
0.0799345864
 40
0.1219404938
 40
0.1723086066
 40
0.2306212917
 40
0.2963174093
 40
0.3687266796
 40
0.4471726875
 40
0.6192084196
 40
0.8060711184
 40
1.0
 40
1.0
 40
1.0
 40
1.0
 10
3.8783598576
 20
4.8419953416
 30
0.0
 10
3.8783740195
 20
4.8419953416
 30
0.0
 10
3.8783970331
 20
4.8419812438
 30
0.0
 10
3.8784194087
 20
4.8419530016
 30
0.0
 10
3.8784475365
 20
4.8419054517
 30
0.0
 10
3.8784801791
 20
4.8418225732
 30
0.0
 10
3.8785172182
 20
4.8416961623
 30
0.0
 10
3.8785540398
 20
4.8415346873
 30
0.0
 10
3.8785906948
 20
4.8413383802
 30
0.0
 10
3.8786268761
 20
4.8411074897
 30
0.0
 10
3.8786772399
 20
4.8407326063
 30
0.0
 10
3.878736524
 20
4.8401822803
 30
0.0
 10
3.8788013241
 20
4.8394277083
 30
0.0
 10
3.8788621481
 20
4.8385534115
 30
0.0
 10
3.8789184321
 20
4.8375678472
 30
0.0
 10
3.8789696065
 20
4.8364806982
 30
0.0
 10
3.8790320888
 20
4.834859111
 30
0.0
 10
3.8790920357
 20
4.8326618643
 30
0.0
 10
3.879135149
 20
4.8298837688
 30
0.0
 10
3.8791448969
 20
4.827969983
 30
0.0
 10
3.8791448969
 20
4.8269953416
 30
0.0
  0
SPLINE
  5
2C3
100
AcDbEntity
  8
ALL_ASSEMBLY_MEMBERS
100
AcDbSpline
 62
7
  6
CONTINUOUS
 70
0
 71
3
 72
25
 73
21
 74
0
 42
0.0000001
 43
0.0000001
 44
0.0000000001
 40
0.0
 40
0.0
 40
0.0
 40
0.0
 40
0.0028179755
 40
0.0047883823
 40
0.0072445457
 40
0.0137449416
 40
0.0224637741
 40
0.033440889
 40
0.0466858652
 40
0.0621946518
 40
0.0799393608
 40
0.1219481121
 40
0.1723197487
 40
0.2306367166
 40
0.2963406795
 40
0.3687585453
 40
0.4472108692
 40
0.6192500407
 40
0.8060865282
 40
1.0
 40
1.0
 40
1.0
 40
1.0
 10
4.3818687888
 20
4.8419953416
 30
0.0
 10
4.3818829513
 20
4.8419953416
 30
0.0
 10
4.3819059654
 20
4.84198124
 30
0.0
 10
4.3819283404
 20
4.841952994
 30
0.0
 10
4.3819564688
 20
4.8419054369
 30
0.0
 10
4.381989112
 20
4.8418225486
 30
0.0
 10
4.3820261524
 20
4.8416961258
 30
0.0
 10
4.3820629757
 20
4.8415346399
 30
0.0
 10
4.3820996329
 20
4.8413383244
 30
0.0
 10
4.3821358174
 20
4.8411074254
 30
0.0
 10
4.3821861831
 20
4.8407325217
 30
0.0
 10
4.3822454681
 20
4.8401821594
 30
0.0
 10
4.3823102693
 20
4.839427534
 30
0.0
 10
4.3823710967
 20
4.8385531588
 30
0.0
 10
4.3824273797
 20
4.8375674903
 30
0.0
 10
4.3824785543
 20
4.8364802271
 30
0.0
 10
4.3825410406
 20
4.8348585482
 30
0.0
 10
4.3826009713
 20
4.8326613843
 30
0.0
 10
4.3826440903
 20
4.8298834816
 30
0.0
 10
4.3826538284
 20
4.8279699054
 30
0.0
 10
4.3826538284
 20
4.8269953416
 30
0.0
  0
ENDSEC
  0
SECTION
  2
OBJECTS
  0
DICTIONARY
  5
C
100
AcDbDictionary
280
0
281
1
  3
ACAD_GROUP
350
D
  3
ACAD_MLINESTYLE
350
17
  3
ACAD_LAYOUT
350
1A
  3
ACAD_PLOTSETTINGS
350
19
  3
ACAD_PLOTSTYLENAME
350
E
  0
DICTIONARY
  5
D
102
{ACAD_REACTORS
330
C
102
}
100
AcDbDictionary
280
0
281
1
  0
ACDBDICTIONARYWDFLT
  5
E
102
{ACAD_REACTORS
330
C
102
}
100
AcDbDictionary
281
1
  3
Normal
350
F
100
AcDbDictionaryWithDefault
340
F
  0
DICTIONARY
  5
17
102
{ACAD_REACTORS
330
C
102
}
100
AcDbDictionary
280
0
281
1
  3
Standard
350
18
  0
DICTIONARY
  5
19
102
{ACAD_REACTORS
330
C
102
}
100
AcDbDictionary
281
1
  0
DICTIONARY
  5
1A
102
{ACAD_REACTORS
330
C
102
}
100
AcDbDictionary
281
1
  3
Model
350
2C4
  3
Layout1
350
2C5
  0
ACDBPLACEHOLDER
  5
F
102
{ACAD_REACTORS
330
E
102
}
  0
MLINESTYLE
  5
18
102
{ACAD_REACTORS
330
17
102
}
100
AcDbMlineStyle
  2
STANDARD
 70
0
  3

 62
256
 51
90.0
 52
90.0
 71
2
 49
0.5
 62
256
  6
BYLAYER
 49
-0.5
 62
256
  6
BYLAYER
  0
LAYOUT
  5
2C4
102
{ACAD_REACTORS
330
1A
102
}
100
AcDbPlotSettings
  1

  2
none_device
  4
ANSI_A_(11.00_x_8.50_Inches)
  6

 40
0.0
 41
0.0
 42
0.0
 43
0.0
 44
279.4
 45
215.9
 46
0.0
 47
0.0
 48
0.0
 49
0.0
140
0.0
141
0.0
142
1.0
143
1.0
 70
1024
 72
0
 73
0
 74
0
  7

 75
0
147
1.0
148
0.0
149
0.0
100
AcDbLayout
  1
Model
 70
0
 71
0
 10
0.0
 20
0.0
 11
11.0
 21
8.5
 12
0.0
 22
0.0
 32
0.0
 14
0.0
 24
0.0
 34
0.0
 15
0.0
 25
0.0
 35
0.0
146
0.0
 13
0.0
 23
0.0
 33
0.0
 16
1.0
 26
0.0
 36
0.0
 17
0.0
 27
1.0
 37
0.0
 76
0
330
223
345
0
346
0
  0
LAYOUT
  5
2C5
102
{ACAD_REACTORS
330
1A
102
}
100
AcDbPlotSettings
  1

  2
none_device
  4
ANSI_A_(11.00_x_8.50_Inches)
  6

 40
0.0
 41
0.0
 42
0.0
 43
0.0
 44
279.4
 45
215.9
 46
0.0
 47
0.0
 48
0.0
 49
0.0
140
0.0
141
0.0
142
1.0
143
1.0
 70
0
 72
0
 73
0
 74
0
  7

 75
0
147
1.0
148
0.0
149
0.0
100
AcDbLayout
  1
Layout1
 70
0
 71
1
 10
0.0
 20
0.0
 11
11.0
 21
8.5
 12
0.0
 22
0.0
 32
0.0
 14
0.0
 24
0.0
 34
0.0
 15
0.0
 25
0.0
 35
0.0
146
0.0
 13
0.0
 23
0.0
 33
0.0
 16
1.0
 26
0.0
 36
0.0
 17
0.0
 27
1.0
 37
0.0
 76
0
330
224
345
0
346
0
  0
ENDSEC
  0
EOF
