999
DXF file: E:\BT Custom\CADOUTPUT\_FRONT.dxf
999
Pro/ENGINEER 2018400 by Parametric Technology Corporation
  0
SECTION
  2
HEADER
  9
$ACADVER
  1
AC1018
  9
$DWGCODEPAGE
  3
ANSI_1252
  9
$EXTMAX
 10
22.0
 20
17.0
 30
0.0
  9
$EXTMIN
 10
0.0
 20
0.0
 30
0.0
  9
$LIMMIN
 10
0.0
 20
0.0
  9
$LIMMAX
 10
22.0
 20
17.0
  9
$VIEWCTR
 10
11.0
 20
8.5
  9
$VIEWSIZE
 40
17.0
  9
$CLAYER
  8
0
  9
$LTSCALE
 40
1.21
  9
$CELTYPE
  6
BYLAYER
  9
$DIMSCALE
 40
1.0
  9
$DIMASZ
 40
0.1
  9
$DIMEXO
 40
0.0625
  9
$DIMDLI
 40
0.836
  9
$DIMEXE
 40
0.125
  9
$DIMCEN
 40
0.198
  9
$DIMLFAC
 40
1.0
  9
$DIMBLK
  1
_FILLED
  9
$DIMALT
 70
1
  9
$DIMALTD
 70
2
  9
$DIMALTTD
 70
2
  9
$DIMALTF
 40
25.4
  9
$DIMTXT
 40
0.08
  9
$DIMTOL
 70
1
  9
$DIMLIM
 70
0
  9
$DIMTFAC
 40
1.0
  9
$DIMTP
 40
0.001
  9
$DIMTM
 40
0.001
  9
$DIMGAP
 40
0.09
  9
$DIMDSEP
 70
46
  9
$AUNITS
 70
0
  9
$PDMODE
 70
3
  9
$PDSIZE
 40
0.06
  9
$HANDSEED
  5
2A1
  9
$TILEMODE
 70
1
  9
$MEASUREMENT
 70
0
  9
$INSUNITS
 70
1
  0
ENDSEC
  0
SECTION
  2
CLASSES
  0
CLASS
  1
ACDBDICTIONARYWDFLT
  2
AcDbDictionaryWithDefault
  3
AutoCAD 2000
 90
0
 91
1
280
0
281
0
  0
CLASS
  1
ACDBPLACEHOLDER
  2
AcDbPlaceHolder
  3
AutoCAD 2000
 90
0
 91
1
280
0
281
0
  0
CLASS
  1
LAYOUT
  2
AcDbLayout
  3
AutoCAD 2000
 90
0
 91
0
280
0
281
0
  0
ENDSEC
  0
SECTION
  2
TABLES
  0
TABLE
  2
VPORT
  5
8
100
AcDbSymbolTable
 70
2
  0
VPORT
  5
1F4
100
AcDbSymbolTableRecord
100
AcDbViewportTableRecord
  2
*ACTIVE
 70
0
 10
0.0
 20
0.0
 11
1.0
 21
1.0
 12
11.0
 22
8.5
 13
0.0
 23
0.0
 14
1.0
 24
1.0
 15
0.0
 25
0.0
 16
0.0
 26
0.0
 36
1.0
 17
0.0
 27
0.0
 37
0.0
 40
17.0
 41
1.2941176471
 42
50.0
 43
0.0
 44
0.0
 50
0.0
 51
0.0
 71
0
 72
100
 73
1
 74
1
 75
0
 76
0
 77
0
 78
0
  0
ENDTAB
  0
TABLE
  2
LTYPE
  5
5
100
AcDbSymbolTable
 70
6
  0
LTYPE
  5
14
100
AcDbSymbolTableRecord
100
AcDbLinetypeTableRecord
  2
BYBLOCK
 70
0
  3

 72
65
 73
0
 40
0.0
  0
LTYPE
  5
15
100
AcDbSymbolTableRecord
100
AcDbLinetypeTableRecord
  2
BYLAYER
 70
0
  3

 72
65
 73
0
 40
0.0
  0
LTYPE
  5
16
100
AcDbSymbolTableRecord
100
AcDbLinetypeTableRecord
  2
CONTINUOUS
 70
64
  3
Solid line
 72
65
 73
0
 40
0.0
  0
LTYPE
  5
1F5
100
AcDbSymbolTableRecord
100
AcDbLinetypeTableRecord
  2
CENTER
 70
64
  3
____ _ ____ _ ____ _ ____ _ ____ _ ____ _ ____
 72
65
 73
4
 40
0.6
 49
0.375
 74
0
 49
-0.075
 74
0
 49
0.075
 74
0
 49
-0.075
 74
0
  0
LTYPE
  5
1F6
100
AcDbSymbolTableRecord
100
AcDbLinetypeTableRecord
  2
HIDDEN
 70
64
  3
- - - - - - - - - - - - - - - - - - - -
 72
65
 73
2
 40
0.2
 49
0.1
 74
0
 49
-0.1
 74
0
  0
LTYPE
  5
1F7
100
AcDbSymbolTableRecord
100
AcDbLinetypeTableRecord
  2
PHANTOM
 70
64
  3
_____ _ _ _____ _ _ _____ _ _ _____
 72
65
 73
6
 40
0.8
 49
0.45
 74
0
 49
-0.05
 74
0
 49
0.1
 74
0
 49
-0.05
 74
0
 49
0.1
 74
0
 49
-0.05
 74
0
  0
LTYPE
  5
1F8
100
AcDbSymbolTableRecord
100
AcDbLinetypeTableRecord
  2
DOT
 70
64
  3
. . . . . . . . . . . . . . . . . . . .
 72
65
 73
2
 40
0.2
 49
0.1
 74
0
 49
-0.1
 74
0
  0
LTYPE
  5
1F9
100
AcDbSymbolTableRecord
100
AcDbLinetypeTableRecord
  2
DASHED
 70
64
  3
- - - - - - - - - - - - - - - - - - - -
 72
65
 73
2
 40
0.2
 49
0.1
 74
0
 49
-0.1
 74
0
  0
ENDTAB
  0
TABLE
  2
LAYER
  5
2
100
AcDbSymbolTable
 70
36
  0
LAYER
  5
10
100
AcDbSymbolTableRecord
100
AcDbLayerTableRecord
  2
0
 70
0
 62
7
  6
CONTINUOUS
370
-3
390
F
  0
LAYER
  5
1FA
100
AcDbSymbolTableRecord
100
AcDbLayerTableRecord
  2
DEFAULT_1
 70
0
 62
7
  6
CENTER
370
-3
390
F
  0
LAYER
  5
1FB
100
AcDbSymbolTableRecord
100
AcDbLayerTableRecord
  2
DEFAULT_2
 70
0
 62
8
  6
HIDDEN
370
-3
390
F
  0
LAYER
  5
1FC
100
AcDbSymbolTableRecord
100
AcDbLayerTableRecord
  2
DEFAULT_3
 70
0
 62
7
  6
PHANTOM
370
-3
390
F
  0
LAYER
  5
1FD
100
AcDbSymbolTableRecord
100
AcDbLayerTableRecord
  2
ALL_FEATURES
 70
0
 62
7
  6
CONTINUOUS
370
-3
390
F
  0
LAYER
  5
1FE
100
AcDbSymbolTableRecord
100
AcDbLayerTableRecord
  2
AXES_FEATURES
 70
0
 62
7
  6
CONTINUOUS
370
-3
390
F
  0
LAYER
  5
1FF
100
AcDbSymbolTableRecord
100
AcDbLayerTableRecord
  2
DIMENSIONS
 70
0
 62
7
  6
CONTINUOUS
370
-3
390
F
  0
ENDTAB
  0
TABLE
  2
STYLE
  5
3
100
AcDbSymbolTable
 70
1
  0
STYLE
  5
11
100
AcDbSymbolTableRecord
100
AcDbTextStyleTableRecord
  2
STANDARD
 70
0
 40
0.0
 41
0.8
 50
0.0
 71
0
 42
0.2
  3
txt
  4

  0
STYLE
  5
200
100
AcDbSymbolTableRecord
100
AcDbTextStyleTableRecord
  2
TEXTSTYLE_1
 70
0
 40
0.0
 41
0.8
 50
0.0
 71
0
 42
0.2
  3
gdt
  4

  0
ENDTAB
  0
TABLE
  2
VIEW
  5
6
100
AcDbSymbolTable
 70
0
  0
ENDTAB
  0
TABLE
  2
UCS
  5
7
100
AcDbSymbolTable
 70
0
  0
ENDTAB
  0
TABLE
  2
APPID
  5
9
100
AcDbSymbolTable
 70
1
  0
APPID
  5
201
100
AcDbSymbolTableRecord
100
AcDbRegAppTableRecord
  2
ACAD
 70
0
  0
ENDTAB
  0
TABLE
  2
BLOCK_RECORD
  5
1
100
AcDbSymbolTable
 70
0
  0
BLOCK_RECORD
  5
202
100
AcDbSymbolTableRecord
100
AcDbBlockTableRecord
  2
*Model_Space
  0
BLOCK_RECORD
  5
203
100
AcDbSymbolTableRecord
100
AcDbBlockTableRecord
  2
*Paper_Space
  0
BLOCK_RECORD
  5
204
100
AcDbSymbolTableRecord
100
AcDbBlockTableRecord
  2
_FILLED
  0
ENDTAB
  0
TABLE
  2
DIMSTYLE
  5
A
100
AcDbSymbolTable
 70
1
100
AcDbDimStyleTable
 71
0
  0
DIMSTYLE
105
205
100
AcDbSymbolTableRecord
100
AcDbDimStyleTableRecord
  2
STANDARD
 70
0
  3

  4

 40
1.0
 41
0.1
 42
0.0625
 43
0.38
 44
0.125
 45
0.0
 46
0.0
 47
0.001
 48
0.001
140
0.08
141
0.09
142
0.0
143
25.4
144
1.0
145
0.0
146
1.0
147
0.09
 71
1.0
 72
0.0
 73
1
 74
1
 75
0
 76
0
 77
0
 78
4
 79
1
170
1
171
2
172
0
173
0
174
0
175
0
176
0
177
0
178
0
270
2
179
3
271
3
272
3
273
2
274
2
275
0
280
0
281
0
282
0
283
1
284
4
285
0
286
0
287
3
288
0
340
11
278
46
341
204
342
204
343
204
344
204
  0
ENDTAB
  0
ENDSEC
  0
SECTION
  2
BLOCKS
  0
BLOCK
  5
20
100
AcDbEntity
  8
0
100
AcDbBlockBegin
  2
*Model_Space
 70
0
 10
0.0
 20
0.0
 30
0.0
  3
*Model_Space
  1

  0
ENDBLK
  5
21
100
AcDbEntity
  8
0
100
AcDbBlockEnd
  0
BLOCK
  5
1C
100
AcDbEntity
  8
0
100
AcDbBlockBegin
  2
*Paper_Space
 70
0
 10
0.0
 20
0.0
 30
0.0
  3
*Paper_Space
  1

  0
ENDBLK
  5
1D
100
AcDbEntity
  8
0
100
AcDbBlockEnd
  0
BLOCK
  5
206
100
AcDbEntity
  8
0
100
AcDbBlockBegin
  2
_FILLED
 70
64
 10
0.0
 20
0.0
  3
_FILLED
  1

  0
SOLID
  5
207
100
AcDbEntity
  8
0
  6
BYBLOCK
 62
0
100
AcDbTrace
 10
0.0
 20
0.0
 11
-1.0
 21
0.2
 12
-1.0
 22
-0.2
 13
-1.0
 23
-0.2
  0
ENDBLK
  5
208
100
AcDbEntity
  8
0
  6
BYBLOCK
 62
0
100
AcDbBlockEnd
  0
ENDSEC
  0
SECTION
  2
ENTITIES
  0
LINE
  5
209
100
AcDbEntity
  8
0
100
AcDbLine
 62
7
  6
CONTINUOUS
 10
5.8376923427
 20
3.2789195021
 11
8.0376923427
 21
3.2789195021
  0
LINE
  5
20A
100
AcDbEntity
  8
0
100
AcDbLine
 62
7
  6
CONTINUOUS
 10
9.7501946004
 20
3.2789195021
 11
12.1251900851
 21
3.2789195021
  0
LINE
  5
20B
100
AcDbEntity
  8
0
100
AcDbLine
 62
7
  6
CONTINUOUS
 10
13.8376923427
 20
3.2789195021
 11
16.0376923427
 21
3.2789195021
  0
LINE
  5
20C
100
AcDbEntity
  8
0
100
AcDbLine
 62
7
  6
CONTINUOUS
 10
5.4946923427
 20
5.8039195021
 11
5.4946923427
 21
6.1189195021
  0
LINE
  5
20D
100
AcDbEntity
  8
0
100
AcDbLine
 62
9
  6
CONTINUOUS
 10
5.5231222639
 20
6.1189195021
 11
5.5231222638
 21
5.8039195021
  0
LINE
  5
20E
100
AcDbEntity
  8
0
100
AcDbLine
 62
9
  6
CONTINUOUS
 10
16.0376923427
 20
3.4359195021
 11
13.8376923427
 21
3.4359195021
  0
LINE
  5
20F
100
AcDbEntity
  8
0
100
AcDbLine
 62
9
  6
CONTINUOUS
 10
8.0376923427
 20
3.4359195021
 11
5.8376923427
 21
3.4359195021
  0
LINE
  5
210
100
AcDbEntity
  8
0
100
AcDbLine
 62
7
  6
CONTINUOUS
 10
16.0076923427
 20
3.4659195021
 11
13.8676923427
 21
3.4659195021
  0
LINE
  5
211
100
AcDbEntity
  8
0
100
AcDbLine
 62
7
  6
CONTINUOUS
 10
8.0076923427
 20
3.4659195021
 11
5.8676923427
 21
3.4659195021
  0
LINE
  5
212
100
AcDbEntity
  8
0
100
AcDbLine
 62
7
  6
CONTINUOUS
 10
6.1876923427
 20
3.4759195021
 11
7.6876923427
 21
3.4759195021
  0
LINE
  5
213
100
AcDbEntity
  8
0
100
AcDbLine
 62
7
  6
CONTINUOUS
 10
14.1876923427
 20
3.4759195021
 11
15.6876923427
 21
3.4759195021
  0
LINE
  5
214
100
AcDbEntity
  8
0
100
AcDbLine
 62
9
  6
CONTINUOUS
 10
15.6876923427
 20
3.5225934472
 11
14.1876923427
 21
3.5225934472
  0
LINE
  5
215
100
AcDbEntity
  8
0
100
AcDbLine
 62
9
  6
CONTINUOUS
 10
7.6876923427
 20
3.5225934472
 11
6.1876923427
 21
3.5225934472
  0
LINE
  5
216
100
AcDbEntity
  8
0
100
AcDbLine
 62
9
  6
CONTINUOUS
 10
15.6608461562
 20
3.5603687989
 11
14.2145385293
 21
3.5603687989
  0
LINE
  5
217
100
AcDbEntity
  8
0
100
AcDbLine
 62
9
  6
CONTINUOUS
 10
7.6608461562
 20
3.5603687989
 11
6.2145385293
 21
3.5603687989
  0
LINE
  5
218
100
AcDbEntity
  8
0
100
AcDbLine
 62
9
  6
CONTINUOUS
 10
6.2681821685
 20
3.6331275424
 11
7.6071872637
 21
3.6331275424
  0
LINE
  5
219
100
AcDbEntity
  8
0
100
AcDbLine
 62
9
  6
CONTINUOUS
 10
14.2681821685
 20
3.6331275424
 11
15.6071872637
 21
3.6331275424
  0
LINE
  5
21A
100
AcDbEntity
  8
0
100
AcDbLine
 62
7
  6
CONTINUOUS
 10
5.8376923427
 20
3.4359195021
 11
5.8376923427
 21
3.2789195021
  0
LINE
  5
21B
100
AcDbEntity
  8
0
100
AcDbLine
 62
7
  6
CONTINUOUS
 10
12.1251900851
 20
4.3819195021
 11
9.7501946004
 21
4.3819195021
  0
LINE
  5
21C
100
AcDbEntity
  8
0
100
AcDbLine
 62
7
  6
CONTINUOUS
 10
6.1876923427
 20
3.5225934472
 11
6.1876923427
 21
3.4759195021
  0
LINE
  5
21D
100
AcDbEntity
  8
0
100
AcDbLine
 62
7
  6
CONTINUOUS
 10
6.3001923427
 20
3.4759195021
 11
6.3001923427
 21
3.4659195021
  0
LINE
  5
21E
100
AcDbEntity
  8
0
100
AcDbLine
 62
9
  6
CONTINUOUS
 10
6.5301401265
 20
5.8039195021
 11
6.5301401264
 21
6.1189195021
  0
LINE
  5
21F
100
AcDbEntity
  8
0
100
AcDbLine
 62
7
  6
CONTINUOUS
 10
6.6251923427
 20
5.7339195021
 11
6.6251923427
 21
5.3569195021
  0
LINE
  5
220
100
AcDbEntity
  8
0
100
AcDbLine
 62
9
  6
CONTINUOUS
 10
6.6484268238
 20
6.1189195021
 11
6.6484268238
 21
5.8039195021
  0
LINE
  5
221
100
AcDbEntity
  8
0
100
AcDbLine
 62
7
  6
CONTINUOUS
 10
6.6751923427
 20
5.3569195021
 11
6.6751923427
 21
5.3259195021
  0
LINE
  5
222
100
AcDbEntity
  8
0
100
AcDbLine
 62
7
  6
CONTINUOUS
 10
6.3261835986
 20
5.2940711855
 11
6.2681821685
 21
3.6331275424
  0
LINE
  5
223
100
AcDbEntity
  8
0
100
AcDbLine
 62
9
  6
CONTINUOUS
 10
6.7012023937
 20
5.8039195021
 11
6.7012023937
 21
6.1189195021
  0
LINE
  5
224
100
AcDbEntity
  8
0
100
AcDbLine
 62
9
  6
CONTINUOUS
 10
6.7311612797
 20
6.1489195021
 11
6.7311612797
 21
5.7739195021
  0
LINE
  5
225
100
AcDbEntity
  8
0
100
AcDbLine
 62
9
  6
CONTINUOUS
 10
7.1442234057
 20
5.7739195021
 11
7.1442234057
 21
6.1489195021
  0
LINE
  5
226
100
AcDbEntity
  8
0
100
AcDbLine
 62
9
  6
CONTINUOUS
 10
7.1741822918
 20
6.1189195021
 11
7.1741822918
 21
5.8039195021
  0
LINE
  5
227
100
AcDbEntity
  8
0
100
AcDbLine
 62
7
  6
CONTINUOUS
 10
7.2001923427
 20
5.3569195021
 11
7.2001923427
 21
5.3259195021
  0
LINE
  5
228
100
AcDbEntity
  8
0
100
AcDbLine
 62
9
  6
CONTINUOUS
 10
7.2269578616
 20
5.8039195021
 11
7.2269578616
 21
6.1189195021
  0
LINE
  5
229
100
AcDbEntity
  8
0
100
AcDbLine
 62
9
  6
CONTINUOUS
 10
15.5492010869
 20
5.2940711855
 11
14.3261835986
 21
5.2940711855
  0
LINE
  5
22A
100
AcDbEntity
  8
0
100
AcDbLine
 62
9
  6
CONTINUOUS
 10
7.5492010869
 20
5.2940711855
 11
6.3261835986
 21
5.2940711855
  0
LINE
  5
22B
100
AcDbEntity
  8
0
100
AcDbLine
 62
7
  6
CONTINUOUS
 10
15.5162211896
 20
5.3259195021
 11
14.3591634959
 21
5.3259195021
  0
LINE
  5
22C
100
AcDbEntity
  8
0
100
AcDbLine
 62
7
  6
CONTINUOUS
 10
7.5162211896
 20
5.3259195021
 11
6.3591634959
 21
5.3259195021
  0
LINE
  5
22D
100
AcDbEntity
  8
0
100
AcDbLine
 62
7
  6
CONTINUOUS
 10
6.6252043715
 20
5.3569195021
 11
7.250180314
 21
5.3569195021
  0
LINE
  5
22E
100
AcDbEntity
  8
0
100
AcDbLine
 62
7
  6
CONTINUOUS
 10
14.6252043715
 20
5.3569195021
 11
15.250180314
 21
5.3569195021
  0
LINE
  5
22F
100
AcDbEntity
  8
0
100
AcDbLine
 62
7
  6
CONTINUOUS
 10
7.5492010869
 20
5.2940711855
 11
7.607202517
 21
3.6331275424
  0
LINE
  5
230
100
AcDbEntity
  8
0
100
AcDbLine
 62
7
  6
CONTINUOUS
 10
7.2501923427
 20
5.7339195021
 11
7.2501923427
 21
5.3569195021
  0
LINE
  5
231
100
AcDbEntity
  8
0
100
AcDbLine
 62
9
  6
CONTINUOUS
 10
7.345244559
 20
6.1189195021
 11
7.3452445591
 21
5.8039195021
  0
LINE
  5
232
100
AcDbEntity
  8
0
100
AcDbLine
 62
7
  6
CONTINUOUS
 10
7.5751923427
 20
3.4759195021
 11
7.5751923427
 21
3.4659195021
  0
LINE
  5
233
100
AcDbEntity
  8
0
100
AcDbLine
 62
7
  6
CONTINUOUS
 10
7.6876923427
 20
3.5225934472
 11
7.6876923427
 21
3.4759195021
  0
LINE
  5
234
100
AcDbEntity
  8
0
100
AcDbLine
 62
9
  6
CONTINUOUS
 10
15.2501923427
 20
5.7339195021
 11
14.6251923427
 21
5.7339195021
  0
LINE
  5
235
100
AcDbEntity
  8
0
100
AcDbLine
 62
9
  6
CONTINUOUS
 10
7.2501923427
 20
5.7339195021
 11
6.6251923427
 21
5.7339195021
  0
LINE
  5
236
100
AcDbEntity
  8
0
100
AcDbLine
 62
7
  6
CONTINUOUS
 10
5.5246923427
 20
5.7739195021
 11
8.3506923427
 21
5.7739195021
  0
LINE
  5
237
100
AcDbEntity
  8
0
100
AcDbLine
 62
7
  6
CONTINUOUS
 10
13.5246923427
 20
5.7739195021
 11
16.3506923427
 21
5.7739195021
  0
LINE
  5
238
100
AcDbEntity
  8
0
100
AcDbLine
 62
9
  6
CONTINUOUS
 10
5.4946923427
 20
5.8039195021
 11
8.3806923427
 21
5.8039195021
  0
LINE
  5
239
100
AcDbEntity
  8
0
100
AcDbLine
 62
9
  6
CONTINUOUS
 10
13.4946923427
 20
5.8039195021
 11
16.3806923427
 21
5.8039195021
  0
LINE
  5
23A
100
AcDbEntity
  8
0
100
AcDbLine
 62
7
  6
CONTINUOUS
 10
8.0376923427
 20
3.4359195021
 11
8.0376923427
 21
3.2789195021
  0
LINE
  5
23B
100
AcDbEntity
  8
0
100
AcDbLine
 62
9
  6
CONTINUOUS
 10
16.3806923427
 20
6.1189195021
 11
13.4946923427
 21
6.1189195021
  0
LINE
  5
23C
100
AcDbEntity
  8
0
100
AcDbLine
 62
9
  6
CONTINUOUS
 10
8.3806923427
 20
6.1189195021
 11
5.4946923427
 21
6.1189195021
  0
LINE
  5
23D
100
AcDbEntity
  8
0
100
AcDbLine
 62
7
  6
CONTINUOUS
 10
5.5246923427
 20
6.1489195021
 11
8.3506923427
 21
6.1489195021
  0
LINE
  5
23E
100
AcDbEntity
  8
0
100
AcDbLine
 62
7
  6
CONTINUOUS
 10
13.5246923427
 20
6.1489195021
 11
16.3506923427
 21
6.1489195021
  0
LINE
  5
23F
100
AcDbEntity
  8
0
100
AcDbLine
 62
9
  6
CONTINUOUS
 10
8.3522624215
 20
5.8039195021
 11
8.3522624215
 21
6.1189195021
  0
LINE
  5
240
100
AcDbEntity
  8
0
100
AcDbLine
 62
7
  6
CONTINUOUS
 10
8.3806923427
 20
6.1189195021
 11
8.3806923427
 21
5.8039195021
  0
LINE
  5
241
100
AcDbEntity
  8
0
100
AcDbLine
 62
7
  6
CONTINUOUS
 10
11.6251902575
 20
6.8189195021
 11
10.250194428
 21
6.8189195021
  0
LINE
  5
242
100
AcDbEntity
  8
0
100
AcDbLine
 62
7
  6
CONTINUOUS
 10
9.7501923427
 20
4.3819195021
 11
9.7501923427
 21
3.2789195021
  0
LINE
  5
243
100
AcDbEntity
  8
0
100
AcDbLine
 62
7
  6
CONTINUOUS
 10
10.2501923427
 20
6.8189195021
 11
10.2501923427
 21
4.3819195021
  0
LINE
  5
244
100
AcDbEntity
  8
0
100
AcDbLine
 62
7
  6
CONTINUOUS
 10
10.4376923427
 20
6.8189195021
 11
10.4376923427
 21
14.7564195021
  0
LINE
  5
245
100
AcDbEntity
  8
0
100
AcDbLine
 62
7
  6
CONTINUOUS
 10
11.4376923427
 20
6.8189195021
 11
11.4376923427
 21
14.7564195021
  0
LINE
  5
246
100
AcDbEntity
  8
0
100
AcDbLine
 62
7
  6
CONTINUOUS
 10
10.43772429
 20
9.7064195021
 11
11.4376603955
 21
9.7064195021
  0
LINE
  5
247
100
AcDbEntity
  8
0
100
AcDbLine
 62
7
  6
CONTINUOUS
 10
11.6251923427
 20
6.8189195021
 11
11.6251923427
 21
4.3819195021
  0
LINE
  5
248
100
AcDbEntity
  8
0
100
AcDbLine
 62
7
  6
CONTINUOUS
 10
12.1251923427
 20
4.3819195021
 11
12.1251923427
 21
3.2789195021
  0
LINE
  5
249
100
AcDbEntity
  8
0
100
AcDbLine
 62
9
  6
CONTINUOUS
 10
11.4376923427
 20
10.8189195021
 11
10.4376923427
 21
10.8189195021
  0
LINE
  5
24A
100
AcDbEntity
  8
0
100
AcDbLine
 62
7
  6
CONTINUOUS
 10
13.4946923427
 20
5.8039195021
 11
13.4946923427
 21
6.1189195021
  0
LINE
  5
24B
100
AcDbEntity
  8
0
100
AcDbLine
 62
9
  6
CONTINUOUS
 10
13.5231222639
 20
6.1189195021
 11
13.5231222638
 21
5.8039195021
  0
LINE
  5
24C
100
AcDbEntity
  8
0
100
AcDbLine
 62
7
  6
CONTINUOUS
 10
13.8376923427
 20
3.4359195021
 11
13.8376923427
 21
3.2789195021
  0
LINE
  5
24D
100
AcDbEntity
  8
0
100
AcDbLine
 62
7
  6
CONTINUOUS
 10
14.1876923427
 20
3.5225934472
 11
14.1876923427
 21
3.4759195021
  0
LINE
  5
24E
100
AcDbEntity
  8
0
100
AcDbLine
 62
7
  6
CONTINUOUS
 10
14.3001923427
 20
3.4759195021
 11
14.3001923427
 21
3.4659195021
  0
LINE
  5
24F
100
AcDbEntity
  8
0
100
AcDbLine
 62
9
  6
CONTINUOUS
 10
14.5301401265
 20
5.8039195021
 11
14.5301401264
 21
6.1189195021
  0
LINE
  5
250
100
AcDbEntity
  8
0
100
AcDbLine
 62
7
  6
CONTINUOUS
 10
14.6251923427
 20
5.7339195021
 11
14.6251923427
 21
5.3569195021
  0
LINE
  5
251
100
AcDbEntity
  8
0
100
AcDbLine
 62
9
  6
CONTINUOUS
 10
14.6484268238
 20
6.1189195021
 11
14.6484268238
 21
5.8039195021
  0
LINE
  5
252
100
AcDbEntity
  8
0
100
AcDbLine
 62
7
  6
CONTINUOUS
 10
14.6751923427
 20
5.3569195021
 11
14.6751923427
 21
5.3259195021
  0
LINE
  5
253
100
AcDbEntity
  8
0
100
AcDbLine
 62
9
  6
CONTINUOUS
 10
14.7012023937
 20
5.8039195021
 11
14.7012023937
 21
6.1189195021
  0
LINE
  5
254
100
AcDbEntity
  8
0
100
AcDbLine
 62
9
  6
CONTINUOUS
 10
14.7311612797
 20
6.1489195021
 11
14.7311612797
 21
5.7739195021
  0
LINE
  5
255
100
AcDbEntity
  8
0
100
AcDbLine
 62
7
  6
CONTINUOUS
 10
14.3261835986
 20
5.2940711855
 11
14.2681821685
 21
3.6331275424
  0
LINE
  5
256
100
AcDbEntity
  8
0
100
AcDbLine
 62
9
  6
CONTINUOUS
 10
15.1442234057
 20
5.7739195021
 11
15.1442234057
 21
6.1489195021
  0
LINE
  5
257
100
AcDbEntity
  8
0
100
AcDbLine
 62
9
  6
CONTINUOUS
 10
15.1741822918
 20
6.1189195021
 11
15.1741822918
 21
5.8039195021
  0
LINE
  5
258
100
AcDbEntity
  8
0
100
AcDbLine
 62
7
  6
CONTINUOUS
 10
15.2001923427
 20
5.3569195021
 11
15.2001923427
 21
5.3259195021
  0
LINE
  5
259
100
AcDbEntity
  8
0
100
AcDbLine
 62
9
  6
CONTINUOUS
 10
15.2269578616
 20
5.8039195021
 11
15.2269578616
 21
6.1189195021
  0
LINE
  5
25A
100
AcDbEntity
  8
0
100
AcDbLine
 62
7
  6
CONTINUOUS
 10
15.2501923427
 20
5.7339195021
 11
15.2501923427
 21
5.3569195021
  0
LINE
  5
25B
100
AcDbEntity
  8
0
100
AcDbLine
 62
7
  6
CONTINUOUS
 10
15.5492010869
 20
5.2940711855
 11
15.607202517
 21
3.6331275424
  0
LINE
  5
25C
100
AcDbEntity
  8
0
100
AcDbLine
 62
9
  6
CONTINUOUS
 10
15.345244559
 20
6.1189195021
 11
15.3452445591
 21
5.8039195021
  0
LINE
  5
25D
100
AcDbEntity
  8
0
100
AcDbLine
 62
7
  6
CONTINUOUS
 10
15.5751923427
 20
3.4759195021
 11
15.5751923427
 21
3.4659195021
  0
LINE
  5
25E
100
AcDbEntity
  8
0
100
AcDbLine
 62
7
  6
CONTINUOUS
 10
15.6876923427
 20
3.5225934472
 11
15.6876923427
 21
3.4759195021
  0
LINE
  5
25F
100
AcDbEntity
  8
0
100
AcDbLine
 62
7
  6
CONTINUOUS
 10
16.0376923427
 20
3.4359195021
 11
16.0376923427
 21
3.2789195021
  0
LINE
  5
260
100
AcDbEntity
  8
0
100
AcDbLine
 62
9
  6
CONTINUOUS
 10
16.3522624215
 20
5.8039195021
 11
16.3522624215
 21
6.1189195021
  0
LINE
  5
261
100
AcDbEntity
  8
0
100
AcDbLine
 62
7
  6
CONTINUOUS
 10
16.3806923427
 20
6.1189195021
 11
16.3806923427
 21
5.8039195021
  0
ARC
  5
262
100
AcDbEntity
  8
0
100
AcDbCircle
 62
7
  6
CONTINUOUS
 10
6.1882309023
 20
3.6359195021
 40
0.08
100
AcDbArc
 50
289.1987071252
 51
358.0
  0
ARC
  5
263
100
AcDbEntity
  8
0
100
AcDbCircle
 62
7
  6
CONTINUOUS
 10
6.2276923427
 20
3.5225934472
 40
0.04
100
AcDbArc
 50
109.1987071253
 51
180.0
  0
ARC
  5
264
100
AcDbEntity
  8
0
100
AcDbCircle
 62
7
  6
CONTINUOUS
 10
5.8676923427
 20
3.4359195021
 40
0.03
100
AcDbArc
 50
90.0
 51
180.0
  0
ARC
  5
265
100
AcDbEntity
  8
0
100
AcDbCircle
 62
7
  6
CONTINUOUS
 10
6.5851923427
 20
5.7339195021
 40
0.04
100
AcDbArc
 50
0.0
 51
90.0
  0
ARC
  5
266
100
AcDbEntity
  8
0
100
AcDbCircle
 62
7
  6
CONTINUOUS
 10
6.3591634959
 20
5.2929195021
 40
0.033
100
AcDbArc
 50
90.0
 51
178.0000000003
  0
ARC
  5
267
100
AcDbEntity
  8
0
100
AcDbCircle
 62
7
  6
CONTINUOUS
 10
5.5246923427
 20
6.1189195021
 40
0.03
100
AcDbArc
 50
90.0
 51
180.0
  0
ARC
  5
268
100
AcDbEntity
  8
0
100
AcDbCircle
 62
7
  6
CONTINUOUS
 10
5.5246923427
 20
5.8039195021
 40
0.03
100
AcDbArc
 50
180.0
 51
270.0
  0
ARC
  5
269
100
AcDbEntity
  8
0
100
AcDbCircle
 62
9
  6
CONTINUOUS
 10
6.7311840355
 20
6.1189425754
 40
0.0299788069
100
AcDbArc
 50
90.0434938155
 51
180.0440936216
  0
ARC
  5
26A
100
AcDbEntity
  8
0
100
AcDbCircle
 62
9
  6
CONTINUOUS
 10
6.6784084656
 20
6.1189425755
 40
0.0299788067
100
AcDbArc
 50
90.0434936912
 51
180.0440938521
  0
ARC
  5
26B
100
AcDbEntity
  8
0
100
AcDbCircle
 62
9
  6
CONTINUOUS
 10
6.7311840338
 20
5.8038964292
 40
0.0299788059
100
AcDbArc
 50
179.9559069479
 51
269.9565094114
  0
ARC
  5
26C
100
AcDbEntity
  8
0
100
AcDbCircle
 62
9
  6
CONTINUOUS
 10
6.6784084639
 20
5.8038964291
 40
0.0299788057
100
AcDbArc
 50
179.9559067054
 51
269.9565095274
  0
ARC
  5
26D
100
AcDbEntity
  8
0
100
AcDbCircle
 62
7
  6
CONTINUOUS
 10
7.6871537832
 20
3.6359195021
 40
0.08
100
AcDbArc
 50
182.0
 51
250.8012928748
  0
ARC
  5
26E
100
AcDbEntity
  8
0
100
AcDbCircle
 62
7
  6
CONTINUOUS
 10
7.6476923427
 20
3.5225934472
 40
0.04
100
AcDbArc
 50
0.0
 51
70.8012928747
  0
ARC
  5
26F
100
AcDbEntity
  8
0
100
AcDbCircle
 62
7
  6
CONTINUOUS
 10
8.0076923427
 20
3.4359195021
 40
0.03
100
AcDbArc
 50
0.0
 51
90.0
  0
ARC
  5
270
100
AcDbEntity
  8
0
100
AcDbCircle
 62
7
  6
CONTINUOUS
 10
7.2901923427
 20
5.7339195021
 40
0.04
100
AcDbArc
 50
90.0
 51
180.0
  0
ARC
  5
271
100
AcDbEntity
  8
0
100
AcDbCircle
 62
7
  6
CONTINUOUS
 10
7.5162211896
 20
5.2929195021
 40
0.033
100
AcDbArc
 50
1.9999999997
 51
90.0
  0
ARC
  5
272
100
AcDbEntity
  8
0
100
AcDbCircle
 62
7
  6
CONTINUOUS
 10
8.3506923427
 20
6.1189195021
 40
0.03
100
AcDbArc
 50
0.0
 51
90.0
  0
ARC
  5
273
100
AcDbEntity
  8
0
100
AcDbCircle
 62
7
  6
CONTINUOUS
 10
8.3506923427
 20
5.8039195021
 40
0.03
100
AcDbArc
 50
270.0
 51
360.0
  0
ARC
  5
274
100
AcDbEntity
  8
0
100
AcDbCircle
 62
9
  6
CONTINUOUS
 10
7.144200648
 20
6.1189425761
 40
0.029978808
100
AcDbArc
 50
359.9559050484
 51
89.9565023879
  0
ARC
  5
275
100
AcDbEntity
  8
0
100
AcDbCircle
 62
9
  6
CONTINUOUS
 10
7.1969762178
 20
6.1189425761
 40
0.029978808
100
AcDbArc
 50
359.9559050553
 51
89.9565024332
  0
ARC
  5
276
100
AcDbEntity
  8
0
100
AcDbCircle
 62
9
  6
CONTINUOUS
 10
7.1442006517
 20
5.8038964291
 40
0.0299788057
100
AcDbArc
 50
270.0434904663
 51
0.0440933011
  0
ARC
  5
277
100
AcDbEntity
  8
0
100
AcDbCircle
 62
9
  6
CONTINUOUS
 10
7.1969762216
 20
5.8038964291
 40
0.0299788057
100
AcDbArc
 50
270.0434904664
 51
0.0440933009
  0
ARC
  5
278
100
AcDbEntity
  8
0
100
AcDbCircle
 62
7
  6
CONTINUOUS
 10
14.1882309023
 20
3.6359195021
 40
0.08
100
AcDbArc
 50
289.1987071252
 51
358.0
  0
ARC
  5
279
100
AcDbEntity
  8
0
100
AcDbCircle
 62
7
  6
CONTINUOUS
 10
14.2276923427
 20
3.5225934472
 40
0.04
100
AcDbArc
 50
109.1987071253
 51
180.0
  0
ARC
  5
27A
100
AcDbEntity
  8
0
100
AcDbCircle
 62
7
  6
CONTINUOUS
 10
13.8676923427
 20
3.4359195021
 40
0.03
100
AcDbArc
 50
90.0
 51
180.0
  0
ARC
  5
27B
100
AcDbEntity
  8
0
100
AcDbCircle
 62
7
  6
CONTINUOUS
 10
14.5851923427
 20
5.7339195021
 40
0.04
100
AcDbArc
 50
0.0
 51
90.0
  0
ARC
  5
27C
100
AcDbEntity
  8
0
100
AcDbCircle
 62
7
  6
CONTINUOUS
 10
14.3591634959
 20
5.2929195021
 40
0.033
100
AcDbArc
 50
90.0
 51
178.0000000003
  0
ARC
  5
27D
100
AcDbEntity
  8
0
100
AcDbCircle
 62
7
  6
CONTINUOUS
 10
13.5246923427
 20
6.1189195021
 40
0.03
100
AcDbArc
 50
90.0
 51
180.0
  0
ARC
  5
27E
100
AcDbEntity
  8
0
100
AcDbCircle
 62
7
  6
CONTINUOUS
 10
13.5246923427
 20
5.8039195021
 40
0.03
100
AcDbArc
 50
180.0
 51
270.0
  0
ARC
  5
27F
100
AcDbEntity
  8
0
100
AcDbCircle
 62
9
  6
CONTINUOUS
 10
14.7311840355
 20
6.1189425754
 40
0.0299788069
100
AcDbArc
 50
90.0434938017
 51
180.0440936354
  0
ARC
  5
280
100
AcDbEntity
  8
0
100
AcDbCircle
 62
9
  6
CONTINUOUS
 10
14.6784084656
 20
6.1189425755
 40
0.0299788067
100
AcDbArc
 50
90.0434936967
 51
180.044093847
  0
ARC
  5
281
100
AcDbEntity
  8
0
100
AcDbCircle
 62
9
  6
CONTINUOUS
 10
14.7311840338
 20
5.8038964292
 40
0.0299788058
100
AcDbArc
 50
179.9559069436
 51
269.9565094157
  0
ARC
  5
282
100
AcDbEntity
  8
0
100
AcDbCircle
 62
9
  6
CONTINUOUS
 10
14.6784084639
 20
5.8038964291
 40
0.0299788057
100
AcDbArc
 50
179.9559067031
 51
269.9565095297
  0
ARC
  5
283
100
AcDbEntity
  8
0
100
AcDbCircle
 62
7
  6
CONTINUOUS
 10
15.6871537832
 20
3.6359195021
 40
0.08
100
AcDbArc
 50
182.0
 51
250.8012928748
  0
ARC
  5
284
100
AcDbEntity
  8
0
100
AcDbCircle
 62
7
  6
CONTINUOUS
 10
15.6476923427
 20
3.5225934472
 40
0.04
100
AcDbArc
 50
0.0
 51
70.8012928747
  0
ARC
  5
285
100
AcDbEntity
  8
0
100
AcDbCircle
 62
7
  6
CONTINUOUS
 10
16.0076923427
 20
3.4359195021
 40
0.03
100
AcDbArc
 50
0.0
 51
90.0
  0
ARC
  5
286
100
AcDbEntity
  8
0
100
AcDbCircle
 62
7
  6
CONTINUOUS
 10
15.2901923427
 20
5.7339195021
 40
0.04
100
AcDbArc
 50
90.0
 51
180.0
  0
ARC
  5
287
100
AcDbEntity
  8
0
100
AcDbCircle
 62
7
  6
CONTINUOUS
 10
15.5162211896
 20
5.2929195021
 40
0.033
100
AcDbArc
 50
1.9999999997
 51
90.0
  0
ARC
  5
288
100
AcDbEntity
  8
0
100
AcDbCircle
 62
7
  6
CONTINUOUS
 10
16.3506923427
 20
6.1189195021
 40
0.03
100
AcDbArc
 50
0.0
 51
90.0
  0
ARC
  5
289
100
AcDbEntity
  8
0
100
AcDbCircle
 62
7
  6
CONTINUOUS
 10
16.3506923427
 20
5.8039195021
 40
0.03
100
AcDbArc
 50
270.0
 51
360.0
  0
ARC
  5
28A
100
AcDbEntity
  8
0
100
AcDbCircle
 62
9
  6
CONTINUOUS
 10
15.1442006479
 20
6.1189425761
 40
0.029978808
100
AcDbArc
 50
359.9559050648
 51
89.9565023778
  0
ARC
  5
28B
100
AcDbEntity
  8
0
100
AcDbCircle
 62
9
  6
CONTINUOUS
 10
15.1969762178
 20
6.1189425761
 40
0.029978808
100
AcDbArc
 50
359.9559050488
 51
89.9565024389
  0
ARC
  5
28C
100
AcDbEntity
  8
0
100
AcDbCircle
 62
9
  6
CONTINUOUS
 10
15.1442006517
 20
5.8038964291
 40
0.0299788057
100
AcDbArc
 50
270.043490457
 51
0.0440933105
  0
ARC
  5
28D
100
AcDbEntity
  8
0
100
AcDbCircle
 62
9
  6
CONTINUOUS
 10
15.1969762216
 20
5.8038964291
 40
0.0299788057
100
AcDbArc
 50
270.043490465
 51
0.0440933023
  0
ARC
  5
28E
100
AcDbEntity
  8
0
100
AcDbCircle
 62
7
  6
CONTINUOUS
 10
10.9376923427
 20
14.7564195021
 40
0.5
100
AcDbArc
 50
0.0
 51
180.0
  0
SPLINE
  5
28F
100
AcDbEntity
  8
0
100
AcDbSpline
 62
9
  6
CONTINUOUS
 70
0
 71
3
 72
23
 73
19
 74
0
 42
0.0000001
 43
0.0000001
 44
0.0000000001
 40
0.0
 40
0.0
 40
0.0
 40
0.0
 40
0.0028179108
 40
0.0072303708
 40
0.0137301163
 40
0.0224482426
 40
0.033424751
 40
0.0466693708
 40
0.0799200804
 40
0.1219266501
 40
0.172295557
 40
0.2306091615
 40
0.2963063149
 40
0.3687167268
 40
0.4471639715
 40
0.619202416
 40
0.8060680608
 40
1.0
 40
1.0
 40
1.0
 40
1.0
 10
15.3436744803
 20
6.1489195021
 30
0.0
 10
15.3437028042
 20
6.1489195021
 30
0.0
 10
15.3437711672
 20
6.1488767812
 30
0.0
 10
15.3438408788
 20
6.1487574854
 30
0.0
 10
15.3439158596
 20
6.1485742146
 30
0.0
 10
15.3439889158
 20
6.1483210472
 30
0.0
 10
15.3440629601
 20
6.1479982304
 30
0.0
 10
15.3441686931
 20
6.1474301992
 30
0.0
 10
15.3442922699
 20
6.1465489134
 30
0.0
 10
15.3444279128
 20
6.1452934177
 30
0.0
 10
15.3445573797
 20
6.1437842226
 30
0.0
 10
15.3446790721
 20
6.1420356462
 30
0.0
 10
15.3447916259
 20
6.1400645119
 30
0.0
 10
15.3448939791
 20
6.1378902157
 30
0.0
 10
15.3450189421
 20
6.1346470407
 30
0.0
 10
15.3451388368
 20
6.1302525476
 30
0.0
 10
15.3452250629
 20
6.1246963565
 30
0.0
 10
15.345244559
 20
6.120868785
 30
0.0
 10
15.345244559
 20
6.1189195021
 30
0.0
  0
SPLINE
  5
290
100
AcDbEntity
  8
0
100
AcDbSpline
 62
9
  6
CONTINUOUS
 70
0
 71
3
 72
23
 73
19
 74
0
 42
0.0000001
 43
0.0000001
 44
0.0000000001
 40
0.0
 40
0.0
 40
0.0
 40
0.0
 40
0.1939319212
 40
0.3807975341
 40
0.5528359804
 40
0.6312832312
 40
0.7036936521
 40
0.7693908138
 40
0.8277044229
 40
0.8780733358
 40
0.9200799118
 40
0.9533306251
 40
0.966575246
 40
0.9775517555
 40
0.9862698826
 40
0.9927696287
 40
0.9971820891
 40
1.0
 40
1.0
 40
1.0
 40
1.0
 10
16.3522624214
 20
6.1189195021
 30
0.0
 10
16.3522624214
 20
6.1208687848
 30
0.0
 10
16.3522429254
 20
6.1246963559
 30
0.0
 10
16.3521566992
 20
6.1302525464
 30
0.0
 10
16.3520368046
 20
6.1346470393
 30
0.0
 10
16.3519118416
 20
6.1378902145
 30
0.0
 10
16.3518094884
 20
6.1400645109
 30
0.0
 10
16.3516969346
 20
6.1420356454
 30
0.0
 10
16.3515752422
 20
6.143784222
 30
0.0
 10
16.3514457753
 20
6.1452934173
 30
0.0
 10
16.3513101324
 20
6.1465489131
 30
0.0
 10
16.3511865556
 20
6.147430199
 30
0.0
 10
16.3510808226
 20
6.1479982303
 30
0.0
 10
16.3510067782
 20
6.1483210471
 30
0.0
 10
16.3509337221
 20
6.1485742145
 30
0.0
 10
16.3508587413
 20
6.1487574854
 30
0.0
 10
16.3507890297
 20
6.1488767811
 30
0.0
 10
16.3507206666
 20
6.1489195021
 30
0.0
 10
16.3506923427
 20
6.1489195021
 30
0.0
  0
SPLINE
  5
291
100
AcDbEntity
  8
0
100
AcDbSpline
 62
9
  6
CONTINUOUS
 70
0
 71
3
 72
23
 73
19
 74
0
 42
0.0000001
 43
0.0000001
 44
0.0000000001
 40
0.0
 40
0.0
 40
0.0
 40
0.0
 40
0.1939319392
 40
0.380797584
 40
0.5528360285
 40
0.6312832732
 40
0.7036936851
 40
0.7693908385
 40
0.827704443
 40
0.8780733499
 40
0.9200799196
 40
0.9533306292
 40
0.966575249
 40
0.9775517574
 40
0.9862698837
 40
0.9927696292
 40
0.9971820892
 40
1.0
 40
1.0
 40
1.0
 40
1.0
 10
14.5301401265
 20
6.1189195021
 30
0.0
 10
14.5301401265
 20
6.120868785
 30
0.0
 10
14.5301596225
 20
6.1246963565
 30
0.0
 10
14.5302458487
 20
6.1302525476
 30
0.0
 10
14.5303657434
 20
6.1346470407
 30
0.0
 10
14.5304907064
 20
6.1378902157
 30
0.0
 10
14.5305930596
 20
6.1400645119
 30
0.0
 10
14.5307056134
 20
6.1420356462
 30
0.0
 10
14.5308273058
 20
6.1437842226
 30
0.0
 10
14.5309567727
 20
6.1452934177
 30
0.0
 10
14.5310924156
 20
6.1465489134
 30
0.0
 10
14.5312159924
 20
6.1474301992
 30
0.0
 10
14.5313217254
 20
6.1479982304
 30
0.0
 10
14.5313957697
 20
6.1483210472
 30
0.0
 10
14.5314688258
 20
6.1485742146
 30
0.0
 10
14.5315438067
 20
6.1487574854
 30
0.0
 10
14.5316135183
 20
6.1488767812
 30
0.0
 10
14.5316818813
 20
6.1489195021
 30
0.0
 10
14.5317102052
 20
6.1489195021
 30
0.0
  0
SPLINE
  5
292
100
AcDbEntity
  8
0
100
AcDbSpline
 62
9
  6
CONTINUOUS
 70
0
 71
3
 72
23
 73
19
 74
0
 42
0.0000001
 43
0.0000001
 44
0.0000000001
 40
0.0
 40
0.0
 40
0.0
 40
0.0
 40
0.0028179108
 40
0.0072303708
 40
0.0137301163
 40
0.0224482426
 40
0.033424751
 40
0.0466693708
 40
0.0799200804
 40
0.1219266501
 40
0.172295557
 40
0.2306091615
 40
0.2963063149
 40
0.3687167268
 40
0.4471639715
 40
0.619202416
 40
0.8060680608
 40
1.0
 40
1.0
 40
1.0
 40
1.0
 10
13.5246923427
 20
6.1489195021
 30
0.0
 10
13.5246640189
 20
6.1489195021
 30
0.0
 10
13.5245956558
 20
6.1488767812
 30
0.0
 10
13.5245259442
 20
6.1487574854
 30
0.0
 10
13.5244509634
 20
6.1485742146
 30
0.0
 10
13.5243779073
 20
6.1483210472
 30
0.0
 10
13.5243038629
 20
6.1479982304
 30
0.0
 10
13.5241981299
 20
6.1474301992
 30
0.0
 10
13.5240745531
 20
6.1465489134
 30
0.0
 10
13.5239389102
 20
6.1452934177
 30
0.0
 10
13.5238094433
 20
6.1437842226
 30
0.0
 10
13.5236877509
 20
6.1420356462
 30
0.0
 10
13.5235751971
 20
6.1400645119
 30
0.0
 10
13.523472844
 20
6.1378902157
 30
0.0
 10
13.5233478809
 20
6.1346470407
 30
0.0
 10
13.5232279862
 20
6.1302525476
 30
0.0
 10
13.5231417601
 20
6.1246963565
 30
0.0
 10
13.5231222641
 20
6.120868785
 30
0.0
 10
13.5231222641
 20
6.1189195021
 30
0.0
  0
SPLINE
  5
293
100
AcDbEntity
  8
0
100
AcDbSpline
 62
9
  6
CONTINUOUS
 70
0
 71
3
 72
23
 73
19
 74
0
 42
0.0000001
 43
0.0000001
 44
0.0000000001
 40
0.0
 40
0.0
 40
0.0
 40
0.0
 40
0.1939319392
 40
0.380797584
 40
0.5528360285
 40
0.6312832732
 40
0.7036936851
 40
0.7693908385
 40
0.827704443
 40
0.8780733499
 40
0.9200799196
 40
0.9533306292
 40
0.966575249
 40
0.9775517574
 40
0.9862698837
 40
0.9927696292
 40
0.9971820892
 40
1.0
 40
1.0
 40
1.0
 40
1.0
 10
13.5231222641
 20
5.8039195021
 30
0.0
 10
13.5231222641
 20
5.8019702193
 30
0.0
 10
13.5231417601
 20
5.7981426477
 30
0.0
 10
13.5232279862
 20
5.7925864567
 30
0.0
 10
13.5233478809
 20
5.7881919636
 30
0.0
 10
13.523472844
 20
5.7849487886
 30
0.0
 10
13.5235751971
 20
5.7827744924
 30
0.0
 10
13.5236877509
 20
5.7808033581
 30
0.0
 10
13.5238094433
 20
5.7790547817
 30
0.0
 10
13.5239389102
 20
5.7775455866
 30
0.0
 10
13.5240745531
 20
5.7762900909
 30
0.0
 10
13.5241981299
 20
5.7754088051
 30
0.0
 10
13.5243038629
 20
5.7748407739
 30
0.0
 10
13.5243779073
 20
5.7745179571
 30
0.0
 10
13.5244509634
 20
5.7742647897
 30
0.0
 10
13.5245259442
 20
5.7740815188
 30
0.0
 10
13.5245956558
 20
5.7739622231
 30
0.0
 10
13.5246640189
 20
5.7739195021
 30
0.0
 10
13.5246923427
 20
5.7739195021
 30
0.0
  0
SPLINE
  5
294
100
AcDbEntity
  8
0
100
AcDbSpline
 62
9
  6
CONTINUOUS
 70
0
 71
3
 72
23
 73
19
 74
0
 42
0.0000001
 43
0.0000001
 44
0.0000000001
 40
0.0
 40
0.0
 40
0.0
 40
0.0
 40
0.0028179108
 40
0.0072303708
 40
0.0137301163
 40
0.0224482426
 40
0.033424751
 40
0.0466693708
 40
0.0799200804
 40
0.1219266501
 40
0.172295557
 40
0.2306091615
 40
0.2963063149
 40
0.3687167268
 40
0.4471639715
 40
0.619202416
 40
0.8060680608
 40
1.0
 40
1.0
 40
1.0
 40
1.0
 10
14.5317102052
 20
5.7739195021
 30
0.0
 10
14.5316818813
 20
5.7739195021
 30
0.0
 10
14.5316135183
 20
5.7739622231
 30
0.0
 10
14.5315438067
 20
5.7740815188
 30
0.0
 10
14.5314688258
 20
5.7742647897
 30
0.0
 10
14.5313957697
 20
5.7745179571
 30
0.0
 10
14.5313217254
 20
5.7748407739
 30
0.0
 10
14.5312159924
 20
5.7754088051
 30
0.0
 10
14.5310924156
 20
5.7762900909
 30
0.0
 10
14.5309567727
 20
5.7775455866
 30
0.0
 10
14.5308273058
 20
5.7790547817
 30
0.0
 10
14.5307056134
 20
5.7808033581
 30
0.0
 10
14.5305930596
 20
5.7827744924
 30
0.0
 10
14.5304907064
 20
5.7849487886
 30
0.0
 10
14.5303657434
 20
5.7881919636
 30
0.0
 10
14.5302458487
 20
5.7925864567
 30
0.0
 10
14.5301596225
 20
5.7981426477
 30
0.0
 10
14.5301401265
 20
5.8019702193
 30
0.0
 10
14.5301401265
 20
5.8039195021
 30
0.0
  0
SPLINE
  5
295
100
AcDbEntity
  8
0
100
AcDbSpline
 62
9
  6
CONTINUOUS
 70
0
 71
3
 72
23
 73
19
 74
0
 42
0.0000001
 43
0.0000001
 44
0.0000000001
 40
0.0
 40
0.0
 40
0.0
 40
0.0
 40
0.1939319392
 40
0.380797584
 40
0.5528360285
 40
0.6312832732
 40
0.7036936851
 40
0.7693908385
 40
0.827704443
 40
0.8780733499
 40
0.9200799196
 40
0.9533306292
 40
0.966575249
 40
0.9775517574
 40
0.9862698837
 40
0.9927696292
 40
0.9971820892
 40
1.0
 40
1.0
 40
1.0
 40
1.0
 10
15.345244559
 20
5.8039195021
 30
0.0
 10
15.345244559
 20
5.8019702193
 30
0.0
 10
15.3452250629
 20
5.7981426477
 30
0.0
 10
15.3451388368
 20
5.7925864567
 30
0.0
 10
15.3450189421
 20
5.7881919636
 30
0.0
 10
15.3448939791
 20
5.7849487886
 30
0.0
 10
15.3447916259
 20
5.7827744924
 30
0.0
 10
15.3446790721
 20
5.7808033581
 30
0.0
 10
15.3445573797
 20
5.7790547817
 30
0.0
 10
15.3444279128
 20
5.7775455866
 30
0.0
 10
15.3442922699
 20
5.7762900909
 30
0.0
 10
15.3441686931
 20
5.7754088051
 30
0.0
 10
15.3440629601
 20
5.7748407739
 30
0.0
 10
15.3439889158
 20
5.7745179571
 30
0.0
 10
15.3439158596
 20
5.7742647897
 30
0.0
 10
15.3438408788
 20
5.7740815188
 30
0.0
 10
15.3437711672
 20
5.7739622231
 30
0.0
 10
15.3437028042
 20
5.7739195021
 30
0.0
 10
15.3436744803
 20
5.7739195021
 30
0.0
  0
SPLINE
  5
296
100
AcDbEntity
  8
0
100
AcDbSpline
 62
9
  6
CONTINUOUS
 70
0
 71
3
 72
23
 73
19
 74
0
 42
0.0000001
 43
0.0000001
 44
0.0000000001
 40
0.0
 40
0.0
 40
0.0
 40
0.0
 40
0.0028179108
 40
0.0072303711
 40
0.0137301173
 40
0.0224482445
 40
0.0334247541
 40
0.0466693751
 40
0.0799200886
 40
0.1219266647
 40
0.1722955776
 40
0.2306091867
 40
0.2963063485
 40
0.3687167694
 40
0.4471640202
 40
0.6192024664
 40
0.806068079
 40
1.0
 40
1.0
 40
1.0
 40
1.0
 10
16.3506923427
 20
5.7739195021
 30
0.0
 10
16.3507206666
 20
5.7739195021
 30
0.0
 10
16.3507890297
 20
5.7739622231
 30
0.0
 10
16.3508587413
 20
5.7740815188
 30
0.0
 10
16.3509337221
 20
5.7742647897
 30
0.0
 10
16.3510067782
 20
5.7745179571
 30
0.0
 10
16.3510808226
 20
5.774840774
 30
0.0
 10
16.3511865556
 20
5.7754088053
 30
0.0
 10
16.3513101324
 20
5.7762900912
 30
0.0
 10
16.3514457753
 20
5.777545587
 30
0.0
 10
16.3515752422
 20
5.7790547823
 30
0.0
 10
16.3516969346
 20
5.7808033589
 30
0.0
 10
16.3518094884
 20
5.7827744934
 30
0.0
 10
16.3519118416
 20
5.7849487898
 30
0.0
 10
16.3520368046
 20
5.788191965
 30
0.0
 10
16.3521566992
 20
5.7925864579
 30
0.0
 10
16.3522429254
 20
5.7981426484
 30
0.0
 10
16.3522624214
 20
5.8019702195
 30
0.0
 10
16.3522624214
 20
5.8039195021
 30
0.0
  0
SPLINE
  5
297
100
AcDbEntity
  8
0
100
AcDbSpline
 62
9
  6
CONTINUOUS
 70
0
 71
3
 72
23
 73
19
 74
0
 42
0.0000001
 43
0.0000001
 44
0.0000000001
 40
0.0
 40
0.0
 40
0.0
 40
0.0
 40
0.0028179108
 40
0.0072303708
 40
0.0137301163
 40
0.0224482426
 40
0.033424751
 40
0.0466693708
 40
0.0799200804
 40
0.1219266501
 40
0.172295557
 40
0.2306091615
 40
0.2963063149
 40
0.3687167268
 40
0.4471639715
 40
0.619202416
 40
0.8060680608
 40
1.0
 40
1.0
 40
1.0
 40
1.0
 10
7.3436744803
 20
6.1489195021
 30
0.0
 10
7.3437028042
 20
6.1489195021
 30
0.0
 10
7.3437711672
 20
6.1488767812
 30
0.0
 10
7.3438408788
 20
6.1487574854
 30
0.0
 10
7.3439158596
 20
6.1485742146
 30
0.0
 10
7.3439889158
 20
6.1483210472
 30
0.0
 10
7.3440629601
 20
6.1479982304
 30
0.0
 10
7.3441686931
 20
6.1474301992
 30
0.0
 10
7.3442922699
 20
6.1465489134
 30
0.0
 10
7.3444279128
 20
6.1452934177
 30
0.0
 10
7.3445573797
 20
6.1437842226
 30
0.0
 10
7.3446790721
 20
6.1420356462
 30
0.0
 10
7.3447916259
 20
6.1400645119
 30
0.0
 10
7.3448939791
 20
6.1378902157
 30
0.0
 10
7.3450189421
 20
6.1346470407
 30
0.0
 10
7.3451388368
 20
6.1302525476
 30
0.0
 10
7.3452250629
 20
6.1246963565
 30
0.0
 10
7.345244559
 20
6.120868785
 30
0.0
 10
7.345244559
 20
6.1189195021
 30
0.0
  0
SPLINE
  5
298
100
AcDbEntity
  8
0
100
AcDbSpline
 62
9
  6
CONTINUOUS
 70
0
 71
3
 72
23
 73
19
 74
0
 42
0.0000001
 43
0.0000001
 44
0.0000000001
 40
0.0
 40
0.0
 40
0.0
 40
0.0
 40
0.1939319212
 40
0.3807975341
 40
0.5528359804
 40
0.6312832312
 40
0.7036936521
 40
0.7693908138
 40
0.8277044229
 40
0.8780733358
 40
0.9200799118
 40
0.9533306251
 40
0.966575246
 40
0.9775517555
 40
0.9862698826
 40
0.9927696287
 40
0.9971820891
 40
1.0
 40
1.0
 40
1.0
 40
1.0
 10
8.3522624214
 20
6.1189195021
 30
0.0
 10
8.3522624214
 20
6.1208687848
 30
0.0
 10
8.3522429254
 20
6.1246963559
 30
0.0
 10
8.3521566992
 20
6.1302525464
 30
0.0
 10
8.3520368046
 20
6.1346470393
 30
0.0
 10
8.3519118416
 20
6.1378902145
 30
0.0
 10
8.3518094884
 20
6.1400645109
 30
0.0
 10
8.3516969346
 20
6.1420356454
 30
0.0
 10
8.3515752422
 20
6.143784222
 30
0.0
 10
8.3514457753
 20
6.1452934173
 30
0.0
 10
8.3513101324
 20
6.1465489131
 30
0.0
 10
8.3511865556
 20
6.147430199
 30
0.0
 10
8.3510808226
 20
6.1479982303
 30
0.0
 10
8.3510067782
 20
6.1483210471
 30
0.0
 10
8.3509337221
 20
6.1485742145
 30
0.0
 10
8.3508587413
 20
6.1487574854
 30
0.0
 10
8.3507890297
 20
6.1488767811
 30
0.0
 10
8.3507206666
 20
6.1489195021
 30
0.0
 10
8.3506923427
 20
6.1489195021
 30
0.0
  0
SPLINE
  5
299
100
AcDbEntity
  8
0
100
AcDbSpline
 62
9
  6
CONTINUOUS
 70
0
 71
3
 72
23
 73
19
 74
0
 42
0.0000001
 43
0.0000001
 44
0.0000000001
 40
0.0
 40
0.0
 40
0.0
 40
0.0
 40
0.1939319392
 40
0.380797584
 40
0.5528360285
 40
0.6312832732
 40
0.7036936851
 40
0.7693908385
 40
0.827704443
 40
0.8780733499
 40
0.9200799196
 40
0.9533306292
 40
0.966575249
 40
0.9775517574
 40
0.9862698837
 40
0.9927696292
 40
0.9971820892
 40
1.0
 40
1.0
 40
1.0
 40
1.0
 10
6.5301401265
 20
6.1189195021
 30
0.0
 10
6.5301401265
 20
6.120868785
 30
0.0
 10
6.5301596225
 20
6.1246963565
 30
0.0
 10
6.5302458487
 20
6.1302525476
 30
0.0
 10
6.5303657434
 20
6.1346470407
 30
0.0
 10
6.5304907064
 20
6.1378902157
 30
0.0
 10
6.5305930596
 20
6.1400645119
 30
0.0
 10
6.5307056134
 20
6.1420356462
 30
0.0
 10
6.5308273058
 20
6.1437842226
 30
0.0
 10
6.5309567727
 20
6.1452934177
 30
0.0
 10
6.5310924156
 20
6.1465489134
 30
0.0
 10
6.5312159924
 20
6.1474301992
 30
0.0
 10
6.5313217254
 20
6.1479982304
 30
0.0
 10
6.5313957697
 20
6.1483210472
 30
0.0
 10
6.5314688258
 20
6.1485742146
 30
0.0
 10
6.5315438067
 20
6.1487574854
 30
0.0
 10
6.5316135183
 20
6.1488767812
 30
0.0
 10
6.5316818813
 20
6.1489195021
 30
0.0
 10
6.5317102052
 20
6.1489195021
 30
0.0
  0
SPLINE
  5
29A
100
AcDbEntity
  8
0
100
AcDbSpline
 62
9
  6
CONTINUOUS
 70
0
 71
3
 72
23
 73
19
 74
0
 42
0.0000001
 43
0.0000001
 44
0.0000000001
 40
0.0
 40
0.0
 40
0.0
 40
0.0
 40
0.0028179108
 40
0.0072303708
 40
0.0137301163
 40
0.0224482426
 40
0.033424751
 40
0.0466693708
 40
0.0799200804
 40
0.1219266501
 40
0.172295557
 40
0.2306091615
 40
0.2963063149
 40
0.3687167268
 40
0.4471639715
 40
0.619202416
 40
0.8060680608
 40
1.0
 40
1.0
 40
1.0
 40
1.0
 10
5.5246923427
 20
6.1489195021
 30
0.0
 10
5.5246640189
 20
6.1489195021
 30
0.0
 10
5.5245956558
 20
6.1488767812
 30
0.0
 10
5.5245259442
 20
6.1487574854
 30
0.0
 10
5.5244509634
 20
6.1485742146
 30
0.0
 10
5.5243779073
 20
6.1483210472
 30
0.0
 10
5.5243038629
 20
6.1479982304
 30
0.0
 10
5.5241981299
 20
6.1474301992
 30
0.0
 10
5.5240745531
 20
6.1465489134
 30
0.0
 10
5.5239389102
 20
6.1452934177
 30
0.0
 10
5.5238094433
 20
6.1437842226
 30
0.0
 10
5.5236877509
 20
6.1420356462
 30
0.0
 10
5.5235751971
 20
6.1400645119
 30
0.0
 10
5.523472844
 20
6.1378902157
 30
0.0
 10
5.5233478809
 20
6.1346470407
 30
0.0
 10
5.5232279862
 20
6.1302525476
 30
0.0
 10
5.5231417601
 20
6.1246963565
 30
0.0
 10
5.5231222641
 20
6.120868785
 30
0.0
 10
5.5231222641
 20
6.1189195021
 30
0.0
  0
SPLINE
  5
29B
100
AcDbEntity
  8
0
100
AcDbSpline
 62
9
  6
CONTINUOUS
 70
0
 71
3
 72
23
 73
19
 74
0
 42
0.0000001
 43
0.0000001
 44
0.0000000001
 40
0.0
 40
0.0
 40
0.0
 40
0.0
 40
0.1939319392
 40
0.380797584
 40
0.5528360285
 40
0.6312832732
 40
0.7036936851
 40
0.7693908385
 40
0.827704443
 40
0.8780733499
 40
0.9200799196
 40
0.9533306292
 40
0.966575249
 40
0.9775517574
 40
0.9862698837
 40
0.9927696292
 40
0.9971820892
 40
1.0
 40
1.0
 40
1.0
 40
1.0
 10
5.5231222641
 20
5.8039195021
 30
0.0
 10
5.5231222641
 20
5.8019702193
 30
0.0
 10
5.5231417601
 20
5.7981426477
 30
0.0
 10
5.5232279862
 20
5.7925864567
 30
0.0
 10
5.5233478809
 20
5.7881919636
 30
0.0
 10
5.523472844
 20
5.7849487886
 30
0.0
 10
5.5235751971
 20
5.7827744924
 30
0.0
 10
5.5236877509
 20
5.7808033581
 30
0.0
 10
5.5238094433
 20
5.7790547817
 30
0.0
 10
5.5239389102
 20
5.7775455866
 30
0.0
 10
5.5240745531
 20
5.7762900909
 30
0.0
 10
5.5241981299
 20
5.7754088051
 30
0.0
 10
5.5243038629
 20
5.7748407739
 30
0.0
 10
5.5243779073
 20
5.7745179571
 30
0.0
 10
5.5244509634
 20
5.7742647897
 30
0.0
 10
5.5245259442
 20
5.7740815188
 30
0.0
 10
5.5245956558
 20
5.7739622231
 30
0.0
 10
5.5246640189
 20
5.7739195021
 30
0.0
 10
5.5246923427
 20
5.7739195021
 30
0.0
  0
SPLINE
  5
29C
100
AcDbEntity
  8
0
100
AcDbSpline
 62
9
  6
CONTINUOUS
 70
0
 71
3
 72
23
 73
19
 74
0
 42
0.0000001
 43
0.0000001
 44
0.0000000001
 40
0.0
 40
0.0
 40
0.0
 40
0.0
 40
0.0028179108
 40
0.0072303708
 40
0.0137301163
 40
0.0224482426
 40
0.033424751
 40
0.0466693708
 40
0.0799200804
 40
0.1219266501
 40
0.172295557
 40
0.2306091615
 40
0.2963063149
 40
0.3687167268
 40
0.4471639715
 40
0.619202416
 40
0.8060680608
 40
1.0
 40
1.0
 40
1.0
 40
1.0
 10
6.5317102052
 20
5.7739195021
 30
0.0
 10
6.5316818813
 20
5.7739195021
 30
0.0
 10
6.5316135183
 20
5.7739622231
 30
0.0
 10
6.5315438067
 20
5.7740815188
 30
0.0
 10
6.5314688258
 20
5.7742647897
 30
0.0
 10
6.5313957697
 20
5.7745179571
 30
0.0
 10
6.5313217254
 20
5.7748407739
 30
0.0
 10
6.5312159924
 20
5.7754088051
 30
0.0
 10
6.5310924156
 20
5.7762900909
 30
0.0
 10
6.5309567727
 20
5.7775455866
 30
0.0
 10
6.5308273058
 20
5.7790547817
 30
0.0
 10
6.5307056134
 20
5.7808033581
 30
0.0
 10
6.5305930596
 20
5.7827744924
 30
0.0
 10
6.5304907064
 20
5.7849487886
 30
0.0
 10
6.5303657434
 20
5.7881919636
 30
0.0
 10
6.5302458487
 20
5.7925864567
 30
0.0
 10
6.5301596225
 20
5.7981426477
 30
0.0
 10
6.5301401265
 20
5.8019702193
 30
0.0
 10
6.5301401265
 20
5.8039195021
 30
0.0
  0
SPLINE
  5
29D
100
AcDbEntity
  8
0
100
AcDbSpline
 62
9
  6
CONTINUOUS
 70
0
 71
3
 72
23
 73
19
 74
0
 42
0.0000001
 43
0.0000001
 44
0.0000000001
 40
0.0
 40
0.0
 40
0.0
 40
0.0
 40
0.1939319392
 40
0.380797584
 40
0.5528360285
 40
0.6312832732
 40
0.7036936851
 40
0.7693908385
 40
0.827704443
 40
0.8780733499
 40
0.9200799196
 40
0.9533306292
 40
0.966575249
 40
0.9775517574
 40
0.9862698837
 40
0.9927696292
 40
0.9971820892
 40
1.0
 40
1.0
 40
1.0
 40
1.0
 10
7.345244559
 20
5.8039195021
 30
0.0
 10
7.345244559
 20
5.8019702193
 30
0.0
 10
7.3452250629
 20
5.7981426477
 30
0.0
 10
7.3451388368
 20
5.7925864567
 30
0.0
 10
7.3450189421
 20
5.7881919636
 30
0.0
 10
7.3448939791
 20
5.7849487886
 30
0.0
 10
7.3447916259
 20
5.7827744924
 30
0.0
 10
7.3446790721
 20
5.7808033581
 30
0.0
 10
7.3445573797
 20
5.7790547817
 30
0.0
 10
7.3444279128
 20
5.7775455866
 30
0.0
 10
7.3442922699
 20
5.7762900909
 30
0.0
 10
7.3441686931
 20
5.7754088051
 30
0.0
 10
7.3440629601
 20
5.7748407739
 30
0.0
 10
7.3439889158
 20
5.7745179571
 30
0.0
 10
7.3439158596
 20
5.7742647897
 30
0.0
 10
7.3438408788
 20
5.7740815188
 30
0.0
 10
7.3437711672
 20
5.7739622231
 30
0.0
 10
7.3437028042
 20
5.7739195021
 30
0.0
 10
7.3436744803
 20
5.7739195021
 30
0.0
  0
SPLINE
  5
29E
100
AcDbEntity
  8
0
100
AcDbSpline
 62
9
  6
CONTINUOUS
 70
0
 71
3
 72
23
 73
19
 74
0
 42
0.0000001
 43
0.0000001
 44
0.0000000001
 40
0.0
 40
0.0
 40
0.0
 40
0.0
 40
0.0028179108
 40
0.0072303711
 40
0.0137301173
 40
0.0224482445
 40
0.0334247541
 40
0.0466693751
 40
0.0799200886
 40
0.1219266647
 40
0.1722955776
 40
0.2306091867
 40
0.2963063485
 40
0.3687167694
 40
0.4471640202
 40
0.6192024664
 40
0.806068079
 40
1.0
 40
1.0
 40
1.0
 40
1.0
 10
8.3506923427
 20
5.7739195021
 30
0.0
 10
8.3507206666
 20
5.7739195021
 30
0.0
 10
8.3507890297
 20
5.7739622231
 30
0.0
 10
8.3508587413
 20
5.7740815188
 30
0.0
 10
8.3509337221
 20
5.7742647897
 30
0.0
 10
8.3510067782
 20
5.7745179571
 30
0.0
 10
8.3510808226
 20
5.774840774
 30
0.0
 10
8.3511865556
 20
5.7754088053
 30
0.0
 10
8.3513101324
 20
5.7762900912
 30
0.0
 10
8.3514457753
 20
5.777545587
 30
0.0
 10
8.3515752422
 20
5.7790547823
 30
0.0
 10
8.3516969346
 20
5.7808033589
 30
0.0
 10
8.3518094884
 20
5.7827744934
 30
0.0
 10
8.3519118416
 20
5.7849487898
 30
0.0
 10
8.3520368046
 20
5.788191965
 30
0.0
 10
8.3521566992
 20
5.7925864579
 30
0.0
 10
8.3522429254
 20
5.7981426484
 30
0.0
 10
8.3522624214
 20
5.8019702195
 30
0.0
 10
8.3522624214
 20
5.8039195021
 30
0.0
  0
ENDSEC
  0
SECTION
  2
OBJECTS
  0
DICTIONARY
  5
C
100
AcDbDictionary
280
0
281
1
  3
ACAD_GROUP
350
D
  3
ACAD_MLINESTYLE
350
17
  3
ACAD_LAYOUT
350
1A
  3
ACAD_PLOTSETTINGS
350
19
  3
ACAD_PLOTSTYLENAME
350
E
  0
DICTIONARY
  5
D
102
{ACAD_REACTORS
330
C
102
}
100
AcDbDictionary
280
0
281
1
  0
ACDBDICTIONARYWDFLT
  5
E
102
{ACAD_REACTORS
330
C
102
}
100
AcDbDictionary
281
1
  3
Normal
350
F
100
AcDbDictionaryWithDefault
340
F
  0
DICTIONARY
  5
17
102
{ACAD_REACTORS
330
C
102
}
100
AcDbDictionary
280
0
281
1
  3
Standard
350
18
  0
DICTIONARY
  5
19
102
{ACAD_REACTORS
330
C
102
}
100
AcDbDictionary
281
1
  0
DICTIONARY
  5
1A
102
{ACAD_REACTORS
330
C
102
}
100
AcDbDictionary
281
1
  3
Model
350
29F
  3
Layout1
350
2A0
  0
ACDBPLACEHOLDER
  5
F
102
{ACAD_REACTORS
330
E
102
}
  0
MLINESTYLE
  5
18
102
{ACAD_REACTORS
330
17
102
}
100
AcDbMlineStyle
  2
STANDARD
 70
0
  3

 62
256
 51
90.0
 52
90.0
 71
2
 49
0.5
 62
256
  6
BYLAYER
 49
-0.5
 62
256
  6
BYLAYER
  0
LAYOUT
  5
29F
102
{ACAD_REACTORS
330
1A
102
}
100
AcDbPlotSettings
  1

  2
none_device
  4
ANSI_C_(22.00_x_17.00_Inches)
  6

 40
0.0
 41
0.0
 42
0.0
 43
0.0
 44
558.8
 45
431.8
 46
0.0
 47
0.0
 48
0.0
 49
0.0
140
0.0
141
0.0
142
1.0
143
1.0
 70
1024
 72
0
 73
0
 74
0
  7

 75
0
147
1.0
148
0.0
149
0.0
100
AcDbLayout
  1
Model
 70
0
 71
0
 10
0.0
 20
0.0
 11
22.0
 21
17.0
 12
0.0
 22
0.0
 32
0.0
 14
0.0
 24
0.0
 34
0.0
 15
0.0
 25
0.0
 35
0.0
146
0.0
 13
0.0
 23
0.0
 33
0.0
 16
1.0
 26
0.0
 36
0.0
 17
0.0
 27
1.0
 37
0.0
 76
0
330
202
345
0
346
0
  0
LAYOUT
  5
2A0
102
{ACAD_REACTORS
330
1A
102
}
100
AcDbPlotSettings
  1

  2
none_device
  4
ANSI_C_(22.00_x_17.00_Inches)
  6

 40
0.0
 41
0.0
 42
0.0
 43
0.0
 44
558.8
 45
431.8
 46
0.0
 47
0.0
 48
0.0
 49
0.0
140
0.0
141
0.0
142
1.0
143
1.0
 70
0
 72
0
 73
0
 74
0
  7

 75
0
147
1.0
148
0.0
149
0.0
100
AcDbLayout
  1
Layout1
 70
0
 71
1
 10
0.0
 20
0.0
 11
22.0
 21
17.0
 12
0.0
 22
0.0
 32
0.0
 14
0.0
 24
0.0
 34
0.0
 15
0.0
 25
0.0
 35
0.0
146
0.0
 13
0.0
 23
0.0
 33
0.0
 16
1.0
 26
0.0
 36
0.0
 17
0.0
 27
1.0
 37
0.0
 76
0
330
203
345
0
346
0
  0
ENDSEC
  0
EOF
