999
DXF file: E:\BT Custom\CADOUTPUT\_RIGHT.dxf
999
Pro/ENGINEER 2018400 by Parametric Technology Corporation
  0
SECTION
  2
HEADER
  9
$ACADVER
  1
AC1018
  9
$DWGCODEPAGE
  3
ANSI_1252
  9
$EXTMAX
 10
22.0
 20
17.0
 30
0.0
  9
$EXTMIN
 10
0.0
 20
0.0
 30
0.0
  9
$LIMMIN
 10
0.0
 20
0.0
  9
$LIMMAX
 10
22.0
 20
17.0
  9
$VIEWCTR
 10
11.0
 20
8.5
  9
$VIEWSIZE
 40
17.0
  9
$CLAYER
  8
0
  9
$LTSCALE
 40
1.21
  9
$CELTYPE
  6
BYLAYER
  9
$DIMSCALE
 40
1.0
  9
$DIMASZ
 40
0.1
  9
$DIMEXO
 40
0.0625
  9
$DIMDLI
 40
0.836
  9
$DIMEXE
 40
0.125
  9
$DIMCEN
 40
0.198
  9
$DIMLFAC
 40
1.0
  9
$DIMBLK
  1
_FILLED
  9
$DIMALT
 70
1
  9
$DIMALTD
 70
2
  9
$DIMALTTD
 70
2
  9
$DIMALTF
 40
25.4
  9
$DIMTXT
 40
0.08
  9
$DIMTOL
 70
1
  9
$DIMLIM
 70
0
  9
$DIMTFAC
 40
1.0
  9
$DIMTP
 40
0.001
  9
$DIMTM
 40
0.001
  9
$DIMGAP
 40
0.09
  9
$DIMDSEP
 70
46
  9
$AUNITS
 70
0
  9
$PDMODE
 70
3
  9
$PDSIZE
 40
0.06
  9
$HANDSEED
  5
262
  9
$TILEMODE
 70
1
  9
$MEASUREMENT
 70
0
  9
$INSUNITS
 70
1
  0
ENDSEC
  0
SECTION
  2
CLASSES
  0
CLASS
  1
ACDBDICTIONARYWDFLT
  2
AcDbDictionaryWithDefault
  3
AutoCAD 2000
 90
0
 91
1
280
0
281
0
  0
CLASS
  1
ACDBPLACEHOLDER
  2
AcDbPlaceHolder
  3
AutoCAD 2000
 90
0
 91
1
280
0
281
0
  0
CLASS
  1
LAYOUT
  2
AcDbLayout
  3
AutoCAD 2000
 90
0
 91
0
280
0
281
0
  0
ENDSEC
  0
SECTION
  2
TABLES
  0
TABLE
  2
VPORT
  5
8
100
AcDbSymbolTable
 70
2
  0
VPORT
  5
1F4
100
AcDbSymbolTableRecord
100
AcDbViewportTableRecord
  2
*ACTIVE
 70
0
 10
0.0
 20
0.0
 11
1.0
 21
1.0
 12
11.0
 22
8.5
 13
0.0
 23
0.0
 14
1.0
 24
1.0
 15
0.0
 25
0.0
 16
0.0
 26
0.0
 36
1.0
 17
0.0
 27
0.0
 37
0.0
 40
17.0
 41
1.2941176471
 42
50.0
 43
0.0
 44
0.0
 50
0.0
 51
0.0
 71
0
 72
100
 73
1
 74
1
 75
0
 76
0
 77
0
 78
0
  0
ENDTAB
  0
TABLE
  2
LTYPE
  5
5
100
AcDbSymbolTable
 70
6
  0
LTYPE
  5
14
100
AcDbSymbolTableRecord
100
AcDbLinetypeTableRecord
  2
BYBLOCK
 70
0
  3

 72
65
 73
0
 40
0.0
  0
LTYPE
  5
15
100
AcDbSymbolTableRecord
100
AcDbLinetypeTableRecord
  2
BYLAYER
 70
0
  3

 72
65
 73
0
 40
0.0
  0
LTYPE
  5
16
100
AcDbSymbolTableRecord
100
AcDbLinetypeTableRecord
  2
CONTINUOUS
 70
64
  3
Solid line
 72
65
 73
0
 40
0.0
  0
LTYPE
  5
1F5
100
AcDbSymbolTableRecord
100
AcDbLinetypeTableRecord
  2
CENTER
 70
64
  3
____ _ ____ _ ____ _ ____ _ ____ _ ____ _ ____
 72
65
 73
4
 40
0.6
 49
0.375
 74
0
 49
-0.075
 74
0
 49
0.075
 74
0
 49
-0.075
 74
0
  0
LTYPE
  5
1F6
100
AcDbSymbolTableRecord
100
AcDbLinetypeTableRecord
  2
HIDDEN
 70
64
  3
- - - - - - - - - - - - - - - - - - - -
 72
65
 73
2
 40
0.2
 49
0.1
 74
0
 49
-0.1
 74
0
  0
LTYPE
  5
1F7
100
AcDbSymbolTableRecord
100
AcDbLinetypeTableRecord
  2
PHANTOM
 70
64
  3
_____ _ _ _____ _ _ _____ _ _ _____
 72
65
 73
6
 40
0.8
 49
0.45
 74
0
 49
-0.05
 74
0
 49
0.1
 74
0
 49
-0.05
 74
0
 49
0.1
 74
0
 49
-0.05
 74
0
  0
LTYPE
  5
1F8
100
AcDbSymbolTableRecord
100
AcDbLinetypeTableRecord
  2
DOT
 70
64
  3
. . . . . . . . . . . . . . . . . . . .
 72
65
 73
2
 40
0.2
 49
0.1
 74
0
 49
-0.1
 74
0
  0
LTYPE
  5
1F9
100
AcDbSymbolTableRecord
100
AcDbLinetypeTableRecord
  2
DASHED
 70
64
  3
- - - - - - - - - - - - - - - - - - - -
 72
65
 73
2
 40
0.2
 49
0.1
 74
0
 49
-0.1
 74
0
  0
ENDTAB
  0
TABLE
  2
LAYER
  5
2
100
AcDbSymbolTable
 70
36
  0
LAYER
  5
10
100
AcDbSymbolTableRecord
100
AcDbLayerTableRecord
  2
0
 70
0
 62
7
  6
CONTINUOUS
370
-3
390
F
  0
LAYER
  5
1FA
100
AcDbSymbolTableRecord
100
AcDbLayerTableRecord
  2
DEFAULT_1
 70
0
 62
7
  6
CENTER
370
-3
390
F
  0
LAYER
  5
1FB
100
AcDbSymbolTableRecord
100
AcDbLayerTableRecord
  2
DEFAULT_2
 70
0
 62
8
  6
HIDDEN
370
-3
390
F
  0
LAYER
  5
1FC
100
AcDbSymbolTableRecord
100
AcDbLayerTableRecord
  2
DEFAULT_3
 70
0
 62
7
  6
PHANTOM
370
-3
390
F
  0
LAYER
  5
1FD
100
AcDbSymbolTableRecord
100
AcDbLayerTableRecord
  2
ALL_FEATURES
 70
0
 62
7
  6
CONTINUOUS
370
-3
390
F
  0
LAYER
  5
1FE
100
AcDbSymbolTableRecord
100
AcDbLayerTableRecord
  2
AXES_FEATURES
 70
0
 62
7
  6
CONTINUOUS
370
-3
390
F
  0
LAYER
  5
1FF
100
AcDbSymbolTableRecord
100
AcDbLayerTableRecord
  2
DIMENSIONS
 70
0
 62
7
  6
CONTINUOUS
370
-3
390
F
  0
ENDTAB
  0
TABLE
  2
STYLE
  5
3
100
AcDbSymbolTable
 70
1
  0
STYLE
  5
11
100
AcDbSymbolTableRecord
100
AcDbTextStyleTableRecord
  2
STANDARD
 70
0
 40
0.0
 41
0.8
 50
0.0
 71
0
 42
0.2
  3
txt
  4

  0
STYLE
  5
200
100
AcDbSymbolTableRecord
100
AcDbTextStyleTableRecord
  2
TEXTSTYLE_1
 70
0
 40
0.0
 41
0.8
 50
0.0
 71
0
 42
0.2
  3
gdt
  4

  0
ENDTAB
  0
TABLE
  2
VIEW
  5
6
100
AcDbSymbolTable
 70
0
  0
ENDTAB
  0
TABLE
  2
UCS
  5
7
100
AcDbSymbolTable
 70
0
  0
ENDTAB
  0
TABLE
  2
APPID
  5
9
100
AcDbSymbolTable
 70
1
  0
APPID
  5
201
100
AcDbSymbolTableRecord
100
AcDbRegAppTableRecord
  2
ACAD
 70
0
  0
ENDTAB
  0
TABLE
  2
BLOCK_RECORD
  5
1
100
AcDbSymbolTable
 70
0
  0
BLOCK_RECORD
  5
202
100
AcDbSymbolTableRecord
100
AcDbBlockTableRecord
  2
*Model_Space
  0
BLOCK_RECORD
  5
203
100
AcDbSymbolTableRecord
100
AcDbBlockTableRecord
  2
*Paper_Space
  0
BLOCK_RECORD
  5
204
100
AcDbSymbolTableRecord
100
AcDbBlockTableRecord
  2
_FILLED
  0
ENDTAB
  0
TABLE
  2
DIMSTYLE
  5
A
100
AcDbSymbolTable
 70
1
100
AcDbDimStyleTable
 71
0
  0
DIMSTYLE
105
205
100
AcDbSymbolTableRecord
100
AcDbDimStyleTableRecord
  2
STANDARD
 70
0
  3

  4

 40
1.0
 41
0.1
 42
0.0625
 43
0.38
 44
0.125
 45
0.0
 46
0.0
 47
0.001
 48
0.001
140
0.08
141
0.09
142
0.0
143
25.4
144
1.0
145
0.0
146
1.0
147
0.09
 71
1.0
 72
0.0
 73
1
 74
1
 75
0
 76
0
 77
0
 78
4
 79
1
170
1
171
2
172
0
173
0
174
0
175
0
176
0
177
0
178
0
270
2
179
3
271
3
272
3
273
2
274
2
275
0
280
0
281
0
282
0
283
1
284
4
285
0
286
0
287
3
288
0
340
11
278
46
341
204
342
204
343
204
344
204
  0
ENDTAB
  0
ENDSEC
  0
SECTION
  2
BLOCKS
  0
BLOCK
  5
20
100
AcDbEntity
  8
0
100
AcDbBlockBegin
  2
*Model_Space
 70
0
 10
0.0
 20
0.0
 30
0.0
  3
*Model_Space
  1

  0
ENDBLK
  5
21
100
AcDbEntity
  8
0
100
AcDbBlockEnd
  0
BLOCK
  5
1C
100
AcDbEntity
  8
0
100
AcDbBlockBegin
  2
*Paper_Space
 70
0
 10
0.0
 20
0.0
 30
0.0
  3
*Paper_Space
  1

  0
ENDBLK
  5
1D
100
AcDbEntity
  8
0
100
AcDbBlockEnd
  0
BLOCK
  5
206
100
AcDbEntity
  8
0
100
AcDbBlockBegin
  2
_FILLED
 70
64
 10
0.0
 20
0.0
  3
_FILLED
  1

  0
SOLID
  5
207
100
AcDbEntity
  8
0
  6
BYBLOCK
 62
0
100
AcDbTrace
 10
0.0
 20
0.0
 11
-1.0
 21
0.2
 12
-1.0
 22
-0.2
 13
-1.0
 23
-0.2
  0
ENDBLK
  5
208
100
AcDbEntity
  8
0
  6
BYBLOCK
 62
0
100
AcDbBlockEnd
  0
ENDSEC
  0
SECTION
  2
ENTITIES
  0
LINE
  5
209
100
AcDbEntity
  8
0
100
AcDbLine
 62
7
  6
CONTINUOUS
 10
12.9884834891
 20
3.021141804
 11
15.3634834891
 21
3.021141804
  0
LINE
  5
20A
100
AcDbEntity
  8
0
100
AcDbLine
 62
9
  6
CONTINUOUS
 10
15.2759834891
 20
3.178141804
 11
13.0759834891
 21
3.178141804
  0
LINE
  5
20B
100
AcDbEntity
  8
0
100
AcDbLine
 62
7
  6
CONTINUOUS
 10
15.2459692594
 20
3.208141804
 11
13.1059977189
 21
3.208141804
  0
LINE
  5
20C
100
AcDbEntity
  8
0
100
AcDbLine
 62
7
  6
CONTINUOUS
 10
13.4259956399
 20
3.218141804
 11
14.9259713383
 21
3.218141804
  0
LINE
  5
20D
100
AcDbEntity
  8
0
100
AcDbLine
 62
9
  6
CONTINUOUS
 10
14.9259834891
 20
3.2648157491
 11
13.4259834891
 21
3.2648157491
  0
LINE
  5
20E
100
AcDbEntity
  8
0
100
AcDbLine
 62
9
  6
CONTINUOUS
 10
14.8991373026
 20
3.3025911008
 11
13.4528296757
 21
3.3025911008
  0
LINE
  5
20F
100
AcDbEntity
  8
0
100
AcDbLine
 62
9
  6
CONTINUOUS
 10
13.5064733149
 20
3.3753498443
 11
14.8454936634
 21
3.3753498443
  0
LINE
  5
210
100
AcDbEntity
  8
0
100
AcDbLine
 62
7
  6
CONTINUOUS
 10
5.8009834891
 20
9.448641804
 11
5.8009834891
 21
10.561141804
  0
LINE
  5
211
100
AcDbEntity
  8
0
100
AcDbLine
 62
7
  6
CONTINUOUS
 10
15.3634834891
 20
4.124141804
 11
14.819345272
 21
4.124141804
  0
LINE
  5
212
100
AcDbEntity
  8
0
100
AcDbLine
 62
7
  6
CONTINUOUS
 10
13.5326217063
 20
4.124141804
 11
12.9884834891
 21
4.124141804
  0
LINE
  5
213
100
AcDbEntity
  8
0
100
AcDbLine
 62
7
  6
CONTINUOUS
 10
6.8009834891
 20
10.561141804
 11
6.8009834891
 21
9.448641804
  0
LINE
  5
214
100
AcDbEntity
  8
0
100
AcDbLine
 62
9
  6
CONTINUOUS
 10
14.7874922333
 20
5.0362934874
 11
13.564474745
 21
5.0362934874
  0
LINE
  5
215
100
AcDbEntity
  8
0
100
AcDbLine
 62
7
  6
CONTINUOUS
 10
14.7545112691
 20
5.068141804
 11
13.5974557092
 21
5.068141804
  0
LINE
  5
216
100
AcDbEntity
  8
0
100
AcDbLine
 62
7
  6
CONTINUOUS
 10
13.8634834891
 20
5.099141804
 11
14.4884834891
 21
5.099141804
  0
LINE
  5
217
100
AcDbEntity
  8
0
100
AcDbLine
 62
9
  6
CONTINUOUS
 10
14.4884834891
 20
5.476141804
 11
13.8635506084
 21
5.476141804
  0
LINE
  5
218
100
AcDbEntity
  8
0
100
AcDbLine
 62
7
  6
CONTINUOUS
 10
12.7629834891
 20
5.516141804
 11
15.5889834891
 21
5.516141804
  0
LINE
  5
219
100
AcDbEntity
  8
0
100
AcDbLine
 62
9
  6
CONTINUOUS
 10
12.7329834891
 20
5.546141804
 11
15.6189834891
 21
5.546141804
  0
LINE
  5
21A
100
AcDbEntity
  8
0
100
AcDbLine
 62
9
  6
CONTINUOUS
 10
15.6189834891
 20
5.861141804
 11
12.7329834891
 21
5.861141804
  0
LINE
  5
21B
100
AcDbEntity
  8
0
100
AcDbLine
 62
7
  6
CONTINUOUS
 10
12.7629834891
 20
5.891141804
 11
15.5889834891
 21
5.891141804
  0
LINE
  5
21C
100
AcDbEntity
  8
0
100
AcDbLine
 62
7
  6
CONTINUOUS
 10
14.8634834891
 20
6.561141804
 11
13.4884834891
 21
6.561141804
  0
LINE
  5
21D
100
AcDbEntity
  8
0
100
AcDbLine
 62
7
  6
CONTINUOUS
 10
5.8009834891
 20
9.448641804
 11
6.8009834891
 21
9.448641804
  0
LINE
  5
21E
100
AcDbEntity
  8
0
100
AcDbLine
 62
9
  6
CONTINUOUS
 10
14.6759834891
 20
10.561141804
 11
13.6759834891
 21
10.561141804
  0
LINE
  5
21F
100
AcDbEntity
  8
0
100
AcDbLine
 62
9
  6
CONTINUOUS
 10
6.8009834891
 20
10.561141804
 11
5.8009834891
 21
10.561141804
  0
LINE
  5
220
100
AcDbEntity
  8
0
100
AcDbLine
 62
7
  6
CONTINUOUS
 10
12.7329834891
 20
5.546141804
 11
12.7329834891
 21
5.861141804
  0
LINE
  5
221
100
AcDbEntity
  8
0
100
AcDbLine
 62
9
  6
CONTINUOUS
 10
12.7614134103
 20
5.861141804
 11
12.7614134102
 21
5.546141804
  0
LINE
  5
222
100
AcDbEntity
  8
0
100
AcDbLine
 62
7
  6
CONTINUOUS
 10
12.9884834891
 20
4.124141804
 11
12.9884834891
 21
3.021141804
  0
LINE
  5
223
100
AcDbEntity
  8
0
100
AcDbLine
 62
7
  6
CONTINUOUS
 10
13.0759834891
 20
3.021141804
 11
13.0759834891
 21
3.178141804
  0
LINE
  5
224
100
AcDbEntity
  8
0
100
AcDbLine
 62
7
  6
CONTINUOUS
 10
13.4259834891
 20
3.2648157491
 11
13.4259834891
 21
3.218141804
  0
LINE
  5
225
100
AcDbEntity
  8
0
100
AcDbLine
 62
7
  6
CONTINUOUS
 10
13.4884834891
 20
6.561141804
 11
13.4884834891
 21
5.891141804
  0
LINE
  5
226
100
AcDbEntity
  8
0
100
AcDbLine
 62
7
  6
CONTINUOUS
 10
13.4884834891
 20
5.516141804
 11
13.4884834891
 21
4.124141804
  0
LINE
  5
227
100
AcDbEntity
  8
0
100
AcDbLine
 62
7
  6
CONTINUOUS
 10
13.5384834891
 20
3.208141804
 11
13.5384834891
 21
3.218141804
  0
LINE
  5
228
100
AcDbEntity
  8
0
100
AcDbLine
 62
7
  6
CONTINUOUS
 10
13.6759834891
 20
10.561141804
 11
13.6759834891
 21
6.561141804
  0
LINE
  5
229
100
AcDbEntity
  8
0
100
AcDbLine
 62
9
  6
CONTINUOUS
 10
13.7684312729
 20
5.546141804
 11
13.7684312728
 21
5.861141804
  0
LINE
  5
22A
100
AcDbEntity
  8
0
100
AcDbLine
 62
7
  6
CONTINUOUS
 10
13.8634834891
 20
5.476141804
 11
13.8634834891
 21
5.099141804
  0
LINE
  5
22B
100
AcDbEntity
  8
0
100
AcDbLine
 62
7
  6
CONTINUOUS
 10
13.564474745
 20
5.0362934874
 11
13.5064733149
 21
3.3753498443
  0
LINE
  5
22C
100
AcDbEntity
  8
0
100
AcDbLine
 62
9
  6
CONTINUOUS
 10
13.8867179702
 20
5.861141804
 11
13.8867179702
 21
5.546141804
  0
LINE
  5
22D
100
AcDbEntity
  8
0
100
AcDbLine
 62
7
  6
CONTINUOUS
 10
13.9134834891
 20
5.099141804
 11
13.9134834891
 21
5.068141804
  0
LINE
  5
22E
100
AcDbEntity
  8
0
100
AcDbLine
 62
9
  6
CONTINUOUS
 10
13.9394935401
 20
5.546141804
 11
13.9394935401
 21
5.861141804
  0
LINE
  5
22F
100
AcDbEntity
  8
0
100
AcDbLine
 62
9
  6
CONTINUOUS
 10
13.9694524261
 20
5.891141804
 11
13.9694524261
 21
5.516141804
  0
LINE
  5
230
100
AcDbEntity
  8
0
100
AcDbLine
 62
9
  6
CONTINUOUS
 10
14.3825145521
 20
5.516141804
 11
14.3825145521
 21
5.891141804
  0
LINE
  5
231
100
AcDbEntity
  8
0
100
AcDbLine
 62
7
  6
CONTINUOUS
 10
14.7874922333
 20
5.0362934874
 11
14.8454936634
 21
3.3753498443
  0
LINE
  5
232
100
AcDbEntity
  8
0
100
AcDbLine
 62
9
  6
CONTINUOUS
 10
14.4124734382
 20
5.861141804
 11
14.4124734382
 21
5.546141804
  0
LINE
  5
233
100
AcDbEntity
  8
0
100
AcDbLine
 62
7
  6
CONTINUOUS
 10
14.4384834891
 20
5.099141804
 11
14.4384834891
 21
5.068141804
  0
LINE
  5
234
100
AcDbEntity
  8
0
100
AcDbLine
 62
9
  6
CONTINUOUS
 10
14.465249008
 20
5.546141804
 11
14.465249008
 21
5.861141804
  0
LINE
  5
235
100
AcDbEntity
  8
0
100
AcDbLine
 62
7
  6
CONTINUOUS
 10
14.4884834891
 20
5.476141804
 11
14.4884834891
 21
5.099141804
  0
LINE
  5
236
100
AcDbEntity
  8
0
100
AcDbLine
 62
9
  6
CONTINUOUS
 10
14.5835357054
 20
5.861141804
 11
14.5835357055
 21
5.546141804
  0
LINE
  5
237
100
AcDbEntity
  8
0
100
AcDbLine
 62
7
  6
CONTINUOUS
 10
14.6759834891
 20
10.561141804
 11
14.6759834891
 21
6.561141804
  0
LINE
  5
238
100
AcDbEntity
  8
0
100
AcDbLine
 62
7
  6
CONTINUOUS
 10
14.8134834891
 20
3.208141804
 11
14.8134834891
 21
3.218141804
  0
LINE
  5
239
100
AcDbEntity
  8
0
100
AcDbLine
 62
7
  6
CONTINUOUS
 10
14.8634834891
 20
6.561141804
 11
14.8634834891
 21
5.891141804
  0
LINE
  5
23A
100
AcDbEntity
  8
0
100
AcDbLine
 62
7
  6
CONTINUOUS
 10
14.8634834891
 20
5.516141804
 11
14.8634834891
 21
4.124141804
  0
LINE
  5
23B
100
AcDbEntity
  8
0
100
AcDbLine
 62
7
  6
CONTINUOUS
 10
14.9259834891
 20
3.2648157491
 11
14.9259834891
 21
3.218141804
  0
LINE
  5
23C
100
AcDbEntity
  8
0
100
AcDbLine
 62
7
  6
CONTINUOUS
 10
15.2759834891
 20
3.021141804
 11
15.2759834891
 21
3.178141804
  0
LINE
  5
23D
100
AcDbEntity
  8
0
100
AcDbLine
 62
7
  6
CONTINUOUS
 10
15.3634834891
 20
4.124141804
 11
15.3634834891
 21
3.021141804
  0
LINE
  5
23E
100
AcDbEntity
  8
0
100
AcDbLine
 62
9
  6
CONTINUOUS
 10
15.5905535679
 20
5.546141804
 11
15.5905535679
 21
5.861141804
  0
LINE
  5
23F
100
AcDbEntity
  8
0
100
AcDbLine
 62
7
  6
CONTINUOUS
 10
15.6189834891
 20
5.861141804
 11
15.6189834891
 21
5.546141804
  0
ARC
  5
240
100
AcDbEntity
  8
0
100
AcDbCircle
 62
7
  6
CONTINUOUS
 10
12.7629834891
 20
5.861141804
 40
0.03
100
AcDbArc
 50
90.0
 51
180.0
  0
ARC
  5
241
100
AcDbEntity
  8
0
100
AcDbCircle
 62
7
  6
CONTINUOUS
 10
12.7629834891
 20
5.546141804
 40
0.03
100
AcDbArc
 50
180.0
 51
270.0
  0
ARC
  5
242
100
AcDbEntity
  8
0
100
AcDbCircle
 62
7
  6
CONTINUOUS
 10
10.2384834891
 20
10.561141804
 40
4.4375
100
AcDbArc
 50
0.0
 51
180.0
  0
ARC
  5
243
100
AcDbEntity
  8
0
100
AcDbCircle
 62
7
  6
CONTINUOUS
 10
10.2384834891
 20
10.561141804
 40
3.4375
100
AcDbArc
 50
0.0
 51
180.0
  0
ARC
  5
244
100
AcDbEntity
  8
0
100
AcDbCircle
 62
7
  6
CONTINUOUS
 10
13.4265220487
 20
3.378141804
 40
0.08
100
AcDbArc
 50
289.1987071253
 51
358.0
  0
ARC
  5
245
100
AcDbEntity
  8
0
100
AcDbCircle
 62
7
  6
CONTINUOUS
 10
13.4659834891
 20
3.2648157491
 40
0.04
100
AcDbArc
 50
109.1987071253
 51
180.0
  0
ARC
  5
246
100
AcDbEntity
  8
0
100
AcDbCircle
 62
7
  6
CONTINUOUS
 10
13.1059834891
 20
3.178141804
 40
0.03
100
AcDbArc
 50
90.0
 51
180.0
  0
ARC
  5
247
100
AcDbEntity
  8
0
100
AcDbCircle
 62
7
  6
CONTINUOUS
 10
13.8234834891
 20
5.476141804
 40
0.04
100
AcDbArc
 50
0.0
 51
90.0
  0
ARC
  5
248
100
AcDbEntity
  8
0
100
AcDbCircle
 62
7
  6
CONTINUOUS
 10
13.5974546423
 20
5.035141804
 40
0.033
100
AcDbArc
 50
90.0
 51
178.0
  0
ARC
  5
249
100
AcDbEntity
  8
0
100
AcDbCircle
 62
9
  6
CONTINUOUS
 10
13.9694751819
 20
5.8611648773
 40
0.0299788069
100
AcDbArc
 50
90.0434937999
 51
180.0440936354
  0
ARC
  5
24A
100
AcDbEntity
  8
0
100
AcDbCircle
 62
9
  6
CONTINUOUS
 10
13.916699612
 20
5.8611648774
 40
0.0299788067
100
AcDbArc
 50
90.0434936861
 51
180.0440938563
  0
ARC
  5
24B
100
AcDbEntity
  8
0
100
AcDbCircle
 62
9
  6
CONTINUOUS
 10
13.9694751802
 20
5.5461187311
 40
0.0299788058
100
AcDbArc
 50
179.9559069416
 51
269.9565094177
  0
ARC
  5
24C
100
AcDbEntity
  8
0
100
AcDbCircle
 62
9
  6
CONTINUOUS
 10
13.9166996103
 20
5.546118731
 40
0.0299788057
100
AcDbArc
 50
179.9559066949
 51
269.9565095379
  0
ARC
  5
24D
100
AcDbEntity
  8
0
100
AcDbCircle
 62
7
  6
CONTINUOUS
 10
14.9254449296
 20
3.378141804
 40
0.08
100
AcDbArc
 50
182.0
 51
250.8012928747
  0
ARC
  5
24E
100
AcDbEntity
  8
0
100
AcDbCircle
 62
7
  6
CONTINUOUS
 10
14.8859834891
 20
3.2648157491
 40
0.04
100
AcDbArc
 50
0.0
 51
70.8012928747
  0
ARC
  5
24F
100
AcDbEntity
  8
0
100
AcDbCircle
 62
7
  6
CONTINUOUS
 10
15.2459834891
 20
3.178141804
 40
0.03
100
AcDbArc
 50
0.0
 51
90.0
  0
ARC
  5
250
100
AcDbEntity
  8
0
100
AcDbCircle
 62
7
  6
CONTINUOUS
 10
14.5284834891
 20
5.476141804
 40
0.04
100
AcDbArc
 50
90.0
 51
180.0
  0
ARC
  5
251
100
AcDbEntity
  8
0
100
AcDbCircle
 62
7
  6
CONTINUOUS
 10
14.754512336
 20
5.035141804
 40
0.033
100
AcDbArc
 50
2.0
 51
90.0
  0
ARC
  5
252
100
AcDbEntity
  8
0
100
AcDbCircle
 62
7
  6
CONTINUOUS
 10
15.5889834891
 20
5.861141804
 40
0.03
100
AcDbArc
 50
0.0
 51
90.0
  0
ARC
  5
253
100
AcDbEntity
  8
0
100
AcDbCircle
 62
7
  6
CONTINUOUS
 10
15.5889834891
 20
5.546141804
 40
0.03
100
AcDbArc
 50
270.0
 51
360.0
  0
ARC
  5
254
100
AcDbEntity
  8
0
100
AcDbCircle
 62
9
  6
CONTINUOUS
 10
14.3824917943
 20
5.861164878
 40
0.029978808
100
AcDbArc
 50
359.9559050594
 51
89.9565023795
  0
ARC
  5
255
100
AcDbEntity
  8
0
100
AcDbCircle
 62
9
  6
CONTINUOUS
 10
14.4352673643
 20
5.861164878
 40
0.029978808
100
AcDbArc
 50
359.9559050409
 51
89.9565024492
  0
ARC
  5
256
100
AcDbEntity
  8
0
100
AcDbCircle
 62
9
  6
CONTINUOUS
 10
14.3824917981
 20
5.546118731
 40
0.0299788057
100
AcDbArc
 50
270.043490461
 51
0.0440933065
  0
ARC
  5
257
100
AcDbEntity
  8
0
100
AcDbCircle
 62
9
  6
CONTINUOUS
 10
14.435267368
 20
5.546118731
 40
0.0299788057
100
AcDbArc
 50
270.0434904677
 51
0.0440932996
  0
SPLINE
  5
258
100
AcDbEntity
  8
0
100
AcDbSpline
 62
9
  6
CONTINUOUS
 70
0
 71
3
 72
23
 73
19
 74
0
 42
0.0000001
 43
0.0000001
 44
0.0000000001
 40
0.0
 40
0.0
 40
0.0
 40
0.0
 40
0.1939319392
 40
0.380797584
 40
0.5528360285
 40
0.6312832732
 40
0.7036936851
 40
0.7693908385
 40
0.827704443
 40
0.8780733499
 40
0.9200799196
 40
0.9533306292
 40
0.966575249
 40
0.9775517574
 40
0.9862698837
 40
0.9927696292
 40
0.9971820892
 40
1.0
 40
1.0
 40
1.0
 40
1.0
 10
13.7684312729
 20
5.861141804
 30
0.0
 10
13.7684312729
 20
5.8630910869
 30
0.0
 10
13.7684507689
 20
5.8669186584
 30
0.0
 10
13.7685369951
 20
5.8724748495
 30
0.0
 10
13.7686568898
 20
5.8768693426
 30
0.0
 10
13.7687818528
 20
5.8801125176
 30
0.0
 10
13.768884206
 20
5.8822868138
 30
0.0
 10
13.7689967598
 20
5.8842579481
 30
0.0
 10
13.7691184521
 20
5.8860065245
 30
0.0
 10
13.7692479191
 20
5.8875157196
 30
0.0
 10
13.7693835619
 20
5.8887712153
 30
0.0
 10
13.7695071388
 20
5.8896525011
 30
0.0
 10
13.7696128718
 20
5.8902205323
 30
0.0
 10
13.7696869161
 20
5.8905433491
 30
0.0
 10
13.7697599722
 20
5.8907965165
 30
0.0
 10
13.7698349531
 20
5.8909797874
 30
0.0
 10
13.7699046647
 20
5.8910990831
 30
0.0
 10
13.7699730277
 20
5.891141804
 30
0.0
 10
13.7700013516
 20
5.891141804
 30
0.0
  0
SPLINE
  5
259
100
AcDbEntity
  8
0
100
AcDbSpline
 62
9
  6
CONTINUOUS
 70
0
 71
3
 72
23
 73
19
 74
0
 42
0.0000001
 43
0.0000001
 44
0.0000000001
 40
0.0
 40
0.0
 40
0.0
 40
0.0
 40
0.0028179108
 40
0.0072303708
 40
0.0137301163
 40
0.0224482426
 40
0.033424751
 40
0.0466693708
 40
0.0799200804
 40
0.1219266501
 40
0.172295557
 40
0.2306091615
 40
0.2963063149
 40
0.3687167268
 40
0.4471639715
 40
0.619202416
 40
0.8060680608
 40
1.0
 40
1.0
 40
1.0
 40
1.0
 10
14.5819656267
 20
5.891141804
 30
0.0
 10
14.5819939506
 20
5.891141804
 30
0.0
 10
14.5820623136
 20
5.8910990831
 30
0.0
 10
14.5821320252
 20
5.8909797874
 30
0.0
 10
14.582207006
 20
5.8907965165
 30
0.0
 10
14.5822800622
 20
5.8905433491
 30
0.0
 10
14.5823541065
 20
5.8902205323
 30
0.0
 10
14.5824598395
 20
5.8896525011
 30
0.0
 10
14.5825834163
 20
5.8887712153
 30
0.0
 10
14.5827190592
 20
5.8875157196
 30
0.0
 10
14.5828485261
 20
5.8860065245
 30
0.0
 10
14.5829702185
 20
5.8842579481
 30
0.0
 10
14.5830827723
 20
5.8822868138
 30
0.0
 10
14.5831851255
 20
5.8801125176
 30
0.0
 10
14.5833100885
 20
5.8768693426
 30
0.0
 10
14.5834299832
 20
5.8724748495
 30
0.0
 10
14.5835162093
 20
5.8669186584
 30
0.0
 10
14.5835357054
 20
5.8630910869
 30
0.0
 10
14.5835357054
 20
5.861141804
 30
0.0
  0
SPLINE
  5
25A
100
AcDbEntity
  8
0
100
AcDbSpline
 62
9
  6
CONTINUOUS
 70
0
 71
3
 72
23
 73
19
 74
0
 42
0.0000001
 43
0.0000001
 44
0.0000000001
 40
0.0
 40
0.0
 40
0.0
 40
0.0
 40
0.1939319392
 40
0.380797584
 40
0.5528360285
 40
0.6312832732
 40
0.7036936851
 40
0.7693908385
 40
0.827704443
 40
0.8780733499
 40
0.9200799196
 40
0.9533306292
 40
0.966575249
 40
0.9775517574
 40
0.9862698837
 40
0.9927696292
 40
0.9971820892
 40
1.0
 40
1.0
 40
1.0
 40
1.0
 10
12.7614134104
 20
5.546141804
 30
0.0
 10
12.7614134104
 20
5.5441925212
 30
0.0
 10
12.7614329065
 20
5.5403649496
 30
0.0
 10
12.7615191326
 20
5.5348087586
 30
0.0
 10
12.7616390273
 20
5.5304142655
 30
0.0
 10
12.7617639904
 20
5.5271710905
 30
0.0
 10
12.7618663435
 20
5.5249967943
 30
0.0
 10
12.7619788973
 20
5.52302566
 30
0.0
 10
12.7621005897
 20
5.5212770836
 30
0.0
 10
12.7622300566
 20
5.5197678885
 30
0.0
 10
12.7623656995
 20
5.5185123928
 30
0.0
 10
12.7624892763
 20
5.517631107
 30
0.0
 10
12.7625950093
 20
5.5170630758
 30
0.0
 10
12.7626690536
 20
5.516740259
 30
0.0
 10
12.7627421098
 20
5.5164870916
 30
0.0
 10
12.7628170906
 20
5.5163038207
 30
0.0
 10
12.7628868022
 20
5.516184525
 30
0.0
 10
12.7629551653
 20
5.516141804
 30
0.0
 10
12.7629834891
 20
5.516141804
 30
0.0
  0
SPLINE
  5
25B
100
AcDbEntity
  8
0
100
AcDbSpline
 62
9
  6
CONTINUOUS
 70
0
 71
3
 72
23
 73
19
 74
0
 42
0.0000001
 43
0.0000001
 44
0.0000000001
 40
0.0
 40
0.0
 40
0.0
 40
0.0
 40
0.0028179108
 40
0.0072303708
 40
0.0137301163
 40
0.0224482426
 40
0.033424751
 40
0.0466693708
 40
0.0799200804
 40
0.1219266501
 40
0.172295557
 40
0.2306091615
 40
0.2963063149
 40
0.3687167268
 40
0.4471639715
 40
0.619202416
 40
0.8060680608
 40
1.0
 40
1.0
 40
1.0
 40
1.0
 10
13.7700013516
 20
5.516141804
 30
0.0
 10
13.7699730277
 20
5.516141804
 30
0.0
 10
13.7699046647
 20
5.516184525
 30
0.0
 10
13.7698349531
 20
5.5163038207
 30
0.0
 10
13.7697599722
 20
5.5164870916
 30
0.0
 10
13.7696869161
 20
5.516740259
 30
0.0
 10
13.7696128718
 20
5.5170630758
 30
0.0
 10
13.7695071388
 20
5.517631107
 30
0.0
 10
13.7693835619
 20
5.5185123928
 30
0.0
 10
13.7692479191
 20
5.5197678885
 30
0.0
 10
13.7691184521
 20
5.5212770836
 30
0.0
 10
13.7689967598
 20
5.52302566
 30
0.0
 10
13.768884206
 20
5.5249967943
 30
0.0
 10
13.7687818528
 20
5.5271710905
 30
0.0
 10
13.7686568898
 20
5.5304142655
 30
0.0
 10
13.7685369951
 20
5.5348087586
 30
0.0
 10
13.7684507689
 20
5.5403649496
 30
0.0
 10
13.7684312729
 20
5.5441925212
 30
0.0
 10
13.7684312729
 20
5.546141804
 30
0.0
  0
SPLINE
  5
25C
100
AcDbEntity
  8
0
100
AcDbSpline
 62
9
  6
CONTINUOUS
 70
0
 71
3
 72
23
 73
19
 74
0
 42
0.0000001
 43
0.0000001
 44
0.0000000001
 40
0.0
 40
0.0
 40
0.0
 40
0.0
 40
0.1939319392
 40
0.380797584
 40
0.5528360285
 40
0.6312832732
 40
0.7036936851
 40
0.7693908385
 40
0.827704443
 40
0.8780733499
 40
0.9200799196
 40
0.9533306292
 40
0.966575249
 40
0.9775517574
 40
0.9862698837
 40
0.9927696292
 40
0.9971820892
 40
1.0
 40
1.0
 40
1.0
 40
1.0
 10
14.5835357054
 20
5.546141804
 30
0.0
 10
14.5835357054
 20
5.5441925212
 30
0.0
 10
14.5835162093
 20
5.5403649496
 30
0.0
 10
14.5834299832
 20
5.5348087586
 30
0.0
 10
14.5833100885
 20
5.5304142655
 30
0.0
 10
14.5831851255
 20
5.5271710905
 30
0.0
 10
14.5830827723
 20
5.5249967943
 30
0.0
 10
14.5829702185
 20
5.52302566
 30
0.0
 10
14.5828485261
 20
5.5212770836
 30
0.0
 10
14.5827190592
 20
5.5197678885
 30
0.0
 10
14.5825834163
 20
5.5185123928
 30
0.0
 10
14.5824598395
 20
5.517631107
 30
0.0
 10
14.5823541065
 20
5.5170630758
 30
0.0
 10
14.5822800622
 20
5.516740259
 30
0.0
 10
14.582207006
 20
5.5164870916
 30
0.0
 10
14.5821320252
 20
5.5163038207
 30
0.0
 10
14.5820623136
 20
5.516184525
 30
0.0
 10
14.5819939506
 20
5.516141804
 30
0.0
 10
14.5819656267
 20
5.516141804
 30
0.0
  0
SPLINE
  5
25D
100
AcDbEntity
  8
0
100
AcDbSpline
 62
9
  6
CONTINUOUS
 70
0
 71
3
 72
23
 73
19
 74
0
 42
0.0000001
 43
0.0000001
 44
0.0000000001
 40
0.0
 40
0.0
 40
0.0
 40
0.0
 40
0.0028179108
 40
0.0072303711
 40
0.0137301173
 40
0.0224482445
 40
0.0334247541
 40
0.0466693751
 40
0.0799200886
 40
0.1219266647
 40
0.1722955776
 40
0.2306091867
 40
0.2963063485
 40
0.3687167694
 40
0.4471640202
 40
0.6192024664
 40
0.806068079
 40
1.0
 40
1.0
 40
1.0
 40
1.0
 10
15.5889834891
 20
5.516141804
 30
0.0
 10
15.589011813
 20
5.516141804
 30
0.0
 10
15.5890801761
 20
5.516184525
 30
0.0
 10
15.5891498877
 20
5.5163038208
 30
0.0
 10
15.5892248685
 20
5.5164870916
 30
0.0
 10
15.5892979246
 20
5.516740259
 30
0.0
 10
15.589371969
 20
5.5170630759
 30
0.0
 10
15.589477702
 20
5.5176311072
 30
0.0
 10
15.5896012788
 20
5.5185123931
 30
0.0
 10
15.5897369217
 20
5.5197678889
 30
0.0
 10
15.5898663886
 20
5.5212770842
 30
0.0
 10
15.589988081
 20
5.5230256608
 30
0.0
 10
15.5901006348
 20
5.5249967953
 30
0.0
 10
15.590202988
 20
5.5271710917
 30
0.0
 10
15.590327951
 20
5.5304142669
 30
0.0
 10
15.5904478456
 20
5.5348087598
 30
0.0
 10
15.5905340718
 20
5.5403649503
 30
0.0
 10
15.5905535678
 20
5.5441925214
 30
0.0
 10
15.5905535678
 20
5.546141804
 30
0.0
  0
SPLINE
  5
25E
100
AcDbEntity
  8
0
100
AcDbSpline
 62
9
  6
CONTINUOUS
 70
0
 71
3
 72
23
 73
19
 74
0
 42
0.0000001
 43
0.0000001
 44
0.0000000001
 40
0.0
 40
0.0
 40
0.0
 40
0.0
 40
0.1939319212
 40
0.3807975341
 40
0.5528359804
 40
0.6312832312
 40
0.7036936521
 40
0.7693908138
 40
0.8277044229
 40
0.8780733358
 40
0.9200799118
 40
0.9533306251
 40
0.966575246
 40
0.9775517555
 40
0.9862698826
 40
0.9927696287
 40
0.9971820891
 40
1.0
 40
1.0
 40
1.0
 40
1.0
 10
15.5905535678
 20
5.861141804
 30
0.0
 10
15.5905535678
 20
5.8630910867
 30
0.0
 10
15.5905340718
 20
5.8669186578
 30
0.0
 10
15.5904478456
 20
5.8724748483
 30
0.0
 10
15.590327951
 20
5.8768693412
 30
0.0
 10
15.590202988
 20
5.8801125164
 30
0.0
 10
15.5901006348
 20
5.8822868128
 30
0.0
 10
15.589988081
 20
5.8842579473
 30
0.0
 10
15.5898663886
 20
5.8860065239
 30
0.0
 10
15.5897369217
 20
5.8875157192
 30
0.0
 10
15.5896012788
 20
5.888771215
 30
0.0
 10
15.589477702
 20
5.8896525009
 30
0.0
 10
15.589371969
 20
5.8902205322
 30
0.0
 10
15.5892979246
 20
5.890543349
 30
0.0
 10
15.5892248685
 20
5.8907965165
 30
0.0
 10
15.5891498877
 20
5.8909797873
 30
0.0
 10
15.5890801761
 20
5.8910990831
 30
0.0
 10
15.589011813
 20
5.891141804
 30
0.0
 10
15.5889834891
 20
5.891141804
 30
0.0
  0
SPLINE
  5
25F
100
AcDbEntity
  8
0
100
AcDbSpline
 62
9
  6
CONTINUOUS
 70
0
 71
3
 72
23
 73
19
 74
0
 42
0.0000001
 43
0.0000001
 44
0.0000000001
 40
0.0
 40
0.0
 40
0.0
 40
0.0
 40
0.0028179108
 40
0.0072303708
 40
0.0137301163
 40
0.0224482426
 40
0.033424751
 40
0.0466693708
 40
0.0799200804
 40
0.1219266501
 40
0.172295557
 40
0.2306091615
 40
0.2963063149
 40
0.3687167268
 40
0.4471639715
 40
0.619202416
 40
0.8060680608
 40
1.0
 40
1.0
 40
1.0
 40
1.0
 10
12.7629834891
 20
5.891141804
 30
0.0
 10
12.7629551653
 20
5.891141804
 30
0.0
 10
12.7628868022
 20
5.8910990831
 30
0.0
 10
12.7628170906
 20
5.8909797874
 30
0.0
 10
12.7627421098
 20
5.8907965165
 30
0.0
 10
12.7626690536
 20
5.8905433491
 30
0.0
 10
12.7625950093
 20
5.8902205323
 30
0.0
 10
12.7624892763
 20
5.8896525011
 30
0.0
 10
12.7623656995
 20
5.8887712153
 30
0.0
 10
12.7622300566
 20
5.8875157196
 30
0.0
 10
12.7621005897
 20
5.8860065245
 30
0.0
 10
12.7619788973
 20
5.8842579481
 30
0.0
 10
12.7618663435
 20
5.8822868138
 30
0.0
 10
12.7617639904
 20
5.8801125176
 30
0.0
 10
12.7616390273
 20
5.8768693426
 30
0.0
 10
12.7615191326
 20
5.8724748495
 30
0.0
 10
12.7614329065
 20
5.8669186584
 30
0.0
 10
12.7614134104
 20
5.8630910869
 30
0.0
 10
12.7614134104
 20
5.861141804
 30
0.0
  0
ENDSEC
  0
SECTION
  2
OBJECTS
  0
DICTIONARY
  5
C
100
AcDbDictionary
280
0
281
1
  3
ACAD_GROUP
350
D
  3
ACAD_MLINESTYLE
350
17
  3
ACAD_LAYOUT
350
1A
  3
ACAD_PLOTSETTINGS
350
19
  3
ACAD_PLOTSTYLENAME
350
E
  0
DICTIONARY
  5
D
102
{ACAD_REACTORS
330
C
102
}
100
AcDbDictionary
280
0
281
1
  0
ACDBDICTIONARYWDFLT
  5
E
102
{ACAD_REACTORS
330
C
102
}
100
AcDbDictionary
281
1
  3
Normal
350
F
100
AcDbDictionaryWithDefault
340
F
  0
DICTIONARY
  5
17
102
{ACAD_REACTORS
330
C
102
}
100
AcDbDictionary
280
0
281
1
  3
Standard
350
18
  0
DICTIONARY
  5
19
102
{ACAD_REACTORS
330
C
102
}
100
AcDbDictionary
281
1
  0
DICTIONARY
  5
1A
102
{ACAD_REACTORS
330
C
102
}
100
AcDbDictionary
281
1
  3
Model
350
260
  3
Layout1
350
261
  0
ACDBPLACEHOLDER
  5
F
102
{ACAD_REACTORS
330
E
102
}
  0
MLINESTYLE
  5
18
102
{ACAD_REACTORS
330
17
102
}
100
AcDbMlineStyle
  2
STANDARD
 70
0
  3

 62
256
 51
90.0
 52
90.0
 71
2
 49
0.5
 62
256
  6
BYLAYER
 49
-0.5
 62
256
  6
BYLAYER
  0
LAYOUT
  5
260
102
{ACAD_REACTORS
330
1A
102
}
100
AcDbPlotSettings
  1

  2
none_device
  4
ANSI_C_(22.00_x_17.00_Inches)
  6

 40
0.0
 41
0.0
 42
0.0
 43
0.0
 44
558.8
 45
431.8
 46
0.0
 47
0.0
 48
0.0
 49
0.0
140
0.0
141
0.0
142
1.0
143
1.0
 70
1024
 72
0
 73
0
 74
0
  7

 75
0
147
1.0
148
0.0
149
0.0
100
AcDbLayout
  1
Model
 70
0
 71
0
 10
0.0
 20
0.0
 11
22.0
 21
17.0
 12
0.0
 22
0.0
 32
0.0
 14
0.0
 24
0.0
 34
0.0
 15
0.0
 25
0.0
 35
0.0
146
0.0
 13
0.0
 23
0.0
 33
0.0
 16
1.0
 26
0.0
 36
0.0
 17
0.0
 27
1.0
 37
0.0
 76
0
330
202
345
0
346
0
  0
LAYOUT
  5
261
102
{ACAD_REACTORS
330
1A
102
}
100
AcDbPlotSettings
  1

  2
none_device
  4
ANSI_C_(22.00_x_17.00_Inches)
  6

 40
0.0
 41
0.0
 42
0.0
 43
0.0
 44
558.8
 45
431.8
 46
0.0
 47
0.0
 48
0.0
 49
0.0
140
0.0
141
0.0
142
1.0
143
1.0
 70
0
 72
0
 73
0
 74
0
  7

 75
0
147
1.0
148
0.0
149
0.0
100
AcDbLayout
  1
Layout1
 70
0
 71
1
 10
0.0
 20
0.0
 11
22.0
 21
17.0
 12
0.0
 22
0.0
 32
0.0
 14
0.0
 24
0.0
 34
0.0
 15
0.0
 25
0.0
 35
0.0
146
0.0
 13
0.0
 23
0.0
 33
0.0
 16
1.0
 26
0.0
 36
0.0
 17
0.0
 27
1.0
 37
0.0
 76
0
330
203
345
0
346
0
  0
ENDSEC
  0
EOF
