999
DXF file: E:\BT Custom\CADOUTPUT\_TOP.dxf
999
Pro/ENGINEER 2018400 by Parametric Technology Corporation
  0
SECTION
  2
HEADER
  9
$ACADVER
  1
AC1018
  9
$DWGCODEPAGE
  3
ANSI_1252
  9
$EXTMAX
 10
22.0
 20
17.0
 30
0.0
  9
$EXTMIN
 10
0.0
 20
0.0
 30
0.0
  9
$LIMMIN
 10
0.0
 20
0.0
  9
$LIMMAX
 10
22.0
 20
17.0
  9
$VIEWCTR
 10
11.0
 20
8.5
  9
$VIEWSIZE
 40
17.0
  9
$CLAYER
  8
0
  9
$LTSCALE
 40
1.21
  9
$CELTYPE
  6
BYLAYER
  9
$DIMSCALE
 40
1.0
  9
$DIMASZ
 40
0.1
  9
$DIMEXO
 40
0.0625
  9
$DIMDLI
 40
0.836
  9
$DIMEXE
 40
0.125
  9
$DIMCEN
 40
0.198
  9
$DIMLFAC
 40
1.0
  9
$DIMBLK
  1
_FILLED
  9
$DIMALT
 70
1
  9
$DIMALTD
 70
2
  9
$DIMALTTD
 70
2
  9
$DIMALTF
 40
25.4
  9
$DIMTXT
 40
0.08
  9
$DIMTOL
 70
1
  9
$DIMLIM
 70
0
  9
$DIMTFAC
 40
1.0
  9
$DIMTP
 40
0.001
  9
$DIMTM
 40
0.001
  9
$DIMGAP
 40
0.09
  9
$DIMDSEP
 70
46
  9
$AUNITS
 70
0
  9
$PDMODE
 70
3
  9
$PDSIZE
 40
0.06
  9
$HANDSEED
  5
356
  9
$TILEMODE
 70
1
  9
$MEASUREMENT
 70
0
  9
$INSUNITS
 70
1
  0
ENDSEC
  0
SECTION
  2
CLASSES
  0
CLASS
  1
ACDBDICTIONARYWDFLT
  2
AcDbDictionaryWithDefault
  3
AutoCAD 2000
 90
0
 91
1
280
0
281
0
  0
CLASS
  1
ACDBPLACEHOLDER
  2
AcDbPlaceHolder
  3
AutoCAD 2000
 90
0
 91
1
280
0
281
0
  0
CLASS
  1
LAYOUT
  2
AcDbLayout
  3
AutoCAD 2000
 90
0
 91
0
280
0
281
0
  0
ENDSEC
  0
SECTION
  2
TABLES
  0
TABLE
  2
VPORT
  5
8
100
AcDbSymbolTable
 70
2
  0
VPORT
  5
1F4
100
AcDbSymbolTableRecord
100
AcDbViewportTableRecord
  2
*ACTIVE
 70
0
 10
0.0
 20
0.0
 11
1.0
 21
1.0
 12
11.0
 22
8.5
 13
0.0
 23
0.0
 14
1.0
 24
1.0
 15
0.0
 25
0.0
 16
0.0
 26
0.0
 36
1.0
 17
0.0
 27
0.0
 37
0.0
 40
17.0
 41
1.2941176471
 42
50.0
 43
0.0
 44
0.0
 50
0.0
 51
0.0
 71
0
 72
100
 73
1
 74
1
 75
0
 76
0
 77
0
 78
0
  0
ENDTAB
  0
TABLE
  2
LTYPE
  5
5
100
AcDbSymbolTable
 70
6
  0
LTYPE
  5
14
100
AcDbSymbolTableRecord
100
AcDbLinetypeTableRecord
  2
BYBLOCK
 70
0
  3

 72
65
 73
0
 40
0.0
  0
LTYPE
  5
15
100
AcDbSymbolTableRecord
100
AcDbLinetypeTableRecord
  2
BYLAYER
 70
0
  3

 72
65
 73
0
 40
0.0
  0
LTYPE
  5
16
100
AcDbSymbolTableRecord
100
AcDbLinetypeTableRecord
  2
CONTINUOUS
 70
64
  3
Solid line
 72
65
 73
0
 40
0.0
  0
LTYPE
  5
1F5
100
AcDbSymbolTableRecord
100
AcDbLinetypeTableRecord
  2
CENTER
 70
64
  3
____ _ ____ _ ____ _ ____ _ ____ _ ____ _ ____
 72
65
 73
4
 40
0.6
 49
0.375
 74
0
 49
-0.075
 74
0
 49
0.075
 74
0
 49
-0.075
 74
0
  0
LTYPE
  5
1F6
100
AcDbSymbolTableRecord
100
AcDbLinetypeTableRecord
  2
HIDDEN
 70
64
  3
- - - - - - - - - - - - - - - - - - - -
 72
65
 73
2
 40
0.2
 49
0.1
 74
0
 49
-0.1
 74
0
  0
LTYPE
  5
1F7
100
AcDbSymbolTableRecord
100
AcDbLinetypeTableRecord
  2
PHANTOM
 70
64
  3
_____ _ _ _____ _ _ _____ _ _ _____
 72
65
 73
6
 40
0.8
 49
0.45
 74
0
 49
-0.05
 74
0
 49
0.1
 74
0
 49
-0.05
 74
0
 49
0.1
 74
0
 49
-0.05
 74
0
  0
LTYPE
  5
1F8
100
AcDbSymbolTableRecord
100
AcDbLinetypeTableRecord
  2
DOT
 70
64
  3
. . . . . . . . . . . . . . . . . . . .
 72
65
 73
2
 40
0.2
 49
0.1
 74
0
 49
-0.1
 74
0
  0
LTYPE
  5
1F9
100
AcDbSymbolTableRecord
100
AcDbLinetypeTableRecord
  2
DASHED
 70
64
  3
- - - - - - - - - - - - - - - - - - - -
 72
65
 73
2
 40
0.2
 49
0.1
 74
0
 49
-0.1
 74
0
  0
ENDTAB
  0
TABLE
  2
LAYER
  5
2
100
AcDbSymbolTable
 70
36
  0
LAYER
  5
10
100
AcDbSymbolTableRecord
100
AcDbLayerTableRecord
  2
0
 70
0
 62
7
  6
CONTINUOUS
370
-3
390
F
  0
LAYER
  5
1FA
100
AcDbSymbolTableRecord
100
AcDbLayerTableRecord
  2
DEFAULT_1
 70
0
 62
7
  6
CENTER
370
-3
390
F
  0
LAYER
  5
1FB
100
AcDbSymbolTableRecord
100
AcDbLayerTableRecord
  2
DEFAULT_2
 70
0
 62
8
  6
HIDDEN
370
-3
390
F
  0
LAYER
  5
1FC
100
AcDbSymbolTableRecord
100
AcDbLayerTableRecord
  2
DEFAULT_3
 70
0
 62
7
  6
PHANTOM
370
-3
390
F
  0
LAYER
  5
1FD
100
AcDbSymbolTableRecord
100
AcDbLayerTableRecord
  2
ALL_FEATURES
 70
0
 62
7
  6
CONTINUOUS
370
-3
390
F
  0
LAYER
  5
1FE
100
AcDbSymbolTableRecord
100
AcDbLayerTableRecord
  2
AXES_FEATURES
 70
0
 62
7
  6
CONTINUOUS
370
-3
390
F
  0
LAYER
  5
1FF
100
AcDbSymbolTableRecord
100
AcDbLayerTableRecord
  2
DEFAULT_COORDINATE_SYSTEM
 70
0
 62
7
  6
CONTINUOUS
370
-3
390
F
  0
LAYER
  5
200
100
AcDbSymbolTableRecord
100
AcDbLayerTableRecord
  2
DEFAULT_DATUM_AXES
 70
0
 62
7
  6
CONTINUOUS
370
-3
390
F
  0
LAYER
  5
201
100
AcDbSymbolTableRecord
100
AcDbLayerTableRecord
  2
DEFAULT_DATUM_PLANES
 70
0
 62
7
  6
CONTINUOUS
370
-3
390
F
  0
LAYER
  5
202
100
AcDbSymbolTableRecord
100
AcDbLayerTableRecord
  2
DIMENSIONS
 70
0
 62
7
  6
CONTINUOUS
370
-3
390
F
  0
ENDTAB
  0
TABLE
  2
STYLE
  5
3
100
AcDbSymbolTable
 70
1
  0
STYLE
  5
11
100
AcDbSymbolTableRecord
100
AcDbTextStyleTableRecord
  2
STANDARD
 70
0
 40
0.0
 41
0.8
 50
0.0
 71
0
 42
0.2
  3
txt
  4

  0
STYLE
  5
203
100
AcDbSymbolTableRecord
100
AcDbTextStyleTableRecord
  2
TEXTSTYLE_1
 70
0
 40
0.0
 41
0.8
 50
0.0
 71
0
 42
0.2
  3
gdt
  4

  0
ENDTAB
  0
TABLE
  2
VIEW
  5
6
100
AcDbSymbolTable
 70
0
  0
ENDTAB
  0
TABLE
  2
UCS
  5
7
100
AcDbSymbolTable
 70
0
  0
ENDTAB
  0
TABLE
  2
APPID
  5
9
100
AcDbSymbolTable
 70
1
  0
APPID
  5
204
100
AcDbSymbolTableRecord
100
AcDbRegAppTableRecord
  2
ACAD
 70
0
  0
ENDTAB
  0
TABLE
  2
BLOCK_RECORD
  5
1
100
AcDbSymbolTable
 70
0
  0
BLOCK_RECORD
  5
205
100
AcDbSymbolTableRecord
100
AcDbBlockTableRecord
  2
*Model_Space
  0
BLOCK_RECORD
  5
206
100
AcDbSymbolTableRecord
100
AcDbBlockTableRecord
  2
*Paper_Space
  0
BLOCK_RECORD
  5
207
100
AcDbSymbolTableRecord
100
AcDbBlockTableRecord
  2
_FILLED
  0
ENDTAB
  0
TABLE
  2
DIMSTYLE
  5
A
100
AcDbSymbolTable
 70
1
100
AcDbDimStyleTable
 71
0
  0
DIMSTYLE
105
208
100
AcDbSymbolTableRecord
100
AcDbDimStyleTableRecord
  2
STANDARD
 70
0
  3

  4

 40
1.0
 41
0.1
 42
0.0625
 43
0.38
 44
0.125
 45
0.0
 46
0.0
 47
0.001
 48
0.001
140
0.08
141
0.09
142
0.0
143
25.4
144
1.0
145
0.0
146
1.0
147
0.09
 71
1.0
 72
0.0
 73
1
 74
1
 75
0
 76
0
 77
0
 78
4
 79
1
170
1
171
2
172
0
173
0
174
0
175
0
176
0
177
0
178
0
270
2
179
3
271
3
272
3
273
2
274
2
275
0
280
0
281
0
282
0
283
1
284
4
285
0
286
0
287
3
288
0
340
11
278
46
341
207
342
207
343
207
344
207
  0
ENDTAB
  0
ENDSEC
  0
SECTION
  2
BLOCKS
  0
BLOCK
  5
20
100
AcDbEntity
  8
0
100
AcDbBlockBegin
  2
*Model_Space
 70
0
 10
0.0
 20
0.0
 30
0.0
  3
*Model_Space
  1

  0
ENDBLK
  5
21
100
AcDbEntity
  8
0
100
AcDbBlockEnd
  0
BLOCK
  5
1C
100
AcDbEntity
  8
0
100
AcDbBlockBegin
  2
*Paper_Space
 70
0
 10
0.0
 20
0.0
 30
0.0
  3
*Paper_Space
  1

  0
ENDBLK
  5
1D
100
AcDbEntity
  8
0
100
AcDbBlockEnd
  0
BLOCK
  5
209
100
AcDbEntity
  8
0
100
AcDbBlockBegin
  2
_FILLED
 70
64
 10
0.0
 20
0.0
  3
_FILLED
  1

  0
SOLID
  5
20A
100
AcDbEntity
  8
0
  6
BYBLOCK
 62
0
100
AcDbTrace
 10
0.0
 20
0.0
 11
-1.0
 21
0.2
 12
-1.0
 22
-0.2
 13
-1.0
 23
-0.2
  0
ENDBLK
  5
20B
100
AcDbEntity
  8
0
  6
BYBLOCK
 62
0
100
AcDbBlockEnd
  0
ENDSEC
  0
SECTION
  2
ENTITIES
  0
LINE
  5
20C
100
AcDbEntity
  8
0
100
AcDbLine
 62
9
  6
CONTINUOUS
 10
0.7933183383
 20
11.1548629234
 11
0.7917482594
 21
11.1848218094
  0
LINE
  5
20D
100
AcDbEntity
  8
0
100
AcDbLine
 62
7
  6
CONTINUOUS
 10
0.7633183383
 20
11.1548629234
 11
0.7633183383
 21
10.7418007974
  0
LINE
  5
20E
100
AcDbEntity
  8
0
100
AcDbLine
 62
9
  6
CONTINUOUS
 10
0.7933183383
 20
11.1548629234
 11
0.7933183383
 21
10.7418007974
  0
LINE
  5
20F
100
AcDbEntity
  8
0
100
AcDbLine
 62
9
  6
CONTINUOUS
 10
0.7933183383
 20
10.7418007974
 11
0.7917482596
 21
10.7118419114
  0
LINE
  5
210
100
AcDbEntity
  8
0
100
AcDbLine
 62
9
  6
CONTINUOUS
 10
1.8003362007
 20
11.2076384933
 11
1.7987661221
 21
11.2375973793
  0
LINE
  5
211
100
AcDbEntity
  8
0
100
AcDbLine
 62
9
  6
CONTINUOUS
 10
1.9997872753
 20
9.5353318604
 11
1.9997872753
 21
9.5053318604
  0
LINE
  5
212
100
AcDbEntity
  8
0
100
AcDbLine
 62
9
  6
CONTINUOUS
 10
1.9997872753
 20
12.3613318604
 11
1.9997872751
 21
12.3913318604
  0
LINE
  5
213
100
AcDbEntity
  8
0
100
AcDbLine
 62
9
  6
CONTINUOUS
 10
1.8003362007
 20
10.6890252275
 11
1.7987661219
 21
10.6590663415
  0
LINE
  5
214
100
AcDbEntity
  8
0
100
AcDbLine
 62
7
  6
CONTINUOUS
 10
1.9698283892
 20
12.3629019391
 11
1.9170528194
 21
11.3558840766
  0
LINE
  5
215
100
AcDbEntity
  8
0
100
AcDbLine
 62
9
  6
CONTINUOUS
 10
1.9997872753
 20
12.3613318604
 11
1.9470117054
 21
11.3543139979
  0
LINE
  5
216
100
AcDbEntity
  8
0
100
AcDbLine
 62
7
  6
CONTINUOUS
 10
1.9170528194
 20
10.5407796442
 11
1.9698283892
 21
9.5337617817
  0
LINE
  5
217
100
AcDbEntity
  8
0
100
AcDbLine
 62
9
  6
CONTINUOUS
 10
1.9470117054
 20
10.5423497229
 11
1.9997872753
 21
9.5353318604
  0
LINE
  5
218
100
AcDbEntity
  8
0
100
AcDbLine
 62
9
  6
CONTINUOUS
 10
2.4656249712
 20
11.3543139979
 11
2.4128494013
 21
12.3613318604
  0
LINE
  5
219
100
AcDbEntity
  8
0
100
AcDbLine
 62
7
  6
CONTINUOUS
 10
2.4955838572
 20
11.3558840766
 11
2.4428082873
 21
12.3629019391
  0
LINE
  5
21A
100
AcDbEntity
  8
0
100
AcDbLine
 62
9
  6
CONTINUOUS
 10
2.6123004758
 20
10.6890252275
 11
2.6138705545
 21
10.6590663415
  0
LINE
  5
21B
100
AcDbEntity
  8
0
100
AcDbLine
 62
9
  6
CONTINUOUS
 10
2.4128494013
 20
9.5353318604
 11
2.4128494015
 21
9.5053318604
  0
LINE
  5
21C
100
AcDbEntity
  8
0
100
AcDbLine
 62
9
  6
CONTINUOUS
 10
2.4128494013
 20
12.3613318604
 11
2.4128494013
 21
12.3913318604
  0
LINE
  5
21D
100
AcDbEntity
  8
0
100
AcDbLine
 62
9
  6
CONTINUOUS
 10
2.4128494013
 20
9.5353318604
 11
2.4656249712
 21
10.5423497229
  0
LINE
  5
21E
100
AcDbEntity
  8
0
100
AcDbLine
 62
7
  6
CONTINUOUS
 10
2.4428082873
 20
9.5337617817
 11
2.4955838572
 21
10.5407796442
  0
LINE
  5
21F
100
AcDbEntity
  8
0
100
AcDbLine
 62
9
  6
CONTINUOUS
 10
2.6123004758
 20
11.2076384933
 11
2.6138705547
 21
11.2375973793
  0
LINE
  5
220
100
AcDbEntity
  8
0
100
AcDbLine
 62
9
  6
CONTINUOUS
 10
3.6193183383
 20
11.1548629234
 11
3.620888417
 21
11.1848218094
  0
LINE
  5
221
100
AcDbEntity
  8
0
100
AcDbLine
 62
9
  6
CONTINUOUS
 10
3.6193183383
 20
10.7418007974
 11
3.6208884172
 21
10.7118419114
  0
LINE
  5
222
100
AcDbEntity
  8
0
100
AcDbLine
 62
9
  6
CONTINUOUS
 10
3.6193183383
 20
10.7418007974
 11
3.6193183383
 21
11.1548629234
  0
LINE
  5
223
100
AcDbEntity
  8
0
100
AcDbLine
 62
7
  6
CONTINUOUS
 10
3.6493183383
 20
10.7418007974
 11
3.6493183383
 21
11.1548629234
  0
LINE
  5
224
100
AcDbEntity
  8
0
100
AcDbLine
 62
7
  6
CONTINUOUS
 10
5.7063183383
 20
10.9483318604
 11
5.7063183383
 21
3.0733318604
  0
LINE
  5
225
100
AcDbEntity
  8
0
100
AcDbLine
 62
7
  6
CONTINUOUS
 10
6.7063183383
 20
10.9483318604
 11
6.7063183383
 21
3.0733318604
  0
LINE
  5
226
100
AcDbEntity
  8
0
100
AcDbLine
 62
7
  6
CONTINUOUS
 10
8.7633183383
 20
11.1548629234
 11
8.7633183383
 21
10.7418007974
  0
LINE
  5
227
100
AcDbEntity
  8
0
100
AcDbLine
 62
9
  6
CONTINUOUS
 10
8.7933183383
 20
11.1548629234
 11
8.7933183383
 21
10.7418007974
  0
LINE
  5
228
100
AcDbEntity
  8
0
100
AcDbLine
 62
9
  6
CONTINUOUS
 10
8.7933183383
 20
10.7418007974
 11
8.7917482596
 21
10.7118419114
  0
LINE
  5
229
100
AcDbEntity
  8
0
100
AcDbLine
 62
9
  6
CONTINUOUS
 10
8.7933183383
 20
11.1548629234
 11
8.7917482594
 21
11.1848218094
  0
LINE
  5
22A
100
AcDbEntity
  8
0
100
AcDbLine
 62
9
  6
CONTINUOUS
 10
9.8003362007
 20
11.2076384933
 11
9.7987661221
 21
11.2375973793
  0
LINE
  5
22B
100
AcDbEntity
  8
0
100
AcDbLine
 62
7
  6
CONTINUOUS
 10
9.9170528194
 20
10.5407796442
 11
9.9698283892
 21
9.5337617817
  0
LINE
  5
22C
100
AcDbEntity
  8
0
100
AcDbLine
 62
9
  6
CONTINUOUS
 10
9.9470117054
 20
10.5423497229
 11
9.9997872753
 21
9.5353318604
  0
LINE
  5
22D
100
AcDbEntity
  8
0
100
AcDbLine
 62
9
  6
CONTINUOUS
 10
9.9997872753
 20
9.5353318604
 11
9.9997872753
 21
9.5053318604
  0
LINE
  5
22E
100
AcDbEntity
  8
0
100
AcDbLine
 62
9
  6
CONTINUOUS
 10
9.9997872753
 20
12.3613318604
 11
9.9997872751
 21
12.3913318604
  0
LINE
  5
22F
100
AcDbEntity
  8
0
100
AcDbLine
 62
9
  6
CONTINUOUS
 10
9.8003362007
 20
10.6890252275
 11
9.7987661218
 21
10.6590663415
  0
LINE
  5
230
100
AcDbEntity
  8
0
100
AcDbLine
 62
7
  6
CONTINUOUS
 10
9.9698283892
 20
12.3629019391
 11
9.9170528194
 21
11.3558840766
  0
LINE
  5
231
100
AcDbEntity
  8
0
100
AcDbLine
 62
9
  6
CONTINUOUS
 10
9.9997872753
 20
12.3613318604
 11
9.9470117054
 21
11.3543139979
  0
LINE
  5
232
100
AcDbEntity
  8
0
100
AcDbLine
 62
9
  6
CONTINUOUS
 10
10.4128494013
 20
9.5353318604
 11
10.4656249712
 21
10.5423497229
  0
LINE
  5
233
100
AcDbEntity
  8
0
100
AcDbLine
 62
7
  6
CONTINUOUS
 10
10.4428082873
 20
9.5337617817
 11
10.4955838572
 21
10.5407796442
  0
LINE
  5
234
100
AcDbEntity
  8
0
100
AcDbLine
 62
9
  6
CONTINUOUS
 10
10.4656249712
 20
11.3543139979
 11
10.4128494013
 21
12.3613318604
  0
LINE
  5
235
100
AcDbEntity
  8
0
100
AcDbLine
 62
7
  6
CONTINUOUS
 10
10.4955838572
 20
11.3558840766
 11
10.4428082873
 21
12.3629019391
  0
LINE
  5
236
100
AcDbEntity
  8
0
100
AcDbLine
 62
9
  6
CONTINUOUS
 10
10.6123004758
 20
10.6890252275
 11
10.6138705545
 21
10.6590663415
  0
LINE
  5
237
100
AcDbEntity
  8
0
100
AcDbLine
 62
9
  6
CONTINUOUS
 10
10.4128494013
 20
9.5353318604
 11
10.4128494015
 21
9.5053318604
  0
LINE
  5
238
100
AcDbEntity
  8
0
100
AcDbLine
 62
9
  6
CONTINUOUS
 10
10.4128494013
 20
12.3613318604
 11
10.4128494013
 21
12.3913318604
  0
LINE
  5
239
100
AcDbEntity
  8
0
100
AcDbLine
 62
9
  6
CONTINUOUS
 10
10.6123004758
 20
11.2076384933
 11
10.6138705547
 21
11.2375973793
  0
LINE
  5
23A
100
AcDbEntity
  8
0
100
AcDbLine
 62
9
  6
CONTINUOUS
 10
11.6193183383
 20
10.7418007974
 11
11.6208884172
 21
10.7118419114
  0
LINE
  5
23B
100
AcDbEntity
  8
0
100
AcDbLine
 62
9
  6
CONTINUOUS
 10
11.6193183383
 20
10.7418007974
 11
11.6193183383
 21
11.1548629234
  0
LINE
  5
23C
100
AcDbEntity
  8
0
100
AcDbLine
 62
7
  6
CONTINUOUS
 10
11.6493183383
 20
10.7418007974
 11
11.6493183383
 21
11.1548629234
  0
LINE
  5
23D
100
AcDbEntity
  8
0
100
AcDbLine
 62
9
  6
CONTINUOUS
 10
11.6193183383
 20
11.1548629234
 11
11.620888417
 21
11.1848218094
  0
LINE
  5
23E
100
AcDbEntity
  8
0
100
AcDbLine
 62
9
  6
CONTINUOUS
 10
2.4128494013
 20
9.5353318604
 11
2.4428082873
 21
9.5337617817
  0
LINE
  5
23F
100
AcDbEntity
  8
0
100
AcDbLine
 62
9
  6
CONTINUOUS
 10
14.9997872753
 20
9.5353318604
 11
14.9698283893
 21
9.5337617815
  0
LINE
  5
240
100
AcDbEntity
  8
0
100
AcDbLine
 62
9
  6
CONTINUOUS
 10
9.9997872753
 20
9.5353318604
 11
9.9698283893
 21
9.5337617815
  0
LINE
  5
241
100
AcDbEntity
  8
0
100
AcDbLine
 62
7
  6
CONTINUOUS
 10
1.9997872753
 20
9.5053318604
 11
2.4128494013
 21
9.5053318604
  0
LINE
  5
242
100
AcDbEntity
  8
0
100
AcDbLine
 62
7
  6
CONTINUOUS
 10
9.9997872753
 20
9.5053318604
 11
10.4128494013
 21
9.5053318604
  0
LINE
  5
243
100
AcDbEntity
  8
0
100
AcDbLine
 62
7
  6
CONTINUOUS
 10
14.9997872753
 20
9.5053318604
 11
15.4128494013
 21
9.5053318604
  0
LINE
  5
244
100
AcDbEntity
  8
0
100
AcDbLine
 62
9
  6
CONTINUOUS
 10
1.9997872753
 20
9.5353318604
 11
2.4128494013
 21
9.5353318604
  0
LINE
  5
245
100
AcDbEntity
  8
0
100
AcDbLine
 62
9
  6
CONTINUOUS
 10
9.9997872753
 20
9.5353318604
 11
10.4128494013
 21
9.5353318604
  0
LINE
  5
246
100
AcDbEntity
  8
0
100
AcDbLine
 62
9
  6
CONTINUOUS
 10
14.9997872753
 20
9.5353318604
 11
15.4128494013
 21
9.5353318604
  0
LINE
  5
247
100
AcDbEntity
  8
0
100
AcDbLine
 62
9
  6
CONTINUOUS
 10
10.4128494013
 20
9.5353318604
 11
10.4428082873
 21
9.5337617817
  0
LINE
  5
248
100
AcDbEntity
  8
0
100
AcDbLine
 62
9
  6
CONTINUOUS
 10
15.4128494013
 20
9.5353318604
 11
15.4428082873
 21
9.5337617817
  0
LINE
  5
249
100
AcDbEntity
  8
0
100
AcDbLine
 62
9
  6
CONTINUOUS
 10
13.7933183383
 20
11.1548629234
 11
13.7917482594
 21
11.1848218094
  0
LINE
  5
24A
100
AcDbEntity
  8
0
100
AcDbLine
 62
7
  6
CONTINUOUS
 10
13.7633183383
 20
11.1548629234
 11
13.7633183383
 21
10.7418007974
  0
LINE
  5
24B
100
AcDbEntity
  8
0
100
AcDbLine
 62
9
  6
CONTINUOUS
 10
13.7933183383
 20
11.1548629234
 11
13.7933183383
 21
10.7418007974
  0
LINE
  5
24C
100
AcDbEntity
  8
0
100
AcDbLine
 62
9
  6
CONTINUOUS
 10
13.7933183383
 20
10.7418007974
 11
13.7917482596
 21
10.7118419114
  0
LINE
  5
24D
100
AcDbEntity
  8
0
100
AcDbLine
 62
9
  6
CONTINUOUS
 10
1.9997872753
 20
9.5353318604
 11
1.9698283893
 21
9.5337617815
  0
LINE
  5
24E
100
AcDbEntity
  8
0
100
AcDbLine
 62
9
  6
CONTINUOUS
 10
14.9470117054
 20
10.5423497229
 11
14.9170528194
 21
10.5407796442
  0
LINE
  5
24F
100
AcDbEntity
  8
0
100
AcDbLine
 62
7
  6
CONTINUOUS
 10
15.6138705545
 20
10.6590663415
 11
16.620888417
 21
10.7118419114
  0
LINE
  5
250
100
AcDbEntity
  8
0
100
AcDbLine
 62
9
  6
CONTINUOUS
 10
15.6123004758
 20
10.6890252275
 11
16.6193183383
 21
10.7418007974
  0
LINE
  5
251
100
AcDbEntity
  8
0
100
AcDbLine
 62
9
  6
CONTINUOUS
 10
9.9470117054
 20
10.5423497229
 11
9.9170528194
 21
10.5407796442
  0
LINE
  5
252
100
AcDbEntity
  8
0
100
AcDbLine
 62
9
  6
CONTINUOUS
 10
2.4656249712
 20
10.5423497229
 11
2.4955838572
 21
10.540779644
  0
LINE
  5
253
100
AcDbEntity
  8
0
100
AcDbLine
 62
7
  6
CONTINUOUS
 10
0.7917482596
 20
10.7118419114
 11
1.7987661221
 21
10.6590663415
  0
LINE
  5
254
100
AcDbEntity
  8
0
100
AcDbLine
 62
9
  6
CONTINUOUS
 10
0.7933183383
 20
10.7418007974
 11
1.8003362007
 21
10.6890252275
  0
LINE
  5
255
100
AcDbEntity
  8
0
100
AcDbLine
 62
9
  6
CONTINUOUS
 10
10.4656249712
 20
10.5423497229
 11
10.4955838572
 21
10.540779644
  0
LINE
  5
256
100
AcDbEntity
  8
0
100
AcDbLine
 62
7
  6
CONTINUOUS
 10
8.7917482596
 20
10.7118419114
 11
9.7987661221
 21
10.6590663415
  0
LINE
  5
257
100
AcDbEntity
  8
0
100
AcDbLine
 62
9
  6
CONTINUOUS
 10
8.7933183383
 20
10.7418007974
 11
9.8003362007
 21
10.6890252275
  0
LINE
  5
258
100
AcDbEntity
  8
0
100
AcDbLine
 62
9
  6
CONTINUOUS
 10
14.8003362007
 20
10.6890252275
 11
14.7987661218
 21
10.6590663415
  0
LINE
  5
259
100
AcDbEntity
  8
0
100
AcDbLine
 62
7
  6
CONTINUOUS
 10
14.9698283892
 20
12.3629019391
 11
14.9170528194
 21
11.3558840766
  0
LINE
  5
25A
100
AcDbEntity
  8
0
100
AcDbLine
 62
9
  6
CONTINUOUS
 10
14.9997872753
 20
12.3613318604
 11
14.9470117054
 21
11.3543139979
  0
LINE
  5
25B
100
AcDbEntity
  8
0
100
AcDbLine
 62
7
  6
CONTINUOUS
 10
10.6138705545
 20
10.6590663415
 11
11.620888417
 21
10.7118419114
  0
LINE
  5
25C
100
AcDbEntity
  8
0
100
AcDbLine
 62
9
  6
CONTINUOUS
 10
10.6123004758
 20
10.6890252275
 11
11.6193183383
 21
10.7418007974
  0
LINE
  5
25D
100
AcDbEntity
  8
0
100
AcDbLine
 62
9
  6
CONTINUOUS
 10
14.8003362007
 20
11.2076384933
 11
13.7933183383
 21
11.1548629234
  0
LINE
  5
25E
100
AcDbEntity
  8
0
100
AcDbLine
 62
9
  6
CONTINUOUS
 10
1.9470117054
 20
10.5423497229
 11
1.9170528194
 21
10.5407796442
  0
LINE
  5
25F
100
AcDbEntity
  8
0
100
AcDbLine
 62
7
  6
CONTINUOUS
 10
14.7987661221
 20
11.2375973793
 11
13.7917482596
 21
11.1848218094
  0
LINE
  5
260
100
AcDbEntity
  8
0
100
AcDbLine
 62
7
  6
CONTINUOUS
 10
2.6138705545
 20
10.6590663415
 11
3.620888417
 21
10.7118419114
  0
LINE
  5
261
100
AcDbEntity
  8
0
100
AcDbLine
 62
9
  6
CONTINUOUS
 10
15.4656249712
 20
11.3543139979
 11
15.4955838572
 21
11.3558840766
  0
LINE
  5
262
100
AcDbEntity
  8
0
100
AcDbLine
 62
9
  6
CONTINUOUS
 10
2.6123004758
 20
10.6890252275
 11
3.6193183383
 21
10.7418007974
  0
LINE
  5
263
100
AcDbEntity
  8
0
100
AcDbLine
 62
9
  6
CONTINUOUS
 10
9.8003362007
 20
11.2076384933
 11
8.7933183383
 21
11.1548629234
  0
LINE
  5
264
100
AcDbEntity
  8
0
100
AcDbLine
 62
7
  6
CONTINUOUS
 10
9.7987661221
 20
11.2375973793
 11
8.7917482596
 21
11.1848218094
  0
LINE
  5
265
100
AcDbEntity
  8
0
100
AcDbLine
 62
9
  6
CONTINUOUS
 10
10.4656249712
 20
11.3543139979
 11
10.4955838572
 21
11.3558840766
  0
LINE
  5
266
100
AcDbEntity
  8
0
100
AcDbLine
 62
9
  6
CONTINUOUS
 10
13.7933183383
 20
10.7418007974
 11
13.7633183383
 21
10.7418007972
  0
LINE
  5
267
100
AcDbEntity
  8
0
100
AcDbLine
 62
9
  6
CONTINUOUS
 10
8.7933183383
 20
10.7418007974
 11
8.7633183383
 21
10.7418007972
  0
LINE
  5
268
100
AcDbEntity
  8
0
100
AcDbLine
 62
9
  6
CONTINUOUS
 10
0.7933183383
 20
10.7418007974
 11
0.7633183383
 21
10.7418007972
  0
LINE
  5
269
100
AcDbEntity
  8
0
100
AcDbLine
 62
9
  6
CONTINUOUS
 10
3.6193183383
 20
10.7418007974
 11
3.6493183383
 21
10.7418007974
  0
LINE
  5
26A
100
AcDbEntity
  8
0
100
AcDbLine
 62
9
  6
CONTINUOUS
 10
11.6193183383
 20
10.7418007974
 11
11.6493183383
 21
10.7418007974
  0
LINE
  5
26B
100
AcDbEntity
  8
0
100
AcDbLine
 62
9
  6
CONTINUOUS
 10
16.6193183383
 20
10.7418007974
 11
16.6493183383
 21
10.7418007974
  0
LINE
  5
26C
100
AcDbEntity
  8
0
100
AcDbLine
 62
9
  6
CONTINUOUS
 10
13.7933183383
 20
11.1548629234
 11
13.7633183383
 21
11.1548629234
  0
LINE
  5
26D
100
AcDbEntity
  8
0
100
AcDbLine
 62
9
  6
CONTINUOUS
 10
8.7933183383
 20
11.1548629234
 11
8.7633183383
 21
11.1548629234
  0
LINE
  5
26E
100
AcDbEntity
  8
0
100
AcDbLine
 62
9
  6
CONTINUOUS
 10
0.7933183383
 20
11.1548629234
 11
0.7633183383
 21
11.1548629234
  0
LINE
  5
26F
100
AcDbEntity
  8
0
100
AcDbLine
 62
9
  6
CONTINUOUS
 10
3.6193183383
 20
11.1548629234
 11
3.6493183383
 21
11.1548629236
  0
LINE
  5
270
100
AcDbEntity
  8
0
100
AcDbLine
 62
9
  6
CONTINUOUS
 10
11.6193183383
 20
11.1548629234
 11
11.6493183383
 21
11.1548629236
  0
LINE
  5
271
100
AcDbEntity
  8
0
100
AcDbLine
 62
9
  6
CONTINUOUS
 10
16.6193183383
 20
11.1548629234
 11
16.6493183383
 21
11.1548629236
  0
LINE
  5
272
100
AcDbEntity
  8
0
100
AcDbLine
 62
9
  6
CONTINUOUS
 10
3.6193183383
 20
11.1548629234
 11
2.6123004758
 21
11.2076384933
  0
LINE
  5
273
100
AcDbEntity
  8
0
100
AcDbLine
 62
9
  6
CONTINUOUS
 10
15.4656249712
 20
10.5423497229
 11
15.4955838572
 21
10.540779644
  0
LINE
  5
274
100
AcDbEntity
  8
0
100
AcDbLine
 62
7
  6
CONTINUOUS
 10
3.620888417
 20
11.1848218094
 11
2.6138705545
 21
11.2375973793
  0
LINE
  5
275
100
AcDbEntity
  8
0
100
AcDbLine
 62
7
  6
CONTINUOUS
 10
13.7917482596
 20
10.7118419114
 11
14.7987661221
 21
10.6590663415
  0
LINE
  5
276
100
AcDbEntity
  8
0
100
AcDbLine
 62
9
  6
CONTINUOUS
 10
1.9470117054
 20
11.3543139979
 11
1.9170528194
 21
11.3558840768
  0
LINE
  5
277
100
AcDbEntity
  8
0
100
AcDbLine
 62
9
  6
CONTINUOUS
 10
13.7933183383
 20
10.7418007974
 11
14.8003362007
 21
10.6890252275
  0
LINE
  5
278
100
AcDbEntity
  8
0
100
AcDbLine
 62
9
  6
CONTINUOUS
 10
11.6193183383
 20
11.1548629234
 11
10.6123004758
 21
11.2076384933
  0
LINE
  5
279
100
AcDbEntity
  8
0
100
AcDbLine
 62
7
  6
CONTINUOUS
 10
11.620888417
 20
11.1848218094
 11
10.6138705545
 21
11.2375973793
  0
LINE
  5
27A
100
AcDbEntity
  8
0
100
AcDbLine
 62
9
  6
CONTINUOUS
 10
9.9470117054
 20
11.3543139979
 11
9.9170528194
 21
11.3558840768
  0
LINE
  5
27B
100
AcDbEntity
  8
0
100
AcDbLine
 62
9
  6
CONTINUOUS
 10
14.8003362007
 20
11.2076384933
 11
14.7987661221
 21
11.2375973793
  0
LINE
  5
27C
100
AcDbEntity
  8
0
100
AcDbLine
 62
7
  6
CONTINUOUS
 10
14.9170528194
 20
10.5407796442
 11
14.9698283892
 21
9.5337617817
  0
LINE
  5
27D
100
AcDbEntity
  8
0
100
AcDbLine
 62
9
  6
CONTINUOUS
 10
14.9470117054
 20
10.5423497229
 11
14.9997872753
 21
9.5353318604
  0
LINE
  5
27E
100
AcDbEntity
  8
0
100
AcDbLine
 62
9
  6
CONTINUOUS
 10
15.4656249712
 20
11.3543139979
 11
15.4128494013
 21
12.3613318604
  0
LINE
  5
27F
100
AcDbEntity
  8
0
100
AcDbLine
 62
7
  6
CONTINUOUS
 10
15.4955838572
 20
11.3558840766
 11
15.4428082873
 21
12.3629019391
  0
LINE
  5
280
100
AcDbEntity
  8
0
100
AcDbLine
 62
9
  6
CONTINUOUS
 10
14.9997872753
 20
9.5353318604
 11
14.9997872753
 21
9.5053318604
  0
LINE
  5
281
100
AcDbEntity
  8
0
100
AcDbLine
 62
9
  6
CONTINUOUS
 10
14.9997872753
 20
12.3613318604
 11
14.9997872751
 21
12.3913318604
  0
LINE
  5
282
100
AcDbEntity
  8
0
100
AcDbLine
 62
9
  6
CONTINUOUS
 10
15.4128494013
 20
9.5353318604
 11
15.4128494015
 21
9.5053318604
  0
LINE
  5
283
100
AcDbEntity
  8
0
100
AcDbLine
 62
9
  6
CONTINUOUS
 10
15.4128494013
 20
12.3613318604
 11
15.4128494013
 21
12.3913318604
  0
LINE
  5
284
100
AcDbEntity
  8
0
100
AcDbLine
 62
9
  6
CONTINUOUS
 10
15.4128494013
 20
9.5353318604
 11
15.4656249712
 21
10.5423497229
  0
LINE
  5
285
100
AcDbEntity
  8
0
100
AcDbLine
 62
7
  6
CONTINUOUS
 10
15.4428082873
 20
9.5337617817
 11
15.4955838572
 21
10.5407796442
  0
LINE
  5
286
100
AcDbEntity
  8
0
100
AcDbLine
 62
9
  6
CONTINUOUS
 10
15.6123004758
 20
11.2076384933
 11
15.6138705547
 21
11.2375973793
  0
LINE
  5
287
100
AcDbEntity
  8
0
100
AcDbLine
 62
9
  6
CONTINUOUS
 10
1.8003362007
 20
11.2076384933
 11
0.7933183383
 21
11.1548629234
  0
LINE
  5
288
100
AcDbEntity
  8
0
100
AcDbLine
 62
7
  6
CONTINUOUS
 10
1.7987661221
 20
11.2375973793
 11
0.7917482596
 21
11.1848218094
  0
LINE
  5
289
100
AcDbEntity
  8
0
100
AcDbLine
 62
9
  6
CONTINUOUS
 10
2.4656249712
 20
11.3543139979
 11
2.4955838572
 21
11.3558840766
  0
LINE
  5
28A
100
AcDbEntity
  8
0
100
AcDbLine
 62
9
  6
CONTINUOUS
 10
15.4128494013
 20
12.3613318604
 11
15.4428082873
 21
12.3629019393
  0
LINE
  5
28B
100
AcDbEntity
  8
0
100
AcDbLine
 62
9
  6
CONTINUOUS
 10
16.6193183383
 20
11.1548629234
 11
15.6123004758
 21
11.2076384933
  0
LINE
  5
28C
100
AcDbEntity
  8
0
100
AcDbLine
 62
7
  6
CONTINUOUS
 10
16.620888417
 20
11.1848218094
 11
15.6138705545
 21
11.2375973793
  0
LINE
  5
28D
100
AcDbEntity
  8
0
100
AcDbLine
 62
9
  6
CONTINUOUS
 10
14.9470117054
 20
11.3543139979
 11
14.9170528194
 21
11.3558840768
  0
LINE
  5
28E
100
AcDbEntity
  8
0
100
AcDbLine
 62
9
  6
CONTINUOUS
 10
1.9997872753
 20
12.3613318604
 11
1.9698283892
 21
12.3629019391
  0
LINE
  5
28F
100
AcDbEntity
  8
0
100
AcDbLine
 62
9
  6
CONTINUOUS
 10
15.6123004758
 20
10.6890252275
 11
15.6138705545
 21
10.6590663415
  0
LINE
  5
290
100
AcDbEntity
  8
0
100
AcDbLine
 62
9
  6
CONTINUOUS
 10
16.6193183383
 20
11.1548629234
 11
16.620888417
 21
11.1848218094
  0
LINE
  5
291
100
AcDbEntity
  8
0
100
AcDbLine
 62
9
  6
CONTINUOUS
 10
10.4128494013
 20
12.3613318604
 11
10.4428082873
 21
12.3629019393
  0
LINE
  5
292
100
AcDbEntity
  8
0
100
AcDbLine
 62
9
  6
CONTINUOUS
 10
2.4128494013
 20
12.3613318604
 11
2.4428082873
 21
12.3629019393
  0
LINE
  5
293
100
AcDbEntity
  8
0
100
AcDbLine
 62
9
  6
CONTINUOUS
 10
15.4128494013
 20
12.3613318604
 11
14.9997872753
 21
12.3613318604
  0
LINE
  5
294
100
AcDbEntity
  8
0
100
AcDbLine
 62
9
  6
CONTINUOUS
 10
10.4128494013
 20
12.3613318604
 11
9.9997872753
 21
12.3613318604
  0
LINE
  5
295
100
AcDbEntity
  8
0
100
AcDbLine
 62
9
  6
CONTINUOUS
 10
2.4128494013
 20
12.3613318604
 11
1.9997872753
 21
12.3613318604
  0
LINE
  5
296
100
AcDbEntity
  8
0
100
AcDbLine
 62
7
  6
CONTINUOUS
 10
15.4128494013
 20
12.3913318604
 11
14.9997872753
 21
12.3913318604
  0
LINE
  5
297
100
AcDbEntity
  8
0
100
AcDbLine
 62
7
  6
CONTINUOUS
 10
10.4128494013
 20
12.3913318604
 11
9.9997872753
 21
12.3913318604
  0
LINE
  5
298
100
AcDbEntity
  8
0
100
AcDbLine
 62
7
  6
CONTINUOUS
 10
2.4128494013
 20
12.3913318604
 11
1.9997872753
 21
12.3913318604
  0
LINE
  5
299
100
AcDbEntity
  8
0
100
AcDbLine
 62
9
  6
CONTINUOUS
 10
9.9997872753
 20
12.3613318604
 11
9.9698283892
 21
12.3629019391
  0
LINE
  5
29A
100
AcDbEntity
  8
0
100
AcDbLine
 62
9
  6
CONTINUOUS
 10
14.9997872753
 20
12.3613318604
 11
14.9698283892
 21
12.3629019391
  0
LINE
  5
29B
100
AcDbEntity
  8
0
100
AcDbLine
 62
9
  6
CONTINUOUS
 10
16.6193183383
 20
10.7418007974
 11
16.6208884172
 21
10.7118419114
  0
LINE
  5
29C
100
AcDbEntity
  8
0
100
AcDbLine
 62
9
  6
CONTINUOUS
 10
16.6193183383
 20
10.7418007974
 11
16.6193183383
 21
11.1548629234
  0
LINE
  5
29D
100
AcDbEntity
  8
0
100
AcDbLine
 62
7
  6
CONTINUOUS
 10
16.6493183383
 20
10.7418007974
 11
16.6493183383
 21
11.1548629234
  0
LINE
  5
29E
100
AcDbEntity
  8
0
100
AcDbLine
 62
7
  6
CONTINUOUS
 10
19.7063183383
 20
10.3365426296
 11
19.7063183383
 21
4.8857036995
  0
LINE
  5
29F
100
AcDbEntity
  8
0
100
AcDbLine
 62
7
  6
CONTINUOUS
 10
19.7163183383
 20
10.5679461691
 11
19.7163183383
 21
10.6515085583
  0
LINE
  5
2A0
100
AcDbEntity
  8
0
100
AcDbLine
 62
7
  6
CONTINUOUS
 10
19.7188183383
 20
10.9483318604
 11
19.7188183383
 21
10.6877619068
  0
LINE
  5
2A1
100
AcDbEntity
  8
0
100
AcDbLine
 62
7
  6
CONTINUOUS
 10
19.7363183383
 20
10.6740924008
 11
19.7363183383
 21
10.4684003657
  0
LINE
  5
2A2
100
AcDbEntity
  8
0
100
AcDbLine
 62
7
  6
CONTINUOUS
 10
20.6763183383
 20
10.4678761436
 11
20.6763183383
 21
10.6740924008
  0
LINE
  5
2A3
100
AcDbEntity
  8
0
100
AcDbLine
 62
7
  6
CONTINUOUS
 10
20.6938183383
 20
10.9483318604
 11
20.6938183383
 21
10.6877601983
  0
LINE
  5
2A4
100
AcDbEntity
  8
0
100
AcDbLine
 62
7
  6
CONTINUOUS
 10
20.6963183383
 20
10.5679461691
 11
20.6963183383
 21
10.6515085583
  0
LINE
  5
2A5
100
AcDbEntity
  8
0
100
AcDbLine
 62
7
  6
CONTINUOUS
 10
20.7063183383
 20
10.3365426296
 11
20.7063183383
 21
4.8857036995
  0
ARC
  5
2A6
100
AcDbEntity
  8
0
100
AcDbCircle
 62
7
  6
CONTINUOUS
 10
6.2063183383
 20
3.0733318604
 40
0.5
100
AcDbArc
 50
180.0
 51
360.0
  0
ARC
  5
2A7
100
AcDbEntity
  8
0
100
AcDbCircle
 62
9
  6
CONTINUOUS
 10
2.620412549
 20
10.5342376496
 40
0.155
100
AcDbArc
 50
93.0
 51
177.0
  0
ARC
  5
2A8
100
AcDbEntity
  8
0
100
AcDbCircle
 62
9
  6
CONTINUOUS
 10
1.7922241275
 20
10.5342376496
 40
0.155
100
AcDbArc
 50
3.0
 51
87.0
  0
ARC
  5
2A9
100
AcDbEntity
  8
0
100
AcDbCircle
 62
7
  6
CONTINUOUS
 10
1.7922241275
 20
10.5342376496
 40
0.125
100
AcDbArc
 50
3.0
 51
87.0
  0
ARC
  5
2AA
100
AcDbEntity
  8
0
100
AcDbCircle
 62
7
  6
CONTINUOUS
 10
2.620412549
 20
10.5342376496
 40
0.125
100
AcDbArc
 50
93.0
 51
177.0
  0
ARC
  5
2AB
100
AcDbEntity
  8
0
100
AcDbCircle
 62
7
  6
CONTINUOUS
 10
1.9997872753
 20
9.5353318604
 40
0.03
100
AcDbArc
 50
183.0
 51
270.0
  0
ARC
  5
2AC
100
AcDbEntity
  8
0
100
AcDbCircle
 62
7
  6
CONTINUOUS
 10
2.4128494013
 20
9.5353318604
 40
0.03
100
AcDbArc
 50
270.0
 51
357.0
  0
ARC
  5
2AD
100
AcDbEntity
  8
0
100
AcDbCircle
 62
7
  6
CONTINUOUS
 10
3.6193183383
 20
10.7418007974
 40
0.03
100
AcDbArc
 50
273.0
 51
360.0
  0
ARC
  5
2AE
100
AcDbEntity
  8
0
100
AcDbCircle
 62
7
  6
CONTINUOUS
 10
0.7933183383
 20
10.7418007974
 40
0.03
100
AcDbArc
 50
180.0
 51
267.0
  0
ARC
  5
2AF
100
AcDbEntity
  8
0
100
AcDbCircle
 62
7
  6
CONTINUOUS
 10
2.2063183383
 20
10.9483318604
 40
1.1
100
AcDbArc
 50
13.3833216987
 51
76.6166783664
  0
ARC
  5
2B0
100
AcDbEntity
  8
0
100
AcDbCircle
 62
7
  6
CONTINUOUS
 10
2.2063183383
 20
10.9483318604
 40
1.1
100
AcDbArc
 50
103.3833216335
 51
166.6166783015
  0
ARC
  5
2B1
100
AcDbEntity
  8
0
100
AcDbCircle
 62
7
  6
CONTINUOUS
 10
2.2063183383
 20
10.9483318604
 40
1.1
100
AcDbArc
 50
193.3833216987
 51
256.6166783664
  0
ARC
  5
2B2
100
AcDbEntity
  8
0
100
AcDbCircle
 62
7
  6
CONTINUOUS
 10
2.2063183383
 20
10.9483318604
 40
1.1
100
AcDbArc
 50
283.3833216335
 51
346.6166783015
  0
ARC
  5
2B3
100
AcDbEntity
  8
0
100
AcDbCircle
 62
9
  6
CONTINUOUS
 10
2.2063183383
 20
10.9483318604
 40
1.07
100
AcDbArc
 50
13.8581416283
 51
76.1418471682
  0
ARC
  5
2B4
100
AcDbEntity
  8
0
100
AcDbCircle
 62
9
  6
CONTINUOUS
 10
2.2063183383
 20
10.9483318604
 40
1.07
100
AcDbArc
 50
103.8581523443
 51
166.1418578239
  0
ARC
  5
2B5
100
AcDbEntity
  8
0
100
AcDbCircle
 62
9
  6
CONTINUOUS
 10
2.2063183383
 20
10.9483318604
 40
1.07
100
AcDbArc
 50
193.8581416283
 51
256.1418471682
  0
ARC
  5
2B6
100
AcDbEntity
  8
0
100
AcDbCircle
 62
9
  6
CONTINUOUS
 10
2.2063183383
 20
10.9483318604
 40
1.07
100
AcDbArc
 50
283.8581523443
 51
346.1418578239
  0
ARC
  5
2B7
100
AcDbEntity
  8
0
100
AcDbCircle
 62
7
  6
CONTINUOUS
 10
2.2063183383
 20
10.9483318604
 40
0.75
100
AcDbArc
 50
201.4345514821
 51
248.5569376846
  0
ARC
  5
2B8
100
AcDbEntity
  8
0
100
AcDbCircle
 62
7
  6
CONTINUOUS
 10
2.2063183383
 20
10.9483318604
 40
0.75
100
AcDbArc
 50
291.4430623154
 51
338.5654485179
  0
ARC
  5
2B9
100
AcDbEntity
  8
0
100
AcDbCircle
 62
7
  6
CONTINUOUS
 10
2.2063183383
 20
10.9483318604
 40
0.75
100
AcDbArc
 50
21.4345514821
 51
68.5569376846
  0
ARC
  5
2BA
100
AcDbEntity
  8
0
100
AcDbCircle
 62
7
  6
CONTINUOUS
 10
2.2063183383
 20
10.9483318604
 40
0.75
100
AcDbArc
 50
111.4430623154
 51
158.5654485179
  0
ARC
  5
2BB
100
AcDbEntity
  8
0
100
AcDbCircle
 62
9
  6
CONTINUOUS
 10
2.2063183383
 20
10.9483318604
 40
0.7231538135
100
AcDbArc
 50
202.4130149075
 51
247.5924652406
  0
ARC
  5
2BC
100
AcDbEntity
  8
0
100
AcDbCircle
 62
9
  6
CONTINUOUS
 10
2.2063183383
 20
10.9483318604
 40
0.7231538135
100
AcDbArc
 50
292.4075347594
 51
337.5869850924
  0
ARC
  5
2BD
100
AcDbEntity
  8
0
100
AcDbCircle
 62
9
  6
CONTINUOUS
 10
2.2063183383
 20
10.9483318604
 40
0.7231538135
100
AcDbArc
 50
22.4130149075
 51
67.5924652406
  0
ARC
  5
2BE
100
AcDbEntity
  8
0
100
AcDbCircle
 62
9
  6
CONTINUOUS
 10
2.2063183383
 20
10.9483318604
 40
0.7231538135
100
AcDbArc
 50
112.4075347594
 51
157.5869850924
  0
ARC
  5
2BF
100
AcDbEntity
  8
0
100
AcDbCircle
 62
9
  6
CONTINUOUS
 10
2.2063183383
 20
10.9483318604
 40
0.6695101743
100
AcDbArc
 50
204.6095623991
 51
245.3904378682
  0
ARC
  5
2C0
100
AcDbEntity
  8
0
100
AcDbCircle
 62
9
  6
CONTINUOUS
 10
2.2063183383
 20
10.9483318604
 40
0.6695101743
100
AcDbArc
 50
294.6095621314
 51
335.3904375975
  0
ARC
  5
2C1
100
AcDbEntity
  8
0
100
AcDbCircle
 62
9
  6
CONTINUOUS
 10
2.2063183383
 20
10.9483318604
 40
0.6695101743
100
AcDbArc
 50
24.6095623991
 51
65.3904378682
  0
ARC
  5
2C2
100
AcDbEntity
  8
0
100
AcDbCircle
 62
9
  6
CONTINUOUS
 10
2.2063183383
 20
10.9483318604
 40
0.6695101743
100
AcDbArc
 50
114.6095621314
 51
155.3904375975
  0
ARC
  5
2C3
100
AcDbEntity
  8
0
100
AcDbCircle
 62
9
  6
CONTINUOUS
 10
2.2063183383
 20
10.9483318604
 40
0.6115087442
100
AcDbArc
 50
207.4993553773
 51
242.5167752778
  0
ARC
  5
2C4
100
AcDbEntity
  8
0
100
AcDbCircle
 62
9
  6
CONTINUOUS
 10
2.2063183383
 20
10.9483318604
 40
0.6115087442
100
AcDbArc
 50
297.4832247222
 51
332.5006446227
  0
ARC
  5
2C5
100
AcDbEntity
  8
0
100
AcDbCircle
 62
9
  6
CONTINUOUS
 10
2.2063183383
 20
10.9483318604
 40
0.6115087442
100
AcDbArc
 50
27.4993553773
 51
62.5167752778
  0
ARC
  5
2C6
100
AcDbEntity
  8
0
100
AcDbCircle
 62
9
  6
CONTINUOUS
 10
2.2063183383
 20
10.9483318604
 40
0.6115087442
100
AcDbArc
 50
117.4832247222
 51
152.5006446227
  0
ARC
  5
2C7
100
AcDbEntity
  8
0
100
AcDbCircle
 62
9
  6
CONTINUOUS
 10
2.2063183383
 20
10.9483318604
 40
0.5785288469
100
AcDbArc
 50
209.4338372179
 51
240.5654650191
  0
ARC
  5
2C8
100
AcDbEntity
  8
0
100
AcDbCircle
 62
9
  6
CONTINUOUS
 10
2.2063183383
 20
10.9483318604
 40
0.5785288469
100
AcDbArc
 50
299.4345349767
 51
330.5661627771
  0
ARC
  5
2C9
100
AcDbEntity
  8
0
100
AcDbCircle
 62
9
  6
CONTINUOUS
 10
2.2063183383
 20
10.9483318604
 40
0.5785288469
100
AcDbArc
 50
29.4338372179
 51
60.5654650191
  0
ARC
  5
2CA
100
AcDbEntity
  8
0
100
AcDbCircle
 62
9
  6
CONTINUOUS
 10
2.2063183383
 20
10.9483318604
 40
0.5785288469
100
AcDbArc
 50
119.4345349767
 51
150.5661627771
  0
ARC
  5
2CB
100
AcDbEntity
  8
0
100
AcDbCircle
 62
9
  6
CONTINUOUS
 10
2.620412549
 20
11.3624260712
 40
0.155
100
AcDbArc
 50
183.0
 51
267.0
  0
ARC
  5
2CC
100
AcDbEntity
  8
0
100
AcDbCircle
 62
9
  6
CONTINUOUS
 10
1.7922241275
 20
11.3624260712
 40
0.155
100
AcDbArc
 50
273.0
 51
357.0
  0
ARC
  5
2CD
100
AcDbEntity
  8
0
100
AcDbCircle
 62
7
  6
CONTINUOUS
 10
1.7922241275
 20
11.3624260712
 40
0.125
100
AcDbArc
 50
273.0
 51
357.0
  0
ARC
  5
2CE
100
AcDbEntity
  8
0
100
AcDbCircle
 62
7
  6
CONTINUOUS
 10
2.620412549
 20
11.3624260712
 40
0.125
100
AcDbArc
 50
183.0
 51
267.0
  0
ARC
  5
2CF
100
AcDbEntity
  8
0
100
AcDbCircle
 62
7
  6
CONTINUOUS
 10
3.6193183383
 20
11.1548629234
 40
0.03
100
AcDbArc
 50
0.0
 51
87.0
  0
ARC
  5
2D0
100
AcDbEntity
  8
0
100
AcDbCircle
 62
7
  6
CONTINUOUS
 10
0.7933183383
 20
11.1548629234
 40
0.03
100
AcDbArc
 50
93.0
 51
180.0
  0
ARC
  5
2D1
100
AcDbEntity
  8
0
100
AcDbCircle
 62
7
  6
CONTINUOUS
 10
2.4128494013
 20
12.3613318604
 40
0.03
100
AcDbArc
 50
3.0
 51
90.0
  0
ARC
  5
2D2
100
AcDbEntity
  8
0
100
AcDbCircle
 62
7
  6
CONTINUOUS
 10
1.9997872753
 20
12.3613318604
 40
0.03
100
AcDbArc
 50
90.0
 51
177.0
  0
ARC
  5
2D3
100
AcDbEntity
  8
0
100
AcDbCircle
 62
9
  6
CONTINUOUS
 10
9.7922241275
 20
10.5342376496
 40
0.155
100
AcDbArc
 50
3.0
 51
87.0
  0
ARC
  5
2D4
100
AcDbEntity
  8
0
100
AcDbCircle
 62
7
  6
CONTINUOUS
 10
9.7922241275
 20
10.5342376496
 40
0.125
100
AcDbArc
 50
3.0
 51
87.0
  0
ARC
  5
2D5
100
AcDbEntity
  8
0
100
AcDbCircle
 62
7
  6
CONTINUOUS
 10
10.4128494013
 20
9.5353318604
 40
0.03
100
AcDbArc
 50
270.0
 51
357.0
  0
ARC
  5
2D6
100
AcDbEntity
  8
0
100
AcDbCircle
 62
7
  6
CONTINUOUS
 10
9.9997872753
 20
9.5353318604
 40
0.03
100
AcDbArc
 50
183.0
 51
270.0
  0
ARC
  5
2D7
100
AcDbEntity
  8
0
100
AcDbCircle
 62
7
  6
CONTINUOUS
 10
8.7933183383
 20
10.7418007974
 40
0.03
100
AcDbArc
 50
180.0
 51
267.0
  0
ARC
  5
2D8
100
AcDbEntity
  8
0
100
AcDbCircle
 62
7
  6
CONTINUOUS
 10
6.2063183383
 20
10.9483318604
 40
1.1875
100
AcDbArc
 50
294.9151235981
 51
245.0848764019
  0
ARC
  5
2D9
100
AcDbEntity
  8
0
100
AcDbCircle
 62
7
  6
CONTINUOUS
 10
6.2063183383
 20
10.9483318604
 40
0.6875
100
AcDbArc
 50
316.7260312695
 51
223.2739681981
  0
ARC
  5
2DA
100
AcDbEntity
  8
0
100
AcDbCircle
 62
7
  6
CONTINUOUS
 10
6.2063183383
 20
10.9483318604
 40
0.5
100
AcDbArc
 50
0.0
 51
180.0
  0
ARC
  5
2DB
100
AcDbEntity
  8
0
100
AcDbCircle
 62
7
  6
CONTINUOUS
 10
10.2063183383
 20
10.9483318604
 40
1.1
100
AcDbArc
 50
193.3818819891
 51
256.6138926934
  0
ARC
  5
2DC
100
AcDbEntity
  8
0
100
AcDbCircle
 62
7
  6
CONTINUOUS
 10
10.2063183383
 20
10.9483318604
 40
1.1
100
AcDbArc
 50
283.3861073058
 51
346.618118011
  0
ARC
  5
2DD
100
AcDbEntity
  8
0
100
AcDbCircle
 62
7
  6
CONTINUOUS
 10
10.2063183383
 20
10.9483318604
 40
1.1
100
AcDbArc
 50
13.3818819891
 51
76.6138926934
  0
ARC
  5
2DE
100
AcDbEntity
  8
0
100
AcDbCircle
 62
7
  6
CONTINUOUS
 10
10.2063183383
 20
10.9483318604
 40
1.1
100
AcDbArc
 50
103.3861073058
 51
166.618118011
  0
ARC
  5
2DF
100
AcDbEntity
  8
0
100
AcDbCircle
 62
9
  6
CONTINUOUS
 10
10.2063183383
 20
10.9483318604
 40
1.07
100
AcDbArc
 50
193.8561496479
 51
256.1438131102
  0
ARC
  5
2E0
100
AcDbEntity
  8
0
100
AcDbCircle
 62
9
  6
CONTINUOUS
 10
10.2063183383
 20
10.9483318604
 40
1.07
100
AcDbArc
 50
283.8561859809
 51
346.1438496801
  0
ARC
  5
2E1
100
AcDbEntity
  8
0
100
AcDbCircle
 62
9
  6
CONTINUOUS
 10
10.2063183383
 20
10.9483318604
 40
1.07
100
AcDbArc
 50
13.8561496479
 51
76.1438131102
  0
ARC
  5
2E2
100
AcDbEntity
  8
0
100
AcDbCircle
 62
9
  6
CONTINUOUS
 10
10.2063183383
 20
10.9483318604
 40
1.07
100
AcDbArc
 50
103.8561859809
 51
166.1438496801
  0
ARC
  5
2E3
100
AcDbEntity
  8
0
100
AcDbCircle
 62
7
  6
CONTINUOUS
 10
10.2063183383
 20
10.9483318604
 40
0.75
100
AcDbArc
 50
21.4332499467
 51
68.5667500533
  0
ARC
  5
2E4
100
AcDbEntity
  8
0
100
AcDbCircle
 62
7
  6
CONTINUOUS
 10
10.2063183383
 20
10.9483318604
 40
0.75
100
AcDbArc
 50
111.4332499467
 51
158.5667500533
  0
ARC
  5
2E5
100
AcDbEntity
  8
0
100
AcDbCircle
 62
7
  6
CONTINUOUS
 10
10.2063183383
 20
10.9483318604
 40
0.75
100
AcDbArc
 50
201.4332499467
 51
248.5667500533
  0
ARC
  5
2E6
100
AcDbEntity
  8
0
100
AcDbCircle
 62
7
  6
CONTINUOUS
 10
10.2063183383
 20
10.9483318604
 40
0.75
100
AcDbArc
 50
291.4332499467
 51
338.5667500533
  0
ARC
  5
2E7
100
AcDbEntity
  8
0
100
AcDbCircle
 62
9
  6
CONTINUOUS
 10
10.2063183383
 20
10.9483318604
 40
0.7231538135
100
AcDbArc
 50
22.406299802
 51
67.5856057247
  0
ARC
  5
2E8
100
AcDbEntity
  8
0
100
AcDbCircle
 62
9
  6
CONTINUOUS
 10
10.2063183383
 20
10.9483318604
 40
0.7231538135
100
AcDbArc
 50
112.4143942753
 51
157.5937001978
  0
ARC
  5
2E9
100
AcDbEntity
  8
0
100
AcDbCircle
 62
9
  6
CONTINUOUS
 10
10.2063183383
 20
10.9483318604
 40
0.7231538135
100
AcDbArc
 50
202.406299802
 51
247.5856057247
  0
ARC
  5
2EA
100
AcDbEntity
  8
0
100
AcDbCircle
 62
9
  6
CONTINUOUS
 10
10.2063183383
 20
10.9483318604
 40
0.7231538135
100
AcDbArc
 50
292.4143942753
 51
337.5937001978
  0
ARC
  5
2EB
100
AcDbEntity
  8
0
100
AcDbCircle
 62
9
  6
CONTINUOUS
 10
10.2063183383
 20
10.9483318604
 40
0.6695101743
100
AcDbArc
 50
24.6173671333
 51
65.382632971
  0
ARC
  5
2EC
100
AcDbEntity
  8
0
100
AcDbCircle
 62
9
  6
CONTINUOUS
 10
10.2063183383
 20
10.9483318604
 40
0.6695101743
100
AcDbArc
 50
114.6173670273
 51
155.3826328622
  0
ARC
  5
2ED
100
AcDbEntity
  8
0
100
AcDbCircle
 62
9
  6
CONTINUOUS
 10
10.2063183383
 20
10.9483318604
 40
0.6695101743
100
AcDbArc
 50
204.6173671333
 51
245.382632971
  0
ARC
  5
2EE
100
AcDbEntity
  8
0
100
AcDbCircle
 62
9
  6
CONTINUOUS
 10
10.2063183383
 20
10.9483318604
 40
0.6695101743
100
AcDbArc
 50
294.6173670273
 51
335.3826328622
  0
ARC
  5
2EF
100
AcDbEntity
  8
0
100
AcDbCircle
 62
9
  6
CONTINUOUS
 10
10.2063183383
 20
10.9483318604
 40
0.6115087442
100
AcDbArc
 50
27.4933476251
 51
62.5018109797
  0
ARC
  5
2F0
100
AcDbEntity
  8
0
100
AcDbCircle
 62
9
  6
CONTINUOUS
 10
10.2063183383
 20
10.9483318604
 40
0.6115087442
100
AcDbArc
 50
117.4981890203
 51
152.5066523749
  0
ARC
  5
2F1
100
AcDbEntity
  8
0
100
AcDbCircle
 62
9
  6
CONTINUOUS
 10
10.2063183383
 20
10.9483318604
 40
0.6115087442
100
AcDbArc
 50
207.4933476251
 51
242.5018109797
  0
ARC
  5
2F2
100
AcDbEntity
  8
0
100
AcDbCircle
 62
9
  6
CONTINUOUS
 10
10.2063183383
 20
10.9483318604
 40
0.6115087442
100
AcDbArc
 50
297.4981890203
 51
332.5066523749
  0
ARC
  5
2F3
100
AcDbEntity
  8
0
100
AcDbCircle
 62
9
  6
CONTINUOUS
 10
10.2063183383
 20
10.9483318604
 40
0.5785288469
100
AcDbArc
 50
29.4414704039
 51
60.5635115466
  0
ARC
  5
2F4
100
AcDbEntity
  8
0
100
AcDbCircle
 62
9
  6
CONTINUOUS
 10
10.2063183383
 20
10.9483318604
 40
0.5785288469
100
AcDbArc
 50
119.4364884579
 51
150.5585295929
  0
ARC
  5
2F5
100
AcDbEntity
  8
0
100
AcDbCircle
 62
9
  6
CONTINUOUS
 10
10.2063183383
 20
10.9483318604
 40
0.5785288469
100
AcDbArc
 50
209.4414704039
 51
240.5635115466
  0
ARC
  5
2F6
100
AcDbEntity
  8
0
100
AcDbCircle
 62
9
  6
CONTINUOUS
 10
10.2063183383
 20
10.9483318604
 40
0.5785288469
100
AcDbArc
 50
299.4364884579
 51
330.5585295929
  0
ARC
  5
2F7
100
AcDbEntity
  8
0
100
AcDbCircle
 62
9
  6
CONTINUOUS
 10
9.7922241275
 20
11.3624260712
 40
0.155
100
AcDbArc
 50
273.0
 51
357.0
  0
ARC
  5
2F8
100
AcDbEntity
  8
0
100
AcDbCircle
 62
7
  6
CONTINUOUS
 10
9.7922241275
 20
11.3624260712
 40
0.125
100
AcDbArc
 50
273.0
 51
357.0
  0
ARC
  5
2F9
100
AcDbEntity
  8
0
100
AcDbCircle
 62
7
  6
CONTINUOUS
 10
8.7933183383
 20
11.1548629234
 40
0.03
100
AcDbArc
 50
93.0
 51
180.0
  0
ARC
  5
2FA
100
AcDbEntity
  8
0
100
AcDbCircle
 62
7
  6
CONTINUOUS
 10
9.9997872753
 20
12.3613318604
 40
0.03
100
AcDbArc
 50
90.0
 51
177.0
  0
ARC
  5
2FB
100
AcDbEntity
  8
0
100
AcDbCircle
 62
7
  6
CONTINUOUS
 10
10.4128494013
 20
12.3613318604
 40
0.03
100
AcDbArc
 50
3.0
 51
90.0
  0
ARC
  5
2FC
100
AcDbEntity
  8
0
100
AcDbCircle
 62
9
  6
CONTINUOUS
 10
14.7922241275
 20
10.5342376496
 40
0.155
100
AcDbArc
 50
3.0
 51
87.0
  0
ARC
  5
2FD
100
AcDbEntity
  8
0
100
AcDbCircle
 62
9
  6
CONTINUOUS
 10
10.620412549
 20
10.5342376496
 40
0.155
100
AcDbArc
 50
93.0
 51
177.0
  0
ARC
  5
2FE
100
AcDbEntity
  8
0
100
AcDbCircle
 62
7
  6
CONTINUOUS
 10
14.7922241275
 20
10.5342376496
 40
0.125
100
AcDbArc
 50
3.0
 51
87.0
  0
ARC
  5
2FF
100
AcDbEntity
  8
0
100
AcDbCircle
 62
7
  6
CONTINUOUS
 10
10.620412549
 20
10.5342376496
 40
0.125
100
AcDbArc
 50
93.0
 51
177.0
  0
ARC
  5
300
100
AcDbEntity
  8
0
100
AcDbCircle
 62
7
  6
CONTINUOUS
 10
13.7933183383
 20
10.7418007974
 40
0.03
100
AcDbArc
 50
180.0
 51
267.0
  0
ARC
  5
301
100
AcDbEntity
  8
0
100
AcDbCircle
 62
7
  6
CONTINUOUS
 10
14.9997872753
 20
9.5353318604
 40
0.03
100
AcDbArc
 50
183.0
 51
270.0
  0
ARC
  5
302
100
AcDbEntity
  8
0
100
AcDbCircle
 62
7
  6
CONTINUOUS
 10
15.4128494013
 20
9.5353318604
 40
0.03
100
AcDbArc
 50
270.0
 51
357.0
  0
ARC
  5
303
100
AcDbEntity
  8
0
100
AcDbCircle
 62
7
  6
CONTINUOUS
 10
11.6193183383
 20
10.7418007974
 40
0.03
100
AcDbArc
 50
273.0
 51
360.0
  0
ARC
  5
304
100
AcDbEntity
  8
0
100
AcDbCircle
 62
7
  6
CONTINUOUS
 10
15.2063183383
 20
10.9483318604
 40
1.1
100
AcDbArc
 50
13.3843347607
 51
76.6156669909
  0
ARC
  5
305
100
AcDbEntity
  8
0
100
AcDbCircle
 62
7
  6
CONTINUOUS
 10
15.2063183383
 20
10.9483318604
 40
1.1
100
AcDbArc
 50
103.3843330087
 51
166.6156652394
  0
ARC
  5
306
100
AcDbEntity
  8
0
100
AcDbCircle
 62
7
  6
CONTINUOUS
 10
15.2063183383
 20
10.9483318604
 40
1.1
100
AcDbArc
 50
193.3843347607
 51
256.6156669909
  0
ARC
  5
307
100
AcDbEntity
  8
0
100
AcDbCircle
 62
7
  6
CONTINUOUS
 10
15.2063183383
 20
10.9483318604
 40
1.1
100
AcDbArc
 50
283.3843330087
 51
346.6156652394
  0
ARC
  5
308
100
AcDbEntity
  8
0
100
AcDbCircle
 62
9
  6
CONTINUOUS
 10
15.2063183383
 20
10.9483318604
 40
1.07
100
AcDbArc
 50
13.8581416283
 51
76.1418471682
  0
ARC
  5
309
100
AcDbEntity
  8
0
100
AcDbCircle
 62
9
  6
CONTINUOUS
 10
15.2063183383
 20
10.9483318604
 40
1.07
100
AcDbArc
 50
103.8581523443
 51
166.1418578239
  0
ARC
  5
30A
100
AcDbEntity
  8
0
100
AcDbCircle
 62
9
  6
CONTINUOUS
 10
15.2063183383
 20
10.9483318604
 40
1.07
100
AcDbArc
 50
193.8581416283
 51
256.1418471682
  0
ARC
  5
30B
100
AcDbEntity
  8
0
100
AcDbCircle
 62
9
  6
CONTINUOUS
 10
15.2063183383
 20
10.9483318604
 40
1.07
100
AcDbArc
 50
283.8581523443
 51
346.1418578239
  0
ARC
  5
30C
100
AcDbEntity
  8
0
100
AcDbCircle
 62
7
  6
CONTINUOUS
 10
15.2063183383
 20
10.9483318604
 40
0.75
100
AcDbArc
 50
201.4345514821
 51
248.5569376846
  0
ARC
  5
30D
100
AcDbEntity
  8
0
100
AcDbCircle
 62
7
  6
CONTINUOUS
 10
15.2063183383
 20
10.9483318604
 40
0.75
100
AcDbArc
 50
291.4430623154
 51
338.5654485179
  0
ARC
  5
30E
100
AcDbEntity
  8
0
100
AcDbCircle
 62
7
  6
CONTINUOUS
 10
15.2063183383
 20
10.9483318604
 40
0.75
100
AcDbArc
 50
21.4345514821
 51
68.5569376846
  0
ARC
  5
30F
100
AcDbEntity
  8
0
100
AcDbCircle
 62
7
  6
CONTINUOUS
 10
15.2063183383
 20
10.9483318604
 40
0.75
100
AcDbArc
 50
111.4430623154
 51
158.5654485179
  0
ARC
  5
310
100
AcDbEntity
  8
0
100
AcDbCircle
 62
9
  6
CONTINUOUS
 10
15.2063183383
 20
10.9483318604
 40
0.7231538135
100
AcDbArc
 50
202.4130149075
 51
247.5924652406
  0
ARC
  5
311
100
AcDbEntity
  8
0
100
AcDbCircle
 62
9
  6
CONTINUOUS
 10
15.2063183383
 20
10.9483318604
 40
0.7231538135
100
AcDbArc
 50
292.4075347594
 51
337.5869850924
  0
ARC
  5
312
100
AcDbEntity
  8
0
100
AcDbCircle
 62
9
  6
CONTINUOUS
 10
15.2063183383
 20
10.9483318604
 40
0.7231538135
100
AcDbArc
 50
22.4130149075
 51
67.5924652406
  0
ARC
  5
313
100
AcDbEntity
  8
0
100
AcDbCircle
 62
9
  6
CONTINUOUS
 10
15.2063183383
 20
10.9483318604
 40
0.7231538135
100
AcDbArc
 50
112.4075347594
 51
157.5869850924
  0
ARC
  5
314
100
AcDbEntity
  8
0
100
AcDbCircle
 62
9
  6
CONTINUOUS
 10
15.2063183383
 20
10.9483318604
 40
0.6695101743
100
AcDbArc
 50
204.6095623991
 51
245.3904378682
  0
ARC
  5
315
100
AcDbEntity
  8
0
100
AcDbCircle
 62
9
  6
CONTINUOUS
 10
15.2063183383
 20
10.9483318604
 40
0.6695101743
100
AcDbArc
 50
294.6095621314
 51
335.3904375975
  0
ARC
  5
316
100
AcDbEntity
  8
0
100
AcDbCircle
 62
9
  6
CONTINUOUS
 10
15.2063183383
 20
10.9483318604
 40
0.6695101743
100
AcDbArc
 50
24.6095623991
 51
65.3904378682
  0
ARC
  5
317
100
AcDbEntity
  8
0
100
AcDbCircle
 62
9
  6
CONTINUOUS
 10
15.2063183383
 20
10.9483318604
 40
0.6695101743
100
AcDbArc
 50
114.6095621314
 51
155.3904375975
  0
ARC
  5
318
100
AcDbEntity
  8
0
100
AcDbCircle
 62
9
  6
CONTINUOUS
 10
15.2063183383
 20
10.9483318604
 40
0.6115087442
100
AcDbArc
 50
207.4993553773
 51
242.5167752778
  0
ARC
  5
319
100
AcDbEntity
  8
0
100
AcDbCircle
 62
9
  6
CONTINUOUS
 10
15.2063183383
 20
10.9483318604
 40
0.6115087442
100
AcDbArc
 50
297.4832247222
 51
332.5006446227
  0
ARC
  5
31A
100
AcDbEntity
  8
0
100
AcDbCircle
 62
9
  6
CONTINUOUS
 10
15.2063183383
 20
10.9483318604
 40
0.6115087442
100
AcDbArc
 50
27.4993553773
 51
62.5167752778
  0
ARC
  5
31B
100
AcDbEntity
  8
0
100
AcDbCircle
 62
9
  6
CONTINUOUS
 10
15.2063183383
 20
10.9483318604
 40
0.6115087442
100
AcDbArc
 50
117.4832247222
 51
152.5006446227
  0
ARC
  5
31C
100
AcDbEntity
  8
0
100
AcDbCircle
 62
9
  6
CONTINUOUS
 10
15.2063183383
 20
10.9483318604
 40
0.5785288469
100
AcDbArc
 50
209.4338372179
 51
240.5654650191
  0
ARC
  5
31D
100
AcDbEntity
  8
0
100
AcDbCircle
 62
9
  6
CONTINUOUS
 10
15.2063183383
 20
10.9483318604
 40
0.5785288469
100
AcDbArc
 50
299.4345349767
 51
330.5661627771
  0
ARC
  5
31E
100
AcDbEntity
  8
0
100
AcDbCircle
 62
9
  6
CONTINUOUS
 10
15.2063183383
 20
10.9483318604
 40
0.5785288469
100
AcDbArc
 50
29.4338372179
 51
60.5654650191
  0
ARC
  5
31F
100
AcDbEntity
  8
0
100
AcDbCircle
 62
9
  6
CONTINUOUS
 10
15.2063183383
 20
10.9483318604
 40
0.5785288469
100
AcDbArc
 50
119.4345349767
 51
150.5661627771
  0
ARC
  5
320
100
AcDbEntity
  8
0
100
AcDbCircle
 62
9
  6
CONTINUOUS
 10
14.7922241275
 20
11.3624260712
 40
0.155
100
AcDbArc
 50
273.0
 51
357.0
  0
ARC
  5
321
100
AcDbEntity
  8
0
100
AcDbCircle
 62
9
  6
CONTINUOUS
 10
10.620412549
 20
11.3624260712
 40
0.155
100
AcDbArc
 50
183.0
 51
267.0
  0
ARC
  5
322
100
AcDbEntity
  8
0
100
AcDbCircle
 62
7
  6
CONTINUOUS
 10
14.7922241275
 20
11.3624260712
 40
0.125
100
AcDbArc
 50
273.0
 51
357.0
  0
ARC
  5
323
100
AcDbEntity
  8
0
100
AcDbCircle
 62
7
  6
CONTINUOUS
 10
10.620412549
 20
11.3624260712
 40
0.125
100
AcDbArc
 50
183.0
 51
267.0
  0
ARC
  5
324
100
AcDbEntity
  8
0
100
AcDbCircle
 62
7
  6
CONTINUOUS
 10
15.4128494013
 20
12.3613318604
 40
0.03
100
AcDbArc
 50
3.0
 51
90.0
  0
ARC
  5
325
100
AcDbEntity
  8
0
100
AcDbCircle
 62
7
  6
CONTINUOUS
 10
14.9997872753
 20
12.3613318604
 40
0.03
100
AcDbArc
 50
90.0
 51
177.0
  0
ARC
  5
326
100
AcDbEntity
  8
0
100
AcDbCircle
 62
7
  6
CONTINUOUS
 10
13.7933183383
 20
11.1548629234
 40
0.03
100
AcDbArc
 50
93.0
 51
180.0
  0
ARC
  5
327
100
AcDbEntity
  8
0
100
AcDbCircle
 62
7
  6
CONTINUOUS
 10
11.6193183383
 20
11.1548629234
 40
0.03
100
AcDbArc
 50
0.0
 51
87.0
  0
ARC
  5
328
100
AcDbEntity
  8
0
100
AcDbCircle
 62
7
  6
CONTINUOUS
 10
20.0260702045
 20
10.5625746842
 40
0.3104711663
100
AcDbArc
 50
158.9496238775
 51
160.6519891692
  0
ARC
  5
329
100
AcDbEntity
  8
0
100
AcDbCircle
 62
7
  6
CONTINUOUS
 10
20.0256220084
 20
10.5731573766
 40
0.3099952277
100
AcDbArc
 50
199.8950307212
 51
200.3413459961
  0
ARC
  5
32A
100
AcDbEntity
  8
0
100
AcDbCircle
 62
7
  6
CONTINUOUS
 10
20.3870152542
 20
10.5731571628
 40
0.309994604
100
AcDbArc
 50
339.659233267
 51
340.1049695797
  0
ARC
  5
32B
100
AcDbEntity
  8
0
100
AcDbCircle
 62
7
  6
CONTINUOUS
 10
20.3871375611
 20
10.5627847949
 40
0.3098627196
100
AcDbArc
 50
19.3463393245
 51
21.0520476287
  0
ARC
  5
32C
100
AcDbEntity
  8
0
100
AcDbCircle
 62
7
  6
CONTINUOUS
 10
20.0122825754
 20
10.6515051211
 40
0.2959642371
100
AcDbArc
 50
177.491811928
 51
179.9993345852
  0
ARC
  5
32D
100
AcDbEntity
  8
0
100
AcDbCircle
 62
7
  6
CONTINUOUS
 10
20.4004596841
 20
10.6515074334
 40
0.2958586542
100
AcDbArc
 50
0.000217848
 51
2.5086381184
  0
ARC
  5
32E
100
AcDbEntity
  8
0
100
AcDbCircle
 62
9
  6
CONTINUOUS
 10
15.620412549
 20
10.5342376496
 40
0.155
100
AcDbArc
 50
93.0
 51
177.0
  0
ARC
  5
32F
100
AcDbEntity
  8
0
100
AcDbCircle
 62
7
  6
CONTINUOUS
 10
15.620412549
 20
10.5342376496
 40
0.125
100
AcDbArc
 50
93.0
 51
177.0
  0
ARC
  5
330
100
AcDbEntity
  8
0
100
AcDbCircle
 62
7
  6
CONTINUOUS
 10
16.6193183383
 20
10.7418007974
 40
0.03
100
AcDbArc
 50
273.0
 51
360.0
  0
ARC
  5
331
100
AcDbEntity
  8
0
100
AcDbCircle
 62
7
  6
CONTINUOUS
 10
16.6193183383
 20
11.1548629234
 40
0.03
100
AcDbArc
 50
0.0
 51
87.0
  0
ARC
  5
332
100
AcDbEntity
  8
0
100
AcDbCircle
 62
9
  6
CONTINUOUS
 10
15.620412549
 20
11.3624260712
 40
0.155
100
AcDbArc
 50
183.0
 51
267.0
  0
ARC
  5
333
100
AcDbEntity
  8
0
100
AcDbCircle
 62
7
  6
CONTINUOUS
 10
15.620412549
 20
11.3624260712
 40
0.125
100
AcDbArc
 50
183.0
 51
267.0
  0
ARC
  5
334
100
AcDbEntity
  8
0
100
AcDbCircle
 62
7
  6
CONTINUOUS
 10
20.2063183383
 20
10.9483318604
 40
1.125
100
AcDbArc
 50
296.3991351226
 51
243.6008648774
  0
ARC
  5
335
100
AcDbEntity
  8
0
100
AcDbCircle
 62
9
  6
CONTINUOUS
 10
20.2063183383
 20
10.9483318604
 40
1.105
100
AcDbArc
 50
296.9130205437
 51
243.0869794563
  0
ARC
  5
336
100
AcDbEntity
  8
0
100
AcDbCircle
 62
7
  6
CONTINUOUS
 10
20.2063183383
 20
10.9483318604
 40
0.5475
100
AcDbArc
 50
332.9457107375
 51
207.0542892625
  0
ARC
  5
337
100
AcDbEntity
  8
0
100
AcDbCircle
 62
9
  6
CONTINUOUS
 10
20.2063183383
 20
10.9483318604
 40
0.5175
100
AcDbArc
 50
340.4332804638
 51
199.5667195362
  0
ARC
  5
338
100
AcDbEntity
  8
0
100
AcDbCircle
 62
7
  6
CONTINUOUS
 10
20.2063183383
 20
10.9483318604
 40
0.4875
100
AcDbArc
 50
0.0
 51
180.0
  0
SPLINE
  5
339
100
AcDbEntity
  8
0
100
AcDbSpline
 62
7
  6
CONTINUOUS
 70
0
 71
3
 72
29
 73
25
 74
0
 42
0.0000001
 43
0.0000001
 44
0.0000000001
 40
0.0
 40
0.0
 40
0.0
 40
0.0
 40
0.0272587826
 40
0.0545606721
 40
0.0819447484
 40
0.1094525686
 40
0.1371224081
 40
0.1649907513
 40
0.1930916521
 40
0.2214561733
 40
0.2501121897
 40
0.2790840927
 40
0.3380331751
 40
0.3984464293
 40
0.4603817695
 40
0.5238366606
 40
0.5887519366
 40
0.6550171201
 40
0.7224768862
 40
0.7909380884
 40
0.8254817934
 40
0.8601900178
 40
0.9299598421
 40
1.0
 40
1.0
 40
1.0
 40
1.0
 10
19.7463183383
 20
4.8792758234
 30
0.0
 10
19.7463183383
 20
4.8734383207
 30
0.0
 10
19.7466921129
 20
4.8617506554
 30
0.0
 10
19.7483716908
 20
4.8442713063
 30
0.0
 10
19.7511658785
 20
4.8268805407
 30
0.0
 10
19.7550665403
 20
4.8096236624
 30
0.0
 10
19.7600629409
 20
4.7925436935
 30
0.0
 10
19.7661411564
 20
4.7756833621
 30
0.0
 10
19.7732846378
 20
4.7590842269
 30
0.0
 10
19.7814741798
 20
4.7427869732
 30
0.0
 10
19.7906884804
 20
4.7268304884
 30
0.0
 10
19.8043841368
 20
4.7059440828
 30
0.0
 10
19.8240008796
 20
4.6808722991
 30
0.0
 10
19.8510523033
 20
4.6529306644
 30
0.0
 10
19.8814885861
 20
4.6272028304
 30
0.0
 10
19.9150106773
 20
4.6039242084
 30
0.0
 10
19.9512963604
 20
4.5833040778
 30
0.0
 10
19.9899994333
 20
4.5655285274
 30
0.0
 10
20.0307507501
 20
4.5507589264
 30
0.0
 10
20.0659962161
 20
4.5410949899
 30
0.0
 10
20.0948502016
 20
4.5349666266
 30
0.0
 10
20.1241959156
 20
4.5299090204
 30
0.0
 10
20.1613671599
 20
4.5256831776
 30
0.0
 10
20.1913191503
 20
4.524555824
 30
0.0
 10
20.2063183383
 20
4.524555824
 30
0.0
  0
SPLINE
  5
33A
100
AcDbEntity
  8
0
100
AcDbSpline
 62
7
  6
CONTINUOUS
 70
0
 71
3
 72
29
 73
25
 74
0
 42
0.0000001
 43
0.0000001
 44
0.0000000001
 40
0.0
 40
0.0
 40
0.0
 40
0.0
 40
0.0700401741
 40
0.1398100086
 40
0.1745182377
 40
0.2090619459
 40
0.2775231519
 40
0.3449829184
 40
0.4112480989
 40
0.4761633692
 40
0.5396182526
 40
0.6015535839
 40
0.6619668287
 40
0.7209159025
 40
0.7498878017
 40
0.7785438151
 40
0.8069083339
 40
0.8350092332
 40
0.8628775759
 40
0.8905474161
 40
0.9180552378
 40
0.9454393167
 40
0.9727412131
 40
1.0
 40
1.0
 40
1.0
 40
1.0
 10
20.2063183383
 20
4.524555824
 30
0.0
 10
20.2213175298
 20
4.524555824
 30
0.0
 10
20.2512695258
 20
4.525683178
 30
0.0
 10
20.2884407766
 20
4.5299090227
 30
0.0
 10
20.3177864943
 20
4.5349666304
 30
0.0
 10
20.3466404821
 20
4.541094995
 30
0.0
 10
20.3818859491
 20
4.5507589339
 30
0.0
 10
20.4226372657
 20
4.5655285362
 30
0.0
 10
20.4613403359
 20
4.5833040881
 30
0.0
 10
20.4976260151
 20
4.6039242184
 30
0.0
 10
20.5311481016
 20
4.627202839
 30
0.0
 10
20.5615843792
 20
4.6529306703
 30
0.0
 10
20.5886357985
 20
4.6808723011
 30
0.0
 10
20.6082525384
 20
4.7059440812
 30
0.0
 10
20.6219481934
 20
4.7268304838
 30
0.0
 10
20.6311624932
 20
4.7427869668
 30
0.0
 10
20.6393520351
 20
4.7590842189
 30
0.0
 10
20.6464955167
 20
4.775683353
 30
0.0
 10
20.6525737325
 20
4.792543684
 30
0.0
 10
20.6575701336
 20
4.8096236531
 30
0.0
 10
20.6614707966
 20
4.8268805321
 30
0.0
 10
20.6642649851
 20
4.8442713
 30
0.0
 10
20.6659445632
 20
4.8617506521
 30
0.0
 10
20.6663183383
 20
4.8734383198
 30
0.0
 10
20.6663183383
 20
4.8792758234
 30
0.0
  0
SPLINE
  5
33B
100
AcDbEntity
  8
0
100
AcDbSpline
 62
7
  6
CONTINUOUS
 70
0
 71
3
 72
11
 73
7
 74
0
 42
0.0000001
 43
0.0000001
 44
0.0000000001
 40
0.0
 40
0.0
 40
0.0
 40
0.0
 40
0.248048877
 40
0.4968891318
 40
0.7472941467
 40
1.0
 40
1.0
 40
1.0
 40
1.0
 10
19.7163183383
 20
10.5679461691
 30
0.0
 10
19.7163183383
 20
10.5594850179
 30
0.0
 10
19.7170679797
 20
10.5425263295
 30
0.0
 10
19.7204345763
 20
10.5172270275
 30
0.0
 10
19.7260266672
 20
10.492162532
 30
0.0
 10
19.731194672
 20
10.4757721696
 30
0.0
 10
19.734128026
 20
10.4676666214
 30
0.0
  0
SPLINE
  5
33C
100
AcDbEntity
  8
0
100
AcDbSpline
 62
7
  6
CONTINUOUS
 70
0
 71
3
 72
11
 73
7
 74
0
 42
0.0000001
 43
0.0000001
 44
0.0000000001
 40
0.0
 40
0.0
 40
0.0
 40
0.0
 40
0.2527058533
 40
0.5031108682
 40
0.751951123
 40
1.0
 40
1.0
 40
1.0
 40
1.0
 10
20.6785086506
 20
10.4676666214
 30
0.0
 10
20.6814420045
 20
10.4757721696
 30
0.0
 10
20.6866100094
 20
10.492162532
 30
0.0
 10
20.6922021002
 20
10.5172270275
 30
0.0
 10
20.6955686969
 20
10.5425263295
 30
0.0
 10
20.6963183383
 20
10.5594850179
 30
0.0
 10
20.6963183383
 20
10.5679461691
 30
0.0
  0
SPLINE
  5
33D
100
AcDbEntity
  8
0
100
AcDbSpline
 62
7
  6
CONTINUOUS
 70
0
 71
3
 72
15
 73
11
 74
0
 42
0.0000001
 43
0.0000001
 44
0.0000000001
 40
0.0
 40
0.0
 40
0.0
 40
0.0
 40
0.1234724687
 40
0.2471027382
 40
0.371025304
 40
0.4953914078
 40
0.6203417913
 40
0.7460097539
 40
0.8725228617
 40
1.0
 40
1.0
 40
1.0
 40
1.0
 10
20.7063183383
 20
10.3365426296
 30
0.0
 10
20.7063183383
 20
10.3421509923
 30
0.0
 10
20.7060006345
 20
10.353377465
 30
0.0
 10
20.7045728287
 20
10.3701781024
 30
0.0
 10
20.7021964039
 20
10.3869124849
 30
0.0
 10
20.6988766705
 20
10.4035464404
 30
0.0
 10
20.6946210053
 20
10.4200476463
 30
0.0
 10
20.6894383001
 20
10.4363838607
 30
0.0
 10
20.6833398587
 20
10.4525227998
 30
0.0
 10
20.6786907458
 20
10.4630882191
 30
0.0
 10
20.6762212784
 20
10.4683254772
 30
0.0
  0
SPLINE
  5
33E
100
AcDbEntity
  8
0
100
AcDbSpline
 62
7
  6
CONTINUOUS
 70
0
 71
3
 72
35
 73
31
 74
0
 42
0.0000001
 43
0.0000001
 44
0.0000000001
 40
0.0
 40
0.0
 40
0.0
 40
0.0
 40
0.0275306932
 40
0.0555271443
 40
0.0840388188
 40
0.1131011747
 40
0.1427353821
 40
0.1729485176
 40
0.2037340958
 40
0.2350728563
 40
0.2992405432
 40
0.3320114632
 40
0.3651527208
 40
0.3985983951
 40
0.4322771404
 40
0.500000094
 40
0.5677230432
 40
0.601401783
 40
0.6348474496
 40
0.6679886975
 40
0.7007596061
 40
0.7649272657
 40
0.796266011
 40
0.8270515732
 40
0.8572646923
 40
0.8868988831
 40
0.915961223
 40
0.9444728822
 40
0.9724693192
 40
1.0
 40
1.0
 40
1.0
 40
1.0
 10
20.6762212784
 20
10.4683254772
 30
0.0
 10
20.6718231242
 20
10.4776531034
 30
0.0
 10
20.6620729939
 20
10.4960641281
 30
0.0
 10
20.6449011877
 20
10.5224929907
 30
0.0
 10
20.6251737938
 20
10.5478052051
 30
0.0
 10
20.6030136737
 20
10.5718543049
 30
0.0
 10
20.5785540372
 20
10.5945065482
 30
0.0
 10
20.5519409801
 20
10.6156353659
 30
0.0
 10
20.5233289222
 20
10.6351246344
 30
0.0
 10
20.4824304568
 20
10.6589597805
 30
0.0
 10
20.4385074094
 20
10.6788504934
 30
0.0
 10
20.3923951008
 20
10.6946618233
 30
0.0
 10
20.3564829006
 20
10.7045291453
 30
0.0
 10
20.3197058464
 20
10.7122610193
 30
0.0
 10
20.2697162403
 20
10.7196786158
 30
0.0
 10
20.2063181029
 20
10.7233909563
 30
0.0
 10
20.1429199702
 20
10.7196785711
 30
0.0
 10
20.0929303761
 20
10.7122609386
 30
0.0
 10
20.0561533361
 20
10.7045290389
 30
0.0
 10
20.0202411537
 20
10.6946616927
 30
0.0
 10
19.9741288742
 20
10.6788503339
 30
0.0
 10
19.9302058603
 20
10.6589595963
 30
0.0
 10
19.8893074314
 20
10.6351244309
 30
0.0
 10
19.8606954032
 20
10.6156351507
 30
0.0
 10
19.8340823769
 20
10.5945063236
 30
0.0
 10
19.8096227718
 20
10.5718540734
 30
0.0
 10
19.7874626829
 20
10.5478049692
 30
0.0
 10
19.7677353196
 20
10.5224927526
 30
0.0
 10
19.7505635428
 20
10.4960638896
 30
0.0
 10
19.7408134319
 20
10.4776528659
 30
0.0
 10
19.7364152867
 20
10.4683252406
 30
0.0
  0
SPLINE
  5
33F
100
AcDbEntity
  8
0
100
AcDbSpline
 62
7
  6
CONTINUOUS
 70
0
 71
3
 72
15
 73
11
 74
0
 42
0.0000001
 43
0.0000001
 44
0.0000000001
 40
0.0
 40
0.0
 40
0.0
 40
0.0
 40
0.1274771143
 40
0.2539902055
 40
0.3796581576
 40
0.5046085377
 40
0.6289746462
 40
0.7528972213
 40
0.8765275082
 40
1.0
 40
1.0
 40
1.0
 40
1.0
 10
19.7364152867
 20
10.4683252406
 30
0.0
 10
19.7339458285
 20
10.4630879916
 30
0.0
 10
19.7292967331
 20
10.4525225909
 30
0.0
 10
19.7231983145
 20
10.436383681
 30
0.0
 10
19.718015629
 20
10.4200474964
 30
0.0
 10
19.7137599792
 20
10.4035463208
 30
0.0
 10
19.7104402581
 20
10.3869123956
 30
0.0
 10
19.7080638417
 20
10.3701780431
 30
0.0
 10
19.706636041
 20
10.3533774356
 30
0.0
 10
19.7063183383
 20
10.3421509826
 30
0.0
 10
19.7063183383
 20
10.3365426296
 30
0.0
  0
SPLINE
  5
340
100
AcDbEntity
  8
0
100
AcDbSpline
 62
7
  6
CONTINUOUS
 70
0
 71
3
 72
51
 73
47
 74
0
 42
0.0000001
 43
0.0000001
 44
0.0000000001
 40
0.0
 40
0.0
 40
0.0
 40
0.0
 40
0.0136191351
 40
0.0272599904
 40
0.0409422147
 40
0.054686741
 40
0.0685128265
 40
0.0824388202
 40
0.0964818421
 40
0.1106574973
 40
0.1249797786
 40
0.1394609198
 40
0.1541113057
 40
0.1689394113
 40
0.1991429813
 40
0.2301111509
 40
0.2618423406
 40
0.2943065811
 40
0.32744821
 40
0.3611891316
 40
0.3954323405
 40
0.430065608
 40
0.4649652822
 40
0.5000000631
 40
0.5350348428
 40
0.5699345138
 40
0.6045677762
 40
0.6388109776
 40
0.6725518907
 40
0.7056935091
 40
0.7381577383
 40
0.7698889158
 40
0.8008570729
 40
0.8310606309
 40
0.8458887306
 40
0.8605391108
 40
0.8750202467
 40
0.8893425231
 40
0.9035181738
 40
0.9175611916
 40
0.9314871819
 40
0.9453132643
 40
0.9590577883
 40
0.9727400109
 40
0.9863808652
 40
1.0
 40
1.0
 40
1.0
 40
1.0
 10
19.7063183383
 20
4.8857036995
 30
0.0
 10
19.7063183383
 20
4.8793647105
 30
0.0
 10
19.706724326
 20
4.866672898
 30
0.0
 10
19.7085486593
 20
4.8476916625
 30
0.0
 10
19.711583731
 20
4.8288062527
 30
0.0
 10
19.7158207768
 20
4.8100657131
 30
0.0
 10
19.7212482421
 20
4.7915166235
 30
0.0
 10
19.727851135
 20
4.7732052742
 30
0.0
 10
19.7356115841
 20
4.7551767584
 30
0.0
 10
19.7445089777
 20
4.7374751015
 30
0.0
 10
19.7545198862
 20
4.7201429952
 30
0.0
 10
19.7656181991
 20
4.7032219691
 30
0.0
 10
19.7777760075
 20
4.686751731
 30
0.0
 10
19.7954628987
 20
4.6653166597
 30
0.0
 10
19.8201175729
 20
4.6398547872
 30
0.0
 10
19.8531952901
 20
4.611901228
 30
0.0
 10
19.8896317555
 20
4.5866039624
 30
0.0
 10
19.9290741598
 20
4.5641948383
 30
0.0
 10
19.9711463418
 20
4.544875853
 30
0.0
 10
20.0154482354
 20
4.528822831
 30
0.0
 10
20.0615595745
 20
4.5161819942
 30
0.0
 10
20.1090432396
 20
4.507068973
 30
0.0
 10
20.1574491603
 20
4.5015674903
 30
0.0
 10
20.206318426
 20
4.4997279515
 30
0.0
 10
20.2551876898
 20
4.5015675025
 30
0.0
 10
20.3035936042
 20
4.5070690006
 30
0.0
 10
20.3510772604
 20
4.516182029
 30
0.0
 10
20.3971885855
 20
4.5288228793
 30
0.0
 10
20.4414904647
 20
4.5448759045
 30
0.0
 10
20.4835626281
 20
4.5641948967
 30
0.0
 10
20.5230050141
 20
4.5866040209
 30
0.0
 10
20.5594414604
 20
4.6119012848
 30
0.0
 10
20.5925191583
 20
4.6398548401
 30
0.0
 10
20.6171738195
 20
4.6653167054
 30
0.0
 10
20.6348607004
 20
4.686751771
 30
0.0
 10
20.6470185015
 20
4.7032220047
 30
0.0
 10
20.6581168091
 20
4.7201430255
 30
0.0
 10
20.6681277127
 20
4.7374751266
 30
0.0
 10
20.6770251017
 20
4.7551767788
 30
0.0
 10
20.6847855476
 20
4.7732052898
 30
0.0
 10
20.6913884382
 20
4.7915166347
 30
0.0
 10
20.6968159017
 20
4.8100657205
 30
0.0
 10
20.7010529463
 20
4.8288062571
 30
0.0
 10
20.7040880175
 20
4.8476916646
 30
0.0
 10
20.7059123506
 20
4.8666728987
 30
0.0
 10
20.7063183383
 20
4.8793647105
 30
0.0
 10
20.7063183383
 20
4.8857036994
 30
0.0
  0
SPLINE
  5
341
100
AcDbEntity
  8
0
100
AcDbSpline
 62
7
  6
CONTINUOUS
 70
0
 71
3
 72
49
 73
45
 74
0
 42
0.0000001
 43
0.0000001
 44
0.0000000001
 40
0.0
 40
0.0
 40
0.0
 40
0.0
 40
0.013713841
 40
0.0274585977
 40
0.0412527409
 40
0.0551137267
 40
0.0690581547
 40
0.0831017806
 40
0.0972592183
 40
0.1115438296
 40
0.1259675772
 40
0.1405409121
 40
0.1701600959
 40
0.2004632482
 40
0.2314741642
 40
0.2631898944
 40
0.2955820814
 40
0.3285991848
 40
0.3621691954
 40
0.3962027193
 40
0.4305962923
 40
0.4652358341
 40
0.5000001358
 40
0.5347644353
 40
0.5694039703
 40
0.6037975329
 40
0.6378310417
 40
0.6714010343
 40
0.7044181166
 40
0.7368102796
 40
0.768525985
 40
0.7995368748
 40
0.8298400012
 40
0.8594591602
 40
0.8740324835
 40
0.8884562202
 40
0.9027408213
 40
0.9168982497
 40
0.9309418675
 40
0.9448862883
 40
0.9587472681
 40
0.9725414069
 40
0.9862861601
 40
1.0
 40
1.0
 40
1.0
 40
1.0
 10
20.6960347974
 20
10.6644571688
 30
0.0
 10
20.6957655297
 20
10.6706048118
 30
0.0
 10
20.6948422562
 20
10.6829005552
 30
0.0
 10
20.6923114689
 20
10.7012486042
 30
0.0
 10
20.6886413431
 20
10.7194710565
 30
0.0
 10
20.6838428121
 20
10.7375216943
 30
0.0
 10
20.6779297086
 20
10.7553563165
 30
0.0
 10
20.6709187838
 20
10.7729315934
 30
0.0
 10
20.6628295561
 20
10.7902057699
 30
0.0
 10
20.6536841552
 20
10.8071383647
 30
0.0
 10
20.6435063844
 20
10.8236909051
 30
0.0
 10
20.6285172855
 20
10.8453168659
 30
0.0
 10
20.6072799025
 20
10.8712170841
 30
0.0
 10
20.5782875667
 20
10.9000200147
 30
0.0
 10
20.5459221469
 20
10.9264815235
 30
0.0
 10
20.5104886869
 20
10.9503773568
 30
0.0
 10
20.47231256
 20
10.9715092348
 30
0.0
 10
20.4317409885
 20
10.9897007056
 30
0.0
 10
20.3891403537
 20
11.0047992183
 30
0.0
 10
20.3448944069
 20
11.0166776695
 30
0.0
 10
20.2994012176
 20
11.0252353105
 30
0.0
 10
20.2530701295
 20
11.0303992776
 30
0.0
 10
20.2063181494
 20
11.0321255712
 30
0.0
 10
20.159566173
 20
11.0303992522
 30
0.0
 10
20.1132350976
 20
11.025235252
 30
0.0
 10
20.0677419261
 20
11.0166775951
 30
0.0
 10
20.0234960064
 20
11.0047991176
 30
0.0
 10
19.9808954029
 20
10.9897005904
 30
0.0
 10
19.9403238658
 20
10.9715091114
 30
0.0
 10
19.9021477802
 20
10.950377224
 30
0.0
 10
19.8667143565
 20
10.9264813973
 30
0.0
 10
19.8343489776
 20
10.9000198928
 30
0.0
 10
19.8053566771
 20
10.871216976
 30
0.0
 10
19.7841193204
 20
10.8453167727
 30
0.0
 10
19.7691302393
 20
10.8236908253
 30
0.0
 10
19.7589524819
 20
10.807138294
 30
0.0
 10
19.7498070902
 20
10.7902057098
 30
0.0
 10
19.7417178705
 20
10.7729315432
 30
0.0
 10
19.7347069535
 20
10.7553562752
 30
0.0
 10
19.7287938549
 20
10.7375216614
 30
0.0
 10
19.7239953273
 20
10.7194710309
 30
0.0
 10
19.7203252045
 20
10.7012485843
 30
0.0
 10
19.7177944186
 20
10.6829005392
 30
0.0
 10
19.716871146
 20
10.6706047978
 30
0.0
 10
19.7166018786
 20
10.6644571553
 30
0.0
  0
SPLINE
  5
342
100
AcDbEntity
  8
0
100
AcDbSpline
 62
9
  6
CONTINUOUS
 70
0
 71
3
 72
49
 73
45
 74
0
 42
0.0000001
 43
0.0000001
 44
0.0000000001
 40
0.0
 40
0.0
 40
0.0
 40
0.0
 40
0.0135005643
 40
0.0270248802
 40
0.040593814
 40
0.0542301385
 40
0.0679545284
 40
0.0817865655
 40
0.0957444647
 40
0.1098446884
 40
0.1241018625
 40
0.1385286658
 40
0.1679208839
 40
0.1980927612
 40
0.2290708712
 40
0.2608499442
 40
0.2933954395
 40
0.3266467502
 40
0.3605206948
 40
0.394915287
 40
0.4297134815
 40
0.4647869791
 40
0.5
 40
0.5352130208
 40
0.5702865184
 40
0.605084713
 40
0.6394793052
 40
0.6733532498
 40
0.7066045605
 40
0.7391500557
 40
0.7709291288
 40
0.8019072388
 40
0.832079116
 40
0.8614713341
 40
0.8758981374
 40
0.8901553115
 40
0.9042555353
 40
0.9182134344
 40
0.9320454715
 40
0.9457698615
 40
0.9594061859
 40
0.9729751198
 40
0.9864994357
 40
1.0
 40
1.0
 40
1.0
 40
1.0
 10
19.7163183383
 20
4.8792758234
 30
0.0
 10
19.7163183383
 20
4.8731334955
 30
0.0
 10
19.7167128444
 20
4.8608344065
 30
0.0
 10
19.7184856199
 20
4.8424387864
 30
0.0
 10
19.7214356924
 20
4.8241316906
 30
0.0
 10
19.7255554077
 20
4.8059589082
 30
0.0
 10
19.7308347831
 20
4.7879639347
 30
0.0
 10
19.7372607038
 20
4.7701904791
 30
0.0
 10
19.7448174114
 20
4.7526814435
 30
0.0
 10
19.7534863543
 20
4.7354792373
 30
0.0
 10
19.7632466543
 20
4.7186247791
 30
0.0
 10
19.7777703345
 20
4.6965373811
 30
0.0
 10
19.7985955145
 20
4.6699965341
 30
0.0
 10
19.8273382244
 20
4.6403899084
 30
0.0
 10
19.8597151676
 20
4.6130952949
 30
0.0
 10
19.8954108244
 20
4.5883725469
 30
0.0
 10
19.934082006
 20
4.5664532291
 30
0.0
 10
19.9753575402
 20
4.547544043
 30
0.0
 10
20.0188420561
 20
4.5318229577
 30
0.0
 10
20.064119523
 20
4.5194385823
 30
0.0
 10
20.1107568446
 20
4.5105078829
 30
0.0
 10
20.1583080257
 20
4.5051153654
 30
0.0
 10
20.2063183383
 20
4.5033122294
 30
0.0
 10
20.2543286509
 20
4.5051153654
 30
0.0
 10
20.3018798319
 20
4.5105078829
 30
0.0
 10
20.3485171535
 20
4.5194385823
 30
0.0
 10
20.3937946204
 20
4.5318229577
 30
0.0
 10
20.4372791364
 20
4.547544043
 30
0.0
 10
20.4785546706
 20
4.5664532291
 30
0.0
 10
20.5172258521
 20
4.5883725469
 30
0.0
 10
20.5529215089
 20
4.6130952949
 30
0.0
 10
20.5852984521
 20
4.6403899083
 30
0.0
 10
20.614041162
 20
4.6699965341
 30
0.0
 10
20.634866342
 20
4.6965373811
 30
0.0
 10
20.6493900222
 20
4.718624779
 30
0.0
 10
20.6591503222
 20
4.7354792372
 30
0.0
 10
20.6678192651
 20
4.7526814435
 30
0.0
 10
20.6753759728
 20
4.770190479
 30
0.0
 10
20.6818018935
 20
4.7879639346
 30
0.0
 10
20.6870812688
 20
4.8059589081
 30
0.0
 10
20.6912009841
 20
4.8241316906
 30
0.0
 10
20.6941510566
 20
4.8424387863
 30
0.0
 10
20.6959238322
 20
4.8608344065
 30
0.0
 10
20.6963183383
 20
4.8731334955
 30
0.0
 10
20.6963183383
 20
4.8792758234
 30
0.0
  0
SPLINE
  5
343
100
AcDbEntity
  8
0
100
AcDbSpline
 62
9
  6
CONTINUOUS
 70
0
 71
3
 72
49
 73
45
 74
0
 42
0.0000001
 43
0.0000001
 44
0.0000000001
 40
0.0
 40
0.0
 40
0.0
 40
0.0
 40
0.0135005643
 40
0.0270248802
 40
0.040593814
 40
0.0542301385
 40
0.0679545284
 40
0.0817865655
 40
0.0957444647
 40
0.1098446884
 40
0.1241018625
 40
0.1385286658
 40
0.1679208839
 40
0.1980927612
 40
0.2290708712
 40
0.2608499442
 40
0.2933954395
 40
0.3266467502
 40
0.3605206948
 40
0.394915287
 40
0.4297134815
 40
0.4647869791
 40
0.5
 40
0.5352130208
 40
0.5702865184
 40
0.605084713
 40
0.6394793052
 40
0.6733532498
 40
0.7066045605
 40
0.7391500557
 40
0.7709291288
 40
0.8019072388
 40
0.832079116
 40
0.8614713341
 40
0.8758981374
 40
0.8901553115
 40
0.9042555353
 40
0.9182134344
 40
0.9320454715
 40
0.9457698615
 40
0.9594061859
 40
0.9729751198
 40
0.9864994357
 40
1.0
 40
1.0
 40
1.0
 40
1.0
 10
20.6963183383
 20
4.8792758234
 30
0.0
 10
20.6963183383
 20
4.8854181512
 30
0.0
 10
20.6959238322
 20
4.8977172402
 30
0.0
 10
20.6941510566
 20
4.9161128604
 30
0.0
 10
20.6912009841
 20
4.9344199561
 30
0.0
 10
20.6870812688
 20
4.9525927386
 30
0.0
 10
20.6818018935
 20
4.970587712
 30
0.0
 10
20.6753759728
 20
4.9883611676
 30
0.0
 10
20.6678192651
 20
5.0058702032
 30
0.0
 10
20.6591503222
 20
5.0230724095
 30
0.0
 10
20.6493900223
 20
5.0399268676
 30
0.0
 10
20.6348663421
 20
5.0620142656
 30
0.0
 10
20.6140411621
 20
5.0885551126
 30
0.0
 10
20.5852984521
 20
5.1181617383
 30
0.0
 10
20.552921509
 20
5.1454563518
 30
0.0
 10
20.5172258522
 20
5.1701790998
 30
0.0
 10
20.4785546706
 20
5.1920984176
 30
0.0
 10
20.4372791364
 20
5.2110076037
 30
0.0
 10
20.3937946204
 20
5.226728689
 30
0.0
 10
20.3485171535
 20
5.2391130644
 30
0.0
 10
20.301879832
 20
5.2480437638
 30
0.0
 10
20.2543286509
 20
5.2534362813
 30
0.0
 10
20.2063183383
 20
5.2552394174
 30
0.0
 10
20.1583080257
 20
5.2534362813
 30
0.0
 10
20.1107568447
 20
5.2480437638
 30
0.0
 10
20.0641195231
 20
5.2391130644
 30
0.0
 10
20.0188420562
 20
5.226728689
 30
0.0
 10
19.9753575402
 20
5.2110076038
 30
0.0
 10
19.934082006
 20
5.1920984177
 30
0.0
 10
19.8954108245
 20
5.1701790999
 30
0.0
 10
19.8597151677
 20
5.1454563518
 30
0.0
 10
19.8273382245
 20
5.1181617384
 30
0.0
 10
19.7985955145
 20
5.0885551126
 30
0.0
 10
19.7777703345
 20
5.0620142656
 30
0.0
 10
19.7632466543
 20
5.0399268677
 30
0.0
 10
19.7534863544
 20
5.0230724095
 30
0.0
 10
19.7448174114
 20
5.0058702032
 30
0.0
 10
19.7372607038
 20
4.9883611677
 30
0.0
 10
19.7308347831
 20
4.9705877121
 30
0.0
 10
19.7255554077
 20
4.9525927386
 30
0.0
 10
19.7214356924
 20
4.9344199562
 30
0.0
 10
19.71848562
 20
4.9161128604
 30
0.0
 10
19.7167128444
 20
4.8977172402
 30
0.0
 10
19.7163183383
 20
4.8854181512
 30
0.0
 10
19.7163183383
 20
4.8792758234
 30
0.0
  0
SPLINE
  5
344
100
AcDbEntity
  8
0
100
AcDbSpline
 62
7
  6
CONTINUOUS
 70
0
 71
3
 72
11
 73
7
 74
0
 42
0.0000001
 43
0.0000001
 44
0.0000000001
 40
0.0
 40
0.0
 40
0.0
 40
0.0
 40
0.2481551572
 40
0.4970578601
 40
0.7474398302
 40
1.0
 40
1.0
 40
1.0
 40
1.0
 10
20.6963183383
 20
10.5679461691
 30
0.0
 10
20.6963183383
 20
10.5761661222
 30
0.0
 10
20.6956109715
 20
10.5926394028
 30
0.0
 10
20.6924338525
 20
10.6172222241
 30
0.0
 10
20.6871554447
 20
10.6415899058
 30
0.0
 10
20.6822746738
 20
10.657541861
 30
0.0
 10
20.6795033653
 20
10.6654353748
 30
0.0
  0
SPLINE
  5
345
100
AcDbEntity
  8
0
100
AcDbSpline
 62
7
  6
CONTINUOUS
 70
0
 71
3
 72
29
 73
25
 74
0
 42
0.0000001
 43
0.0000001
 44
0.0000000001
 40
0.0
 40
0.0
 40
0.0
 40
0.0
 40
0.0704255912
 40
0.1405711
 40
0.1754606324
 40
0.2101795381
 40
0.2789678151
 40
0.3467147983
 40
0.4132165397
 40
0.4783066543
 40
0.5418639753
 40
0.6038193348
 40
0.6641623283
 40
0.7229459816
 40
0.7517992188
 40
0.78031319
 40
0.8085132456
 40
0.8364286465
 40
0.8640923723
 40
0.8915407587
 40
0.9188130646
 40
0.9459510208
 40
0.9729983312
 40
1.0
 40
1.0
 40
1.0
 40
1.0
 10
20.2063183383
 20
5.2316562672
 30
0.0
 10
20.1912782999
 20
5.2316562672
 30
0.0
 10
20.161246553
 20
5.2305286216
 30
0.0
 10
20.1239769216
 20
5.2263017435
 30
0.0
 10
20.0945562015
 20
5.2212433345
 30
0.0
 10
20.065636182
 20
5.2151156952
 30
0.0
 10
20.0303195177
 20
5.2054558569
 30
0.0
 10
19.9894982666
 20
5.1906976205
 30
0.0
 10
19.9507495949
 20
5.172946026
 30
0.0
 10
19.9144461022
 20
5.152368757
 30
0.0
 10
19.8809358585
 20
5.1291596985
 30
0.0
 10
19.8505412331
 20
5.103536142
 30
0.0
 10
19.8235582203
 20
5.0757422423
 30
0.0
 10
19.8040080861
 20
5.0508263184
 30
0.0
 10
19.7903735635
 20
5.0300912485
 30
0.0
 10
19.7812108576
 20
5.0142686884
 30
0.0
 10
19.7730726685
 20
4.9981196963
 30
0.0
 10
19.7659785729
 20
4.9816826734
 30
0.0
 10
19.7599461013
 20
4.9649973933
 30
0.0
 10
19.7549899417
 20
4.948104163
 30
0.0
 10
19.7511223728
 20
4.9310439257
 30
0.0
 10
19.7483530305
 20
4.9138577687
 30
0.0
 10
19.7466886414
 20
4.8965883505
 30
0.0
 10
19.7463183383
 20
4.8850422802
 30
0.0
 10
19.7463183383
 20
4.8792758234
 30
0.0
  0
SPLINE
  5
346
100
AcDbEntity
  8
0
100
AcDbSpline
 62
9
  6
CONTINUOUS
 70
0
 71
3
 72
39
 73
35
 74
0
 42
0.0000001
 43
0.0000001
 44
0.0000000001
 40
0.0
 40
0.0
 40
0.0
 40
0.0
 40
0.0271755763
 40
0.0548256091
 40
0.0830186664
 40
0.1118049758
 40
0.1412173939
 40
0.1712710229
 40
0.201964081
 40
0.233278947
 40
0.265183497
 40
0.2976325947
 40
0.3305696691
 40
0.3639283392
 40
0.3976340564
 40
0.4316057493
 40
0.465757464
 40
0.5
 40
0.534242536
 40
0.5683942507
 40
0.6023659436
 40
0.6360716608
 40
0.6694303309
 40
0.7023674053
 40
0.734816503
 40
0.766721053
 40
0.798035919
 40
0.8287289771
 40
0.8587826061
 40
0.8881950242
 40
0.9169813336
 40
0.9451743909
 40
0.9728244237
 40
1.0
 40
1.0
 40
1.0
 40
1.0
 10
19.7363183383
 20
10.4684003657
 30
0.0
 10
19.7400526632
 20
10.4781035283
 30
0.0
 10
19.7485713505
 20
10.4973146124
 30
0.0
 10
19.7641967232
 20
10.525018199
 30
0.0
 10
19.7826680188
 20
10.5516652332
 30
0.0
 10
19.8038622393
 20
10.5770817228
 30
0.0
 10
19.8276410749
 20
10.6011070761
 30
0.0
 10
19.8538500294
 20
10.6235885515
 30
0.0
 10
19.8823197119
 20
10.6443837444
 30
0.0
 10
19.9128667045
 20
10.6633608754
 30
0.0
 10
19.9452946501
 20
10.6803996869
 30
0.0
 10
19.9793954057
 20
10.6953921185
 30
0.0
 10
20.0149502838
 20
10.7082430101
 30
0.0
 10
20.0517313845
 20
10.7188707212
 30
0.0
 10
20.0895030062
 20
10.7272076756
 30
0.0
 10
20.1280231209
 20
10.7332008268
 30
0.0
 10
20.1670449085
 20
10.7368120449
 30
0.0
 10
20.2063183383
 20
10.7380183439
 30
0.0
 10
20.2455917681
 20
10.7368120449
 30
0.0
 10
20.2846135556
 20
10.7332008268
 30
0.0
 10
20.3231336704
 20
10.7272076756
 30
0.0
 10
20.360905292
 20
10.7188707212
 30
0.0
 10
20.3976863928
 20
10.7082430101
 30
0.0
 10
20.4332412709
 20
10.6953921185
 30
0.0
 10
20.4673420264
 20
10.6803996869
 30
0.0
 10
20.4997699721
 20
10.6633608754
 30
0.0
 10
20.5303169647
 20
10.6443837444
 30
0.0
 10
20.5587866472
 20
10.6235885515
 30
0.0
 10
20.5849956017
 20
10.6011070761
 30
0.0
 10
20.6087744373
 20
10.5770817228
 30
0.0
 10
20.6299686578
 20
10.5516652332
 30
0.0
 10
20.6484399533
 20
10.525018199
 30
0.0
 10
20.664065326
 20
10.4973146124
 30
0.0
 10
20.6725840134
 20
10.4781035283
 30
0.0
 10
20.6763183383
 20
10.4684003657
 30
0.0
  0
SPLINE
  5
347
100
AcDbEntity
  8
0
100
AcDbSpline
 62
9
  6
CONTINUOUS
 70
0
 71
3
 72
49
 73
45
 74
0
 42
0.0000001
 43
0.0000001
 44
0.0000000001
 40
0.0
 40
0.0
 40
0.0
 40
0.0
 40
0.0135006101
 40
0.0270250126
 40
0.0405939723
 40
0.0542303057
 40
0.0679546997
 40
0.0817867289
 40
0.0957446166
 40
0.1098448284
 40
0.1241019942
 40
0.1385287946
 40
0.1679210132
 40
0.1980928857
 40
0.2290709815
 40
0.2608500408
 40
0.2933955246
 40
0.3266468237
 40
0.3605207547
 40
0.3949153321
 40
0.4297135118
 40
0.4647869945
 40
0.5
 40
0.5352130055
 40
0.5702864882
 40
0.6050846679
 40
0.6394792453
 40
0.6733531763
 40
0.7066044754
 40
0.7391499592
 40
0.7709290185
 40
0.8019071143
 40
0.8320789868
 40
0.8614712054
 40
0.8758980058
 40
0.8901551716
 40
0.9042553834
 40
0.9182132711
 40
0.9320453003
 40
0.9457696943
 40
0.9594060277
 40
0.9729749874
 40
0.9864993899
 40
1.0
 40
1.0
 40
1.0
 40
1.0
 10
19.7163183383
 20
10.6515085583
 30
0.0
 10
19.7163183383
 20
10.6576509071
 30
0.0
 10
19.7167128562
 20
10.669950056
 30
0.0
 10
19.7184856349
 20
10.6883457481
 30
0.0
 10
19.7214357278
 20
10.706652897
 30
0.0
 10
19.72555547
 20
10.7248256914
 30
0.0
 10
19.7308348536
 20
10.7428206646
 30
0.0
 10
19.7372607826
 20
10.76059411
 30
0.0
 10
19.7448175016
 20
10.7781031251
 30
0.0
 10
19.7534864473
 20
10.7953053136
 30
0.0
 10
19.7632467488
 20
10.8121597588
 30
0.0
 10
19.7777704394
 20
10.834247144
 30
0.0
 10
19.7985956286
 20
10.8607879797
 30
0.0
 10
19.8273383482
 20
10.8903945842
 30
0.0
 10
19.8597152865
 20
10.9176891801
 30
0.0
 10
19.8954109385
 20
10.9424119036
 30
0.0
 10
19.9340821093
 20
10.9643312059
 30
0.0
 10
19.9753576325
 20
10.9832403761
 30
0.0
 10
20.0188421341
 20
10.9989614473
 30
0.0
 10
20.064119583
 20
11.0113458136
 30
0.0
 10
20.1107568857
 20
11.0202765041
 30
0.0
 10
20.1583080464
 20
11.0256690176
 30
0.0
 10
20.2063183383
 20
11.0274721519
 30
0.0
 10
20.2543286301
 20
11.0256690176
 30
0.0
 10
20.3018797909
 20
11.0202765041
 30
0.0
 10
20.3485170935
 20
11.0113458136
 30
0.0
 10
20.3937945425
 20
10.9989614473
 30
0.0
 10
20.437279044
 20
10.9832403761
 30
0.0
 10
20.4785545673
 20
10.9643312059
 30
0.0
 10
20.5172257381
 20
10.9424119036
 30
0.0
 10
20.55292139
 20
10.9176891801
 30
0.0
 10
20.5852983284
 20
10.8903945842
 30
0.0
 10
20.614041048
 20
10.8607879797
 30
0.0
 10
20.6348662371
 20
10.834247144
 30
0.0
 10
20.6493899278
 20
10.8121597588
 30
0.0
 10
20.6591502293
 20
10.7953053136
 30
0.0
 10
20.6678191749
 20
10.7781031251
 30
0.0
 10
20.675375894
 20
10.76059411
 30
0.0
 10
20.681801823
 20
10.7428206646
 30
0.0
 10
20.6870812066
 20
10.7248256914
 30
0.0
 10
20.6912009487
 20
10.706652897
 30
0.0
 10
20.6941510416
 20
10.6883457481
 30
0.0
 10
20.6959238204
 20
10.669950056
 30
0.0
 10
20.6963183383
 20
10.6576509071
 30
0.0
 10
20.6963183383
 20
10.6515085583
 30
0.0
  0
SPLINE
  5
348
100
AcDbEntity
  8
0
100
AcDbSpline
 62
9
  6
CONTINUOUS
 70
0
 71
3
 72
51
 73
47
 74
0
 42
0.0000001
 43
0.0000001
 44
0.0000000001
 40
0.0
 40
0.0
 40
0.0
 40
0.0
 40
0.0352127293
 40
0.0702854832
 40
0.0877302597
 40
0.1050897162
 40
0.1394838506
 40
0.1733573532
 40
0.2066082226
 40
0.2391532931
 40
0.2709319495
 40
0.3019096437
 40
0.3320811361
 40
0.3614729759
 40
0.3758995949
 40
0.3901565769
 40
0.4042566063
 40
0.4182143154
 40
0.4320461807
 40
0.4457703705
 40
0.4594065225
 40
0.4729755079
 40
0.4864991681
 40
0.5
 40
0.5135008318
 40
0.5270244921
 40
0.5405934775
 40
0.5542296295
 40
0.5679538193
 40
0.5817856846
 40
0.5957433937
 40
0.6098434231
 40
0.6241004051
 40
0.6385270241
 40
0.6679188638
 40
0.6980903563
 40
0.7290680505
 40
0.7608467069
 40
0.7933917774
 40
0.8266426468
 40
0.8605161494
 40
0.8949102838
 40
0.9122697403
 40
0.9297145168
 40
0.9647872707
 40
1.0
 40
1.0
 40
1.0
 40
1.0
 10
20.2063183383
 20
5.2175679467
 30
0.0
 10
20.1916052849
 20
5.2175679467
 30
0.0
 10
20.1622264302
 20
5.2164648173
 30
0.0
 10
20.1257670307
 20
5.212329838
 30
0.0
 10
20.0969858856
 20
5.2073813954
 30
0.0
 10
20.0686945573
 20
5.201386969
 30
0.0
 10
20.0341456413
 20
5.1919371297
 30
0.0
 10
19.9942118043
 20
5.17749973
 30
0.0
 10
19.956305485
 20
5.1601340384
 30
0.0
 10
19.9207911928
 20
5.1400041051
 30
0.0
 10
19.8880094225
 20
5.1172995887
 30
0.0
 10
19.8582755456
 20
5.0922330671
 30
0.0
 10
19.83187911
 20
5.0650433788
 30
0.0
 10
19.8127539753
 20
5.0406691031
 30
0.0
 10
19.7994158516
 20
5.0203847932
 30
0.0
 10
19.790452334
 20
5.0049062032
 30
0.0
 10
19.7824910608
 20
4.9891082735
 30
0.0
 10
19.7755511809
 20
4.9730285738
 30
0.0
 10
19.7696498483
 20
4.9567060113
 30
0.0
 10
19.7648014313
 20
4.9401800371
 30
0.0
 10
19.7610179385
 20
4.9234906324
 30
0.0
 10
19.7583087993
 20
4.9066782355
 30
0.0
 10
19.7566805907
 20
4.8897836679
 30
0.0
 10
19.7561373651
 20
4.8728479473
 30
0.0
 10
19.7566805907
 20
4.8559122267
 30
0.0
 10
19.7583087993
 20
4.839017659
 30
0.0
 10
19.7610179385
 20
4.8222052621
 30
0.0
 10
19.7648014313
 20
4.8055158574
 30
0.0
 10
19.7696498483
 20
4.7889898832
 30
0.0
 10
19.7755511809
 20
4.7726673207
 30
0.0
 10
19.7824910607
 20
4.7565876211
 30
0.0
 10
19.790452334
 20
4.7407896913
 30
0.0
 10
19.7994158516
 20
4.7253111013
 30
0.0
 10
19.8127539753
 20
4.7050267914
 30
0.0
 10
19.83187911
 20
4.6806525158
 30
0.0
 10
19.8582755456
 20
4.6534628274
 30
0.0
 10
19.8880094225
 20
4.6283963058
 30
0.0
 10
19.9207911928
 20
4.6056917894
 30
0.0
 10
19.956305485
 20
4.5855618561
 30
0.0
 10
19.9942118042
 20
4.5681961646
 30
0.0
 10
20.0341456413
 20
4.5537587649
 30
0.0
 10
20.0686945573
 20
4.5443089255
 30
0.0
 10
20.0969858856
 20
4.5383144992
 30
0.0
 10
20.1257670307
 20
4.5333660565
 30
0.0
 10
20.1622264302
 20
4.5292310772
 30
0.0
 10
20.1916052849
 20
4.5281279479
 30
0.0
 10
20.2063183383
 20
4.5281279479
 30
0.0
  0
SPLINE
  5
349
100
AcDbEntity
  8
0
100
AcDbSpline
 62
9
  6
CONTINUOUS
 70
0
 71
3
 72
51
 73
47
 74
0
 42
0.0000001
 43
0.0000001
 44
0.0000000001
 40
0.0
 40
0.0
 40
0.0
 40
0.0
 40
0.0352127293
 40
0.0702854832
 40
0.0877302597
 40
0.1050897162
 40
0.1394838506
 40
0.1733573532
 40
0.2066082226
 40
0.2391532931
 40
0.2709319495
 40
0.3019096437
 40
0.3320811361
 40
0.3614729759
 40
0.3758995949
 40
0.3901565769
 40
0.4042566063
 40
0.4182143154
 40
0.4320461807
 40
0.4457703705
 40
0.4594065225
 40
0.4729755079
 40
0.4864991681
 40
0.5
 40
0.5135008318
 40
0.5270244921
 40
0.5405934775
 40
0.5542296295
 40
0.5679538193
 40
0.5817856846
 40
0.5957433937
 40
0.6098434231
 40
0.6241004051
 40
0.6385270241
 40
0.6679188638
 40
0.6980903563
 40
0.7290680505
 40
0.7608467069
 40
0.7933917774
 40
0.8266426468
 40
0.8605161494
 40
0.8949102838
 40
0.9122697403
 40
0.9297145168
 40
0.9647872707
 40
1.0
 40
1.0
 40
1.0
 40
1.0
 10
20.2063183383
 20
4.5281279479
 30
0.0
 10
20.2210313916
 20
4.5281279479
 30
0.0
 10
20.2504102463
 20
4.5292310772
 30
0.0
 10
20.2868696459
 20
4.5333660565
 30
0.0
 10
20.3156507909
 20
4.5383144992
 30
0.0
 10
20.3439421192
 20
4.5443089255
 30
0.0
 10
20.3784910352
 20
4.5537587649
 30
0.0
 10
20.4184248723
 20
4.5681961646
 30
0.0
 10
20.4563311915
 20
4.5855618561
 30
0.0
 10
20.4918454837
 20
4.6056917894
 30
0.0
 10
20.524627254
 20
4.6283963058
 30
0.0
 10
20.554361131
 20
4.6534628274
 30
0.0
 10
20.5807575665
 20
4.6806525158
 30
0.0
 10
20.5998827013
 20
4.7050267914
 30
0.0
 10
20.613220825
 20
4.7253111013
 30
0.0
 10
20.6221843426
 20
4.7407896913
 30
0.0
 10
20.6301456158
 20
4.756587621
 30
0.0
 10
20.6370854956
 20
4.7726673207
 30
0.0
 10
20.6429868283
 20
4.7889898832
 30
0.0
 10
20.6478352453
 20
4.8055158574
 30
0.0
 10
20.6516187381
 20
4.8222052621
 30
0.0
 10
20.6543278773
 20
4.839017659
 30
0.0
 10
20.6559560858
 20
4.8559122267
 30
0.0
 10
20.6564993115
 20
4.8728479473
 30
0.0
 10
20.6559560858
 20
4.8897836678
 30
0.0
 10
20.6543278773
 20
4.9066782355
 30
0.0
 10
20.6516187381
 20
4.9234906324
 30
0.0
 10
20.6478352453
 20
4.9401800371
 30
0.0
 10
20.6429868283
 20
4.9567060113
 30
0.0
 10
20.6370854956
 20
4.9730285738
 30
0.0
 10
20.6301456158
 20
4.9891082735
 30
0.0
 10
20.6221843426
 20
5.0049062032
 30
0.0
 10
20.613220825
 20
5.0203847932
 30
0.0
 10
20.5998827013
 20
5.0406691031
 30
0.0
 10
20.5807575665
 20
5.0650433788
 30
0.0
 10
20.554361131
 20
5.0922330671
 30
0.0
 10
20.524627254
 20
5.1172995887
 30
0.0
 10
20.4918454837
 20
5.1400041051
 30
0.0
 10
20.4563311915
 20
5.1601340384
 30
0.0
 10
20.4184248723
 20
5.1774997299
 30
0.0
 10
20.3784910352
 20
5.1919371297
 30
0.0
 10
20.3439421193
 20
5.201386969
 30
0.0
 10
20.3156507909
 20
5.2073813954
 30
0.0
 10
20.2868696459
 20
5.212329838
 30
0.0
 10
20.2504102463
 20
5.2164648173
 30
0.0
 10
20.2210313916
 20
5.2175679467
 30
0.0
 10
20.2063183383
 20
5.2175679467
 30
0.0
  0
SPLINE
  5
34A
100
AcDbEntity
  8
0
100
AcDbSpline
 62
7
  6
CONTINUOUS
 70
0
 71
3
 72
29
 73
25
 74
0
 42
0.0000001
 43
0.0000001
 44
0.0000000001
 40
0.0
 40
0.0
 40
0.0
 40
0.0
 40
0.0270016688
 40
0.0540489792
 40
0.0811869354
 40
0.1084592413
 40
0.1359076277
 40
0.1635713535
 40
0.1914867544
 40
0.21968681
 40
0.2482007812
 40
0.2770540184
 40
0.3358376717
 40
0.3961806652
 40
0.4581360247
 40
0.5216933457
 40
0.5867834603
 40
0.6532852017
 40
0.7210321849
 40
0.7898204619
 40
0.8245393676
 40
0.8594289
 40
0.9295744088
 40
1.0
 40
1.0
 40
1.0
 40
1.0
 10
20.6663183383
 20
4.8792758234
 30
0.0
 10
20.6663183383
 20
4.8850422802
 30
0.0
 10
20.6659480352
 20
4.8965883505
 30
0.0
 10
20.6642836461
 20
4.9138577687
 30
0.0
 10
20.6615143037
 20
4.9310439257
 30
0.0
 10
20.6576467349
 20
4.948104163
 30
0.0
 10
20.6526905752
 20
4.9649973933
 30
0.0
 10
20.6466581037
 20
4.9816826734
 30
0.0
 10
20.639564008
 20
4.9981196963
 30
0.0
 10
20.6314258189
 20
5.0142686884
 30
0.0
 10
20.6222631131
 20
5.0300912485
 30
0.0
 10
20.6086285905
 20
5.0508263184
 30
0.0
 10
20.5890784563
 20
5.0757422423
 30
0.0
 10
20.5620954435
 20
5.103536142
 30
0.0
 10
20.531700818
 20
5.1291596985
 30
0.0
 10
20.4981905743
 20
5.152368757
 30
0.0
 10
20.4618870817
 20
5.172946026
 30
0.0
 10
20.4231384099
 20
5.1906976205
 30
0.0
 10
20.3823171589
 20
5.2054558569
 30
0.0
 10
20.3470004946
 20
5.2151156952
 30
0.0
 10
20.3180804751
 20
5.2212433345
 30
0.0
 10
20.288659755
 20
5.2263017435
 30
0.0
 10
20.2513901235
 20
5.2305286216
 30
0.0
 10
20.2213583767
 20
5.2316562672
 30
0.0
 10
20.2063183383
 20
5.2316562672
 30
0.0
  0
SPLINE
  5
34B
100
AcDbEntity
  8
0
100
AcDbSpline
 62
7
  6
CONTINUOUS
 70
0
 71
3
 72
51
 73
47
 74
0
 42
0.0000001
 43
0.0000001
 44
0.0000000001
 40
0.0
 40
0.0
 40
0.0
 40
0.0
 40
0.013443528
 40
0.0269598783
 40
0.0405655698
 40
0.0542763108
 40
0.0681065756
 40
0.082069508
 40
0.0961768143
 40
0.1104387084
 40
0.1248638693
 40
0.1394593562
 40
0.15423065
 40
0.1691816604
 40
0.1996229024
 40
0.2307919583
 40
0.2626667474
 40
0.2952045977
 40
0.3283446634
 40
0.3620104626
 40
0.3961124365
 40
0.4305506385
 40
0.4652173085
 40
0.4999995172
 40
0.534781733
 40
0.5694484239
 40
0.6038866601
 40
0.6379886809
 40
0.6716545385
 40
0.7047946728
 40
0.7373325999
 40
0.7692074721
 40
0.8003766152
 40
0.8308179457
 40
0.8457689998
 40
0.8605403367
 40
0.8751358656
 40
0.8895610668
 40
0.9038229994
 40
0.9179303419
 40
0.9318933078
 40
0.9457236033
 40
0.9594343715
 40
0.9730400865
 40
0.9865564565
 40
1.0
 40
1.0
 40
1.0
 40
1.0
 10
20.6895002878
 20
10.7139591485
 30
0.0
 10
20.6885287182
 20
10.7195137754
 30
0.0
 10
20.6862561952
 20
10.7305991223
 30
0.0
 10
20.6818861765
 20
10.7470528942
 30
0.0
 10
20.6765554486
 20
10.7633393904
 30
0.0
 10
20.6702751618
 20
10.7794248509
 30
0.0
 10
20.6630582798
 20
10.7952770355
 30
0.0
 10
20.6549194185
 20
10.8108638037
 30
0.0
 10
20.6458752639
 20
10.82615375
 30
0.0
 10
20.6359443257
 20
10.841116108
 30
0.0
 10
20.6251466404
 20
10.8557206772
 30
0.0
 10
20.6135043343
 20
10.8699380765
 30
0.0
 10
20.601040702
 20
10.8837400187
 30
0.0
 10
20.5832572489
 20
10.9016562746
 30
0.0
 10
20.5590702887
 20
10.9228546073
 30
0.0
 10
20.5273913036
 20
10.9460437676
 30
0.0
 10
20.4931339756
 20
10.9669591631
 30
0.0
 10
20.4565757825
 20
10.9854336004
 30
0.0
 10
20.4180099887
 20
11.0013212259
 30
0.0
 10
20.3777462742
 20
11.0144958912
 30
0.0
 10
20.3361076514
 20
11.0248531353
 30
0.0
 10
20.2934281037
 20
11.0323106531
 30
0.0
 10
20.2500499114
 20
11.0368090698
 30
0.0
 10
20.2063209859
 20
11.038312638
 30
0.0
 10
20.1625920392
 20
11.0368094331
 30
0.0
 10
20.1192137834
 20
11.032311377
 30
0.0
 10
20.0765341304
 20
11.0248542139
 30
0.0
 10
20.0348953613
 20
11.0144973159
 30
0.0
 10
19.9946314608
 20
11.0013229855
 30
0.0
 10
19.9560654426
 20
10.9854356808
 30
0.0
 10
19.9195069886
 20
10.9669615479
 30
0.0
 10
19.8852493653
 20
10.946046438
 30
0.0
 10
19.8535700527
 20
10.922857542
 30
0.0
 10
19.8293827932
 20
10.9016594118
 30
0.0
 10
19.8115990863
 20
10.8837433043
 30
0.0
 10
19.7991352584
 20
10.8699414661
 30
0.0
 10
19.7874927508
 20
10.8557241639
 30
0.0
 10
19.7766948585
 20
10.8411196848
 30
0.0
 10
19.7667637082
 20
10.8261574096
 30
0.0
 10
19.7577193367
 20
10.8108675389
 30
0.0
 10
19.7495802544
 20
10.7952808387
 30
0.0
 10
19.7423631476
 20
10.7794287145
 30
0.0
 10
19.7360826326
 20
10.7633433065
 30
0.0
 10
19.7307516737
 20
10.7470568549
 30
0.0
 10
19.7263814215
 20
10.7306031195
 30
0.0
 10
19.7241087408
 20
10.7195177899
 30
0.0
 10
19.7231370922
 20
10.7139631702
 30
0.0
  0
SPLINE
  5
34C
100
AcDbEntity
  8
0
100
AcDbSpline
 62
9
  6
CONTINUOUS
 70
0
 71
3
 72
49
 73
45
 74
0
 42
0.0000001
 43
0.0000001
 44
0.0000000001
 40
0.0
 40
0.0
 40
0.0
 40
0.0
 40
0.0135006101
 40
0.0270250126
 40
0.0405939722
 40
0.0542303056
 40
0.0679546997
 40
0.0817867288
 40
0.0957446165
 40
0.1098448283
 40
0.124101994
 40
0.1385287944
 40
0.167921013
 40
0.1980928855
 40
0.2290709814
 40
0.2608500406
 40
0.2933955245
 40
0.3266468236
 40
0.3605207546
 40
0.394915332
 40
0.4297135118
 40
0.4647869945
 40
0.5
 40
0.5352130055
 40
0.5702864882
 40
0.605084668
 40
0.6394792454
 40
0.6733531764
 40
0.7066044755
 40
0.7391499594
 40
0.7709290186
 40
0.8019071145
 40
0.832078987
 40
0.8614712056
 40
0.875898006
 40
0.8901551717
 40
0.9042553835
 40
0.9182132712
 40
0.9320453003
 40
0.9457696944
 40
0.9594060278
 40
0.9729749874
 40
0.9864993899
 40
1.0
 40
1.0
 40
1.0
 40
1.0
 10
20.6938183383
 20
10.7962607484
 30
0.0
 10
20.6938183383
 20
10.8023717586
 30
0.0
 10
20.6934258332
 20
10.8146081568
 30
0.0
 10
20.6916620993
 20
10.8329099933
 30
0.0
 10
20.6887270579
 20
10.8511237384
 30
0.0
 10
20.6846283348
 20
10.8692038144
 30
0.0
 10
20.6793758869
 20
10.8871069765
 30
0.0
 10
20.6729827432
 20
10.9047897411
 30
0.0
 10
20.6654645789
 20
10.9222094244
 30
0.0
 10
20.6568398626
 20
10.9393238466
 30
0.0
 10
20.6471293585
 20
10.9560922997
 30
0.0
 10
20.6326797684
 20
10.9780669942
 30
0.0
 10
20.6119608302
 20
11.0044724174
 30
0.0
 10
20.5833647572
 20
11.0339279679
 30
0.0
 10
20.5511530073
 20
11.0610833057
 30
0.0
 10
20.515639476
 20
11.0856798929
 30
0.0
 10
20.477165607
 20
11.107487362
 30
0.0
 10
20.4361006732
 20
11.1263000569
 30
0.0
 10
20.3928380313
 20
11.1419409185
 30
0.0
 10
20.3477915897
 20
11.1542620993
 30
0.0
 10
20.3013922325
 20
11.163147225
 30
0.0
 10
20.2540836797
 20
11.1685122257
 30
0.0
 10
20.2063183383
 20
11.1703061603
 30
0.0
 10
20.1585529969
 20
11.1685122257
 30
0.0
 10
20.111244444
 20
11.163147225
 30
0.0
 10
20.0648450868
 20
11.1542620993
 30
0.0
 10
20.0197986452
 20
11.1419409185
 30
0.0
 10
19.9765360034
 20
11.1263000569
 30
0.0
 10
19.9354710695
 20
11.107487362
 30
0.0
 10
19.8969972006
 20
11.0856798929
 30
0.0
 10
19.8614836693
 20
11.0610833057
 30
0.0
 10
19.8292719194
 20
11.0339279679
 30
0.0
 10
19.8006758463
 20
11.0044724174
 30
0.0
 10
19.7799569082
 20
10.9780669942
 30
0.0
 10
19.765507318
 20
10.9560922997
 30
0.0
 10
19.755796814
 20
10.9393238466
 30
0.0
 10
19.7471720977
 20
10.9222094244
 30
0.0
 10
19.7396539334
 20
10.9047897411
 30
0.0
 10
19.7332607897
 20
10.8871069765
 30
0.0
 10
19.7280083417
 20
10.8692038144
 30
0.0
 10
19.7239096187
 20
10.8511237384
 30
0.0
 10
19.7209745773
 20
10.8329099933
 30
0.0
 10
19.7192108433
 20
10.8146081568
 30
0.0
 10
19.7188183383
 20
10.8023717586
 30
0.0
 10
19.7188183383
 20
10.7962607484
 30
0.0
  0
SPLINE
  5
34D
100
AcDbEntity
  8
0
100
AcDbSpline
 62
7
  6
CONTINUOUS
 70
0
 71
3
 72
11
 73
7
 74
0
 42
0.0000001
 43
0.0000001
 44
0.0000000001
 40
0.0
 40
0.0
 40
0.0
 40
0.0
 40
0.2525601698
 40
0.5029421399
 40
0.7518448428
 40
1.0
 40
1.0
 40
1.0
 40
1.0
 10
19.7331333113
 20
10.6654353748
 30
0.0
 10
19.7303620028
 20
10.657541861
 30
0.0
 10
19.7254812319
 20
10.6415899058
 30
0.0
 10
19.720202824
 20
10.6172222241
 30
0.0
 10
19.7170257051
 20
10.5926394028
 30
0.0
 10
19.7163183383
 20
10.5761661222
 30
0.0
 10
19.7163183383
 20
10.5679461691
 30
0.0
  0
SPLINE
  5
34E
100
AcDbEntity
  8
0
100
AcDbSpline
 62
9
  6
CONTINUOUS
 70
0
 71
3
 72
49
 73
45
 74
0
 42
0.0000001
 43
0.0000001
 44
0.0000000001
 40
0.0
 40
0.0
 40
0.0
 40
0.0
 40
0.0135006101
 40
0.0270250126
 40
0.0405939722
 40
0.0542303056
 40
0.0679546997
 40
0.0817867288
 40
0.0957446165
 40
0.1098448283
 40
0.124101994
 40
0.1385287944
 40
0.167921013
 40
0.1980928855
 40
0.2290709814
 40
0.2608500406
 40
0.2933955245
 40
0.3266468236
 40
0.3605207546
 40
0.394915332
 40
0.4297135118
 40
0.4647869945
 40
0.5
 40
0.5352130055
 40
0.5702864882
 40
0.605084668
 40
0.6394792454
 40
0.6733531764
 40
0.7066044755
 40
0.7391499594
 40
0.7709290186
 40
0.8019071145
 40
0.832078987
 40
0.8614712056
 40
0.875898006
 40
0.8901551717
 40
0.9042553835
 40
0.9182132712
 40
0.9320453003
 40
0.9457696944
 40
0.9594060278
 40
0.9729749874
 40
0.9864993899
 40
1.0
 40
1.0
 40
1.0
 40
1.0
 10
20.7063183383
 20
4.8857036995
 30
0.0
 10
20.7063183383
 20
4.8919714022
 30
0.0
 10
20.705915769
 20
4.9045215542
 30
0.0
 10
20.7041068111
 20
4.9232926685
 30
0.0
 10
20.7010965122
 20
4.9419734327
 30
0.0
 10
20.6968926937
 20
4.9605171004
 30
0.0
 10
20.6915055676
 20
4.978879318
 30
0.0
 10
20.6849484972
 20
4.9970154868
 30
0.0
 10
20.6772375594
 20
5.0148818287
 30
0.0
 10
20.6683916965
 20
5.0324350822
 30
0.0
 10
20.6584322052
 20
5.0496334957
 30
0.0
 10
20.6436121128
 20
5.0721716438
 30
0.0
 10
20.6223619198
 20
5.0992541292
 30
0.0
 10
20.5930326141
 20
5.1294649502
 30
0.0
 10
20.5599949219
 20
5.1573165787
 30
0.0
 10
20.5235707872
 20
5.1825438476
 30
0.0
 10
20.4841104088
 20
5.2049104826
 30
0.0
 10
20.441992528
 20
5.2242055543
 30
0.0
 10
20.3976205876
 20
5.2402474636
 30
0.0
 10
20.351419109
 20
5.2528845722
 30
0.0
 10
20.3038300247
 20
5.2619975216
 30
0.0
 10
20.255308432
 20
5.2675000864
 30
0.0
 10
20.2063183383
 20
5.2693400194
 30
0.0
 10
20.1573282445
 20
5.2675000864
 30
0.0
 10
20.1088066519
 20
5.2619975216
 30
0.0
 10
20.0612175676
 20
5.2528845722
 30
0.0
 10
20.015016089
 20
5.2402474636
 30
0.0
 10
19.9706441486
 20
5.2242055543
 30
0.0
 10
19.9285262678
 20
5.2049104826
 30
0.0
 10
19.8890658894
 20
5.1825438476
 30
0.0
 10
19.8526417547
 20
5.1573165787
 30
0.0
 10
19.8196040625
 20
5.1294649502
 30
0.0
 10
19.7902747568
 20
5.0992541292
 30
0.0
 10
19.7690245638
 20
5.0721716438
 30
0.0
 10
19.7542044713
 20
5.0496334957
 30
0.0
 10
19.7442449801
 20
5.0324350822
 30
0.0
 10
19.7353991172
 20
5.0148818287
 30
0.0
 10
19.7276881794
 20
4.9970154868
 30
0.0
 10
19.7211311089
 20
4.978879318
 30
0.0
 10
19.7157439828
 20
4.9605171004
 30
0.0
 10
19.7115401643
 20
4.9419734327
 30
0.0
 10
19.7085298655
 20
4.9232926685
 30
0.0
 10
19.7067209076
 20
4.9045215542
 30
0.0
 10
19.7063183383
 20
4.8919714022
 30
0.0
 10
19.7063183383
 20
4.8857036995
 30
0.0
  0
SPLINE
  5
34F
100
AcDbEntity
  8
0
100
AcDbSpline
 62
9
  6
CONTINUOUS
 70
0
 71
3
 72
15
 73
11
 74
0
 42
0.0000001
 43
0.0000001
 44
0.0000000001
 40
0.0
 40
0.0
 40
0.0
 40
0.0
 40
0.1233218497
 40
0.2468203719
 40
0.3706388593
 40
0.4949447842
 40
0.6198927968
 40
0.7456275541
 40
0.8722872662
 40
1.0
 40
1.0
 40
1.0
 40
1.0
 10
19.7063183383
 20
10.3365426296
 30
0.0
 10
19.7063183383
 20
10.3421137234
 30
0.0
 10
19.7066363087
 20
10.353266491
 30
0.0
 10
19.7080652401
 20
10.3699577038
 30
0.0
 10
19.7104440557
 20
10.3865856209
 30
0.0
 10
19.7137679035
 20
10.4031172257
 30
0.0
 10
19.7180301285
 20
10.4195214329
 30
0.0
 10
19.7232228336
 20
10.4357668842
 30
0.0
 10
19.7293355498
 20
10.4518219836
 30
0.0
 10
19.733996055
 20
10.4623327883
 30
0.0
 10
19.7364720277
 20
10.4675439444
 30
0.0
  0
LINE
  5
350
100
AcDbEntity
  8
0
100
AcDbLine
 62
9
  6
CONTINUOUS
 10
19.7364720277
 20
10.4675439444
 11
19.7367646627
 21
10.4681582177
  0
SPLINE
  5
351
100
AcDbEntity
  8
0
100
AcDbSpline
 62
9
  6
CONTINUOUS
 70
0
 71
3
 72
39
 73
35
 74
0
 42
0.0000001
 43
0.0000001
 44
0.0000000001
 40
0.0
 40
0.0
 40
0.0
 40
0.0
 40
0.0273468917
 40
0.0551913644
 40
0.0835831428
 40
0.1125568096
 40
0.142131811
 40
0.1723128954
 40
0.2030908773
 40
0.2344436291
 40
0.2663372268
 40
0.2987271905
 40
0.3315597794
 40
0.3647733138
 40
0.3982995067
 40
0.4320647964
 40
0.4659916733
 40
0.5
 40
0.5340083267
 40
0.5679352036
 40
0.6017004933
 40
0.6352266862
 40
0.6684402206
 40
0.7012728095
 40
0.7336627732
 40
0.7655563709
 40
0.7969091227
 40
0.8276871046
 40
0.857868189
 40
0.8874431904
 40
0.9164168572
 40
0.9448086356
 40
0.9726531083
 40
1.0
 40
1.0
 40
1.0
 40
1.0
 10
19.7367646627
 20
10.4681582177
 30
0.0
 10
19.7411668881
 20
10.4773745343
 30
0.0
 10
19.7509192511
 20
10.4955727759
 30
0.0
 10
19.7680692055
 20
10.5217019734
 30
0.0
 10
19.7877643964
 20
10.5467485739
 30
0.0
 10
19.8098870015
 20
10.5705652861
 30
0.0
 10
19.8343075625
 20
10.5930162901
 30
0.0
 10
19.8608832819
 20
10.6139726593
 30
0.0
 10
19.8894594457
 20
10.6333144076
 30
0.0
 10
19.9198700477
 20
10.6509307061
 30
0.0
 10
19.9519387165
 20
10.6667205902
 30
0.0
 10
19.985479649
 20
10.6805934986
 30
0.0
 10
20.0202986304
 20
10.6924698078
 30
0.0
 10
20.0561941124
 20
10.702281307
 30
0.0
 10
20.0929583504
 20
10.7099716131
 30
0.0
 10
20.1303785888
 20
10.7154965082
 30
0.0
 10
20.1682382811
 20
10.7188242124
 30
0.0
 10
20.2063183383
 20
10.7199355789
 30
0.0
 10
20.2443983955
 20
10.7188242124
 30
0.0
 10
20.2822580878
 20
10.7154965082
 30
0.0
 10
20.3196783262
 20
10.7099716131
 30
0.0
 10
20.3564425641
 20
10.702281307
 30
0.0
 10
20.3923380462
 20
10.6924698078
 30
0.0
 10
20.4271570276
 20
10.6805934987
 30
0.0
 10
20.46069796
 20
10.6667205902
 30
0.0
 10
20.4927666289
 20
10.6509307061
 30
0.0
 10
20.5231772309
 20
10.6333144076
 30
0.0
 10
20.5517533947
 20
10.6139726593
 30
0.0
 10
20.5783291141
 20
10.5930162901
 30
0.0
 10
20.6027496751
 20
10.5705652861
 30
0.0
 10
20.6248722801
 20
10.5467485739
 30
0.0
 10
20.6445674711
 20
10.5217019734
 30
0.0
 10
20.6617174255
 20
10.4955727759
 30
0.0
 10
20.6714697884
 20
10.4773745343
 30
0.0
 10
20.6758720139
 20
10.4681582177
 30
0.0
  0
LINE
  5
352
100
AcDbEntity
  8
0
100
AcDbLine
 62
9
  6
CONTINUOUS
 10
20.6758720139
 20
10.4681582177
 11
20.6761646486
 21
10.4675439449
  0
SPLINE
  5
353
100
AcDbEntity
  8
0
100
AcDbSpline
 62
9
  6
CONTINUOUS
 70
0
 71
3
 72
15
 73
11
 74
0
 42
0.0000001
 43
0.0000001
 44
0.0000000001
 40
0.0
 40
0.0
 40
0.0
 40
0.0
 40
0.1277127338
 40
0.2543724459
 40
0.3801072032
 40
0.5050552159
 40
0.6293611408
 40
0.7531796281
 40
0.8766781503
 40
1.0
 40
1.0
 40
1.0
 40
1.0
 10
20.6761646486
 20
10.4675439449
 30
0.0
 10
20.6786406213
 20
10.4623327888
 30
0.0
 10
20.6833011265
 20
10.4518219841
 30
0.0
 10
20.6894138429
 20
10.4357668845
 30
0.0
 10
20.6946065479
 20
10.4195214332
 30
0.0
 10
20.6988687731
 20
10.403117226
 30
0.0
 10
20.7021926208
 20
10.3865856211
 30
0.0
 10
20.7045714365
 20
10.3699577039
 30
0.0
 10
20.7060003678
 20
10.3532664911
 30
0.0
 10
20.7063183383
 20
10.3421137234
 30
0.0
 10
20.7063183383
 20
10.3365426296
 30
0.0
  0
ENDSEC
  0
SECTION
  2
OBJECTS
  0
DICTIONARY
  5
C
100
AcDbDictionary
280
0
281
1
  3
ACAD_GROUP
350
D
  3
ACAD_MLINESTYLE
350
17
  3
ACAD_LAYOUT
350
1A
  3
ACAD_PLOTSETTINGS
350
19
  3
ACAD_PLOTSTYLENAME
350
E
  0
DICTIONARY
  5
D
102
{ACAD_REACTORS
330
C
102
}
100
AcDbDictionary
280
0
281
1
  0
ACDBDICTIONARYWDFLT
  5
E
102
{ACAD_REACTORS
330
C
102
}
100
AcDbDictionary
281
1
  3
Normal
350
F
100
AcDbDictionaryWithDefault
340
F
  0
DICTIONARY
  5
17
102
{ACAD_REACTORS
330
C
102
}
100
AcDbDictionary
280
0
281
1
  3
Standard
350
18
  0
DICTIONARY
  5
19
102
{ACAD_REACTORS
330
C
102
}
100
AcDbDictionary
281
1
  0
DICTIONARY
  5
1A
102
{ACAD_REACTORS
330
C
102
}
100
AcDbDictionary
281
1
  3
Model
350
354
  3
Layout1
350
355
  0
ACDBPLACEHOLDER
  5
F
102
{ACAD_REACTORS
330
E
102
}
  0
MLINESTYLE
  5
18
102
{ACAD_REACTORS
330
17
102
}
100
AcDbMlineStyle
  2
STANDARD
 70
0
  3

 62
256
 51
90.0
 52
90.0
 71
2
 49
0.5
 62
256
  6
BYLAYER
 49
-0.5
 62
256
  6
BYLAYER
  0
LAYOUT
  5
354
102
{ACAD_REACTORS
330
1A
102
}
100
AcDbPlotSettings
  1

  2
none_device
  4
ANSI_C_(22.00_x_17.00_Inches)
  6

 40
0.0
 41
0.0
 42
0.0
 43
0.0
 44
558.8
 45
431.8
 46
0.0
 47
0.0
 48
0.0
 49
0.0
140
0.0
141
0.0
142
1.0
143
1.0
 70
1024
 72
0
 73
0
 74
0
  7

 75
0
147
1.0
148
0.0
149
0.0
100
AcDbLayout
  1
Model
 70
0
 71
0
 10
0.0
 20
0.0
 11
22.0
 21
17.0
 12
0.0
 22
0.0
 32
0.0
 14
0.0
 24
0.0
 34
0.0
 15
0.0
 25
0.0
 35
0.0
146
0.0
 13
0.0
 23
0.0
 33
0.0
 16
1.0
 26
0.0
 36
0.0
 17
0.0
 27
1.0
 37
0.0
 76
0
330
205
345
0
346
0
  0
LAYOUT
  5
355
102
{ACAD_REACTORS
330
1A
102
}
100
AcDbPlotSettings
  1

  2
none_device
  4
ANSI_C_(22.00_x_17.00_Inches)
  6

 40
0.0
 41
0.0
 42
0.0
 43
0.0
 44
558.8
 45
431.8
 46
0.0
 47
0.0
 48
0.0
 49
0.0
140
0.0
141
0.0
142
1.0
143
1.0
 70
0
 72
0
 73
0
 74
0
  7

 75
0
147
1.0
148
0.0
149
0.0
100
AcDbLayout
  1
Layout1
 70
0
 71
1
 10
0.0
 20
0.0
 11
22.0
 21
17.0
 12
0.0
 22
0.0
 32
0.0
 14
0.0
 24
0.0
 34
0.0
 15
0.0
 25
0.0
 35
0.0
146
0.0
 13
0.0
 23
0.0
 33
0.0
 16
1.0
 26
0.0
 36
0.0
 17
0.0
 27
1.0
 37
0.0
 76
0
330
206
345
0
346
0
  0
ENDSEC
  0
EOF
