999
DXF file: E:\BT Custom\CADOUTPUT\_TOP.dxf
999
Pro/ENGINEER 2018400 by Parametric Technology Corporation
  0
SECTION
  2
HEADER
  9
$ACADVER
  1
AC1018
  9
$DWGCODEPAGE
  3
ANSI_1252
  9
$EXTMAX
 10
22.0
 20
17.0
 30
0.0
  9
$EXTMIN
 10
0.0
 20
0.0
 30
0.0
  9
$LIMMIN
 10
0.0
 20
0.0
  9
$LIMMAX
 10
22.0
 20
17.0
  9
$VIEWCTR
 10
11.0
 20
8.5
  9
$VIEWSIZE
 40
17.0
  9
$CLAYER
  8
0
  9
$LTSCALE
 40
1.21
  9
$CELTYPE
  6
BYLAYER
  9
$DIMSCALE
 40
1.0
  9
$DIMASZ
 40
0.1
  9
$DIMEXO
 40
0.0625
  9
$DIMDLI
 40
0.836
  9
$DIMEXE
 40
0.125
  9
$DIMCEN
 40
0.198
  9
$DIMLFAC
 40
1.0
  9
$DIMBLK
  1
_FILLED
  9
$DIMALT
 70
1
  9
$DIMALTD
 70
2
  9
$DIMALTTD
 70
2
  9
$DIMALTF
 40
25.4
  9
$DIMTXT
 40
0.08
  9
$DIMTOL
 70
1
  9
$DIMLIM
 70
0
  9
$DIMTFAC
 40
1.0
  9
$DIMTP
 40
0.001
  9
$DIMTM
 40
0.001
  9
$DIMGAP
 40
0.09
  9
$DIMDSEP
 70
46
  9
$AUNITS
 70
0
  9
$PDMODE
 70
3
  9
$PDSIZE
 40
0.06
  9
$HANDSEED
  5
284
  9
$TILEMODE
 70
1
  9
$MEASUREMENT
 70
0
  9
$INSUNITS
 70
1
  0
ENDSEC
  0
SECTION
  2
CLASSES
  0
CLASS
  1
ACDBDICTIONARYWDFLT
  2
AcDbDictionaryWithDefault
  3
AutoCAD 2000
 90
0
 91
1
280
0
281
0
  0
CLASS
  1
ACDBPLACEHOLDER
  2
AcDbPlaceHolder
  3
AutoCAD 2000
 90
0
 91
1
280
0
281
0
  0
CLASS
  1
LAYOUT
  2
AcDbLayout
  3
AutoCAD 2000
 90
0
 91
0
280
0
281
0
  0
ENDSEC
  0
SECTION
  2
TABLES
  0
TABLE
  2
VPORT
  5
8
100
AcDbSymbolTable
 70
2
  0
VPORT
  5
1F4
100
AcDbSymbolTableRecord
100
AcDbViewportTableRecord
  2
*ACTIVE
 70
0
 10
0.0
 20
0.0
 11
1.0
 21
1.0
 12
11.0
 22
8.5
 13
0.0
 23
0.0
 14
1.0
 24
1.0
 15
0.0
 25
0.0
 16
0.0
 26
0.0
 36
1.0
 17
0.0
 27
0.0
 37
0.0
 40
17.0
 41
1.2941176471
 42
50.0
 43
0.0
 44
0.0
 50
0.0
 51
0.0
 71
0
 72
100
 73
1
 74
1
 75
0
 76
0
 77
0
 78
0
  0
ENDTAB
  0
TABLE
  2
LTYPE
  5
5
100
AcDbSymbolTable
 70
6
  0
LTYPE
  5
14
100
AcDbSymbolTableRecord
100
AcDbLinetypeTableRecord
  2
BYBLOCK
 70
0
  3

 72
65
 73
0
 40
0.0
  0
LTYPE
  5
15
100
AcDbSymbolTableRecord
100
AcDbLinetypeTableRecord
  2
BYLAYER
 70
0
  3

 72
65
 73
0
 40
0.0
  0
LTYPE
  5
16
100
AcDbSymbolTableRecord
100
AcDbLinetypeTableRecord
  2
CONTINUOUS
 70
64
  3
Solid line
 72
65
 73
0
 40
0.0
  0
LTYPE
  5
1F5
100
AcDbSymbolTableRecord
100
AcDbLinetypeTableRecord
  2
CENTER
 70
64
  3
____ _ ____ _ ____ _ ____ _ ____ _ ____ _ ____
 72
65
 73
4
 40
0.6
 49
0.375
 74
0
 49
-0.075
 74
0
 49
0.075
 74
0
 49
-0.075
 74
0
  0
LTYPE
  5
1F6
100
AcDbSymbolTableRecord
100
AcDbLinetypeTableRecord
  2
HIDDEN
 70
64
  3
- - - - - - - - - - - - - - - - - - - -
 72
65
 73
2
 40
0.2
 49
0.1
 74
0
 49
-0.1
 74
0
  0
LTYPE
  5
1F7
100
AcDbSymbolTableRecord
100
AcDbLinetypeTableRecord
  2
PHANTOM
 70
64
  3
_____ _ _ _____ _ _ _____ _ _ _____
 72
65
 73
6
 40
0.8
 49
0.45
 74
0
 49
-0.05
 74
0
 49
0.1
 74
0
 49
-0.05
 74
0
 49
0.1
 74
0
 49
-0.05
 74
0
  0
LTYPE
  5
1F8
100
AcDbSymbolTableRecord
100
AcDbLinetypeTableRecord
  2
DOT
 70
64
  3
. . . . . . . . . . . . . . . . . . . .
 72
65
 73
2
 40
0.2
 49
0.1
 74
0
 49
-0.1
 74
0
  0
LTYPE
  5
1F9
100
AcDbSymbolTableRecord
100
AcDbLinetypeTableRecord
  2
DASHED
 70
64
  3
- - - - - - - - - - - - - - - - - - - -
 72
65
 73
2
 40
0.2
 49
0.1
 74
0
 49
-0.1
 74
0
  0
ENDTAB
  0
TABLE
  2
LAYER
  5
2
100
AcDbSymbolTable
 70
36
  0
LAYER
  5
10
100
AcDbSymbolTableRecord
100
AcDbLayerTableRecord
  2
0
 70
0
 62
7
  6
CONTINUOUS
370
-3
390
F
  0
LAYER
  5
1FA
100
AcDbSymbolTableRecord
100
AcDbLayerTableRecord
  2
DEFAULT_1
 70
0
 62
7
  6
CENTER
370
-3
390
F
  0
LAYER
  5
1FB
100
AcDbSymbolTableRecord
100
AcDbLayerTableRecord
  2
DEFAULT_2
 70
0
 62
8
  6
HIDDEN
370
-3
390
F
  0
LAYER
  5
1FC
100
AcDbSymbolTableRecord
100
AcDbLayerTableRecord
  2
DEFAULT_3
 70
0
 62
7
  6
PHANTOM
370
-3
390
F
  0
LAYER
  5
1FD
100
AcDbSymbolTableRecord
100
AcDbLayerTableRecord
  2
ALL_FEATURES
 70
0
 62
7
  6
CONTINUOUS
370
-3
390
F
  0
LAYER
  5
1FE
100
AcDbSymbolTableRecord
100
AcDbLayerTableRecord
  2
AXES_FEATURES
 70
0
 62
7
  6
CONTINUOUS
370
-3
390
F
  0
LAYER
  5
1FF
100
AcDbSymbolTableRecord
100
AcDbLayerTableRecord
  2
DEFAULT_COORDINATE_SYSTEM
 70
0
 62
7
  6
CONTINUOUS
370
-3
390
F
  0
LAYER
  5
200
100
AcDbSymbolTableRecord
100
AcDbLayerTableRecord
  2
DEFAULT_DATUM_AXES
 70
0
 62
7
  6
CONTINUOUS
370
-3
390
F
  0
LAYER
  5
201
100
AcDbSymbolTableRecord
100
AcDbLayerTableRecord
  2
DEFAULT_DATUM_PLANES
 70
0
 62
7
  6
CONTINUOUS
370
-3
390
F
  0
LAYER
  5
202
100
AcDbSymbolTableRecord
100
AcDbLayerTableRecord
  2
DIMENSIONS
 70
0
 62
7
  6
CONTINUOUS
370
-3
390
F
  0
ENDTAB
  0
TABLE
  2
STYLE
  5
3
100
AcDbSymbolTable
 70
1
  0
STYLE
  5
11
100
AcDbSymbolTableRecord
100
AcDbTextStyleTableRecord
  2
STANDARD
 70
0
 40
0.0
 41
0.8
 50
0.0
 71
0
 42
0.2
  3
txt
  4

  0
STYLE
  5
203
100
AcDbSymbolTableRecord
100
AcDbTextStyleTableRecord
  2
TEXTSTYLE_1
 70
0
 40
0.0
 41
0.8
 50
0.0
 71
0
 42
0.2
  3
gdt
  4

  0
ENDTAB
  0
TABLE
  2
VIEW
  5
6
100
AcDbSymbolTable
 70
0
  0
ENDTAB
  0
TABLE
  2
UCS
  5
7
100
AcDbSymbolTable
 70
0
  0
ENDTAB
  0
TABLE
  2
APPID
  5
9
100
AcDbSymbolTable
 70
1
  0
APPID
  5
204
100
AcDbSymbolTableRecord
100
AcDbRegAppTableRecord
  2
ACAD
 70
0
  0
ENDTAB
  0
TABLE
  2
BLOCK_RECORD
  5
1
100
AcDbSymbolTable
 70
0
  0
BLOCK_RECORD
  5
205
100
AcDbSymbolTableRecord
100
AcDbBlockTableRecord
  2
*Model_Space
  0
BLOCK_RECORD
  5
206
100
AcDbSymbolTableRecord
100
AcDbBlockTableRecord
  2
*Paper_Space
  0
BLOCK_RECORD
  5
207
100
AcDbSymbolTableRecord
100
AcDbBlockTableRecord
  2
_FILLED
  0
ENDTAB
  0
TABLE
  2
DIMSTYLE
  5
A
100
AcDbSymbolTable
 70
1
100
AcDbDimStyleTable
 71
0
  0
DIMSTYLE
105
208
100
AcDbSymbolTableRecord
100
AcDbDimStyleTableRecord
  2
STANDARD
 70
0
  3

  4

 40
1.0
 41
0.1
 42
0.0625
 43
0.38
 44
0.125
 45
0.0
 46
0.0
 47
0.001
 48
0.001
140
0.08
141
0.09
142
0.0
143
25.4
144
1.0
145
0.0
146
1.0
147
0.09
 71
1.0
 72
0.0
 73
1
 74
1
 75
0
 76
0
 77
0
 78
4
 79
1
170
1
171
2
172
0
173
0
174
0
175
0
176
0
177
0
178
0
270
2
179
3
271
3
272
3
273
2
274
2
275
0
280
0
281
0
282
0
283
1
284
4
285
0
286
0
287
3
288
0
340
11
278
46
341
207
342
207
343
207
344
207
  0
ENDTAB
  0
ENDSEC
  0
SECTION
  2
BLOCKS
  0
BLOCK
  5
20
100
AcDbEntity
  8
0
100
AcDbBlockBegin
  2
*Model_Space
 70
0
 10
0.0
 20
0.0
 30
0.0
  3
*Model_Space
  1

  0
ENDBLK
  5
21
100
AcDbEntity
  8
0
100
AcDbBlockEnd
  0
BLOCK
  5
1C
100
AcDbEntity
  8
0
100
AcDbBlockBegin
  2
*Paper_Space
 70
0
 10
0.0
 20
0.0
 30
0.0
  3
*Paper_Space
  1

  0
ENDBLK
  5
1D
100
AcDbEntity
  8
0
100
AcDbBlockEnd
  0
BLOCK
  5
209
100
AcDbEntity
  8
0
100
AcDbBlockBegin
  2
_FILLED
 70
64
 10
0.0
 20
0.0
  3
_FILLED
  1

  0
SOLID
  5
20A
100
AcDbEntity
  8
0
  6
BYBLOCK
 62
0
100
AcDbTrace
 10
0.0
 20
0.0
 11
-1.0
 21
0.2
 12
-1.0
 22
-0.2
 13
-1.0
 23
-0.2
  0
ENDBLK
  5
20B
100
AcDbEntity
  8
0
  6
BYBLOCK
 62
0
100
AcDbBlockEnd
  0
ENDSEC
  0
SECTION
  2
ENTITIES
  0
LINE
  5
20C
100
AcDbEntity
  8
0
100
AcDbLine
 62
7
  6
CONTINUOUS
 10
7.1723183383
 20
13.4482500228
 11
7.1723183383
 21
13.7282500228
  0
LINE
  5
20D
100
AcDbEntity
  8
0
100
AcDbLine
 62
9
  6
CONTINUOUS
 10
7.2023183383
 20
13.4182500228
 11
7.2023183383
 21
13.7282500228
  0
LINE
  5
20E
100
AcDbEntity
  8
0
100
AcDbLine
 62
7
  6
CONTINUOUS
 10
8.0923183383
 20
3.9560212602
 11
8.0923183383
 21
3.334701033
  0
LINE
  5
20F
100
AcDbEntity
  8
0
100
AcDbLine
 62
7
  6
CONTINUOUS
 10
11.8623183383
 20
4.7282500228
 11
10.2323183383
 21
4.7282500228
  0
LINE
  5
210
100
AcDbEntity
  8
0
100
AcDbLine
 62
9
  6
CONTINUOUS
 10
10.1723183383
 20
4.7882500228
 11
11.9223183383
 21
4.7882500228
  0
LINE
  5
211
100
AcDbEntity
  8
0
100
AcDbLine
 62
7
  6
CONTINUOUS
 10
11.0470285215
 20
4.6490475555
 11
11.0479866454
 21
4.6490478781
  0
LINE
  5
212
100
AcDbEntity
  8
0
100
AcDbLine
 62
7
  6
CONTINUOUS
 10
9.4773183383
 20
10.4022500228
 11
9.4773183383
 21
10.7922500228
  0
LINE
  5
213
100
AcDbEntity
  8
0
100
AcDbLine
 62
9
  6
CONTINUOUS
 10
9.5073183383
 20
10.3722500228
 11
9.5073183383
 21
10.8222500228
  0
LINE
  5
214
100
AcDbEntity
  8
0
100
AcDbLine
 62
7
  6
CONTINUOUS
 10
9.5873183383
 20
4.1617893335
 11
9.5873183383
 21
3.9984476671
  0
LINE
  5
215
100
AcDbEntity
  8
0
100
AcDbLine
 62
7
  6
CONTINUOUS
 10
9.7973183383
 20
5.8569254633
 11
9.7973183383
 21
10.3722500228
  0
LINE
  5
216
100
AcDbEntity
  8
0
100
AcDbLine
 62
7
  6
CONTINUOUS
 10
9.7973183383
 20
10.8222500228
 11
9.7973183383
 21
13.4182500228
  0
LINE
  5
217
100
AcDbEntity
  8
0
100
AcDbLine
 62
9
  6
CONTINUOUS
 10
9.8573183383
 20
5.8759886111
 11
9.8573183383
 21
10.3722500228
  0
LINE
  5
218
100
AcDbEntity
  8
0
100
AcDbLine
 62
9
  6
CONTINUOUS
 10
9.8573183383
 20
10.8222500228
 11
9.8573183383
 21
13.4182500228
  0
LINE
  5
219
100
AcDbEntity
  8
0
100
AcDbLine
 62
7
  6
CONTINUOUS
 10
9.9973183383
 20
13.0982500228
 11
9.9973183383
 21
13.4182500228
  0
LINE
  5
21A
100
AcDbEntity
  8
0
100
AcDbLine
 62
9
  6
CONTINUOUS
 10
10.0273183383
 20
13.0682500228
 11
10.0273183383
 21
13.4182500228
  0
LINE
  5
21B
100
AcDbEntity
  8
0
100
AcDbLine
 62
7
  6
CONTINUOUS
 10
10.1723183383
 20
4.7882500228
 11
10.1723183383
 21
13.7282500228
  0
LINE
  5
21C
100
AcDbEntity
  8
0
100
AcDbLine
 62
9
  6
CONTINUOUS
 10
10.2323183383
 20
4.7282500228
 11
10.2323183383
 21
13.7282500228
  0
LINE
  5
21D
100
AcDbEntity
  8
0
100
AcDbLine
 62
7
  6
CONTINUOUS
 10
10.3473183383
 20
4.3343233881
 11
10.3473183383
 21
4.2042157404
  0
LINE
  5
21E
100
AcDbEntity
  8
0
100
AcDbLine
 62
7
  6
CONTINUOUS
 10
10.3473183383
 20
4.3626076594
 11
10.3473183383
 21
4.496250841
  0
LINE
  5
21F
100
AcDbEntity
  8
0
100
AcDbLine
 62
7
  6
CONTINUOUS
 10
10.3973183383
 20
4.3125391103
 11
10.3973183383
 21
4.7282500228
  0
LINE
  5
220
100
AcDbEntity
  8
0
100
AcDbLine
 62
7
  6
CONTINUOUS
 10
10.9226939025
 20
4.7282500228
 11
10.9226939025
 21
4.7164857746
  0
LINE
  5
221
100
AcDbEntity
  8
0
100
AcDbLine
 62
7
  6
CONTINUOUS
 10
11.1719427741
 20
4.7282500228
 11
11.1719427741
 21
4.7164857746
  0
LINE
  5
222
100
AcDbEntity
  8
0
100
AcDbLine
 62
7
  6
CONTINUOUS
 10
11.6973183383
 20
4.3125391103
 11
11.6973183383
 21
4.7282500228
  0
LINE
  5
223
100
AcDbEntity
  8
0
100
AcDbLine
 62
7
  6
CONTINUOUS
 10
11.7473183383
 20
4.3343233881
 11
11.7473183383
 21
4.2042157404
  0
LINE
  5
224
100
AcDbEntity
  8
0
100
AcDbLine
 62
7
  6
CONTINUOUS
 10
11.7473183383
 20
4.3626076594
 11
11.7473183383
 21
4.496250841
  0
LINE
  5
225
100
AcDbEntity
  8
0
100
AcDbLine
 62
9
  6
CONTINUOUS
 10
11.8623183383
 20
4.7282500228
 11
11.8623183383
 21
13.7282500228
  0
LINE
  5
226
100
AcDbEntity
  8
0
100
AcDbLine
 62
7
  6
CONTINUOUS
 10
11.9223183383
 20
13.7282500228
 11
11.9223183383
 21
4.7882500228
  0
LINE
  5
227
100
AcDbEntity
  8
0
100
AcDbLine
 62
9
  6
CONTINUOUS
 10
12.0673183383
 20
13.0682500228
 11
12.0673183383
 21
13.4182500228
  0
LINE
  5
228
100
AcDbEntity
  8
0
100
AcDbLine
 62
7
  6
CONTINUOUS
 10
12.0973183383
 20
13.0982500228
 11
12.0973183383
 21
13.4182500228
  0
LINE
  5
229
100
AcDbEntity
  8
0
100
AcDbLine
 62
9
  6
CONTINUOUS
 10
12.2373183383
 20
13.4182500228
 11
12.2373183383
 21
10.8222500228
  0
LINE
  5
22A
100
AcDbEntity
  8
0
100
AcDbLine
 62
9
  6
CONTINUOUS
 10
12.2373183383
 20
10.3722500228
 11
12.2373183383
 21
5.8759808605
  0
LINE
  5
22B
100
AcDbEntity
  8
0
100
AcDbLine
 62
7
  6
CONTINUOUS
 10
12.2973183383
 20
13.4182500228
 11
12.2973183383
 21
10.8222500228
  0
LINE
  5
22C
100
AcDbEntity
  8
0
100
AcDbLine
 62
7
  6
CONTINUOUS
 10
12.2973183383
 20
10.3722500228
 11
12.2973183383
 21
5.8569435391
  0
LINE
  5
22D
100
AcDbEntity
  8
0
100
AcDbLine
 62
7
  6
CONTINUOUS
 10
12.5073183383
 20
4.1617893335
 11
12.5073183383
 21
3.9984476671
  0
LINE
  5
22E
100
AcDbEntity
  8
0
100
AcDbLine
 62
9
  6
CONTINUOUS
 10
12.5873183383
 20
10.3722500228
 11
12.5873183383
 21
10.8222500228
  0
LINE
  5
22F
100
AcDbEntity
  8
0
100
AcDbLine
 62
7
  6
CONTINUOUS
 10
12.6173183383
 20
10.4022500228
 11
12.6173183383
 21
10.7922500228
  0
LINE
  5
230
100
AcDbEntity
  8
0
100
AcDbLine
 62
7
  6
CONTINUOUS
 10
14.0023183383
 20
3.9560212602
 11
14.0023183383
 21
3.334701033
  0
LINE
  5
231
100
AcDbEntity
  8
0
100
AcDbLine
 62
7
  6
CONTINUOUS
 10
12.5873183383
 20
10.3722500228
 11
11.9223183383
 21
10.3722500228
  0
LINE
  5
232
100
AcDbEntity
  8
0
100
AcDbLine
 62
7
  6
CONTINUOUS
 10
10.1723183383
 20
10.3722500228
 11
9.5073183383
 21
10.3722500228
  0
LINE
  5
233
100
AcDbEntity
  8
0
100
AcDbLine
 62
9
  6
CONTINUOUS
 10
12.6173183383
 20
10.4022500228
 11
11.9223183383
 21
10.4022500228
  0
LINE
  5
234
100
AcDbEntity
  8
0
100
AcDbLine
 62
9
  6
CONTINUOUS
 10
10.1723183383
 20
10.4022500228
 11
9.4773183383
 21
10.4022500228
  0
LINE
  5
235
100
AcDbEntity
  8
0
100
AcDbLine
 62
9
  6
CONTINUOUS
 10
9.4773183383
 20
10.7922500228
 11
10.1723183383
 21
10.7922500228
  0
LINE
  5
236
100
AcDbEntity
  8
0
100
AcDbLine
 62
9
  6
CONTINUOUS
 10
11.9223183383
 20
10.7922500228
 11
12.6173183383
 21
10.7922500228
  0
LINE
  5
237
100
AcDbEntity
  8
0
100
AcDbLine
 62
7
  6
CONTINUOUS
 10
9.5073183383
 20
10.8222500228
 11
10.1723183383
 21
10.8222500228
  0
LINE
  5
238
100
AcDbEntity
  8
0
100
AcDbLine
 62
7
  6
CONTINUOUS
 10
11.9223183383
 20
10.8222500228
 11
12.5873183383
 21
10.8222500228
  0
LINE
  5
239
100
AcDbEntity
  8
0
100
AcDbLine
 62
9
  6
CONTINUOUS
 10
14.8923183383
 20
13.4182500228
 11
14.8923183383
 21
13.7282500228
  0
LINE
  5
23A
100
AcDbEntity
  8
0
100
AcDbLine
 62
7
  6
CONTINUOUS
 10
14.9223183383
 20
13.4482500228
 11
14.9223183383
 21
13.7282500228
  0
LINE
  5
23B
100
AcDbEntity
  8
0
100
AcDbLine
 62
7
  6
CONTINUOUS
 10
12.0673183383
 20
13.0682500228
 11
11.9223183383
 21
13.0682500228
  0
LINE
  5
23C
100
AcDbEntity
  8
0
100
AcDbLine
 62
7
  6
CONTINUOUS
 10
10.1723183383
 20
13.0682500228
 11
10.0273183383
 21
13.0682500228
  0
LINE
  5
23D
100
AcDbEntity
  8
0
100
AcDbLine
 62
9
  6
CONTINUOUS
 10
12.0973183383
 20
13.0982500228
 11
11.9223183383
 21
13.0982500228
  0
LINE
  5
23E
100
AcDbEntity
  8
0
100
AcDbLine
 62
9
  6
CONTINUOUS
 10
10.1723183383
 20
13.0982500228
 11
9.9973183383
 21
13.0982500228
  0
LINE
  5
23F
100
AcDbEntity
  8
0
100
AcDbLine
 62
7
  6
CONTINUOUS
 10
14.8923183383
 20
13.4182500228
 11
11.9223183383
 21
13.4182500228
  0
LINE
  5
240
100
AcDbEntity
  8
0
100
AcDbLine
 62
7
  6
CONTINUOUS
 10
10.1723183383
 20
13.4182500228
 11
7.2023183383
 21
13.4182500228
  0
LINE
  5
241
100
AcDbEntity
  8
0
100
AcDbLine
 62
9
  6
CONTINUOUS
 10
14.9223183383
 20
13.4482500228
 11
11.9223183383
 21
13.4482500228
  0
LINE
  5
242
100
AcDbEntity
  8
0
100
AcDbLine
 62
9
  6
CONTINUOUS
 10
10.1723183383
 20
13.4482500228
 11
7.1723183383
 21
13.4482500228
  0
LINE
  5
243
100
AcDbEntity
  8
0
100
AcDbLine
 62
7
  6
CONTINUOUS
 10
7.1723183383
 20
13.7282500228
 11
14.9223183383
 21
13.7282500228
  0
ARC
  5
244
100
AcDbEntity
  8
0
100
AcDbCircle
 62
9
  6
CONTINUOUS
 10
11.0473183383
 20
6.0282957376
 40
4.1617857581
100
AcDbArc
 50
262.6255907976
 51
277.3744092024
  0
ARC
  5
245
100
AcDbEntity
  8
0
100
AcDbCircle
 62
9
  6
CONTINUOUS
 10
11.0003804316
 20
5.7400132827
 40
3.8270124906
100
AcDbArc
 50
255.9054448423
 51
257.2055844988
  0
ARC
  5
246
100
AcDbEntity
  8
0
100
AcDbCircle
 62
9
  6
CONTINUOUS
 10
11.0964960456
 20
5.7306438583
 40
3.8173796901
100
AcDbArc
 50
282.7927750402
 51
284.096195619
  0
ARC
  5
247
100
AcDbEntity
  8
0
100
AcDbCircle
 62
9
  6
CONTINUOUS
 10
10.3431326575
 20
3.9697993738
 40
0.7865676487
100
AcDbArc
 50
163.6235007849
 51
165.760669851
  0
ARC
  5
248
100
AcDbEntity
  8
0
100
AcDbCircle
 62
9
  6
CONTINUOUS
 10
11.753283495
 20
3.9702864486
 40
0.7847230378
100
AcDbArc
 50
14.2368179279
 51
16.379051733
  0
ARC
  5
249
100
AcDbEntity
  8
0
100
AcDbCircle
 62
9
  6
CONTINUOUS
 10
11.7821084077
 20
3.9766309335
 40
0.7552160511
100
AcDbArc
 50
0.0457882242
 51
14.3080780375
  0
ARC
  5
24A
100
AcDbEntity
  8
0
100
AcDbCircle
 62
9
  6
CONTINUOUS
 10
10.3125282689
 20
3.9766309335
 40
0.7552160511
100
AcDbArc
 50
165.6919219789
 51
179.9542117776
  0
ARC
  5
24B
100
AcDbEntity
  8
0
100
AcDbCircle
 62
9
  6
CONTINUOUS
 10
11.0545853664
 20
5.296285674
 40
0.5915578454
100
AcDbArc
 50
281.4426531269
 51
286.1379009694
  0
ARC
  5
24C
100
AcDbEntity
  8
0
100
AcDbCircle
 62
9
  6
CONTINUOUS
 10
11.0387648162
 20
5.2910441692
 40
0.5861653399
100
AcDbArc
 50
253.840489462
 51
258.5789564115
  0
ARC
  5
24D
100
AcDbEntity
  8
0
100
AcDbCircle
 62
7
  6
CONTINUOUS
 10
10.7080276933
 20
4.3626265792
 40
0.3607093555
100
AcDbArc
 50
180.0030052639
 51
184.4897533751
  0
ARC
  5
24E
100
AcDbEntity
  8
0
100
AcDbCircle
 62
7
  6
CONTINUOUS
 10
11.3869437943
 20
4.3626134453
 40
0.360374544
100
AcDbArc
 50
355.50816435
 51
359.9990801064
  0
ARC
  5
24F
100
AcDbEntity
  8
0
100
AcDbCircle
 62
7
  6
CONTINUOUS
 10
11.3871917325
 20
4.3343193169
 40
0.3601266058
100
AcDbArc
 50
0.0006477288
 51
2.2532524223
  0
ARC
  5
250
100
AcDbEntity
  8
0
100
AcDbCircle
 62
7
  6
CONTINUOUS
 10
10.7074449413
 20
4.3343193155
 40
0.3601266031
100
AcDbArc
 50
177.7467482923
 51
179.9993520512
  0
ARC
  5
251
100
AcDbEntity
  8
0
100
AcDbCircle
 62
7
  6
CONTINUOUS
 10
11.8623183383
 20
4.7882500228
 40
0.06
100
AcDbArc
 50
270.0
 51
360.0
  0
ARC
  5
252
100
AcDbEntity
  8
0
100
AcDbCircle
 62
7
  6
CONTINUOUS
 10
10.2323183383
 20
4.7882500228
 40
0.06
100
AcDbArc
 50
180.0
 51
270.0
  0
ARC
  5
253
100
AcDbEntity
  8
0
100
AcDbCircle
 62
7
  6
CONTINUOUS
 10
7.2023183383
 20
13.4482500228
 40
0.03
100
AcDbArc
 50
180.0
 51
270.0
  0
ARC
  5
254
100
AcDbEntity
  8
0
100
AcDbCircle
 62
7
  6
CONTINUOUS
 10
14.8923183383
 20
13.4482500228
 40
0.03
100
AcDbArc
 50
270.0
 51
360.0
  0
ARC
  5
255
100
AcDbEntity
  8
0
100
AcDbCircle
 62
7
  6
CONTINUOUS
 10
12.5873183383
 20
10.7922500228
 40
0.03
100
AcDbArc
 50
0.0
 51
90.0
  0
ARC
  5
256
100
AcDbEntity
  8
0
100
AcDbCircle
 62
7
  6
CONTINUOUS
 10
12.5873183383
 20
10.4022500228
 40
0.03
100
AcDbArc
 50
270.0
 51
360.0
  0
ARC
  5
257
100
AcDbEntity
  8
0
100
AcDbCircle
 62
7
  6
CONTINUOUS
 10
9.5073183383
 20
10.7922500228
 40
0.03
100
AcDbArc
 50
90.0
 51
180.0
  0
ARC
  5
258
100
AcDbEntity
  8
0
100
AcDbCircle
 62
7
  6
CONTINUOUS
 10
9.5073183383
 20
10.4022500228
 40
0.03
100
AcDbArc
 50
180.0
 51
270.0
  0
ARC
  5
259
100
AcDbEntity
  8
0
100
AcDbCircle
 62
7
  6
CONTINUOUS
 10
10.0273183383
 20
13.0982500228
 40
0.03
100
AcDbArc
 50
180.0
 51
270.0
  0
ARC
  5
25A
100
AcDbEntity
  8
0
100
AcDbCircle
 62
7
  6
CONTINUOUS
 10
12.0673183383
 20
13.0982500228
 40
0.03
100
AcDbArc
 50
270.0
 51
360.0
  0
SPLINE
  5
25B
100
AcDbEntity
  8
0
100
AcDbSpline
 62
7
  6
CONTINUOUS
 70
0
 71
3
 72
14
 73
10
 74
0
 42
0.0000001
 43
0.0000001
 44
0.0000000001
 40
0.0
 40
0.0
 40
0.0
 40
0.0
 40
0.2539792132
 40
0.3804325733
 40
0.5062032746
 40
0.6311277619
 40
0.7550964119
 40
0.8780532452
 40
1.0
 40
1.0
 40
1.0
 40
1.0
 10
11.0470285215
 20
4.6490475556
 30
0.0
 10
11.0220836935
 20
4.6490604302
 30
0.0
 10
10.9846549894
 20
4.6515690365
 30
0.0
 10
10.9356143041
 20
4.6599013476
 30
0.0
 10
10.8995762779
 20
4.6686055249
 30
0.0
 10
10.8644735607
 20
4.6797469545
 30
0.0
 10
10.8305222688
 20
4.6932967446
 30
0.0
 10
10.7979426241
 20
4.7092190851
 30
0.0
 10
10.7771917072
 20
4.7214425655
 30
0.0
 10
10.7671273016
 20
4.7279355853
 30
0.0
  0
SPLINE
  5
25C
100
AcDbEntity
  8
0
100
AcDbSpline
 62
7
  6
CONTINUOUS
 70
0
 71
3
 72
14
 73
10
 74
0
 42
0.0000001
 43
0.0000001
 44
0.0000000001
 40
0.0
 40
0.0
 40
0.0
 40
0.0
 40
0.121944524
 40
0.2448990001
 40
0.3688650212
 40
0.493787865
 40
0.6195579996
 40
0.7460119734
 40
1.0
 40
1.0
 40
1.0
 40
1.0
 10
11.3278317786
 20
4.7281437505
 30
0.0
 10
11.3177730281
 20
4.7216419866
 30
0.0
 10
11.2970324295
 20
4.7094009931
 30
0.0
 10
11.2644657076
 20
4.6934523212
 30
0.0
 10
11.2305248605
 20
4.6798763206
 30
0.0
 10
11.1954302542
 20
4.6687087092
 30
0.0
 10
11.1593979796
 20
4.6599785515
 30
0.0
 10
11.110361403
 20
4.6516115707
 30
0.0
 10
11.0729327663
 20
4.6490775697
 30
0.0
 10
11.0479866454
 20
4.6490478785
 30
0.0
  0
SPLINE
  5
25D
100
AcDbEntity
  8
0
100
AcDbSpline
 62
7
  6
CONTINUOUS
 70
0
 71
3
 72
51
 73
47
 74
0
 42
0.0000001
 43
0.0000001
 44
0.0000000001
 40
0.0
 40
0.0
 40
0.0
 40
0.0
 40
0.0130490637
 40
0.0261515006
 40
0.0393315516
 40
0.0526121133
 40
0.0660146345
 40
0.0795592171
 40
0.0932642404
 40
0.1071461593
 40
0.1212194021
 40
0.1354962419
 40
0.149986753
 40
0.1646987696
 40
0.1947986293
 40
0.2258237986
 40
0.257759054
 40
0.2905585159
 40
0.3241491837
 40
0.3584346807
 40
0.3932992147
 40
0.4286114881
 40
0.464228651
 40
0.5000001661
 40
0.5357716786
 40
0.5713888337
 40
0.6067010949
 40
0.6415656121
 40
0.6758510877
 40
0.7094417299
 40
0.7422411636
 40
0.7741763889
 40
0.8052015271
 40
0.8353013555
 40
0.8500133564
 40
0.8645038525
 40
0.8787806778
 40
0.8928539069
 40
0.9067358129
 40
0.9204408245
 40
0.9339853964
 40
0.9473879082
 40
0.960668462
 40
0.9738485067
 40
0.9869509385
 40
1.0
 40
1.0
 40
1.0
 40
1.0
 10
11.7462114492
 20
4.3343899779
 30
0.0
 10
11.7455841397
 20
4.3263989046
 30
0.0
 10
11.7437931832
 20
4.3104209498
 30
0.0
 10
11.7395214619
 20
4.2866246035
 30
0.0
 10
11.7336727887
 20
4.2630187062
 30
0.0
 10
11.7262655127
 20
4.2396618887
 30
0.0
 10
11.7173203102
 20
4.2166099034
 30
0.0
 10
11.7068630773
 20
4.193916546
 30
0.0
 10
11.6949222642
 20
4.1716335533
 30
0.0
 10
11.6815294032
 20
4.1498106966
 30
0.0
 10
11.6667193586
 20
4.1284952684
 30
0.0
 10
11.6505288168
 20
4.107733374
 30
0.0
 10
11.6329971953
 20
4.0875680014
 30
0.0
 10
11.6077008822
 20
4.0613371543
 30
0.0
 10
11.572868111
 20
4.0302843953
 30
0.0
 10
11.5267732312
 20
3.9963486688
 30
0.0
 10
11.4764702861
 20
3.9657196271
 30
0.0
 10
11.4224067082
 20
3.9386466731
 30
0.0
 10
11.3650558819
 20
3.9153485538
 30
0.0
 10
11.3049197189
 20
3.8960164
 30
0.0
 10
11.2425241501
 20
3.8808100338
 30
0.0
 10
11.1784155097
 20
3.869856264
 30
0.0
 10
11.1131558774
 20
3.8632469094
 30
0.0
 10
11.0473180427
 20
3.8610375954
 30
0.0
 10
10.9814802143
 20
3.8632469517
 30
0.0
 10
10.9162206001
 20
3.8698563454
 30
0.0
 10
10.8521119879
 20
3.8808101451
 30
0.0
 10
10.7897164573
 20
3.8960165376
 30
0.0
 10
10.7295803432
 20
3.9153487159
 30
0.0
 10
10.6722295739
 20
3.9386468525
 30
0.0
 10
10.6181660579
 20
3.9657198148
 30
0.0
 10
10.5678631757
 20
3.996348854
 30
0.0
 10
10.5217683569
 20
4.0302845667
 30
0.0
 10
10.4869356306
 20
4.0613373044
 30
0.0
 10
10.4616393601
 20
4.0875681396
 30
0.0
 10
10.4441077585
 20
4.1077334926
 30
0.0
 10
10.4279172427
 20
4.1284953737
 30
0.0
 10
10.4131072168
 20
4.1498107838
 30
0.0
 10
10.3997143709
 20
4.1716336223
 30
0.0
 10
10.387773575
 20
4.1939165995
 30
0.0
 10
10.3773163496
 20
4.2166099388
 30
0.0
 10
10.3683711578
 20
4.2396619098
 30
0.0
 10
10.3609638854
 20
4.2630187132
 30
0.0
 10
10.3551152159
 20
4.2866245991
 30
0.0
 10
10.350843495
 20
4.3104209371
 30
0.0
 10
10.3490525386
 20
4.3263988873
 30
0.0
 10
10.3484252288
 20
4.3343899593
 30
0.0
  0
SPLINE
  5
25E
100
AcDbEntity
  8
0
100
AcDbSpline
 62
7
  6
CONTINUOUS
 70
0
 71
3
 72
22
 73
18
 74
0
 42
0.0000001
 43
0.0000001
 44
0.0000000001
 40
0.0
 40
0.0
 40
0.0
 40
0.0
 40
0.0567996645
 40
0.1137694656
 40
0.1710741336
 40
0.2288738691
 40
0.2873177925
 40
0.346543097
 40
0.4066721686
 40
0.4678110747
 40
0.5300482437
 40
0.5934538152
 40
0.6580793599
 40
0.7239579298
 40
0.7911045152
 40
0.859516757
 40
1.0
 40
1.0
 40
1.0
 40
1.0
 10
12.5073183383
 20
4.1617893335
 30
0.0
 10
12.5073183383
 20
4.1820476502
 30
0.0
 10
12.5056600101
 20
4.2226443261
 30
0.0
 10
12.4982126355
 20
4.2832679162
 30
0.0
 10
12.4858363634
 20
4.3434472849
 30
0.0
 10
12.4685849766
 20
4.4029588532
 30
0.0
 10
12.4465305817
 20
4.4615928228
 30
0.0
 10
12.4197632479
 20
4.5191451979
 30
0.0
 10
12.3883885165
 20
4.5754209923
 30
0.0
 10
12.3525262914
 20
4.6302336266
 30
0.0
 10
12.3123094566
 20
4.6834049441
 30
0.0
 10
12.2678831584
 20
4.7347648172
 30
0.0
 10
12.2194037274
 20
4.7841510112
 30
0.0
 10
12.1670396816
 20
4.8314080362
 30
0.0
 10
12.1109660116
 20
4.8763904338
 30
0.0
 10
12.0308220492
 20
4.9336375502
 30
0.0
 10
11.9667284655
 20
4.9719727562
 30
0.0
 10
11.9225177814
 20
4.9955511043
 30
0.0
  0
SPLINE
  5
25F
100
AcDbEntity
  8
0
100
AcDbSpline
 62
7
  6
CONTINUOUS
 70
0
 71
3
 72
22
 73
18
 74
0
 42
0.0000001
 43
0.0000001
 44
0.0000000001
 40
0.0
 40
0.0
 40
0.0
 40
0.0
 40
0.1404835463
 40
0.2088959213
 40
0.2760426209
 40
0.3419212822
 40
0.4065468924
 40
0.4699525011
 40
0.5321896785
 40
0.5933285643
 40
0.6534575877
 40
0.7126828182
 40
0.7711266454
 40
0.8289262661
 40
0.8862308065
 40
0.943200472
 40
1.0
 40
1.0
 40
1.0
 40
1.0
 10
10.1721394964
 20
4.9955620931
 30
0.0
 10
10.1279273895
 20
4.9719838606
 30
0.0
 10
10.0638317076
 20
4.9336486787
 30
0.0
 10
9.9836850265
 20
4.8764013342
 30
0.0
 10
9.9276094256
 20
4.8314186434
 30
0.0
 10
9.875243548
 20
4.7841612063
 30
0.0
 10
9.826762397
 20
4.7347744873
 30
0.0
 10
9.7823345021
 20
4.6834139831
 30
0.0
 10
9.7421162047
 20
4.630241936
 30
0.0
 10
9.7062526604
 20
4.5754284815
 30
0.0
 10
9.6748767611
 20
4.5191517856
 30
0.0
 10
9.6481084209
 20
4.4615984358
 30
0.0
 10
9.6260531893
 20
4.4029634278
 30
0.0
 10
9.6088011426
 20
4.3434507673
 30
0.0
 10
9.596424394
 20
4.2832702638
 30
0.0
 10
9.588976731
 20
4.2226455083
 30
0.0
 10
9.5873183383
 20
4.1820480434
 30
0.0
 10
9.5873183383
 20
4.1617893335
 30
0.0
  0
SPLINE
  5
260
100
AcDbEntity
  8
0
100
AcDbSpline
 62
7
  6
CONTINUOUS
 70
0
 71
3
 72
30
 73
26
 74
0
 42
0.0000001
 43
0.0000001
 44
0.0000000001
 40
0.0
 40
0.0
 40
0.0
 40
0.0
 40
0.0268385005
 40
0.053717832
 40
0.0806758325
 40
0.1077521498
 40
0.134984072
 40
0.1624074996
 40
0.1900565607
 40
0.2179631535
 40
0.2461567918
 40
0.2746643981
 40
0.3035101409
 40
0.3327153075
 40
0.3622982401
 40
0.3922743108
 40
0.4534384795
 40
0.5162866038
 40
0.580836826
 40
0.6470646709
 40
0.7149065432
 40
0.7842637633
 40
0.8550065832
 40
0.9269784281
 40
1.0
 40
1.0
 40
1.0
 40
1.0
 10
14.0023183383
 20
3.9560212602
 30
0.0
 10
14.0023183383
 20
3.9838899834
 30
0.0
 10
14.0007543729
 20
4.0396824134
 30
0.0
 10
13.9937237684
 20
4.1232010942
 30
0.0
 10
13.9820197586
 20
4.206445664
 30
0.0
 10
13.9656642982
 20
4.2892744399
 30
0.0
 10
13.9446865241
 20
4.3715531297
 30
0.0
 10
13.9191241973
 20
4.4531472526
 30
0.0
 10
13.8890225075
 20
4.5339249583
 30
0.0
 10
13.8544338182
 20
4.613756639
 30
0.0
 10
13.8154181137
 20
4.6925154713
 30
0.0
 10
13.7720419575
 20
4.7700772678
 30
0.0
 10
13.7243781217
 20
4.8463206278
 30
0.0
 10
13.6725064335
 20
4.9211267367
 30
0.0
 10
13.6165112061
 20
4.9943814622
 30
0.0
 10
13.5359457346
 20
5.0904674517
 30
0.0
 10
13.4251726867
 20
5.206078041
 30
0.0
 10
13.278301563
 20
5.3358754478
 30
0.0
 10
13.1175118014
 20
5.4569153372
 30
0.0
 10
12.9438234836
 20
5.5684648792
 30
0.0
 10
12.7583218566
 20
5.6698581655
 30
0.0
 10
12.5621648741
 20
5.7604840703
 30
0.0
 10
12.3565713125
 20
5.8397966249
 30
0.0
 10
12.1428302025
 20
5.9073126932
 30
0.0
 10
11.9966911502
 20
5.9439588439
 30
0.0
 10
11.9226371334
 20
5.9602490022
 30
0.0
  0
SPLINE
  5
261
100
AcDbEntity
  8
0
100
AcDbSpline
 62
7
  6
CONTINUOUS
 70
0
 71
3
 72
30
 73
26
 74
0
 42
0.0000001
 43
0.0000001
 44
0.0000000001
 40
0.0
 40
0.0
 40
0.0
 40
0.0
 40
0.0730215772
 40
0.1449934287
 40
0.2157362551
 40
0.2850934818
 40
0.3529353598
 40
0.4191632089
 40
0.4837134342
 40
0.5465615593
 40
0.6077257273
 40
0.6377017967
 40
0.6672847277
 40
0.6964898923
 40
0.7253356326
 40
0.7538432362
 40
0.7820368715
 40
0.809943461
 40
0.8375925187
 40
0.8650159428
 40
0.8922478615
 40
0.9193241756
 40
0.946282173
 40
0.9731615018
 40
1.0
 40
1.0
 40
1.0
 40
1.0
 10
10.1720033825
 20
5.9602498479
 30
0.0
 10
10.0979492511
 20
5.9439597397
 30
0.0
 10
9.9518099665
 20
5.9073136832
 30
0.0
 10
9.7380685024
 20
5.8397977328
 30
0.0
 10
9.5324745914
 20
5.7604852536
 30
0.0
 10
9.3363172632
 20
5.6698594006
 30
0.0
 10
9.1508153003
 20
5.5684661364
 30
0.0
 10
8.9771266636
 20
5.4569165838
 30
0.0
 10
8.8163365947
 20
5.3358766659
 30
0.0
 10
8.6694651908
 20
5.2060791977
 30
0.0
 10
8.558691921
 20
5.0904685427
 30
0.0
 10
8.4781262899
 20
4.9943824855
 30
0.0
 10
8.422130948
 20
4.9211277074
 30
0.0
 10
8.3702591532
 20
4.8463215403
 30
0.0
 10
8.3225952202
 20
4.770078116
 30
0.0
 10
8.2792189727
 20
4.692516252
 30
0.0
 10
8.2402031848
 20
4.6137573475
 30
0.0
 10
8.2056144217
 20
4.53392559
 30
0.0
 10
8.1755126667
 20
4.4531478037
 30
0.0
 10
8.1499502831
 20
4.3715535967
 30
0.0
 10
8.1289724621
 20
4.2892748192
 30
0.0
 10
8.112616965
 20
4.2064459523
 30
0.0
 10
8.1009129281
 20
4.1232012886
 30
0.0
 10
8.0938823074
 20
4.0396825114
 30
0.0
 10
8.0923183383
 20
3.9838900162
 30
0.0
 10
8.0923183383
 20
3.9560212602
 30
0.0
  0
SPLINE
  5
262
100
AcDbEntity
  8
0
100
AcDbSpline
 62
7
  6
CONTINUOUS
 70
0
 71
3
 72
69
 73
65
 74
0
 42
0.0000001
 43
0.0000001
 44
0.0000000001
 40
0.0
 40
0.0
 40
0.0
 40
0.0
 40
0.0129399827
 40
0.0259095303
 40
0.0389373266
 40
0.0520516167
 40
0.0652790459
 40
0.078644679
 40
0.092171531
 40
0.1058803584
 40
0.119789447
 40
0.1339144703
 40
0.14826841
 40
0.162861522
 40
0.1777013453
 40
0.1927927465
 40
0.2081379954
 40
0.2237368656
 40
0.2395867493
 40
0.2556827794
 40
0.272017973
 40
0.2885833729
 40
0.3053681934
 40
0.3223599657
 40
0.3395446859
 40
0.3569069629
 40
0.3744301629
 40
0.3920965496
 40
0.4098874307
 40
0.4277832975
 40
0.4638031405
 40
0.4818908157
 40
0.5000000275
 40
0.5181092392
 40
0.5361969141
 40
0.5722167557
 40
0.5901126215
 40
0.6079035014
 40
0.6255698867
 40
0.643093085
 40
0.6604553601
 40
0.6776400783
 40
0.6946318484
 40
0.7114166667
 40
0.7279820643
 40
0.7443172553
 40
0.7604132829
 40
0.7762631638
 40
0.7918620313
 40
0.8072072775
 40
0.822298676
 40
0.8371384967
 40
0.8517316061
 40
0.8660855433
 40
0.8802105642
 40
0.8941196507
 40
0.9078284761
 40
0.9213553262
 40
0.9347209578
 40
0.9479483857
 40
0.9610626748
 40
0.9740904703
 40
0.9870600174
 40
1.0
 40
1.0
 40
1.0
 40
1.0
 10
8.0923183383
 20
3.334701033
 30
0.0
 10
8.0923183383
 20
3.3002176112
 30
0.0
 10
8.0947146537
 20
3.2311481575
 30
0.0
 10
8.1054832594
 20
3.1278666577
 30
0.0
 10
8.1233974888
 20
3.0251066604
 30
0.0
 10
8.1484063914
 20
2.9231346765
 30
0.0
 10
8.1804410715
 20
2.8222040493
 30
0.0
 10
8.2194136951
 20
2.7225655295
 30
0.0
 10
8.2652195423
 20
2.6244631638
 30
0.0
 10
8.3177373947
 20
2.5281347472
 30
0.0
 10
8.3768306098
 20
2.4338112939
 30
0.0
 10
8.442347742
 20
2.3417169091
 30
0.0
 10
8.5141232265
 20
2.2520686994
 30
0.0
 10
8.5919779141
 20
2.1650767127
 30
0.0
 10
8.6757195044
 20
2.0809438598
 30
0.0
 10
8.7651429288
 20
1.999865798
 30
0.0
 10
8.8600307118
 20
1.9220307613
 30
0.0
 10
8.9601533315
 20
1.8476193364
 30
0.0
 10
9.0652695861
 20
1.7768042107
 30
0.0
 10
9.1751269708
 20
1.7097498312
 30
0.0
 10
9.2894621451
 20
1.6466121021
 30
0.0
 10
9.4080014362
 20
1.5875380451
 30
0.0
 10
9.5304613685
 20
1.5326654517
 30
0.0
 10
9.6565492316
 20
1.4821225402
 30
0.0
 10
9.7859637269
 20
1.4360276167
 30
0.0
 10
9.91839554
 20
1.3944887674
 30
0.0
 10
10.0535283713
 20
1.3576035122
 30
0.0
 10
10.1910383654
 20
1.3254586911
 30
0.0
 10
10.3305997472
 20
1.2981294836
 30
0.0
 10
10.519351391
 20
1.2681368917
 30
0.0
 10
10.7103753521
 20
1.2481224745
 30
0.0
 10
10.9025908147
 20
1.2380894855
 30
0.0
 10
11.0473185582
 20
1.2355753015
 30
0.0
 10
11.1920463004
 20
1.2380895024
 30
0.0
 10
11.384261757
 20
1.2481225115
 30
0.0
 10
11.5752857088
 20
1.2681369466
 30
0.0
 10
11.7640373403
 20
1.2981295553
 30
0.0
 10
11.9035987098
 20
1.325458775
 30
0.0
 10
12.0411086893
 20
1.3576036079
 30
0.0
 10
12.1762415035
 20
1.3944888754
 30
0.0
 10
12.3086732978
 20
1.436027735
 30
0.0
 10
12.4380877733
 20
1.4821226662
 30
0.0
 10
12.5641756158
 20
1.5326655832
 30
0.0
 10
12.6866355266
 20
1.5875381803
 30
0.0
 10
12.8051747954
 20
1.6466122396
 30
0.0
 10
12.9195099464
 20
1.7097499696
 30
0.0
 10
13.029367307
 20
1.7768043485
 30
0.0
 10
13.1344835366
 20
1.8476194728
 30
0.0
 10
13.2346061321
 20
1.9220308937
 30
0.0
 10
13.3294938923
 20
1.9998659241
 30
0.0
 10
13.418917295
 20
2.0809439778
 30
0.0
 10
13.5026588651
 20
2.1650768214
 30
0.0
 10
13.5805135337
 20
2.2520687975
 30
0.0
 10
13.6522890007
 20
2.341716996
 30
0.0
 10
13.7178061171
 20
2.433811369
 30
0.0
 10
13.7768993182
 20
2.5281348104
 30
0.0
 10
13.8294171594
 20
2.6244632149
 30
0.0
 10
13.8752229979
 20
2.722565569
 30
0.0
 10
13.914195615
 20
2.8222040779
 30
0.0
 10
13.9462302904
 20
2.9231346956
 30
0.0
 10
13.9712391902
 20
3.0251066717
 30
0.0
 10
13.9891534178
 20
3.1278666631
 30
0.0
 10
13.9999220229
 20
3.2311481594
 30
0.0
 10
14.0023183383
 20
3.3002176115
 30
0.0
 10
14.0023183383
 20
3.334701033
 30
0.0
  0
SPLINE
  5
263
100
AcDbEntity
  8
0
100
AcDbSpline
 62
7
  6
CONTINUOUS
 70
0
 71
3
 72
15
 73
11
 74
0
 42
0.0000001
 43
0.0000001
 44
0.0000000001
 40
0.0
 40
0.0
 40
0.0
 40
0.0
 40
0.1294271704
 40
0.2571654936
 40
0.3833852904
 40
0.5083131731
 40
0.6321826985
 40
0.7552426612
 40
0.8777657693
 40
1.0
 40
1.0
 40
1.0
 40
1.0
 10
11.6973183383
 20
4.6799625717
 30
0.0
 10
11.7014051069
 20
4.6727327678
 30
0.0
 10
11.7091057471
 20
4.6581251301
 30
0.0
 10
11.7192417935
 20
4.6356934546
 30
0.0
 10
11.7278590929
 20
4.6129425708
 30
0.0
 10
11.7349368692
 20
4.5899260089
 30
0.0
 10
11.7404595949
 20
4.5666955836
 30
0.0
 10
11.7444136911
 20
4.5433032055
 30
0.0
 10
11.7467894632
 20
4.5198045904
 30
0.0
 10
11.7473183383
 20
4.5040942162
 30
0.0
 10
11.7473183383
 20
4.496250841
 30
0.0
  0
SPLINE
  5
264
100
AcDbEntity
  8
0
100
AcDbSpline
 62
7
  6
CONTINUOUS
 70
0
 71
3
 72
15
 73
11
 74
0
 42
0.0000001
 43
0.0000001
 44
0.0000000001
 40
0.0
 40
0.0
 40
0.0
 40
0.0
 40
0.1222342307
 40
0.2447573388
 40
0.3678173015
 40
0.4916868269
 40
0.6166147096
 40
0.7428345064
 40
0.8705728296
 40
1.0
 40
1.0
 40
1.0
 40
1.0
 10
10.3473183383
 20
4.496250841
 30
0.0
 10
10.3473183383
 20
4.5040942162
 30
0.0
 10
10.3478472134
 20
4.5198045904
 30
0.0
 10
10.3502229854
 20
4.5433032055
 30
0.0
 10
10.3541770817
 20
4.5666955836
 30
0.0
 10
10.3596998073
 20
4.5899260089
 30
0.0
 10
10.3667775836
 20
4.6129425708
 30
0.0
 10
10.3753948831
 20
4.6356934546
 30
0.0
 10
10.3855309294
 20
4.6581251301
 30
0.0
 10
10.3932315697
 20
4.6727327678
 30
0.0
 10
10.3973183383
 20
4.6799625717
 30
0.0
  0
SPLINE
  5
265
100
AcDbEntity
  8
0
100
AcDbSpline
 62
9
  6
CONTINUOUS
 70
0
 71
3
 72
47
 73
43
 74
0
 42
0.0000001
 43
0.0000001
 44
0.0000000001
 40
0.0
 40
0.0
 40
0.0
 40
0.0
 40
0.0128549409
 40
0.025742453
 40
0.0386900735
 40
0.0517282104
 40
0.0648849577
 40
0.078186052
 40
0.0916553066
 40
0.1053141053
 40
0.1332601349
 40
0.1621529126
 40
0.19206252
 40
0.2230150526
 40
0.2549959513
 40
0.2879543141
 40
0.3218076159
 40
0.3564465718
 40
0.3917399147
 40
0.4275390214
 40
0.4636823889
 40
0.5
 40
0.5363176111
 40
0.5724609786
 40
0.6082600853
 40
0.6435534282
 40
0.6781923841
 40
0.7120456859
 40
0.7450040487
 40
0.7769849474
 40
0.80793748
 40
0.8378470874
 40
0.8667398651
 40
0.8946858947
 40
0.9083446934
 40
0.921813948
 40
0.9351150423
 40
0.9482717896
 40
0.9613099265
 40
0.974257547
 40
0.9871450591
 40
1.0
 40
1.0
 40
1.0
 40
1.0
 10
10.3473183383
 20
4.2042157404
 30
0.0
 10
10.3473183383
 20
4.1961155826
 30
0.0
 10
10.3478825544
 20
4.1798891429
 30
0.0
 10
10.3504166262
 20
4.1556232489
 30
0.0
 10
10.3546338785
 20
4.1314744875
 30
0.0
 10
10.3605230785
 20
4.1075042104
 30
0.0
 10
10.3680690353
 20
4.0837693765
 30
0.0
 10
10.3772535984
 20
4.0603281202
 30
0.0
 10
10.3880539526
 20
4.0372362562
 30
0.0
 10
10.4046954545
 20
4.006761918
 30
0.0
 10
10.4295243258
 20
3.969790545
 30
0.0
 10
10.4650173812
 20
3.9280797763
 30
0.0
 10
10.5060922421
 20
3.889057144
 30
0.0
 10
10.5523456829
 20
3.8530915999
 30
0.0
 10
10.6033321138
 20
3.8205167841
 30
0.0
 10
10.6585622314
 20
3.7916375534
 30
0.0
 10
10.71750769
 20
3.7667244498
 30
0.0
 10
10.779605192
 20
3.7460118027
 30
0.0
 10
10.8442615173
 20
3.7296950136
 30
0.0
 10
10.9108589158
 20
3.717928453
 30
0.0
 10
10.978760898
 20
3.7108236347
 30
0.0
 10
11.0473183383
 20
3.7084478518
 30
0.0
 10
11.1158757786
 20
3.7108236347
 30
0.0
 10
11.1837777608
 20
3.717928453
 30
0.0
 10
11.2503751592
 20
3.7296950136
 30
0.0
 10
11.3150314846
 20
3.7460118027
 30
0.0
 10
11.3771289866
 20
3.7667244498
 30
0.0
 10
11.4360744451
 20
3.7916375534
 30
0.0
 10
11.4913045628
 20
3.8205167841
 30
0.0
 10
11.5422909937
 20
3.8530915999
 30
0.0
 10
11.5885444345
 20
3.889057144
 30
0.0
 10
11.6296192954
 20
3.9280797763
 30
0.0
 10
11.6651123508
 20
3.969790545
 30
0.0
 10
11.6899412221
 20
4.006761918
 30
0.0
 10
11.706582724
 20
4.0372362562
 30
0.0
 10
11.7173830781
 20
4.0603281202
 30
0.0
 10
11.7265676413
 20
4.0837693765
 30
0.0
 10
11.7341135981
 20
4.1075042104
 30
0.0
 10
11.740002798
 20
4.1314744875
 30
0.0
 10
11.7442200503
 20
4.1556232489
 30
0.0
 10
11.7467541222
 20
4.1798891429
 30
0.0
 10
11.7473183383
 20
4.1961155826
 30
0.0
 10
11.7473183383
 20
4.2042157404
 30
0.0
  0
SPLINE
  5
266
100
AcDbEntity
  8
0
100
AcDbSpline
 62
9
  6
CONTINUOUS
 70
0
 71
3
 72
47
 73
43
 74
0
 42
0.0000001
 43
0.0000001
 44
0.0000000001
 40
0.0
 40
0.0
 40
0.0
 40
0.0
 40
0.0128549409
 40
0.025742453
 40
0.0386900736
 40
0.0517282105
 40
0.0648849578
 40
0.078186052
 40
0.0916553067
 40
0.1053141054
 40
0.1332601349
 40
0.1621529126
 40
0.1920625201
 40
0.2230150526
 40
0.2549959514
 40
0.2879543141
 40
0.321807616
 40
0.3564465718
 40
0.3917399147
 40
0.4275390214
 40
0.4636823889
 40
0.5
 40
0.5363176111
 40
0.5724609786
 40
0.6082600853
 40
0.6435534282
 40
0.678192384
 40
0.7120456859
 40
0.7450040486
 40
0.7769849474
 40
0.8079374799
 40
0.8378470874
 40
0.8667398651
 40
0.8946858946
 40
0.9083446933
 40
0.921813948
 40
0.9351150422
 40
0.9482717895
 40
0.9613099264
 40
0.974257547
 40
0.9871450591
 40
1.0
 40
1.0
 40
1.0
 40
1.0
 10
11.7473183383
 20
4.3343233881
 30
0.0
 10
11.7473183383
 20
4.3262232304
 30
0.0
 10
11.7467541222
 20
4.3099967907
 30
0.0
 10
11.7442200503
 20
4.2857308966
 30
0.0
 10
11.740002798
 20
4.2615821352
 30
0.0
 10
11.734113598
 20
4.2376118581
 30
0.0
 10
11.7265676413
 20
4.2138770242
 30
0.0
 10
11.7173830781
 20
4.1904357678
 30
0.0
 10
11.7065827239
 20
4.1673439038
 30
0.0
 10
11.689941222
 20
4.1368695656
 30
0.0
 10
11.6651123507
 20
4.0998981927
 30
0.0
 10
11.6296192953
 20
4.058187424
 30
0.0
 10
11.5885444344
 20
4.0191647916
 30
0.0
 10
11.5422909936
 20
3.9831992476
 30
0.0
 10
11.4913045627
 20
3.9506244318
 30
0.0
 10
11.4360744451
 20
3.9217452011
 30
0.0
 10
11.3771289865
 20
3.8968320975
 30
0.0
 10
11.3150314845
 20
3.8761194504
 30
0.0
 10
11.2503751592
 20
3.8598026613
 30
0.0
 10
11.1837777607
 20
3.8480361008
 30
0.0
 10
11.1158757786
 20
3.8409312825
 30
0.0
 10
11.0473183383
 20
3.8385554995
 30
0.0
 10
10.978760898
 20
3.8409312825
 30
0.0
 10
10.9108589158
 20
3.8480361008
 30
0.0
 10
10.8442615173
 20
3.8598026613
 30
0.0
 10
10.779605192
 20
3.8761194504
 30
0.0
 10
10.71750769
 20
3.8968320975
 30
0.0
 10
10.6585622315
 20
3.9217452011
 30
0.0
 10
10.6033321138
 20
3.9506244318
 30
0.0
 10
10.5523456829
 20
3.9831992476
 30
0.0
 10
10.5060922421
 20
4.0191647917
 30
0.0
 10
10.4650173812
 20
4.058187424
 30
0.0
 10
10.4295243258
 20
4.0998981927
 30
0.0
 10
10.4046954545
 20
4.1368695656
 30
0.0
 10
10.3880539526
 20
4.1673439038
 30
0.0
 10
10.3772535985
 20
4.1904357678
 30
0.0
 10
10.3680690353
 20
4.2138770242
 30
0.0
 10
10.3605230785
 20
4.2376118581
 30
0.0
 10
10.3546338785
 20
4.2615821352
 30
0.0
 10
10.3504166262
 20
4.2857308966
 30
0.0
 10
10.3478825544
 20
4.3099967907
 30
0.0
 10
10.3473183383
 20
4.3262232304
 30
0.0
 10
10.3473183383
 20
4.3343233881
 30
0.0
  0
SPLINE
  5
267
100
AcDbEntity
  8
0
100
AcDbSpline
 62
9
  6
CONTINUOUS
 70
0
 71
3
 72
55
 73
51
 74
0
 42
0.0000001
 43
0.0000001
 44
0.0000000001
 40
0.0
 40
0.0
 40
0.0
 40
0.0
 40
0.0128543234
 40
0.0257402127
 40
0.0386867269
 40
0.0517239743
 40
0.0648796002
 40
0.0781795929
 40
0.091647773
 40
0.1053054581
 40
0.1191713222
 40
0.1332612443
 40
0.1475882604
 40
0.1621625511
 40
0.1769914533
 40
0.1920795412
 40
0.2230295587
 40
0.2388966707
 40
0.2550158898
 40
0.2879715684
 40
0.3218221076
 40
0.3564582485
 40
0.3917487211
 40
0.4275449188
 40
0.4636853427
 40
0.5
 40
0.5363146573
 40
0.5724550812
 40
0.6082512789
 40
0.6435417515
 40
0.6781778924
 40
0.7120284316
 40
0.7449841102
 40
0.7611033293
 40
0.7769704413
 40
0.8079204588
 40
0.8230085467
 40
0.8378374489
 40
0.8524117396
 40
0.8667387557
 40
0.8808286778
 40
0.8946945419
 40
0.908352227
 40
0.9218204071
 40
0.9351203998
 40
0.9482760257
 40
0.9613132731
 40
0.9742597873
 40
0.9871456766
 40
1.0
 40
1.0
 40
1.0
 40
1.0
 10
12.4773183383
 20
4.183002537
 30
0.0
 10
12.4773183383
 20
4.1664545167
 30
0.0
 10
12.4761661158
 20
4.1333063787
 30
0.0
 10
12.47098881
 20
4.0837349145
 30
0.0
 10
12.4623736563
 20
4.0344030475
 30
0.0
 10
12.4503434339
 20
3.9854349175
 30
0.0
 10
12.4349275606
 20
3.9369481506
 30
0.0
 10
12.4161648946
 20
3.8890607189
 30
0.0
 10
12.394102127
 20
3.8418882592
 30
0.0
 10
12.3687935968
 20
3.7955445731
 30
0.0
 10
12.3403015771
 20
3.7501411135
 30
0.0
 10
12.3086960176
 20
3.7057867564
 30
0.0
 10
12.2740538896
 20
3.6625876585
 30
0.0
 10
12.2364596662
 20
3.6206476121
 30
0.0
 10
12.1960030567
 20
3.5800656024
 30
0.0
 10
12.1378938052
 20
3.5274599081
 30
0.0
 10
12.0748666697
 20
3.4784504651
 30
0.0
 10
12.0076237582
 20
3.4332174989
 30
0.0
 10
11.9362134978
 20
3.3896935858
 30
0.0
 10
11.8414888114
 20
3.3401627598
 30
0.0
 10
11.721075355
 20
3.2892706863
 30
0.0
 10
11.5942179624
 20
3.2469572345
 30
0.0
 10
11.4621345735
 20
3.2136244745
 30
0.0
 10
11.3260854685
 20
3.1895871908
 30
0.0
 10
11.1873714341
 20
3.1750728221
 30
0.0
 10
11.0473183383
 20
3.1702195407
 30
0.0
 10
10.9072652425
 20
3.1750728221
 30
0.0
 10
10.768551208
 20
3.1895871908
 30
0.0
 10
10.6325021031
 20
3.2136244745
 30
0.0
 10
10.5004187142
 20
3.2469572345
 30
0.0
 10
10.3735613216
 20
3.2892706863
 30
0.0
 10
10.2531478652
 20
3.3401627598
 30
0.0
 10
10.1584231788
 20
3.3896935858
 30
0.0
 10
10.0870129184
 20
3.4332174989
 30
0.0
 10
10.0197700068
 20
3.4784504651
 30
0.0
 10
9.9567428714
 20
3.5274599081
 30
0.0
 10
9.8986336199
 20
3.5800656024
 30
0.0
 10
9.8581770103
 20
3.6206476121
 30
0.0
 10
9.820582787
 20
3.6625876585
 30
0.0
 10
9.785940659
 20
3.7057867564
 30
0.0
 10
9.7543350995
 20
3.7501411135
 30
0.0
 10
9.7258430798
 20
3.7955445731
 30
0.0
 10
9.7005345495
 20
3.8418882592
 30
0.0
 10
9.6784717819
 20
3.8890607189
 30
0.0
 10
9.6597091159
 20
3.9369481506
 30
0.0
 10
9.6442932427
 20
3.9854349175
 30
0.0
 10
9.6322630202
 20
4.0344030475
 30
0.0
 10
9.6236478666
 20
4.0837349145
 30
0.0
 10
9.6184705608
 20
4.1333063787
 30
0.0
 10
9.6173183383
 20
4.1664545167
 30
0.0
 10
9.6173183383
 20
4.183002537
 30
0.0
  0
SPLINE
  5
268
100
AcDbEntity
  8
0
100
AcDbSpline
 62
9
  6
CONTINUOUS
 70
0
 71
3
 72
22
 73
18
 74
0
 42
0.0000001
 43
0.0000001
 44
0.0000000001
 40
0.0
 40
0.0
 40
0.0
 40
0.0
 40
0.0564487582
 40
0.1130814236
 40
0.1700736698
 40
0.2275976962
 40
0.2858116142
 40
0.3448602376
 40
0.404871448
 40
0.465955003
 40
0.5282014322
 40
0.5916816236
 40
0.6564468695
 40
0.7225292869
 40
0.7899425269
 40
0.8586826818
 40
1.0
 40
1.0
 40
1.0
 40
1.0
 10
9.6173183383
 20
4.183002537
 30
0.0
 10
9.6173183383
 20
4.2022186659
 30
0.0
 10
9.6188732784
 20
4.2407314629
 30
0.0
 10
9.6258579451
 20
4.298263969
 30
0.0
 10
9.6374728656
 20
4.355419369
 30
0.0
 10
9.653677147
 20
4.412004046
 30
0.0
 10
9.6744160643
 20
4.4678339691
 30
0.0
 10
9.6996189374
 20
4.5227262829
 30
0.0
 10
9.7292011282
 20
4.5765025853
 30
0.0
 10
9.763063813
 20
4.6289886385
 30
0.0
 10
9.801094676
 20
4.6800150177
 30
0.0
 10
9.8431682538
 20
4.7294173414
 30
0.0
 10
9.8891467003
 20
4.777036889
 30
0.0
 10
9.9388789089
 20
4.8227201275
 30
0.0
 10
9.9922059582
 20
4.8663223968
 30
0.0
 10
10.0685525772
 20
4.9219958944
 30
0.0
 10
10.1296754245
 20
4.9594299357
 30
0.0
 10
10.1718722705
 20
4.9825317751
 30
0.0
  0
SPLINE
  5
269
100
AcDbEntity
  8
0
100
AcDbSpline
 62
9
  6
CONTINUOUS
 70
0
 71
3
 72
22
 73
18
 74
0
 42
0.0000001
 43
0.0000001
 44
0.0000000001
 40
0.0
 40
0.0
 40
0.0
 40
0.0
 40
0.1413173182
 40
0.2100574731
 40
0.2774707131
 40
0.3435531305
 40
0.4083183764
 40
0.4717985678
 40
0.534044997
 40
0.595128552
 40
0.6551397624
 40
0.7141883858
 40
0.7724023038
 40
0.8299263302
 40
0.8869185764
 40
0.9435512418
 40
1.0
 40
1.0
 40
1.0
 40
1.0
 10
11.9227644061
 20
4.982531775
 30
0.0
 10
11.9649612521
 20
4.9594299357
 30
0.0
 10
12.0260840994
 20
4.9219958943
 30
0.0
 10
12.1024307184
 20
4.8663223968
 30
0.0
 10
12.1557577676
 20
4.8227201275
 30
0.0
 10
12.2054899763
 20
4.777036889
 30
0.0
 10
12.2514684228
 20
4.7294173414
 30
0.0
 10
12.2935420006
 20
4.6800150177
 30
0.0
 10
12.3315728636
 20
4.6289886385
 30
0.0
 10
12.3654355484
 20
4.5765025853
 30
0.0
 10
12.3950177392
 20
4.5227262828
 30
0.0
 10
12.4202206123
 20
4.4678339691
 30
0.0
 10
12.4409595296
 20
4.412004046
 30
0.0
 10
12.457163811
 20
4.355419369
 30
0.0
 10
12.4687787314
 20
4.298263969
 30
0.0
 10
12.4757633982
 20
4.2407314629
 30
0.0
 10
12.4773183383
 20
4.2022186659
 30
0.0
 10
12.4773183383
 20
4.183002537
 30
0.0
  0
SPLINE
  5
26A
100
AcDbEntity
  8
0
100
AcDbSpline
 62
9
  6
CONTINUOUS
 70
0
 71
3
 72
47
 73
43
 74
0
 42
0.0000001
 43
0.0000001
 44
0.0000000001
 40
0.0
 40
0.0
 40
0.0
 40
0.0
 40
0.0128549019
 40
0.0257423316
 40
0.0386899186
 40
0.051728058
 40
0.0648848075
 40
0.07818591
 40
0.0916551765
 40
0.1053139819
 40
0.1332600124
 40
0.1621527902
 40
0.192062408
 40
0.223014952
 40
0.2549958598
 40
0.2879542327
 40
0.3218075467
 40
0.3564465154
 40
0.3917398715
 40
0.4275389922
 40
0.4636823742
 40
0.5
 40
0.5363176258
 40
0.5724610078
 40
0.6082601285
 40
0.6435534846
 40
0.6781924533
 40
0.7120457673
 40
0.7450041402
 40
0.776985048
 40
0.807937592
 40
0.8378472098
 40
0.8667399876
 40
0.894686018
 40
0.9083448235
 40
0.92181409
 40
0.9351151924
 40
0.948271942
 40
0.9613100814
 40
0.9742576683
 40
0.9871450981
 40
1.0
 40
1.0
 40
1.0
 40
1.0
 10
10.3173183383
 20
4.183002537
 30
0.0
 10
10.3173183383
 20
4.1745552552
 30
0.0
 10
10.3179067133
 20
4.1576334755
 30
0.0
 10
10.3205493924
 20
4.1323277174
 30
0.0
 10
10.3249473425
 20
4.1071440784
 30
0.0
 10
10.331088914
 20
4.0821465172
 30
0.0
 10
10.3389582547
 20
4.0573944629
 30
0.0
 10
10.3485364246
 20
4.0329485584
 30
0.0
 10
10.3597996517
 20
4.008867024
 30
0.0
 10
10.3771543374
 20
3.9770866154
 30
0.0
 10
10.4030472962
 20
3.9385307433
 30
0.0
 10
10.4400614646
 20
3.895032346
 30
0.0
 10
10.4828966699
 20
3.8543372865
 30
0.0
 10
10.5311324038
 20
3.8168303322
 30
0.0
 10
10.5843039763
 20
3.7828594289
 30
0.0
 10
10.6419011116
 20
3.7527424965
 30
0.0
 10
10.7033728203
 20
3.7267616675
 30
0.0
 10
10.7681316645
 20
3.7051613178
 30
0.0
 10
10.835558999
 20
3.688145224
 30
0.0
 10
10.9050105981
 20
3.6758743735
 30
0.0
 10
10.9758226932
 20
3.6684650569
 30
0.0
 10
11.0473183383
 20
3.6659874526
 30
0.0
 10
11.1188139834
 20
3.6684650569
 30
0.0
 10
11.1896260784
 20
3.6758743735
 30
0.0
 10
11.2590776775
 20
3.688145224
 30
0.0
 10
11.326505012
 20
3.7051613178
 30
0.0
 10
11.3912638562
 20
3.7267616675
 30
0.0
 10
11.4527355649
 20
3.7527424965
 30
0.0
 10
11.5103327003
 20
3.7828594289
 30
0.0
 10
11.5635042727
 20
3.8168303322
 30
0.0
 10
11.6117400066
 20
3.8543372865
 30
0.0
 10
11.654575212
 20
3.895032346
 30
0.0
 10
11.6915893804
 20
3.9385307433
 30
0.0
 10
11.7174823392
 20
3.9770866154
 30
0.0
 10
11.7348370249
 20
4.008867024
 30
0.0
 10
11.7461002519
 20
4.0329485584
 30
0.0
 10
11.7556784219
 20
4.0573944629
 30
0.0
 10
11.7635477626
 20
4.0821465172
 30
0.0
 10
11.7696893341
 20
4.1071440784
 30
0.0
 10
11.7740872842
 20
4.1323277174
 30
0.0
 10
11.7767299633
 20
4.1576334755
 30
0.0
 10
11.7773183383
 20
4.1745552552
 30
0.0
 10
11.7773183383
 20
4.183002537
 30
0.0
  0
SPLINE
  5
26B
100
AcDbEntity
  8
0
100
AcDbSpline
 62
9
  6
CONTINUOUS
 70
0
 71
3
 72
11
 73
7
 74
0
 42
0.0000001
 43
0.0000001
 44
0.0000000001
 40
0.0
 40
0.0
 40
0.0
 40
0.0
 40
0.2469528814
 40
0.4951558861
 40
0.7457965901
 40
1.0
 40
1.0
 40
1.0
 40
1.0
 10
11.7773183383
 20
4.183002537
 30
0.0
 10
11.7773183383
 20
4.1952646094
 30
0.0
 10
11.7760756609
 20
4.2198685132
 30
0.0
 10
11.7704987727
 20
4.2565374328
 30
0.0
 10
11.761239365
 20
4.2928239713
 30
0.0
 10
11.7527133042
 20
4.3164437681
 30
0.0
 10
11.7478827473
 20
4.3281049339
 30
0.0
  0
SPLINE
  5
26C
100
AcDbEntity
  8
0
100
AcDbSpline
 62
9
  6
CONTINUOUS
 70
0
 71
3
 72
11
 73
7
 74
0
 42
0.0000001
 43
0.0000001
 44
0.0000000001
 40
0.0
 40
0.0
 40
0.0
 40
0.0
 40
0.2542034099
 40
0.5048441139
 40
0.7530471185
 40
1.0
 40
1.0
 40
1.0
 40
1.0
 10
10.3467539291
 20
4.3281049334
 30
0.0
 10
10.3419233722
 20
4.3164437677
 30
0.0
 10
10.3333973115
 20
4.2928239709
 30
0.0
 10
10.3241379038
 20
4.2565374325
 30
0.0
 10
10.3185610157
 20
4.2198685131
 30
0.0
 10
10.3173183383
 20
4.1952646094
 30
0.0
 10
10.3173183383
 20
4.183002537
 30
0.0
  0
SPLINE
  5
26D
100
AcDbEntity
  8
0
100
AcDbSpline
 62
9
  6
CONTINUOUS
 70
0
 71
3
 72
55
 73
51
 74
0
 42
0.0000001
 43
0.0000001
 44
0.0000000001
 40
0.0
 40
0.0
 40
0.0
 40
0.0
 40
0.0128543492
 40
0.0257402816
 40
0.0386868032
 40
0.0517240513
 40
0.0648796746
 40
0.0781796607
 40
0.0916478363
 40
0.1053055206
 40
0.1191713856
 40
0.1332613082
 40
0.1475883235
 40
0.1621626118
 40
0.1769915107
 40
0.1920795956
 40
0.2230296093
 40
0.2388967192
 40
0.2550159358
 40
0.2879716089
 40
0.3218221421
 40
0.3564582767
 40
0.3917487427
 40
0.4275449333
 40
0.46368535
 40
0.5
 40
0.53631465
 40
0.5724550667
 40
0.6082512573
 40
0.6435417233
 40
0.6781778579
 40
0.7120283911
 40
0.7449840642
 40
0.7611032808
 40
0.7769703907
 40
0.8079204044
 40
0.8230084893
 40
0.8378373882
 40
0.8524116765
 40
0.8667386918
 40
0.8808286144
 40
0.8946944794
 40
0.9083521637
 40
0.9218203393
 40
0.9351203254
 40
0.9482759487
 40
0.9613131968
 40
0.9742597184
 40
0.9871456508
 40
1.0
 40
1.0
 40
1.0
 40
1.0
 10
12.5073183383
 20
4.1617893335
 30
0.0
 10
12.5073183383
 20
4.1448941181
 30
0.0
 10
12.5061419243
 20
4.1110504747
 30
0.0
 10
12.5008559988
 20
4.0604389495
 30
0.0
 10
12.4920600759
 20
4.0100720848
 30
0.0
 10
12.4797774412
 20
3.9600766515
 30
0.0
 10
12.4640381455
 20
3.9105726955
 30
0.0
 10
12.4448818495
 20
3.8616806547
 30
0.0
 10
12.4223562195
 20
3.8135185833
 30
0.0
 10
12.3965167254
 20
3.7662026673
 30
0.0
 10
12.3674269592
 20
3.7198466943
 30
0.0
 10
12.3351583367
 20
3.674561832
 30
0.0
 10
12.2997894419
 20
3.6304564708
 30
0.0
 10
12.2614065209
 20
3.5876365817
 30
0.0
 10
12.2201011727
 20
3.5462032159
 30
0.0
 10
12.1607728476
 20
3.4924939234
 30
0.0
 10
12.0964234626
 20
3.4424563323
 30
0.0
 10
12.027769865
 20
3.3962744362
 30
0.0
 10
11.9548614936
 20
3.3518374491
 30
0.0
 10
11.8581495851
 20
3.3012675377
 30
0.0
 10
11.7352099908
 20
3.2493078146
 30
0.0
 10
11.6056912741
 20
3.2061066876
 30
0.0
 10
11.4708369292
 20
3.1720746506
 30
0.0
 10
11.3319336734
 20
3.1475330988
 30
0.0
 10
11.1903095822
 20
3.1327142387
 30
0.0
 10
11.0473183383
 20
3.1277591421
 30
0.0
 10
10.9043270943
 20
3.1327142387
 30
0.0
 10
10.7627030032
 20
3.1475330988
 30
0.0
 10
10.6237997474
 20
3.1720746506
 30
0.0
 10
10.4889454025
 20
3.2061066876
 30
0.0
 10
10.3594266857
 20
3.2493078146
 30
0.0
 10
10.2364870915
 20
3.3012675377
 30
0.0
 10
10.139775183
 20
3.3518374491
 30
0.0
 10
10.0668668116
 20
3.3962744362
 30
0.0
 10
9.998213214
 20
3.4424563323
 30
0.0
 10
9.9338638289
 20
3.4924939234
 30
0.0
 10
9.8745355038
 20
3.5462032159
 30
0.0
 10
9.8332301557
 20
3.5876365817
 30
0.0
 10
9.7948472346
 20
3.6304564708
 30
0.0
 10
9.7594783399
 20
3.674561832
 30
0.0
 10
9.7272097173
 20
3.7198466943
 30
0.0
 10
9.6981199512
 20
3.7662026673
 30
0.0
 10
9.672280457
 20
3.8135185833
 30
0.0
 10
9.6497548271
 20
3.8616806547
 30
0.0
 10
9.6305985311
 20
3.9105726955
 30
0.0
 10
9.6148592353
 20
3.9600766515
 30
0.0
 10
9.6025766006
 20
4.0100720848
 30
0.0
 10
9.5937806778
 20
4.0604389495
 30
0.0
 10
9.5884947523
 20
4.1110504747
 30
0.0
 10
9.5873183383
 20
4.1448941181
 30
0.0
 10
9.5873183383
 20
4.1617893335
 30
0.0
  0
SPLINE
  5
26E
100
AcDbEntity
  8
0
100
AcDbSpline
 62
9
  6
CONTINUOUS
 70
0
 71
3
 72
55
 73
51
 74
0
 42
0.0000001
 43
0.0000001
 44
0.0000000001
 40
0.0
 40
0.0
 40
0.0
 40
0.0
 40
0.0128543492
 40
0.0257402816
 40
0.0386868032
 40
0.0517240513
 40
0.0648796746
 40
0.0781796607
 40
0.0916478363
 40
0.1053055206
 40
0.1191713856
 40
0.1332613082
 40
0.1475883235
 40
0.1621626118
 40
0.1769915107
 40
0.1920795956
 40
0.2230296093
 40
0.2388967192
 40
0.2550159358
 40
0.2879716089
 40
0.3218221421
 40
0.3564582767
 40
0.3917487427
 40
0.4275449333
 40
0.46368535
 40
0.5
 40
0.53631465
 40
0.5724550667
 40
0.6082512573
 40
0.6435417233
 40
0.6781778579
 40
0.7120283911
 40
0.7449840642
 40
0.7611032808
 40
0.7769703907
 40
0.8079204044
 40
0.8230084893
 40
0.8378373882
 40
0.8524116765
 40
0.8667386918
 40
0.8808286144
 40
0.8946944794
 40
0.9083521637
 40
0.9218203393
 40
0.9351203254
 40
0.9482759487
 40
0.9613131968
 40
0.9742597184
 40
0.9871456508
 40
1.0
 40
1.0
 40
1.0
 40
1.0
 10
9.5873183383
 20
3.9984476671
 30
0.0
 10
9.5873183383
 20
3.9815524516
 30
0.0
 10
9.5884947523
 20
3.9477088083
 30
0.0
 10
9.5937806778
 20
3.8970972831
 30
0.0
 10
9.6025766006
 20
3.8467304183
 30
0.0
 10
9.6148592353
 20
3.7967349851
 30
0.0
 10
9.6305985311
 20
3.7472310291
 30
0.0
 10
9.6497548271
 20
3.6983389883
 30
0.0
 10
9.672280457
 20
3.6501769168
 30
0.0
 10
9.6981199512
 20
3.6028610008
 30
0.0
 10
9.7272097173
 20
3.5565050279
 30
0.0
 10
9.7594783399
 20
3.5112201655
 30
0.0
 10
9.7948472346
 20
3.4671148044
 30
0.0
 10
9.8332301557
 20
3.4242949152
 30
0.0
 10
9.8745355038
 20
3.3828615494
 30
0.0
 10
9.9338638289
 20
3.329152257
 30
0.0
 10
9.998213214
 20
3.2791146658
 30
0.0
 10
10.0668668116
 20
3.2329327698
 30
0.0
 10
10.139775183
 20
3.1884957827
 30
0.0
 10
10.2364870915
 20
3.1379258712
 30
0.0
 10
10.3594266857
 20
3.0859661482
 30
0.0
 10
10.4889454025
 20
3.0427650211
 30
0.0
 10
10.6237997474
 20
3.0087329841
 30
0.0
 10
10.7627030032
 20
2.9841914324
 30
0.0
 10
10.9043270943
 20
2.9693725722
 30
0.0
 10
11.0473183383
 20
2.9644174756
 30
0.0
 10
11.1903095822
 20
2.9693725722
 30
0.0
 10
11.3319336734
 20
2.9841914324
 30
0.0
 10
11.4708369292
 20
3.0087329841
 30
0.0
 10
11.6056912741
 20
3.0427650211
 30
0.0
 10
11.7352099908
 20
3.0859661482
 30
0.0
 10
11.8581495851
 20
3.1379258712
 30
0.0
 10
11.9548614936
 20
3.1884957827
 30
0.0
 10
12.027769865
 20
3.2329327698
 30
0.0
 10
12.0964234626
 20
3.2791146658
 30
0.0
 10
12.1607728476
 20
3.329152257
 30
0.0
 10
12.2201011727
 20
3.3828615494
 30
0.0
 10
12.2614065209
 20
3.4242949152
 30
0.0
 10
12.2997894419
 20
3.4671148044
 30
0.0
 10
12.3351583367
 20
3.5112201655
 30
0.0
 10
12.3674269592
 20
3.5565050279
 30
0.0
 10
12.3965167254
 20
3.6028610008
 30
0.0
 10
12.4223562195
 20
3.6501769168
 30
0.0
 10
12.4448818495
 20
3.6983389883
 30
0.0
 10
12.4640381455
 20
3.7472310291
 30
0.0
 10
12.4797774412
 20
3.7967349851
 30
0.0
 10
12.4920600759
 20
3.8467304183
 30
0.0
 10
12.5008559988
 20
3.8970972831
 30
0.0
 10
12.5061419243
 20
3.9477088083
 30
0.0
 10
12.5073183383
 20
3.9815524516
 30
0.0
 10
12.5073183383
 20
3.9984476671
 30
0.0
  0
SPLINE
  5
26F
100
AcDbEntity
  8
0
100
AcDbSpline
 62
9
  6
CONTINUOUS
 70
0
 71
3
 72
30
 73
26
 74
0
 42
0.0000001
 43
0.0000001
 44
0.0000000001
 40
0.0
 40
0.0
 40
0.0
 40
0.0
 40
0.0268369021
 40
0.0537146463
 40
0.0806700425
 40
0.1077426609
 40
0.1349694538
 40
0.1623859089
 40
0.1900258878
 40
0.2179210272
 40
0.246100631
 40
0.2745915025
 40
0.3034177542
 40
0.3326007116
 40
0.3621588834
 40
0.3921079058
 40
0.4532132791
 40
0.5159997215
 40
0.5804921586
 40
0.6466749433
 40
0.7144952317
 40
0.7838666095
 40
0.854672955
 40
0.9267721872
 40
1.0
 40
1.0
 40
1.0
 40
1.0
 10
13.9723183383
 20
3.9772344636
 30
0.0
 10
13.9723183383
 20
3.950741672
 30
0.0
 10
13.970876007
 20
3.8977045122
 30
0.0
 10
13.9643918546
 20
3.8182960683
 30
0.0
 10
13.9535950698
 20
3.7391213181
 30
0.0
 10
13.9385028086
 20
3.6603023112
 30
0.0
 10
13.919137762
 20
3.5819544337
 30
0.0
 10
13.895529314
 20
3.5041944184
 30
0.0
 10
13.8677129771
 20
3.4271375847
 30
0.0
 10
13.8357306964
 20
3.350897971
 30
0.0
 10
13.7996307302
 20
3.2755881993
 30
0.0
 10
13.7594670004
 20
3.2013195704
 30
0.0
 10
13.7152994745
 20
3.1282015373
 30
0.0
 10
13.6671946029
 20
3.0563419961
 30
0.0
 10
13.6152226885
 20
2.9858455397
 30
0.0
 10
13.5403835666
 20
2.8931983258
 30
0.0
 10
13.4373506892
 20
2.7813599605
 30
0.0
 10
13.3004884153
 20
2.6551723066
 30
0.0
 10
13.1503741809
 20
2.5368135369
 30
0.0
 10
12.9879016399
 20
2.4269764187
 30
0.0
 10
12.8140262449
 20
2.3262950064
 30
0.0
 10
12.6297720889
 20
2.2353536816
 30
0.0
 10
12.4362193849
 20
2.1546803049
 30
0.0
 10
12.2345140617
 20
2.0847465663
 30
0.0
 10
12.0963330701
 20
2.0458193943
 30
0.0
 10
12.0262212082
 20
2.0282123842
 30
0.0
  0
SPLINE
  5
270
100
AcDbEntity
  8
0
100
AcDbSpline
 62
9
  6
CONTINUOUS
 70
0
 71
3
 72
15
 73
11
 74
0
 42
0.0000001
 43
0.0000001
 44
0.0000000001
 40
0.0
 40
0.0
 40
0.0
 40
0.0
 40
0.1236935045
 40
0.2485011009
 40
0.3740610314
 40
0.5
 40
0.6259389686
 40
0.7514988991
 40
0.8763064955
 40
1.0
 40
1.0
 40
1.0
 40
1.0
 10
11.9417613673
 20
2.0080219014
 30
0.0
 10
11.8692547324
 20
1.991555169
 30
0.0
 10
11.7225979268
 20
1.962684549
 30
0.0
 10
11.4997749126
 20
1.9317389245
 30
0.0
 10
11.2742270495
 20
1.9130960879
 30
0.0
 10
11.0473183383
 20
1.9068695226
 30
0.0
 10
10.8204096271
 20
1.9130960879
 30
0.0
 10
10.594861764
 20
1.9317389245
 30
0.0
 10
10.3720387498
 20
1.962684549
 30
0.0
 10
10.2253819442
 20
1.991555169
 30
0.0
 10
10.1528753092
 20
2.0080219014
 30
0.0
  0
SPLINE
  5
271
100
AcDbEntity
  8
0
100
AcDbSpline
 62
9
  6
CONTINUOUS
 70
0
 71
3
 72
30
 73
26
 74
0
 42
0.0000001
 43
0.0000001
 44
0.0000000001
 40
0.0
 40
0.0
 40
0.0
 40
0.0
 40
0.0732278128
 40
0.145327045
 40
0.2161333905
 40
0.2855047684
 40
0.3533250567
 40
0.4195078414
 40
0.4840002785
 40
0.5467867209
 40
0.6078920942
 40
0.6378411166
 40
0.6673992884
 40
0.6965822458
 40
0.7254084975
 40
0.753899369
 40
0.7820789728
 40
0.8099741122
 40
0.8376140911
 40
0.8650305462
 40
0.8922573391
 40
0.9193299575
 40
0.9462853537
 40
0.9731630979
 40
1.0
 40
1.0
 40
1.0
 40
1.0
 10
10.0684154684
 20
2.0282123842
 30
0.0
 10
9.9983036065
 20
2.0458193943
 30
0.0
 10
9.8601226149
 20
2.0847465663
 30
0.0
 10
9.6584172917
 20
2.1546803049
 30
0.0
 10
9.4648645877
 20
2.2353536816
 30
0.0
 10
9.2806104317
 20
2.3262950064
 30
0.0
 10
9.1067350366
 20
2.4269764187
 30
0.0
 10
8.9442624956
 20
2.5368135369
 30
0.0
 10
8.7941482613
 20
2.6551723066
 30
0.0
 10
8.6572859874
 20
2.7813599605
 30
0.0
 10
8.5542531099
 20
2.8931983258
 30
0.0
 10
8.479413988
 20
2.9858455397
 30
0.0
 10
8.4274420737
 20
3.0563419961
 30
0.0
 10
8.379337202
 20
3.1282015372
 30
0.0
 10
8.3351696762
 20
3.2013195704
 30
0.0
 10
8.2950059464
 20
3.2755881993
 30
0.0
 10
8.2589059801
 20
3.3508979709
 30
0.0
 10
8.2269236994
 20
3.4271375847
 30
0.0
 10
8.1991073626
 20
3.5041944184
 30
0.0
 10
8.1754989146
 20
3.5819544337
 30
0.0
 10
8.1561338679
 20
3.6603023112
 30
0.0
 10
8.1410416068
 20
3.7391213181
 30
0.0
 10
8.1302448219
 20
3.8182960683
 30
0.0
 10
8.1237606696
 20
3.8977045122
 30
0.0
 10
8.1223183383
 20
3.950741672
 30
0.0
 10
8.1223183383
 20
3.9772344636
 30
0.0
  0
SPLINE
  5
272
100
AcDbEntity
  8
0
100
AcDbSpline
 62
9
  6
CONTINUOUS
 70
0
 71
3
 72
30
 73
26
 74
0
 42
0.0000001
 43
0.0000001
 44
0.0000000001
 40
0.0
 40
0.0
 40
0.0
 40
0.0
 40
0.026693164
 40
0.0534292595
 40
0.0802474288
 40
0.1071892749
 40
0.1342936043
 40
0.1615977
 40
0.1891369416
 40
0.2169442686
 40
0.2450500349
 40
0.2734818146
 40
0.3022642437
 40
0.331418895
 40
0.3609642395
 40
0.3909156437
 40
0.4520686479
 40
0.5149545228
 40
0.579588245
 40
0.6459416045
 40
0.7139470625
 40
0.7835020126
 40
0.8544729583
 40
0.9266998074
 40
1.0
 40
1.0
 40
1.0
 40
1.0
 10
8.1223183383
 20
3.9772344636
 30
0.0
 10
8.1223183383
 20
4.0045319825
 30
0.0
 10
8.1238497418
 20
4.0591832385
 30
0.0
 10
8.1307341534
 20
4.1409989433
 30
0.0
 10
8.1421966422
 20
4.2225588164
 30
0.0
 10
8.1582177813
 20
4.3037295095
 30
0.0
 10
8.1787722097
 20
4.3843846802
 30
0.0
 10
8.2038266284
 20
4.4643967305
 30
0.0
 10
8.2333408359
 20
4.5436397898
 30
0.0
 10
8.2672678235
 20
4.6219892585
 30
0.0
 10
8.3055531672
 20
4.6993222943
 30
0.0
 10
8.3481359002
 20
4.7755177276
 30
0.0
 10
8.3949487198
 20
4.8504562898
 30
0.0
 10
8.4459169817
 20
4.9240205636
 30
0.0
 10
8.500961285
 20
4.9960970608
 30
0.0
 10
8.5802100868
 20
5.0907076548
 30
0.0
 10
8.6892398964
 20
5.2046280523
 30
0.0
 10
8.8338799455
 20
5.3326310599
 30
0.0
 10
8.992335671
 20
5.4521162211
 30
0.0
 10
9.1636067834
 20
5.562341673
 30
0.0
 10
9.3466245267
 20
5.662633042
 30
0.0
 10
9.5402457749
 20
5.7523717855
 30
0.0
 10
9.7432656372
 20
5.8310057165
 30
0.0
 10
9.9544089268
 20
5.8980468428
 30
0.0
 10
10.0988018756
 20
5.934505932
 30
0.0
 10
10.1719835943
 20
5.9507356251
 30
0.0
  0
SPLINE
  5
273
100
AcDbEntity
  8
0
100
AcDbSpline
 62
9
  6
CONTINUOUS
 70
0
 71
3
 72
30
 73
26
 74
0
 42
0.0000001
 43
0.0000001
 44
0.0000000001
 40
0.0
 40
0.0
 40
0.0
 40
0.0
 40
0.0733001926
 40
0.1455270417
 40
0.2164979874
 40
0.2860529375
 40
0.3540583955
 40
0.420411755
 40
0.4850454772
 40
0.5479313521
 40
0.6090843563
 40
0.6390357605
 40
0.668581105
 40
0.6977357563
 40
0.7265181854
 40
0.7549499651
 40
0.7830557314
 40
0.8108630584
 40
0.8384023
 40
0.8657063957
 40
0.8928107251
 40
0.9197525712
 40
0.9465707405
 40
0.973306836
 40
1.0
 40
1.0
 40
1.0
 40
1.0
 10
11.9226530823
 20
5.9507356251
 30
0.0
 10
11.995834801
 20
5.934505932
 30
0.0
 10
12.1402277498
 20
5.8980468428
 30
0.0
 10
12.3513710393
 20
5.8310057165
 30
0.0
 10
12.5543909017
 20
5.7523717855
 30
0.0
 10
12.7480121498
 20
5.662633042
 30
0.0
 10
12.9310298931
 20
5.562341673
 30
0.0
 10
13.1023010055
 20
5.4521162211
 30
0.0
 10
13.260756731
 20
5.3326310599
 30
0.0
 10
13.4053967802
 20
5.2046280523
 30
0.0
 10
13.5144265898
 20
5.0907076548
 30
0.0
 10
13.5936753916
 20
4.9960970608
 30
0.0
 10
13.6487196948
 20
4.9240205636
 30
0.0
 10
13.6996879567
 20
4.8504562898
 30
0.0
 10
13.7465007763
 20
4.7755177276
 30
0.0
 10
13.7890835093
 20
4.6993222943
 30
0.0
 10
13.827368853
 20
4.6219892585
 30
0.0
 10
13.8612958407
 20
4.5436397898
 30
0.0
 10
13.8908100482
 20
4.4643967305
 30
0.0
 10
13.9158644669
 20
4.3843846802
 30
0.0
 10
13.9364188952
 20
4.3037295095
 30
0.0
 10
13.9524400343
 20
4.2225588164
 30
0.0
 10
13.9639025232
 20
4.1409989433
 30
0.0
 10
13.9707869348
 20
4.0591832385
 30
0.0
 10
13.9723183383
 20
4.0045319825
 30
0.0
 10
13.9723183383
 20
3.9772344636
 30
0.0
  0
SPLINE
  5
274
100
AcDbEntity
  8
0
100
AcDbSpline
 62
9
  6
CONTINUOUS
 70
0
 71
3
 72
55
 73
51
 74
0
 42
0.0000001
 43
0.0000001
 44
0.0000000001
 40
0.0
 40
0.0
 40
0.0
 40
0.0
 40
0.012854326
 40
0.0257402203
 40
0.0386867364
 40
0.0517239848
 40
0.0648796112
 40
0.078179603
 40
0.0916477816
 40
0.1053054657
 40
0.1191713296
 40
0.1332612524
 40
0.1475882692
 40
0.16216256
 40
0.1769914615
 40
0.1920795486
 40
0.2230295652
 40
0.2388966772
 40
0.2550158961
 40
0.2879715739
 40
0.3218221122
 40
0.3564582523
 40
0.391748724
 40
0.4275449208
 40
0.4636853437
 40
0.5
 40
0.5363146563
 40
0.5724550793
 40
0.608251276
 40
0.6435417477
 40
0.6781778878
 40
0.7120284261
 40
0.7449841039
 40
0.7611033228
 40
0.7769704348
 40
0.8079204514
 40
0.8230085385
 40
0.83783744
 40
0.8524117308
 40
0.8667387476
 40
0.8808286704
 40
0.8946945343
 40
0.9083522184
 40
0.921820397
 40
0.9351203888
 40
0.9482760152
 40
0.9613132636
 40
0.9742597797
 40
0.987145674
 40
1.0
 40
1.0
 40
1.0
 40
1.0
 10
9.5573183383
 20
3.9772344636
 30
0.0
 10
9.5573183383
 20
3.9599921174
 30
0.0
 10
9.5585189077
 20
3.9254531382
 30
0.0
 10
9.5639134442
 20
3.8738017398
 30
0.0
 10
9.5728900768
 20
3.8223999941
 30
0.0
 10
9.5854250685
 20
3.7713772539
 30
0.0
 10
9.6014877646
 20
3.7208560772
 30
0.0
 10
9.6210376761
 20
3.6709593857
 30
0.0
 10
9.6440261545
 20
3.621807667
 30
0.0
 10
9.6703965818
 20
3.573519495
 30
0.0
 10
9.7000840718
 20
3.5262109968
 30
0.0
 10
9.7330157409
 20
3.4799956172
 30
0.0
 10
9.7691113873
 20
3.4349839693
 30
0.0
 10
9.8082829929
 20
3.3912842023
 30
0.0
 10
9.8504370822
 20
3.3489994531
 30
0.0
 10
9.910984483
 20
3.2941865303
 30
0.0
 10
9.9766561132
 20
3.2431207506
 30
0.0
 10
10.0467204052
 20
3.1959898995
 30
0.0
 10
10.1211268997
 20
3.15063981
 30
0.0
 10
10.2198260473
 20
3.0990307707
 30
0.0
 10
10.3452918139
 20
3.0460033677
 30
0.0
 10
10.4774718915
 20
3.0019145291
 30
0.0
 10
10.6150972375
 20
2.9671831933
 30
0.0
 10
10.7568546929
 20
2.9421373537
 30
0.0
 10
10.9013888927
 20
2.9270139914
 30
0.0
 10
11.0473183383
 20
2.921957076
 30
0.0
 10
11.1932477838
 20
2.9270139914
 30
0.0
 10
11.3377819837
 20
2.9421373537
 30
0.0
 10
11.4795394391
 20
2.9671831933
 30
0.0
 10
11.617164785
 20
3.0019145291
 30
0.0
 10
11.7493448627
 20
3.0460033677
 30
0.0
 10
11.8748106292
 20
3.0990307707
 30
0.0
 10
11.9735097769
 20
3.15063981
 30
0.0
 10
12.0479162714
 20
3.1959898995
 30
0.0
 10
12.1179805633
 20
3.2431207506
 30
0.0
 10
12.1836521936
 20
3.2941865303
 30
0.0
 10
12.2441995944
 20
3.3489994531
 30
0.0
 10
12.2863536837
 20
3.3912842023
 30
0.0
 10
12.3255252893
 20
3.4349839693
 30
0.0
 10
12.3616209356
 20
3.4799956172
 30
0.0
 10
12.3945526047
 20
3.5262109968
 30
0.0
 10
12.4242400947
 20
3.573519495
 30
0.0
 10
12.450610522
 20
3.621807667
 30
0.0
 10
12.4735990004
 20
3.6709593857
 30
0.0
 10
12.493148912
 20
3.7208560772
 30
0.0
 10
12.509211608
 20
3.7713772539
 30
0.0
 10
12.5217465998
 20
3.8223999941
 30
0.0
 10
12.5307232324
 20
3.8738017398
 30
0.0
 10
12.5361177688
 20
3.9254531382
 30
0.0
 10
12.5373183383
 20
3.9599921174
 30
0.0
 10
12.5373183383
 20
3.9772344636
 30
0.0
  0
SPLINE
  5
275
100
AcDbEntity
  8
0
100
AcDbSpline
 62
9
  6
CONTINUOUS
 70
0
 71
3
 72
69
 73
65
 74
0
 42
0.0000001
 43
0.0000001
 44
0.0000000001
 40
0.0
 40
0.0
 40
0.0
 40
0.0
 40
0.012853372
 40
0.0257377918
 40
0.0386832237
 40
0.051719256
 40
0.0648736359
 40
0.0781723966
 40
0.0916393193
 40
0.1052957339
 40
0.1191603079
 40
0.133248923
 40
0.1475746112
 40
0.1621475428
 40
0.1769750598
 40
0.192061744
 40
0.2074095131
 40
0.2230177376
 40
0.2388833718
 40
0.2550010948
 40
0.2713634588
 40
0.2879610407
 40
0.3047825938
 40
0.3218151994
 40
0.3390444168
 40
0.3564544315
 40
0.3740282006
 40
0.3917475965
 40
0.4095935488
 40
0.4275461833
 40
0.4636832419
 40
0.4818306878
 40
0.5
 40
0.5181693122
 40
0.5363167581
 40
0.5724538167
 40
0.5904064512
 40
0.6082524035
 40
0.6259717994
 40
0.6435455685
 40
0.6609555832
 40
0.6781848006
 40
0.6952174062
 40
0.7120389593
 40
0.7286365412
 40
0.7449989052
 40
0.7611166282
 40
0.7769822624
 40
0.7925904869
 40
0.807938256
 40
0.8230249402
 40
0.8378524572
 40
0.8524253888
 40
0.866751077
 40
0.8808396921
 40
0.8947042661
 40
0.9083606807
 40
0.9218276034
 40
0.9351263641
 40
0.948280744
 40
0.9613167763
 40
0.9742622082
 40
0.987146628
 40
1.0
 40
1.0
 40
1.0
 40
1.0
 10
14.0023183383
 20
3.334701033
 30
0.0
 10
14.0023183383
 20
3.3005050008
 30
0.0
 10
13.9999376509
 20
3.2320066316
 30
0.0
 10
13.9892385595
 20
3.1295703008
 30
0.0
 10
13.9714361663
 20
3.0276296522
 30
0.0
 10
13.9465762114
 20
2.9264400739
 30
0.0
 10
13.9147204381
 20
2.8262454289
 30
0.0
 10
13.8759487498
 20
2.7272892504
 30
0.0
 10
13.8303573264
 20
2.6298105857
 30
0.0
 10
13.7780589226
 20
2.5340444679
 30
0.0
 10
13.7191821615
 20
2.4402211801
 30
0.0
 10
13.6538712668
 20
2.3485658463
 30
0.0
 10
13.5822855745
 20
2.259298021
 30
0.0
 10
13.5045991341
 20
2.1726312802
 30
0.0
 10
13.4210002956
 20
2.0887728105
 30
0.0
 10
13.3316912845
 20
2.0079229969
 30
0.0
 10
13.236887757
 20
1.9302750073
 30
0.0
 10
13.1368183278
 20
1.8560143757
 30
0.0
 10
13.0317240721
 20
1.7853185891
 30
0.0
 10
12.9218580134
 20
1.7183566382
 30
0.0
 10
12.8074845222
 20
1.6552886551
 30
0.0
 10
12.6888787136
 20
1.5962655264
 30
0.0
 10
12.5663258112
 20
1.5414285255
 30
0.0
 10
12.4401204916
 20
1.4909089663
 30
0.0
 10
12.3105661705
 20
1.4448278747
 30
0.0
 10
12.1779743781
 20
1.4032957014
 30
0.0
 10
12.0426636829
 20
1.3664119925
 30
0.0
 10
11.9049602256
 20
1.3342653043
 30
0.0
 10
11.7651920689
 20
1.3069322464
 30
0.0
 10
11.5761441689
 20
1.2769326009
 30
0.0
 10
11.3848143622
 20
1.2569129286
 30
0.0
 10
11.1922858165
 20
1.2468768468
 30
0.0
 10
11.0473183383
 20
1.2443618138
 30
0.0
 10
10.9023508601
 20
1.2468768468
 30
0.0
 10
10.7098223144
 20
1.2569129286
 30
0.0
 10
10.5184925077
 20
1.2769326009
 30
0.0
 10
10.3294446077
 20
1.3069322464
 30
0.0
 10
10.189676451
 20
1.3342653043
 30
0.0
 10
10.0519729937
 20
1.3664119925
 30
0.0
 10
9.9166622984
 20
1.4032957014
 30
0.0
 10
9.7840705061
 20
1.4448278747
 30
0.0
 10
9.654516185
 20
1.4909089663
 30
0.0
 10
9.5283108653
 20
1.5414285255
 30
0.0
 10
9.405757963
 20
1.5962655264
 30
0.0
 10
9.2871521544
 20
1.6552886551
 30
0.0
 10
9.1727786632
 20
1.7183566382
 30
0.0
 10
9.0629126044
 20
1.7853185891
 30
0.0
 10
8.9578183488
 20
1.8560143757
 30
0.0
 10
8.8577489196
 20
1.9302750073
 30
0.0
 10
8.762945392
 20
2.0079229969
 30
0.0
 10
8.673636381
 20
2.0887728105
 30
0.0
 10
8.5900375425
 20
2.1726312802
 30
0.0
 10
8.5123511021
 20
2.259298021
 30
0.0
 10
8.4407654097
 20
2.3485658463
 30
0.0
 10
8.3754545151
 20
2.4402211801
 30
0.0
 10
8.316577754
 20
2.5340444679
 30
0.0
 10
8.2642793501
 20
2.6298105857
 30
0.0
 10
8.2186879268
 20
2.7272892504
 30
0.0
 10
8.1799162385
 20
2.8262454289
 30
0.0
 10
8.1480604651
 20
2.9264400739
 30
0.0
 10
8.1232005103
 20
3.0276296522
 30
0.0
 10
8.1053981171
 20
3.1295703008
 30
0.0
 10
8.0946990257
 20
3.2320066316
 30
0.0
 10
8.0923183383
 20
3.3005050008
 30
0.0
 10
8.0923183383
 20
3.334701033
 30
0.0
  0
SPLINE
  5
276
100
AcDbEntity
  8
0
100
AcDbSpline
 62
9
  6
CONTINUOUS
 70
0
 71
3
 72
33
 73
29
 74
0
 42
0.0000001
 43
0.0000001
 44
0.0000000001
 40
0.0
 40
0.0
 40
0.0
 40
0.0
 40
0.0262555313
 40
0.0525612352
 40
0.078964199
 40
0.1055128549
 40
0.1322524052
 40
0.1592260681
 40
0.1864741616
 40
0.2140337439
 40
0.2419383518
 40
0.2702177389
 40
0.2988977194
 40
0.328000093
 40
0.3575426185
 40
0.3875390364
 40
0.4179991212
 40
0.4489287931
 40
0.5121880233
 40
0.5445255705
 40
0.5773207588
 40
0.6442250538
 40
0.7127921428
 40
0.7828606083
 40
0.8542354167
 40
0.8903487335
 40
0.9267031177
 40
1.0
 40
1.0
 40
1.0
 40
1.0
 10
14.0023183383
 20
3.9560212602
 30
0.0
 10
14.0023183383
 20
3.9257838513
 30
0.0
 10
14.0004578564
 20
3.865234857
 30
0.0
 10
13.9920949792
 20
3.774626219
 30
0.0
 10
13.9781741433
 20
3.6843591154
 30
0.0
 10
13.9587237883
 20
3.5946105905
 30
0.0
 10
13.9337808889
 20
3.5055491479
 30
0.0
 10
13.903394202
 20
3.417344206
 30
0.0
 10
13.8676226004
 20
3.3301624323
 30
0.0
 10
13.826535036
 20
3.244168442
 30
0.0
 10
13.7802104119
 20
3.1595242886
 30
0.0
 10
13.7287373541
 20
3.0763892494
 30
0.0
 10
13.6722142399
 20
2.9949194064
 30
0.0
 10
13.6107487317
 20
2.9152676163
 30
0.0
 10
13.5444573708
 20
2.8375830495
 30
0.0
 10
13.4734662631
 20
2.76201177
 30
0.0
 10
13.3979075469
 20
2.6886934121
 30
0.0
 10
13.2904748571
 20
2.5934228662
 30
0.0
 10
13.1751708801
 20
2.503988154
 30
0.0
 10
13.0529979216
 20
2.4206455487
 30
0.0
 10
12.9240349003
 20
2.3400079231
 30
0.0
 10
12.7538214581
 20
2.246957429
 30
0.0
 10
12.538155083
 20
2.148903824
 30
0.0
 10
12.3113248114
 20
2.0644307154
 30
0.0
 10
12.115167644
 20
2.0061021537
 30
0.0
 10
11.9542443192
 20
1.9666756353
 30
0.0
 10
11.7899733769
 20
1.9319933288
 30
0.0
 10
11.6652022225
 20
1.9118236824
 30
0.0
 10
11.5814932437
 20
1.9009443845
 30
0.0
  0
SPLINE
  5
277
100
AcDbEntity
  8
0
100
AcDbSpline
 62
9
  6
CONTINUOUS
 70
0
 71
3
 72
33
 73
29
 74
0
 42
0.0000001
 43
0.0000001
 44
0.0000000001
 40
0.0
 40
0.0
 40
0.0
 40
0.0
 40
0.0732968823
 40
0.1096512665
 40
0.1457645833
 40
0.2171393917
 40
0.2872078572
 40
0.3557749462
 40
0.4226792412
 40
0.4554744295
 40
0.4878119767
 40
0.5510712069
 40
0.5820008788
 40
0.6124609636
 40
0.6424573815
 40
0.671999907
 40
0.7011022806
 40
0.7297822611
 40
0.7580616482
 40
0.7859662561
 40
0.8135258384
 40
0.8407739319
 40
0.8677475948
 40
0.8944871451
 40
0.921035801
 40
0.9474387648
 40
0.9737444687
 40
1.0
 40
1.0
 40
1.0
 40
1.0
 10
10.5131434329
 20
1.9009443845
 30
0.0
 10
10.429434454
 20
1.9118236824
 30
0.0
 10
10.3046632997
 20
1.9319933288
 30
0.0
 10
10.1403923574
 20
1.9666756353
 30
0.0
 10
9.9794690325
 20
2.0061021537
 30
0.0
 10
9.7833118652
 20
2.0644307154
 30
0.0
 10
9.5564815936
 20
2.148903824
 30
0.0
 10
9.3408152185
 20
2.246957429
 30
0.0
 10
9.1706017762
 20
2.3400079231
 30
0.0
 10
9.041638755
 20
2.4206455487
 30
0.0
 10
8.9194657964
 20
2.503988154
 30
0.0
 10
8.8041618194
 20
2.5934228662
 30
0.0
 10
8.6967291297
 20
2.6886934121
 30
0.0
 10
8.6211704135
 20
2.76201177
 30
0.0
 10
8.5501793058
 20
2.8375830495
 30
0.0
 10
8.4838879448
 20
2.9152676163
 30
0.0
 10
8.4224224366
 20
2.9949194064
 30
0.0
 10
8.3658993224
 20
3.0763892494
 30
0.0
 10
8.3144262646
 20
3.1595242886
 30
0.0
 10
8.2681016406
 20
3.244168442
 30
0.0
 10
8.2270140762
 20
3.3301624323
 30
0.0
 10
8.1912424745
 20
3.417344206
 30
0.0
 10
8.1608557877
 20
3.5055491479
 30
0.0
 10
8.1359128883
 20
3.5946105905
 30
0.0
 10
8.1164625333
 20
3.6843591154
 30
0.0
 10
8.1025416974
 20
3.774626219
 30
0.0
 10
8.0941788202
 20
3.865234857
 30
0.0
 10
8.0923183383
 20
3.9257838513
 30
0.0
 10
8.0923183383
 20
3.9560212602
 30
0.0
  0
SPLINE
  5
278
100
AcDbEntity
  8
0
100
AcDbSpline
 62
7
  6
CONTINUOUS
 70
0
 71
3
 72
22
 73
18
 74
0
 42
0.0000001
 43
0.0000001
 44
0.0000000001
 40
0.0
 40
0.0
 40
0.0
 40
0.0
 40
0.1377150049
 40
0.274698188
 40
0.4100588359
 40
0.4767842907
 40
0.5425978641
 40
0.6072414969
 40
0.6704024496
 40
0.7316932421
 40
0.7906799415
 40
0.8469469785
 40
0.90026319
 40
0.9259036587
 40
0.9509629663
 40
0.9756009113
 40
1.0
 40
1.0
 40
1.0
 40
1.0
 10
11.0473183383
 20
4.6604779627
 30
0.0
 10
11.0405624487
 20
4.6604779627
 30
0.0
 10
11.0270812543
 20
4.660953334
 30
0.0
 10
11.0070653316
 20
4.6631263955
 30
0.0
 10
10.990702793
 20
4.6662490791
 30
0.0
 10
10.9779998472
 20
4.6696387479
 30
0.0
 10
10.9687970816
 20
4.6726363552
 30
0.0
 10
10.9599585528
 20
4.6761336504
 30
0.0
 10
10.9515937876
 20
4.680166316
 30
0.0
 10
10.9438459181
 20
4.6847702146
 30
0.0
 10
10.9368981615
 20
4.6899759529
 30
0.0
 10
10.930981751
 20
4.6957953954
 30
0.0
 10
10.9270897096
 20
4.7012258494
 30
0.0
 10
10.9248339678
 20
4.7058144149
 30
0.0
 10
10.92360962
 20
4.709312181
 30
0.0
 10
10.9228624406
 20
4.7128800151
 30
0.0
 10
10.9226939025
 20
4.7152888277
 30
0.0
 10
10.9226939025
 20
4.7164857746
 30
0.0
  0
SPLINE
  5
279
100
AcDbEntity
  8
0
100
AcDbSpline
 62
7
  6
CONTINUOUS
 70
0
 71
3
 72
22
 73
18
 74
0
 42
0.0000001
 43
0.0000001
 44
0.0000000001
 40
0.0
 40
0.0
 40
0.0
 40
0.0
 40
0.0243992183
 40
0.0490374655
 40
0.0740969764
 40
0.0997376259
 40
0.1530542279
 40
0.2093214508
 40
0.2683082468
 40
0.3295988277
 40
0.3927594385
 40
0.4574029314
 40
0.5232164969
 40
0.5899417318
 40
0.7253022457
 40
0.8622850602
 40
1.0
 40
1.0
 40
1.0
 40
1.0
 10
11.1719427741
 20
4.7164857746
 30
0.0
 10
11.1719427741
 20
4.7152888214
 30
0.0
 10
11.1717742184
 20
4.7128799892
 30
0.0
 10
11.1710270514
 20
4.7093121207
 30
0.0
 10
11.1698026679
 20
4.7058143302
 30
0.0
 10
11.1675469
 20
4.7012257362
 30
0.0
 10
11.1636548194
 20
4.6957952627
 30
0.0
 10
11.1577383621
 20
4.6899758215
 30
0.0
 10
11.1507905901
 20
4.6847700979
 30
0.0
 10
11.1430427231
 20
4.6801662394
 30
0.0
 10
11.1346779873
 20
4.6761335933
 30
0.0
 10
11.1258394804
 20
4.6726363067
 30
0.0
 10
11.1166367249
 20
4.6696387274
 30
0.0
 10
11.1039337998
 20
4.6662490515
 30
0.0
 10
11.0875712919
 20
4.6631263929
 30
0.0
 10
11.067555398
 20
4.6609533317
 30
0.0
 10
11.0540742247
 20
4.6604779627
 30
0.0
 10
11.0473183383
 20
4.6604779627
 30
0.0
  0
SPLINE
  5
27A
100
AcDbEntity
  8
0
100
AcDbSpline
 62
9
  6
CONTINUOUS
 70
0
 71
3
 72
19
 73
15
 74
0
 42
0.0000001
 43
0.0000001
 44
0.0000000001
 40
0.0
 40
0.0
 40
0.0
 40
0.0
 40
0.0525858747
 40
0.1064773099
 40
0.1617913451
 40
0.21860478
 40
0.3367631612
 40
0.3981567936
 40
0.4609910079
 40
0.5905271809
 40
0.7244294292
 40
0.7926471888
 40
0.8614496064
 40
1.0
 40
1.0
 40
1.0
 40
1.0
 10
10.7233938003
 20
4.7281792711
 30
0.0
 10
10.7264777904
 20
4.7223183364
 30
0.0
 10
10.7333009374
 20
4.7107467983
 30
0.0
 10
10.745224263
 20
4.6941920157
 30
0.0
 10
10.7588859079
 20
4.6783288945
 30
0.0
 10
10.77957284
 20
4.657964362
 30
0.0
 10
10.8032067226
 20
4.6396505088
 30
0.0
 10
10.8291594278
 20
4.6235477435
 30
0.0
 10
10.8574022978
 20
4.6085412713
 30
0.0
 10
10.8954871393
 20
4.5928162799
 30
0.0
 10
10.9357984542
 20
4.5815163658
 30
0.0
 10
10.9693214163
 20
4.5750754515
 30
0.0
 10
11.0037250902
 20
4.5704088525
 30
0.0
 10
11.0298689321
 20
4.5690114007
 30
0.0
 10
11.0473183383
 20
4.5690114007
 30
0.0
  0
SPLINE
  5
27B
100
AcDbEntity
  8
0
100
AcDbSpline
 62
9
  6
CONTINUOUS
 70
0
 71
3
 72
19
 73
15
 74
0
 42
0.0000001
 43
0.0000001
 44
0.0000000001
 40
0.0
 40
0.0
 40
0.0
 40
0.0
 40
0.0525858747
 40
0.1064773099
 40
0.1617913451
 40
0.21860478
 40
0.3367631612
 40
0.3981567936
 40
0.4609910079
 40
0.5905271809
 40
0.7244294292
 40
0.7926471888
 40
0.8614496064
 40
1.0
 40
1.0
 40
1.0
 40
1.0
 10
11.3712428763
 20
4.7281792711
 30
0.0
 10
11.3681588862
 20
4.7223183364
 30
0.0
 10
11.3613357392
 20
4.7107467983
 30
0.0
 10
11.3494124136
 20
4.6941920157
 30
0.0
 10
11.3357507687
 20
4.6783288945
 30
0.0
 10
11.3150638366
 20
4.657964362
 30
0.0
 10
11.291429954
 20
4.6396505088
 30
0.0
 10
11.2654772488
 20
4.6235477435
 30
0.0
 10
11.2372343788
 20
4.6085412713
 30
0.0
 10
11.1991495373
 20
4.5928162799
 30
0.0
 10
11.1588382224
 20
4.5815163658
 30
0.0
 10
11.1253152603
 20
4.5750754515
 30
0.0
 10
11.0909115863
 20
4.5704088525
 30
0.0
 10
11.0647677445
 20
4.5690114007
 30
0.0
 10
11.0473183383
 20
4.5690114007
 30
0.0
  0
SPLINE
  5
27C
100
AcDbEntity
  8
0
100
AcDbSpline
 62
7
  6
CONTINUOUS
 70
0
 71
3
 72
27
 73
23
 74
0
 42
0.0000001
 43
0.0000001
 44
0.0000000001
 40
0.0
 40
0.0
 40
0.0
 40
0.0
 40
0.1440030273
 40
0.21524307
 40
0.285540645
 40
0.3546163322
 40
0.4222208077
 40
0.4881427912
 40
0.5522173708
 40
0.6143345429
 40
0.6744471969
 40
0.7037659329
 40
0.7325989045
 40
0.7609613186
 40
0.7888733554
 40
0.8434296339
 40
0.8701635197
 40
0.8965786515
 40
0.9227197498
 40
0.9486353105
 40
0.9743772559
 40
1.0
 40
1.0
 40
1.0
 40
1.0
 10
11.0473183383
 20
4.4454867709
 30
0.0
 10
11.0207261931
 20
4.4454867709
 30
0.0
 10
10.9809069822
 20
4.4481421586
 30
0.0
 10
10.9289009818
 20
4.4570165699
 30
0.0
 10
10.8910774319
 20
4.4662221138
 30
0.0
 10
10.8546539952
 20
4.4779168339
 30
0.0
 10
10.8199520864
 20
4.4919979739
 30
0.0
 10
10.7872830451
 20
4.5083411444
 30
0.0
 10
10.7569383153
 20
4.526803332
 30
0.0
 10
10.7291917764
 20
4.5472209066
 30
0.0
 10
10.7082654617
 20
4.5658755202
 30
0.0
 10
10.6931042078
 20
4.5816058584
 30
0.0
 10
10.6826232668
 20
4.5936732365
 30
0.0
 10
10.6729627468
 20
4.6060804661
 30
0.0
 10
10.6612970729
 20
4.622905742
 30
0.0
 10
10.6512294356
 20
4.6404429922
 30
0.0
 10
10.6429399753
 20
4.6585334668
 30
0.0
 10
10.6376745116
 20
4.6722067964
 30
0.0
 10
10.633332787
 20
4.6860422295
 30
0.0
 10
10.6299250763
 20
4.7000094984
 30
0.0
 10
10.6274588202
 20
4.714075682
 30
0.0
 10
10.6264448583
 20
4.7235149273
 30
0.0
 10
10.6260974873
 20
4.728233752
 30
0.0
  0
SPLINE
  5
27D
100
AcDbEntity
  8
0
100
AcDbSpline
 62
7
  6
CONTINUOUS
 70
0
 71
3
 72
15
 73
11
 74
0
 42
0.0000001
 43
0.0000001
 44
0.0000000001
 40
0.0
 40
0.0
 40
0.0
 40
0.0
 40
0.1294271704
 40
0.2571654936
 40
0.3833852904
 40
0.5083131731
 40
0.6321826985
 40
0.7552426612
 40
0.8777657693
 40
1.0
 40
1.0
 40
1.0
 40
1.0
 10
10.3973183383
 20
4.3125391103
 30
0.0
 10
10.3932315697
 20
4.3197689143
 30
0.0
 10
10.3855309294
 20
4.334376552
 30
0.0
 10
10.3753948831
 20
4.3568082275
 30
0.0
 10
10.3667775836
 20
4.3795591112
 30
0.0
 10
10.3596998073
 20
4.4025756731
 30
0.0
 10
10.3541770817
 20
4.4258060985
 30
0.0
 10
10.3502229854
 20
4.4491984765
 30
0.0
 10
10.3478472134
 20
4.4726970916
 30
0.0
 10
10.3473183383
 20
4.4884074659
 30
0.0
 10
10.3473183383
 20
4.496250841
 30
0.0
  0
SPLINE
  5
27E
100
AcDbEntity
  8
0
100
AcDbSpline
 62
7
  6
CONTINUOUS
 70
0
 71
3
 72
15
 73
11
 74
0
 42
0.0000001
 43
0.0000001
 44
0.0000000001
 40
0.0
 40
0.0
 40
0.0
 40
0.0
 40
0.1222342307
 40
0.2447573388
 40
0.3678173015
 40
0.4916868269
 40
0.6166147096
 40
0.7428345064
 40
0.8705728296
 40
1.0
 40
1.0
 40
1.0
 40
1.0
 10
11.7473183383
 20
4.496250841
 30
0.0
 10
11.7473183383
 20
4.4884074659
 30
0.0
 10
11.7467894632
 20
4.4726970916
 30
0.0
 10
11.7444136911
 20
4.4491984765
 30
0.0
 10
11.7404595949
 20
4.4258060985
 30
0.0
 10
11.7349368692
 20
4.4025756731
 30
0.0
 10
11.7278590929
 20
4.3795591112
 30
0.0
 10
11.7192417935
 20
4.3568082275
 30
0.0
 10
11.7091057471
 20
4.334376552
 30
0.0
 10
11.7014051069
 20
4.3197689143
 30
0.0
 10
11.6973183383
 20
4.3125391103
 30
0.0
  0
SPLINE
  5
27F
100
AcDbEntity
  8
0
100
AcDbSpline
 62
7
  6
CONTINUOUS
 70
0
 71
3
 72
37
 73
33
 74
0
 42
0.0000001
 43
0.0000001
 44
0.0000000001
 40
0.0
 40
0.0
 40
0.0
 40
0.0
 40
0.0263929781
 40
0.0534429661
 40
0.0811998051
 40
0.1096956504
 40
0.1689031072
 40
0.1996303126
 40
0.2310540332
 40
0.2631281301
 40
0.2957952665
 40
0.3289883838
 40
0.3626321891
 40
0.3966446072
 40
0.4309381475
 40
0.4654213345
 40
0.5
 40
0.5345786655
 40
0.5690618525
 40
0.6033553928
 40
0.6373678109
 40
0.6710116162
 40
0.7042047335
 40
0.7368718699
 40
0.7689459668
 40
0.8003696874
 40
0.8310968928
 40
0.8903043496
 40
0.9188001949
 40
0.9465570339
 40
0.9736070219
 40
1.0
 40
1.0
 40
1.0
 40
1.0
 10
10.3973183383
 20
4.5600264837
 30
0.0
 10
10.4038357747
 20
4.548496644
 30
0.0
 10
10.4181334393
 20
4.525755756
 30
0.0
 10
10.4428059807
 20
4.4932682497
 30
0.0
 10
10.4708203672
 20
4.4621756042
 30
0.0
 10
10.5129361301
 20
4.4223153001
 30
0.0
 10
10.5606792819
 20
4.3865132728
 30
0.0
 10
10.6128582393
 20
4.3550559149
 30
0.0
 10
10.6548852028
 20
4.3333114552
 30
0.0
 10
10.6990707609
 20
4.3138386867
 30
0.0
 10
10.7451761286
 20
4.2967406165
 30
0.0
 10
10.7929460373
 20
4.2821115998
 30
0.0
 10
10.8421176956
 20
4.2700314448
 30
0.0
 10
10.892420107
 20
4.2605663851
 30
0.0
 10
10.9435761476
 20
4.2537682922
 30
0.0
 10
10.9953039117
 20
4.2496744566
 30
0.0
 10
11.0473183383
 20
4.2483073434
 30
0.0
 10
11.0993327648
 20
4.2496744566
 30
0.0
 10
11.1510605289
 20
4.2537682922
 30
0.0
 10
11.2022165695
 20
4.2605663851
 30
0.0
 10
11.2525189809
 20
4.2700314448
 30
0.0
 10
11.3016906393
 20
4.2821115998
 30
0.0
 10
11.349460548
 20
4.2967406165
 30
0.0
 10
11.3955659156
 20
4.3138386867
 30
0.0
 10
11.4397514738
 20
4.3333114552
 30
0.0
 10
11.4817784373
 20
4.3550559149
 30
0.0
 10
11.5339573946
 20
4.3865132728
 30
0.0
 10
11.5817005465
 20
4.4223153001
 30
0.0
 10
11.6238163093
 20
4.4621756042
 30
0.0
 10
11.6518306959
 20
4.4932682497
 30
0.0
 10
11.6765032373
 20
4.525755756
 30
0.0
 10
11.6908009019
 20
4.548496644
 30
0.0
 10
11.6973183383
 20
4.5600264837
 30
0.0
  0
SPLINE
  5
280
100
AcDbEntity
  8
0
100
AcDbSpline
 62
7
  6
CONTINUOUS
 70
0
 71
3
 72
27
 73
23
 74
0
 42
0.0000001
 43
0.0000001
 44
0.0000000001
 40
0.0
 40
0.0
 40
0.0
 40
0.0
 40
0.0256227441
 40
0.0513646895
 40
0.0772802502
 40
0.1034213485
 40
0.1298364803
 40
0.1565703661
 40
0.2111266446
 40
0.2390386814
 40
0.2674010955
 40
0.2962340671
 40
0.3255528031
 40
0.3856654571
 40
0.4477826292
 40
0.5118572088
 40
0.5777791923
 40
0.6453836678
 40
0.714459355
 40
0.78475693
 40
0.8559969727
 40
1.0
 40
1.0
 40
1.0
 40
1.0
 10
11.4685391893
 20
4.728233752
 30
0.0
 10
11.4681918183
 20
4.7235149273
 30
0.0
 10
11.4671778564
 20
4.714075682
 30
0.0
 10
11.4647116002
 20
4.7000094984
 30
0.0
 10
11.4613038896
 20
4.6860422295
 30
0.0
 10
11.456962165
 20
4.6722067964
 30
0.0
 10
11.4516967013
 20
4.6585334668
 30
0.0
 10
11.443407241
 20
4.6404429922
 30
0.0
 10
11.4333396037
 20
4.622905742
 30
0.0
 10
11.4216739297
 20
4.6060804661
 30
0.0
 10
11.4120134098
 20
4.5936732365
 30
0.0
 10
11.4015324688
 20
4.5816058584
 30
0.0
 10
11.3863712149
 20
4.5658755202
 30
0.0
 10
11.3654449001
 20
4.5472209066
 30
0.0
 10
11.3376983612
 20
4.526803332
 30
0.0
 10
11.3073536315
 20
4.5083411444
 30
0.0
 10
11.2746845902
 20
4.4919979739
 30
0.0
 10
11.2399826813
 20
4.4779168339
 30
0.0
 10
11.2035592447
 20
4.4662221138
 30
0.0
 10
11.1657356948
 20
4.4570165699
 30
0.0
 10
11.1137296943
 20
4.4481421586
 30
0.0
 10
11.0739104834
 20
4.4454867709
 30
0.0
 10
11.0473183383
 20
4.4454867709
 30
0.0
  0
SPLINE
  5
281
100
AcDbEntity
  8
0
100
AcDbSpline
 62
9
  6
CONTINUOUS
 70
0
 71
3
 72
47
 73
43
 74
0
 42
0.0000001
 43
0.0000001
 44
0.0000000001
 40
0.0
 40
0.0
 40
0.0
 40
0.0
 40
0.0128549409
 40
0.0257424529
 40
0.0386900735
 40
0.0517282104
 40
0.0648849577
 40
0.0781860519
 40
0.0916553066
 40
0.1053141052
 40
0.1332601348
 40
0.1621529125
 40
0.19206252
 40
0.2230150527
 40
0.2549959515
 40
0.2879543142
 40
0.321807616
 40
0.3564465718
 40
0.3917399147
 40
0.4275390214
 40
0.4636823889
 40
0.5
 40
0.5363176111
 40
0.5724609786
 40
0.6082600853
 40
0.6435534282
 40
0.678192384
 40
0.7120456858
 40
0.7450040485
 40
0.7769849473
 40
0.80793748
 40
0.8378470875
 40
0.8667398652
 40
0.8946858948
 40
0.9083446934
 40
0.9218139481
 40
0.9351150423
 40
0.9482717896
 40
0.9613099265
 40
0.9742575471
 40
0.9871450591
 40
1.0
 40
1.0
 40
1.0
 40
1.0
 10
10.3473183383
 20
4.3626076594
 30
0.0
 10
10.3473183383
 20
4.3545075016
 30
0.0
 10
10.3478825544
 20
4.3382810619
 30
0.0
 10
10.3504166262
 20
4.3140151679
 30
0.0
 10
10.3546338785
 20
4.2898664066
 30
0.0
 10
10.3605230785
 20
4.2658961295
 30
0.0
 10
10.3680690352
 20
4.2421612956
 30
0.0
 10
10.3772535984
 20
4.2187200392
 30
0.0
 10
10.3880539525
 20
4.1956281753
 30
0.0
 10
10.4046954544
 20
4.1651538371
 30
0.0
 10
10.4295243257
 20
4.1281824641
 30
0.0
 10
10.4650173811
 20
4.0864716954
 30
0.0
 10
10.5060922421
 20
4.0474490629
 30
0.0
 10
10.552345683
 20
4.0114835188
 30
0.0
 10
10.603332114
 20
3.9789087029
 30
0.0
 10
10.6585622317
 20
3.9500294723
 30
0.0
 10
10.7175076901
 20
3.9251163687
 30
0.0
 10
10.7796051921
 20
3.9044037217
 30
0.0
 10
10.8442615174
 20
3.8880869325
 30
0.0
 10
10.9108589159
 20
3.876320372
 30
0.0
 10
10.978760898
 20
3.8692155537
 30
0.0
 10
11.0473183383
 20
3.8668397707
 30
0.0
 10
11.1158757785
 20
3.8692155537
 30
0.0
 10
11.1837777607
 20
3.876320372
 30
0.0
 10
11.2503751592
 20
3.8880869325
 30
0.0
 10
11.3150314844
 20
3.9044037217
 30
0.0
 10
11.3771289864
 20
3.9251163687
 30
0.0
 10
11.4360744449
 20
3.9500294723
 30
0.0
 10
11.4913045625
 20
3.9789087029
 30
0.0
 10
11.5422909935
 20
4.0114835187
 30
0.0
 10
11.5885444345
 20
4.0474490629
 30
0.0
 10
11.6296192954
 20
4.0864716954
 30
0.0
 10
11.6651123509
 20
4.1281824641
 30
0.0
 10
11.6899412222
 20
4.1651538371
 30
0.0
 10
11.706582724
 20
4.1956281753
 30
0.0
 10
11.7173830782
 20
4.2187200392
 30
0.0
 10
11.7265676413
 20
4.2421612956
 30
0.0
 10
11.7341135981
 20
4.2658961295
 30
0.0
 10
11.740002798
 20
4.2898664066
 30
0.0
 10
11.7442200503
 20
4.3140151679
 30
0.0
 10
11.7467541222
 20
4.3382810619
 30
0.0
 10
11.7473183383
 20
4.3545075016
 30
0.0
 10
11.7473183383
 20
4.3626076594
 30
0.0
  0
ENDSEC
  0
SECTION
  2
OBJECTS
  0
DICTIONARY
  5
C
100
AcDbDictionary
280
0
281
1
  3
ACAD_GROUP
350
D
  3
ACAD_MLINESTYLE
350
17
  3
ACAD_LAYOUT
350
1A
  3
ACAD_PLOTSETTINGS
350
19
  3
ACAD_PLOTSTYLENAME
350
E
  0
DICTIONARY
  5
D
102
{ACAD_REACTORS
330
C
102
}
100
AcDbDictionary
280
0
281
1
  0
ACDBDICTIONARYWDFLT
  5
E
102
{ACAD_REACTORS
330
C
102
}
100
AcDbDictionary
281
1
  3
Normal
350
F
100
AcDbDictionaryWithDefault
340
F
  0
DICTIONARY
  5
17
102
{ACAD_REACTORS
330
C
102
}
100
AcDbDictionary
280
0
281
1
  3
Standard
350
18
  0
DICTIONARY
  5
19
102
{ACAD_REACTORS
330
C
102
}
100
AcDbDictionary
281
1
  0
DICTIONARY
  5
1A
102
{ACAD_REACTORS
330
C
102
}
100
AcDbDictionary
281
1
  3
Model
350
282
  3
Layout1
350
283
  0
ACDBPLACEHOLDER
  5
F
102
{ACAD_REACTORS
330
E
102
}
  0
MLINESTYLE
  5
18
102
{ACAD_REACTORS
330
17
102
}
100
AcDbMlineStyle
  2
STANDARD
 70
0
  3

 62
256
 51
90.0
 52
90.0
 71
2
 49
0.5
 62
256
  6
BYLAYER
 49
-0.5
 62
256
  6
BYLAYER
  0
LAYOUT
  5
282
102
{ACAD_REACTORS
330
1A
102
}
100
AcDbPlotSettings
  1

  2
none_device
  4
ANSI_C_(22.00_x_17.00_Inches)
  6

 40
0.0
 41
0.0
 42
0.0
 43
0.0
 44
558.8
 45
431.8
 46
0.0
 47
0.0
 48
0.0
 49
0.0
140
0.0
141
0.0
142
1.0
143
1.0
 70
1024
 72
0
 73
0
 74
0
  7

 75
0
147
1.0
148
0.0
149
0.0
100
AcDbLayout
  1
Model
 70
0
 71
0
 10
0.0
 20
0.0
 11
22.0
 21
17.0
 12
0.0
 22
0.0
 32
0.0
 14
0.0
 24
0.0
 34
0.0
 15
0.0
 25
0.0
 35
0.0
146
0.0
 13
0.0
 23
0.0
 33
0.0
 16
1.0
 26
0.0
 36
0.0
 17
0.0
 27
1.0
 37
0.0
 76
0
330
205
345
0
346
0
  0
LAYOUT
  5
283
102
{ACAD_REACTORS
330
1A
102
}
100
AcDbPlotSettings
  1

  2
none_device
  4
ANSI_C_(22.00_x_17.00_Inches)
  6

 40
0.0
 41
0.0
 42
0.0
 43
0.0
 44
558.8
 45
431.8
 46
0.0
 47
0.0
 48
0.0
 49
0.0
140
0.0
141
0.0
142
1.0
143
1.0
 70
0
 72
0
 73
0
 74
0
  7

 75
0
147
1.0
148
0.0
149
0.0
100
AcDbLayout
  1
Layout1
 70
0
 71
1
 10
0.0
 20
0.0
 11
22.0
 21
17.0
 12
0.0
 22
0.0
 32
0.0
 14
0.0
 24
0.0
 34
0.0
 15
0.0
 25
0.0
 35
0.0
146
0.0
 13
0.0
 23
0.0
 33
0.0
 16
1.0
 26
0.0
 36
0.0
 17
0.0
 27
1.0
 37
0.0
 76
0
330
206
345
0
346
0
  0
ENDSEC
  0
EOF
