999
DXF file: E:\BT Custom\CADOUTPUT\_RIGHT.dxf
999
Pro/ENGINEER 2018400 by Parametric Technology Corporation
  0
SECTION
  2
HEADER
  9
$ACADVER
  1
AC1018
  9
$DWGCODEPAGE
  3
ANSI_1252
  9
$EXTMAX
 10
22.0
 20
17.0
 30
0.0
  9
$EXTMIN
 10
0.0
 20
0.0
 30
0.0
  9
$LIMMIN
 10
0.0
 20
0.0
  9
$LIMMAX
 10
22.0
 20
17.0
  9
$VIEWCTR
 10
11.0
 20
8.5
  9
$VIEWSIZE
 40
17.0
  9
$CLAYER
  8
0
  9
$LTSCALE
 40
1.21
  9
$CELTYPE
  6
BYLAYER
  9
$DIMSCALE
 40
1.0
  9
$DIMASZ
 40
0.1
  9
$DIMEXO
 40
0.0625
  9
$DIMDLI
 40
0.836
  9
$DIMEXE
 40
0.125
  9
$DIMCEN
 40
0.198
  9
$DIMLFAC
 40
1.0
  9
$DIMBLK
  1
_FILLED
  9
$DIMALT
 70
1
  9
$DIMALTD
 70
2
  9
$DIMALTTD
 70
2
  9
$DIMALTF
 40
25.4
  9
$DIMTXT
 40
0.08
  9
$DIMTOL
 70
1
  9
$DIMLIM
 70
0
  9
$DIMTFAC
 40
1.0
  9
$DIMTP
 40
0.001
  9
$DIMTM
 40
0.001
  9
$DIMGAP
 40
0.09
  9
$DIMDSEP
 70
46
  9
$AUNITS
 70
0
  9
$PDMODE
 70
3
  9
$PDSIZE
 40
0.06
  9
$HANDSEED
  5
494
  9
$TILEMODE
 70
1
  9
$MEASUREMENT
 70
0
  9
$INSUNITS
 70
1
  0
ENDSEC
  0
SECTION
  2
CLASSES
  0
CLASS
  1
ACDBDICTIONARYWDFLT
  2
AcDbDictionaryWithDefault
  3
AutoCAD 2000
 90
0
 91
1
280
0
281
0
  0
CLASS
  1
ACDBPLACEHOLDER
  2
AcDbPlaceHolder
  3
AutoCAD 2000
 90
0
 91
1
280
0
281
0
  0
CLASS
  1
LAYOUT
  2
AcDbLayout
  3
AutoCAD 2000
 90
0
 91
0
280
0
281
0
  0
ENDSEC
  0
SECTION
  2
TABLES
  0
TABLE
  2
VPORT
  5
8
100
AcDbSymbolTable
 70
2
  0
VPORT
  5
1F4
100
AcDbSymbolTableRecord
100
AcDbViewportTableRecord
  2
*ACTIVE
 70
0
 10
0.0
 20
0.0
 11
1.0
 21
1.0
 12
11.0
 22
8.5
 13
0.0
 23
0.0
 14
1.0
 24
1.0
 15
0.0
 25
0.0
 16
0.0
 26
0.0
 36
1.0
 17
0.0
 27
0.0
 37
0.0
 40
17.0
 41
1.2941176471
 42
50.0
 43
0.0
 44
0.0
 50
0.0
 51
0.0
 71
0
 72
100
 73
1
 74
1
 75
0
 76
0
 77
0
 78
0
  0
ENDTAB
  0
TABLE
  2
LTYPE
  5
5
100
AcDbSymbolTable
 70
6
  0
LTYPE
  5
14
100
AcDbSymbolTableRecord
100
AcDbLinetypeTableRecord
  2
BYBLOCK
 70
0
  3

 72
65
 73
0
 40
0.0
  0
LTYPE
  5
15
100
AcDbSymbolTableRecord
100
AcDbLinetypeTableRecord
  2
BYLAYER
 70
0
  3

 72
65
 73
0
 40
0.0
  0
LTYPE
  5
16
100
AcDbSymbolTableRecord
100
AcDbLinetypeTableRecord
  2
CONTINUOUS
 70
64
  3
Solid line
 72
65
 73
0
 40
0.0
  0
LTYPE
  5
1F5
100
AcDbSymbolTableRecord
100
AcDbLinetypeTableRecord
  2
CENTER
 70
64
  3
____ _ ____ _ ____ _ ____ _ ____ _ ____ _ ____
 72
65
 73
4
 40
0.6
 49
0.375
 74
0
 49
-0.075
 74
0
 49
0.075
 74
0
 49
-0.075
 74
0
  0
LTYPE
  5
1F6
100
AcDbSymbolTableRecord
100
AcDbLinetypeTableRecord
  2
HIDDEN
 70
64
  3
- - - - - - - - - - - - - - - - - - - -
 72
65
 73
2
 40
0.2
 49
0.1
 74
0
 49
-0.1
 74
0
  0
LTYPE
  5
1F7
100
AcDbSymbolTableRecord
100
AcDbLinetypeTableRecord
  2
PHANTOM
 70
64
  3
_____ _ _ _____ _ _ _____ _ _ _____
 72
65
 73
6
 40
0.8
 49
0.45
 74
0
 49
-0.05
 74
0
 49
0.1
 74
0
 49
-0.05
 74
0
 49
0.1
 74
0
 49
-0.05
 74
0
  0
LTYPE
  5
1F8
100
AcDbSymbolTableRecord
100
AcDbLinetypeTableRecord
  2
DOT
 70
64
  3
. . . . . . . . . . . . . . . . . . . .
 72
65
 73
2
 40
0.2
 49
0.1
 74
0
 49
-0.1
 74
0
  0
LTYPE
  5
1F9
100
AcDbSymbolTableRecord
100
AcDbLinetypeTableRecord
  2
DASHED
 70
64
  3
- - - - - - - - - - - - - - - - - - - -
 72
65
 73
2
 40
0.2
 49
0.1
 74
0
 49
-0.1
 74
0
  0
ENDTAB
  0
TABLE
  2
LAYER
  5
2
100
AcDbSymbolTable
 70
36
  0
LAYER
  5
10
100
AcDbSymbolTableRecord
100
AcDbLayerTableRecord
  2
0
 70
0
 62
7
  6
CONTINUOUS
370
-3
390
F
  0
LAYER
  5
1FA
100
AcDbSymbolTableRecord
100
AcDbLayerTableRecord
  2
DEFAULT_1
 70
0
 62
7
  6
CENTER
370
-3
390
F
  0
LAYER
  5
1FB
100
AcDbSymbolTableRecord
100
AcDbLayerTableRecord
  2
DEFAULT_2
 70
0
 62
8
  6
HIDDEN
370
-3
390
F
  0
LAYER
  5
1FC
100
AcDbSymbolTableRecord
100
AcDbLayerTableRecord
  2
DEFAULT_3
 70
0
 62
7
  6
PHANTOM
370
-3
390
F
  0
LAYER
  5
1FD
100
AcDbSymbolTableRecord
100
AcDbLayerTableRecord
  2
ALL_FEATURES
 70
0
 62
7
  6
CONTINUOUS
370
-3
390
F
  0
LAYER
  5
1FE
100
AcDbSymbolTableRecord
100
AcDbLayerTableRecord
  2
AXES_FEATURES
 70
0
 62
7
  6
CONTINUOUS
370
-3
390
F
  0
LAYER
  5
1FF
100
AcDbSymbolTableRecord
100
AcDbLayerTableRecord
  2
DEFAULT_COORDINATE_SYSTEM
 70
0
 62
7
  6
CONTINUOUS
370
-3
390
F
  0
LAYER
  5
200
100
AcDbSymbolTableRecord
100
AcDbLayerTableRecord
  2
DEFAULT_DATUM_AXES
 70
0
 62
7
  6
CONTINUOUS
370
-3
390
F
  0
LAYER
  5
201
100
AcDbSymbolTableRecord
100
AcDbLayerTableRecord
  2
DEFAULT_DATUM_PLANES
 70
0
 62
7
  6
CONTINUOUS
370
-3
390
F
  0
LAYER
  5
202
100
AcDbSymbolTableRecord
100
AcDbLayerTableRecord
  2
DIMENSIONS
 70
0
 62
7
  6
CONTINUOUS
370
-3
390
F
  0
ENDTAB
  0
TABLE
  2
STYLE
  5
3
100
AcDbSymbolTable
 70
1
  0
STYLE
  5
11
100
AcDbSymbolTableRecord
100
AcDbTextStyleTableRecord
  2
STANDARD
 70
0
 40
0.0
 41
0.8
 50
0.0
 71
0
 42
0.2
  3
txt
  4

  0
STYLE
  5
203
100
AcDbSymbolTableRecord
100
AcDbTextStyleTableRecord
  2
TEXTSTYLE_1
 70
0
 40
0.0
 41
0.8
 50
0.0
 71
0
 42
0.2
  3
gdt
  4

  0
ENDTAB
  0
TABLE
  2
VIEW
  5
6
100
AcDbSymbolTable
 70
0
  0
ENDTAB
  0
TABLE
  2
UCS
  5
7
100
AcDbSymbolTable
 70
0
  0
ENDTAB
  0
TABLE
  2
APPID
  5
9
100
AcDbSymbolTable
 70
1
  0
APPID
  5
204
100
AcDbSymbolTableRecord
100
AcDbRegAppTableRecord
  2
ACAD
 70
0
  0
ENDTAB
  0
TABLE
  2
BLOCK_RECORD
  5
1
100
AcDbSymbolTable
 70
0
  0
BLOCK_RECORD
  5
205
100
AcDbSymbolTableRecord
100
AcDbBlockTableRecord
  2
*Model_Space
  0
BLOCK_RECORD
  5
206
100
AcDbSymbolTableRecord
100
AcDbBlockTableRecord
  2
*Paper_Space
  0
BLOCK_RECORD
  5
207
100
AcDbSymbolTableRecord
100
AcDbBlockTableRecord
  2
_FILLED
  0
ENDTAB
  0
TABLE
  2
DIMSTYLE
  5
A
100
AcDbSymbolTable
 70
1
100
AcDbDimStyleTable
 71
0
  0
DIMSTYLE
105
208
100
AcDbSymbolTableRecord
100
AcDbDimStyleTableRecord
  2
STANDARD
 70
0
  3

  4

 40
1.0
 41
0.1
 42
0.0625
 43
0.38
 44
0.125
 45
0.0
 46
0.0
 47
0.001
 48
0.001
140
0.08
141
0.09
142
0.0
143
25.4
144
1.0
145
0.0
146
1.0
147
0.09
 71
1.0
 72
0.0
 73
1
 74
1
 75
0
 76
0
 77
0
 78
4
 79
1
170
1
171
2
172
0
173
0
174
0
175
0
176
0
177
0
178
0
270
2
179
3
271
3
272
3
273
2
274
2
275
0
280
0
281
0
282
0
283
1
284
4
285
0
286
0
287
3
288
0
340
11
278
46
341
207
342
207
343
207
344
207
  0
ENDTAB
  0
ENDSEC
  0
SECTION
  2
BLOCKS
  0
BLOCK
  5
20
100
AcDbEntity
  8
0
100
AcDbBlockBegin
  2
*Model_Space
 70
0
 10
0.0
 20
0.0
 30
0.0
  3
*Model_Space
  1

  0
ENDBLK
  5
21
100
AcDbEntity
  8
0
100
AcDbBlockEnd
  0
BLOCK
  5
1C
100
AcDbEntity
  8
0
100
AcDbBlockBegin
  2
*Paper_Space
 70
0
 10
0.0
 20
0.0
 30
0.0
  3
*Paper_Space
  1

  0
ENDBLK
  5
1D
100
AcDbEntity
  8
0
100
AcDbBlockEnd
  0
BLOCK
  5
209
100
AcDbEntity
  8
0
100
AcDbBlockBegin
  2
_FILLED
 70
64
 10
0.0
 20
0.0
  3
_FILLED
  1

  0
SOLID
  5
20A
100
AcDbEntity
  8
0
  6
BYBLOCK
 62
0
100
AcDbTrace
 10
0.0
 20
0.0
 11
-1.0
 21
0.2
 12
-1.0
 22
-0.2
 13
-1.0
 23
-0.2
  0
ENDBLK
  5
20B
100
AcDbEntity
  8
0
  6
BYBLOCK
 62
0
100
AcDbBlockEnd
  0
ENDSEC
  0
SECTION
  2
ENTITIES
  0
LINE
  5
20C
100
AcDbEntity
  8
0
100
AcDbLine
 62
7
  6
CONTINUOUS
 10
4.4728521233
 20
15.756289962
 11
5.0941723505
 21
16.3776101893
  0
LINE
  5
20D
100
AcDbEntity
  8
0
100
AcDbLine
 62
7
  6
CONTINUOUS
 10
4.779009114
 20
15.158820433
 11
4.7577822708
 21
15.134151399
  0
LINE
  5
20E
100
AcDbEntity
  8
0
100
AcDbLine
 62
7
  6
CONTINUOUS
 10
4.8486203567
 20
15.0888709303
 11
4.8275499587
 21
15.0643837111
  0
LINE
  5
20F
100
AcDbEntity
  8
0
100
AcDbLine
 62
7
  6
CONTINUOUS
 10
4.9848007785
 20
14.9520293814
 11
4.9640361519
 21
14.9278975179
  0
LINE
  5
210
100
AcDbEntity
  8
0
100
AcDbLine
 62
7
  6
CONTINUOUS
 10
5.0479709256
 20
14.8370048575
 11
5.0282963662
 21
14.814139829
  0
LINE
  5
211
100
AcDbEntity
  8
0
100
AcDbLine
 62
7
  6
CONTINUOUS
 10
5.092205193
 20
14.7925568852
 11
5.0726294721
 21
14.7698067231
  0
LINE
  5
212
100
AcDbEntity
  8
0
100
AcDbLine
 62
7
  6
CONTINUOUS
 10
5.1815991556
 20
14.7542770158
 11
5.1612757486
 21
14.7306579212
  0
LINE
  5
213
100
AcDbEntity
  8
0
100
AcDbLine
 62
7
  6
CONTINUOUS
 10
5.2164228095
 20
14.6558841913
 11
5.2026075619
 21
14.6398286332
  0
LINE
  5
214
100
AcDbEntity
  8
0
100
AcDbLine
 62
7
  6
CONTINUOUS
 10
4.9234439403
 20
14.9994483071
 11
4.9068037048
 21
14.985129965
  0
LINE
  5
215
100
AcDbEntity
  8
0
100
AcDbLine
 62
7
  6
CONTINUOUS
 10
5.0602764098
 20
14.8632600727
 11
5.043289898
 21
14.8486437718
  0
LINE
  5
216
100
AcDbEntity
  8
0
100
AcDbLine
 62
7
  6
CONTINUOUS
 10
5.1679387762
 20
14.7043682245
 11
5.1518832182
 21
14.6905529769
  0
LINE
  5
217
100
AcDbEntity
  8
0
100
AcDbLine
 62
7
  6
CONTINUOUS
 10
5.2580171561
 20
14.6664516976
 11
5.2405294947
 21
14.6514041751
  0
LINE
  5
218
100
AcDbEntity
  8
0
100
AcDbLine
 62
7
  6
CONTINUOUS
 10
5.2985019332
 20
14.5748935647
 11
5.281861308
 21
14.5605748871
  0
LINE
  5
219
100
AcDbEntity
  8
0
100
AcDbLine
 62
7
  6
CONTINUOUS
 10
5.3460990808
 20
14.4967496686
 11
5.3262860613
 21
14.473723727
  0
LINE
  5
21A
100
AcDbEntity
  8
0
100
AcDbLine
 62
7
  6
CONTINUOUS
 10
5.4304151094
 20
14.5042573221
 11
5.4106484321
 21
14.4812852377
  0
LINE
  5
21B
100
AcDbEntity
  8
0
100
AcDbLine
 62
7
  6
CONTINUOUS
 10
5.4231880911
 20
14.4491189096
 11
5.4093728435
 21
14.4330633516
  0
LINE
  5
21C
100
AcDbEntity
  8
0
100
AcDbLine
 62
7
  6
CONTINUOUS
 10
5.4552593845
 20
14.3675501415
 11
5.4447145058
 21
14.3552952825
  0
LINE
  5
21D
100
AcDbEntity
  8
0
100
AcDbLine
 62
7
  6
CONTINUOUS
 10
5.6192550149
 20
14.1923998449
 11
5.597517325
 21
14.1671371242
  0
LINE
  5
21E
100
AcDbEntity
  8
0
100
AcDbLine
 62
7
  6
CONTINUOUS
 10
5.7203748699
 20
14.2128981521
 11
5.7012554195
 21
14.1906782503
  0
LINE
  5
21F
100
AcDbEntity
  8
0
100
AcDbLine
 62
7
  6
CONTINUOUS
 10
5.6970627274
 20
14.1847856246
 11
5.6788346048
 21
14.1636015903
  0
LINE
  5
220
100
AcDbEntity
  8
0
100
AcDbLine
 62
7
  6
CONTINUOUS
 10
5.6780087038
 20
14.1451827649
 11
5.6672871766
 21
14.1327226117
  0
LINE
  5
221
100
AcDbEntity
  8
0
100
AcDbLine
 62
7
  6
CONTINUOUS
 10
5.6976681103
 20
14.0827941804
 11
5.6903569836
 21
14.0742974656
  0
LINE
  5
222
100
AcDbEntity
  8
0
100
AcDbLine
 62
7
  6
CONTINUOUS
 10
6.1937233953
 20
15.3629119583
 11
6.3570650617
 21
15.5262536247
  0
LINE
  5
223
100
AcDbEntity
  8
0
100
AcDbLine
 62
7
  6
CONTINUOUS
 10
5.4177946664
 20
14.4050148596
 11
5.4055398074
 21
14.3944699809
  0
LINE
  5
224
100
AcDbEntity
  8
0
100
AcDbLine
 62
7
  6
CONTINUOUS
 10
5.5080246997
 20
14.4176252891
 11
5.4899021782
 21
14.4020314916
  0
LINE
  5
225
100
AcDbEntity
  8
0
100
AcDbLine
 62
7
  6
CONTINUOUS
 10
5.505792117
 20
14.3685799429
 11
5.4886265896
 21
14.3538096055
  0
LINE
  5
226
100
AcDbEntity
  8
0
100
AcDbLine
 62
7
  6
CONTINUOUS
 10
5.5422621195
 20
14.2917827713
 11
5.5239682519
 21
14.2760415364
  0
LINE
  5
227
100
AcDbEntity
  8
0
100
AcDbLine
 62
7
  6
CONTINUOUS
 10
5.6852252313
 20
14.0951578879
 11
5.6767710711
 21
14.0878833781
  0
LINE
  5
228
100
AcDbEntity
  8
0
100
AcDbLine
 62
7
  6
CONTINUOUS
 10
5.7993732897
 20
14.1276564248
 11
5.7805091657
 21
14.1114245041
  0
LINE
  5
229
100
AcDbEntity
  8
0
100
AcDbLine
 62
7
  6
CONTINUOUS
 10
5.7759393828
 20
14.0997080344
 11
5.758088351
 21
14.0843478442
  0
LINE
  5
22A
100
AcDbEntity
  8
0
100
AcDbLine
 62
7
  6
CONTINUOUS
 10
5.7654014617
 20
14.0696977015
 11
5.7465409227
 21
14.0534688655
  0
LINE
  5
22B
100
AcDbEntity
  8
0
100
AcDbLine
 62
7
  6
CONTINUOUS
 10
16.6759016515
 20
1.534891804
 11
16.9559016515
 21
1.534891804
  0
LINE
  5
22C
100
AcDbEntity
  8
0
100
AcDbLine
 62
9
  6
CONTINUOUS
 10
16.6459016515
 20
1.564891804
 11
16.9559016515
 21
1.564891804
  0
LINE
  5
22D
100
AcDbEntity
  8
0
100
AcDbLine
 62
7
  6
CONTINUOUS
 10
5.9649664824
 20
13.8450216633
 11
5.9439996478
 21
13.8206548014
  0
LINE
  5
22E
100
AcDbEntity
  8
0
100
AcDbLine
 62
7
  6
CONTINUOUS
 10
5.9855498802
 20
13.8542250008
 11
5.9671585248
 21
13.8328512635
  0
LINE
  5
22F
100
AcDbEntity
  8
0
100
AcDbLine
 62
7
  6
CONTINUOUS
 10
6.0101628742
 20
13.8701833795
 11
5.9926294721
 21
13.8498067231
  0
LINE
  5
230
100
AcDbEntity
  8
0
100
AcDbLine
 62
7
  6
CONTINUOUS
 10
6.0388063922
 20
13.8929339829
 11
6.020395791
 21
13.8715378788
  0
LINE
  5
231
100
AcDbEntity
  8
0
100
AcDbLine
 62
7
  6
CONTINUOUS
 10
7.4764150963
 20
15.5708013519
 11
7.0952845413
 21
15.1896707969
  0
LINE
  5
232
100
AcDbEntity
  8
0
100
AcDbLine
 62
7
  6
CONTINUOUS
 10
6.9368926223
 20
15.0312788779
 11
7.06700027
 21
15.1613865256
  0
LINE
  5
233
100
AcDbEntity
  8
0
100
AcDbLine
 62
7
  6
CONTINUOUS
 10
8.083527843
 20
15.8278962419
 11
8.0865234052
 21
15.830891804
  0
LINE
  5
234
100
AcDbEntity
  8
0
100
AcDbLine
 62
7
  6
CONTINUOUS
 10
8.083527843
 20
15.8031475046
 11
7.8881295914
 21
15.6077492529
  0
LINE
  5
235
100
AcDbEntity
  8
0
100
AcDbLine
 62
7
  6
CONTINUOUS
 10
7.5401907391
 20
15.0120509624
 11
7.7876781125
 21
15.2595383358
  0
LINE
  5
236
100
AcDbEntity
  8
0
100
AcDbLine
 62
7
  6
CONTINUOUS
 10
5.7915440162
 20
14.0139165474
 11
5.7696107297
 21
13.9950437195
  0
LINE
  5
237
100
AcDbEntity
  8
0
100
AcDbLine
 62
7
  6
CONTINUOUS
 10
6.0336387464
 20
13.7503372888
 11
6.0232533939
 21
13.7414010553
  0
LINE
  5
238
100
AcDbEntity
  8
0
100
AcDbLine
 62
7
  6
CONTINUOUS
 10
6.061990813
 20
13.7670023094
 11
6.0464122709
 21
13.7535975174
  0
LINE
  5
239
100
AcDbEntity
  8
0
100
AcDbLine
 62
7
  6
CONTINUOUS
 10
6.0905345963
 20
13.7866018372
 11
6.0718832182
 21
13.7705529769
  0
LINE
  5
23A
100
AcDbEntity
  8
0
100
AcDbLine
 62
7
  6
CONTINUOUS
 10
6.1193302781
 20
13.8092187238
 11
6.0996495371
 21
13.7922841327
  0
LINE
  5
23B
100
AcDbEntity
  8
0
100
AcDbLine
 62
7
  6
CONTINUOUS
 10
6.0458195017
 20
13.7418271234
 11
6.0258598092
 21
13.7246525043
  0
LINE
  5
23C
100
AcDbEntity
  8
0
100
AcDbLine
 62
7
  6
CONTINUOUS
 10
6.3013265467
 20
13.4879222943
 11
6.2834109028
 21
13.4671014108
  0
LINE
  5
23D
100
AcDbEntity
  8
0
100
AcDbLine
 62
7
  6
CONTINUOUS
 10
6.3106803119
 20
13.4976462266
 11
6.2904819706
 21
13.4741724786
  0
LINE
  5
23E
100
AcDbEntity
  8
0
100
AcDbLine
 62
7
  6
CONTINUOUS
 10
6.3257978307
 20
13.5123485858
 11
6.3081596401
 21
13.4918501481
  0
LINE
  5
23F
100
AcDbEntity
  8
0
100
AcDbLine
 62
7
  6
CONTINUOUS
 10
6.3461628674
 20
13.532576082
 11
6.3293728435
 21
13.5130633516
  0
LINE
  5
240
100
AcDbEntity
  8
0
100
AcDbLine
 62
7
  6
CONTINUOUS
 10
6.3717930843
 20
13.5583492415
 11
6.3541215809
 21
13.5378120889
  0
LINE
  5
241
100
AcDbEntity
  8
0
100
AcDbLine
 62
7
  6
CONTINUOUS
 10
6.6373903615
 20
13.1502562636
 11
6.6202157424
 21
13.1302965712
  0
LINE
  5
242
100
AcDbEntity
  8
0
100
AcDbLine
 62
7
  6
CONTINUOUS
 10
6.7047819619
 20
13.2237670401
 11
6.6878473708
 21
13.204086299
  0
LINE
  5
243
100
AcDbEntity
  8
0
100
AcDbLine
 62
7
  6
CONTINUOUS
 10
6.6821650752
 20
13.1949713582
 11
6.666116215
 21
13.1763199801
  0
LINE
  5
244
100
AcDbEntity
  8
0
100
AcDbLine
 62
7
  6
CONTINUOUS
 10
6.6625655475
 20
13.1664275749
 11
6.6491607554
 21
13.1508490328
  0
LINE
  5
245
100
AcDbEntity
  8
0
100
AcDbLine
 62
7
  6
CONTINUOUS
 10
6.6459005269
 20
13.1380755083
 11
6.6369642934
 21
13.1276901558
  0
LINE
  5
246
100
AcDbEntity
  8
0
100
AcDbLine
 62
7
  6
CONTINUOUS
 10
7.9076142005
 20
14.644627501
 11
8.1551015739
 21
14.8921148744
  0
LINE
  5
247
100
AcDbEntity
  8
0
100
AcDbLine
 62
7
  6
CONTINUOUS
 10
8.503312491
 20
14.9925663533
 11
8.6987107427
 21
15.187964605
  0
LINE
  5
248
100
AcDbEntity
  8
0
100
AcDbLine
 62
7
  6
CONTINUOUS
 10
8.72345948
 20
15.187964605
 11
9.3510793563
 21
15.8155844813
  0
LWPOLYLINE
  5
249
100
AcDbEntity
  8
0
100
AcDbPolyline
 62
7
  6
CONTINUOUS
 90
7
 70
0
 10
9.3510793018
 20
15.8155844648
 10
9.3538220555
 20
15.8181372646
 10
9.3597917032
 20
15.8226033198
 10
9.3663360675
 20
15.8261745127
 10
9.3733219696
 20
15.8287781763
 10
9.3806072471
 20
15.8303613336
 10
9.3880345486
 20
15.8308917759
  0
LINE
  5
24A
100
AcDbEntity
  8
0
100
AcDbLine
 62
7
  6
CONTINUOUS
 10
6.4539124796
 20
13.4762298462
 11
6.433375327
 21
13.4585583428
  0
LINE
  5
24B
100
AcDbEntity
  8
0
100
AcDbLine
 62
7
  6
CONTINUOUS
 10
6.4281393201
 20
13.4505996293
 11
6.4086265896
 21
13.4338096055
  0
LINE
  5
24C
100
AcDbEntity
  8
0
100
AcDbLine
 62
7
  6
CONTINUOUS
 10
6.4079118239
 20
13.4302345926
 11
6.3874133862
 21
13.412596402
  0
LINE
  5
24D
100
AcDbEntity
  8
0
100
AcDbLine
 62
7
  6
CONTINUOUS
 10
6.3932094647
 20
13.4151170738
 11
6.3697357167
 21
13.3949187325
  0
LINE
  5
24E
100
AcDbEntity
  8
0
100
AcDbLine
 62
7
  6
CONTINUOUS
 10
6.3834855323
 20
13.4057633086
 11
6.3626646489
 21
13.3878476647
  0
LINE
  5
24F
100
AcDbEntity
  8
0
100
AcDbLine
 62
7
  6
CONTINUOUS
 10
13.6299016515
 20
2.714891804
 11
14.0199016515
 21
2.714891804
  0
LINE
  5
250
100
AcDbEntity
  8
0
100
AcDbLine
 62
9
  6
CONTINUOUS
 10
13.5999016515
 20
2.744891804
 11
14.0499016515
 21
2.744891804
  0
LINE
  5
251
100
AcDbEntity
  8
0
100
AcDbLine
 62
7
  6
CONTINUOUS
 10
6.9094797854
 20
12.8959807781
 11
6.8906069576
 21
12.8740474916
  0
LINE
  5
252
100
AcDbEntity
  8
0
100
AcDbLine
 62
7
  6
CONTINUOUS
 10
6.9652609395
 20
12.8698382236
 11
6.9490321036
 21
12.8509776846
  0
LINE
  5
253
100
AcDbEntity
  8
0
100
AcDbLine
 62
7
  6
CONTINUOUS
 10
6.9952712724
 20
12.8803761447
 11
6.9799110822
 21
12.8625251129
  0
LINE
  5
254
100
AcDbEntity
  8
0
100
AcDbLine
 62
7
  6
CONTINUOUS
 10
7.0232196629
 20
12.9038100516
 11
7.0069877422
 21
12.8849459276
  0
LINE
  5
255
100
AcDbEntity
  8
0
100
AcDbLine
 62
7
  6
CONTINUOUS
 10
6.990721126
 20
12.7896619932
 11
6.9834466161
 21
12.781207833
  0
LINE
  5
256
100
AcDbEntity
  8
0
100
AcDbLine
 62
7
  6
CONTINUOUS
 10
8.46636459
 20
14.5808518583
 11
8.0852340349
 21
14.1997213032
  0
LINE
  5
257
100
AcDbEntity
  8
0
100
AcDbLine
 62
7
  6
CONTINUOUS
 10
7.926842116
 20
14.0413293842
 11
8.0569497637
 21
14.171437032
  0
LINE
  5
258
100
AcDbEntity
  8
0
100
AcDbLine
 62
7
  6
CONTINUOUS
 10
6.788497221
 20
13.1432431542
 11
6.7671011169
 21
13.1248325529
  0
LINE
  5
259
100
AcDbEntity
  8
0
100
AcDbLine
 62
7
  6
CONTINUOUS
 10
6.7657466176
 20
13.1145996361
 11
6.7453699611
 21
13.097066234
  0
LINE
  5
25A
100
AcDbEntity
  8
0
100
AcDbLine
 62
7
  6
CONTINUOUS
 10
6.7497882389
 20
13.0899866421
 11
6.7284145015
 21
13.0715952867
  0
LINE
  5
25B
100
AcDbEntity
  8
0
100
AcDbLine
 62
7
  6
CONTINUOUS
 10
6.7405849014
 20
13.0694032444
 11
6.7162180395
 21
13.0484364097
  0
LINE
  5
25C
100
AcDbEntity
  8
0
100
AcDbLine
 62
7
  6
CONTINUOUS
 10
6.9783574184
 20
12.8021048722
 11
6.9698607037
 21
12.7947937455
  0
LINE
  5
25D
100
AcDbEntity
  8
0
100
AcDbLine
 62
7
  6
CONTINUOUS
 10
7.040746003
 20
12.7824454657
 11
7.0282858497
 21
12.7717239385
  0
LINE
  5
25E
100
AcDbEntity
  8
0
100
AcDbLine
 62
7
  6
CONTINUOUS
 10
7.0803488627
 20
12.8014994894
 11
7.0591648283
 21
12.7832713668
  0
LINE
  5
25F
100
AcDbEntity
  8
0
100
AcDbLine
 62
7
  6
CONTINUOUS
 10
7.1084613902
 20
12.8248116319
 11
7.0862414883
 21
12.8056921815
  0
LINE
  5
260
100
AcDbEntity
  8
0
100
AcDbLine
 62
7
  6
CONTINUOUS
 10
7.0879630829
 20
12.7236917768
 11
7.0627003622
 21
12.7019540869
  0
LINE
  5
261
100
AcDbEntity
  8
0
100
AcDbLine
 62
7
  6
CONTINUOUS
 10
16.3259016515
 20
3.269891804
 11
16.6459016515
 21
3.269891804
  0
LINE
  5
262
100
AcDbEntity
  8
0
100
AcDbLine
 62
9
  6
CONTINUOUS
 10
16.2959016515
 20
3.299891804
 11
16.6459016515
 21
3.299891804
  0
LINE
  5
263
100
AcDbEntity
  8
0
100
AcDbLine
 62
7
  6
CONTINUOUS
 10
14.6559016515
 20
3.704891804
 11
16.2959016515
 21
3.704891804
  0
LINE
  5
264
100
AcDbEntity
  8
0
100
AcDbLine
 62
9
  6
CONTINUOUS
 10
13.5999016515
 20
3.734891804
 11
14.0499016515
 21
3.734891804
  0
LINE
  5
265
100
AcDbEntity
  8
0
100
AcDbLine
 62
9
  6
CONTINUOUS
 10
14.6259016515
 20
3.734891804
 11
16.2959016515
 21
3.734891804
  0
LINE
  5
266
100
AcDbEntity
  8
0
100
AcDbLine
 62
7
  6
CONTINUOUS
 10
7.1873460093
 20
12.6466988814
 11
7.1716047744
 21
12.6284050138
  0
LINE
  5
267
100
AcDbEntity
  8
0
100
AcDbLine
 62
7
  6
CONTINUOUS
 10
7.264143181
 20
12.6102288789
 11
7.2493728435
 21
12.5930633516
  0
LINE
  5
268
100
AcDbEntity
  8
0
100
AcDbLine
 62
7
  6
CONTINUOUS
 10
7.3131885272
 20
12.6124614616
 11
7.2975947296
 21
12.5943389402
  0
LINE
  5
269
100
AcDbEntity
  8
0
100
AcDbLine
 62
7
  6
CONTINUOUS
 10
7.3005780977
 20
12.5222314284
 11
7.290033219
 21
12.5099765693
  0
LINE
  5
26A
100
AcDbEntity
  8
0
100
AcDbLine
 62
7
  6
CONTINUOUS
 10
7.4704568027
 20
12.4029386951
 11
7.4561381252
 21
12.3862980699
  0
LINE
  5
26B
100
AcDbEntity
  8
0
100
AcDbLine
 62
7
  6
CONTINUOUS
 10
7.5620149357
 20
12.362453918
 11
7.5469674132
 21
12.3449662566
  0
LINE
  5
26C
100
AcDbEntity
  8
0
100
AcDbLine
 62
7
  6
CONTINUOUS
 10
7.5999314626
 20
12.2723755381
 11
7.586116215
 21
12.2563199801
  0
LINE
  5
26D
100
AcDbEntity
  8
0
100
AcDbLine
 62
7
  6
CONTINUOUS
 10
8.2584751963
 20
13.2981601572
 11
8.4218168628
 21
13.4615018236
  0
LINE
  5
26E
100
AcDbEntity
  8
0
100
AcDbLine
 62
7
  6
CONTINUOUS
 10
7.2631133796
 20
12.5596961464
 11
7.2508585205
 21
12.5491512677
  0
LINE
  5
26F
100
AcDbEntity
  8
0
100
AcDbLine
 62
7
  6
CONTINUOUS
 10
7.3446821477
 20
12.5276248531
 11
7.3286265896
 21
12.5138096055
  0
LINE
  5
270
100
AcDbEntity
  8
0
100
AcDbLine
 62
7
  6
CONTINUOUS
 10
7.3998205602
 20
12.5348518714
 11
7.3768484757
 21
12.515085194
  0
LINE
  5
271
100
AcDbEntity
  8
0
100
AcDbLine
 62
7
  6
CONTINUOUS
 10
7.3923129066
 20
12.4505358427
 11
7.3692869651
 21
12.4307228232
  0
LINE
  5
272
100
AcDbEntity
  8
0
100
AcDbLine
 62
7
  6
CONTINUOUS
 10
7.5514474294
 20
12.3208595714
 11
7.5353918713
 21
12.3070443238
  0
LINE
  5
273
100
AcDbEntity
  8
0
100
AcDbLine
 62
7
  6
CONTINUOUS
 10
7.6498402539
 20
12.2860359175
 11
7.6262211593
 21
12.2657125105
  0
LINE
  5
274
100
AcDbEntity
  8
0
100
AcDbLine
 62
7
  6
CONTINUOUS
 10
14.0799016515
 20
3.959891804
 11
14.5999016515
 21
3.959891804
  0
LINE
  5
275
100
AcDbEntity
  8
0
100
AcDbLine
 62
7
  6
CONTINUOUS
 10
13.6299016515
 20
3.984891804
 11
14.0199016515
 21
3.984891804
  0
LINE
  5
276
100
AcDbEntity
  8
0
100
AcDbLine
 62
9
  6
CONTINUOUS
 10
13.5999016515
 20
4.014891804
 11
14.0499016515
 21
4.014891804
  0
LINE
  5
277
100
AcDbEntity
  8
0
100
AcDbLine
 62
7
  6
CONTINUOUS
 10
14.5999016515
 20
4.023391804
 11
14.6259016515
 21
4.023391804
  0
LINE
  5
278
100
AcDbEntity
  8
0
100
AcDbLine
 62
7
  6
CONTINUOUS
 10
14.5999016515
 20
4.546391804
 11
14.6259016515
 21
4.546391804
  0
LINE
  5
279
100
AcDbEntity
  8
0
100
AcDbLine
 62
7
  6
CONTINUOUS
 10
7.7588233108
 20
12.1647131717
 11
7.7442070099
 21
12.1477266599
  0
LINE
  5
27A
100
AcDbEntity
  8
0
100
AcDbLine
 62
7
  6
CONTINUOUS
 10
7.8950115452
 20
12.0278807022
 11
7.880693203
 21
12.0112404668
  0
LINE
  5
27B
100
AcDbEntity
  8
0
100
AcDbLine
 62
7
  6
CONTINUOUS
 10
7.6881201233
 20
12.1966419549
 11
7.6653699611
 21
12.177066234
  0
LINE
  5
27C
100
AcDbEntity
  8
0
100
AcDbLine
 62
7
  6
CONTINUOUS
 10
7.7325680956
 20
12.1524076875
 11
7.709703067
 21
12.1327331281
  0
LINE
  5
27D
100
AcDbEntity
  8
0
100
AcDbLine
 62
7
  6
CONTINUOUS
 10
7.8475926195
 20
12.0892375405
 11
7.823460756
 21
12.0684729138
  0
LINE
  5
27E
100
AcDbEntity
  8
0
100
AcDbLine
 62
7
  6
CONTINUOUS
 10
7.9844341684
 20
11.9530571186
 11
7.9599469491
 21
11.9319867206
  0
LINE
  5
27F
100
AcDbEntity
  8
0
100
AcDbLine
 62
7
  6
CONTINUOUS
 10
8.0543836711
 20
11.8834458759
 11
8.0297146371
 21
11.8622190327
  0
LINE
  5
280
100
AcDbEntity
  8
0
100
AcDbLine
 62
9
  6
CONTINUOUS
 10
13.5999016515
 20
4.554891804
 11
14.0499016515
 21
4.554891804
  0
LINE
  5
281
100
AcDbEntity
  8
0
100
AcDbLine
 62
7
  6
CONTINUOUS
 10
13.6299016515
 20
4.584891804
 11
14.0199016515
 21
4.584891804
  0
LINE
  5
282
100
AcDbEntity
  8
0
100
AcDbLine
 62
7
  6
CONTINUOUS
 10
14.0799016515
 20
4.609891804
 11
14.5999016515
 21
4.609891804
  0
LINE
  5
283
100
AcDbEntity
  8
0
100
AcDbLine
 62
9
  6
CONTINUOUS
 10
13.5999016515
 20
4.834891804
 11
14.0499016515
 21
4.834891804
  0
LINE
  5
284
100
AcDbEntity
  8
0
100
AcDbLine
 62
9
  6
CONTINUOUS
 10
14.6259016515
 20
4.834891804
 11
16.2959016515
 21
4.834891804
  0
LINE
  5
285
100
AcDbEntity
  8
0
100
AcDbLine
 62
7
  6
CONTINUOUS
 10
14.6559016515
 20
4.864891804
 11
16.2959016515
 21
4.864891804
  0
LINE
  5
286
100
AcDbEntity
  8
0
100
AcDbLine
 62
7
  6
CONTINUOUS
 10
4.5505220002
 20
15.4084664857
 11
4.4650875519
 21
15.7273121872
  0
LINE
  5
287
100
AcDbEntity
  8
0
100
AcDbLine
 62
7
  6
CONTINUOUS
 10
8.6518532001
 20
11.5772888852
 11
9.2731734273
 21
12.1986091124
  0
LINE
  5
288
100
AcDbEntity
  8
0
100
AcDbLine
 62
9
  6
CONTINUOUS
 10
16.2959016515
 20
5.269891804
 11
16.6459016515
 21
5.269891804
  0
LINE
  5
289
100
AcDbEntity
  8
0
100
AcDbLine
 62
7
  6
CONTINUOUS
 10
16.3259016515
 20
5.299891804
 11
16.6459016515
 21
5.299891804
  0
LINE
  5
28A
100
AcDbEntity
  8
0
100
AcDbLine
 62
9
  6
CONTINUOUS
 10
13.5999016515
 20
5.824891804
 11
14.0499016515
 21
5.824891804
  0
LINE
  5
28B
100
AcDbEntity
  8
0
100
AcDbLine
 62
7
  6
CONTINUOUS
 10
7.8766991095
 20
15.4698791939
 11
7.8766991095
 21
15.5431953587
  0
LINE
  5
28C
100
AcDbEntity
  8
0
100
AcDbLine
 62
7
  6
CONTINUOUS
 10
7.9559016515
 20
16.424891804
 11
7.9559016515
 21
15.890891804
  0
LINE
  5
28D
100
AcDbEntity
  8
0
100
AcDbLine
 62
9
  6
CONTINUOUS
 10
8.0159016515
 20
15.830891804
 11
8.0159016515
 21
16.484891804
  0
LINE
  5
28E
100
AcDbEntity
  8
0
100
AcDbLine
 62
7
  6
CONTINUOUS
 10
8.083527843
 20
15.8031475046
 11
8.083527843
 21
15.8278962419
  0
LINE
  5
28F
100
AcDbEntity
  8
0
100
AcDbLine
 62
7
  6
CONTINUOUS
 10
13.6299016515
 20
5.854891804
 11
14.0199016515
 21
5.854891804
  0
LINE
  5
290
100
AcDbEntity
  8
0
100
AcDbLine
 62
9
  6
CONTINUOUS
 10
16.6459016515
 20
7.004891804
 11
16.9559016515
 21
7.004891804
  0
LINE
  5
291
100
AcDbEntity
  8
0
100
AcDbLine
 62
7
  6
CONTINUOUS
 10
16.6759016515
 20
7.034891804
 11
16.9559016515
 21
7.034891804
  0
LINE
  5
292
100
AcDbEntity
  8
0
100
AcDbLine
 62
7
  6
CONTINUOUS
 10
6.6790792581
 20
13.0518063864
 11
6.6209793038
 21
13.1099063407
  0
LINE
  5
293
100
AcDbEntity
  8
0
100
AcDbLine
 62
7
  6
CONTINUOUS
 10
6.3422744184
 20
13.3886112261
 11
6.2841744642
 21
13.4467111804
  0
LINE
  5
294
100
AcDbEntity
  8
0
100
AcDbLine
 62
7
  6
CONTINUOUS
 10
6.0054695788
 20
13.7254160657
 11
5.9473696245
 21
13.78351602
  0
LINE
  5
295
100
AcDbEntity
  8
0
100
AcDbLine
 62
7
  6
CONTINUOUS
 10
7.0423101318
 20
12.7027176483
 11
6.9842101775
 21
12.7608176026
  0
LINE
  5
296
100
AcDbEntity
  8
0
100
AcDbLine
 62
7
  6
CONTINUOUS
 10
6.9494704732
 20
12.7955573069
 11
6.8913705189
 21
12.8536572612
  0
LINE
  5
297
100
AcDbEntity
  8
0
100
AcDbLine
 62
7
  6
CONTINUOUS
 10
6.695827809
 20
13.0491999711
 11
6.6377278547
 21
13.1072999254
  0
LINE
  5
298
100
AcDbEntity
  8
0
100
AcDbLine
 62
7
  6
CONTINUOUS
 10
6.3493454862
 20
13.3956822939
 11
6.291245532
 21
13.4537822482
  0
LINE
  5
299
100
AcDbEntity
  8
0
100
AcDbLine
 62
7
  6
CONTINUOUS
 10
6.0028631635
 20
13.7421646167
 11
5.9447632092
 21
13.8002645709
  0
LINE
  5
29A
100
AcDbEntity
  8
0
100
AcDbLine
 62
7
  6
CONTINUOUS
 10
5.7492204993
 20
13.9958072809
 11
5.691120545
 21
14.0539072351
  0
LINE
  5
29B
100
AcDbEntity
  8
0
100
AcDbLine
 62
7
  6
CONTINUOUS
 10
5.6563808407
 20
14.0886469394
 11
5.5982808864
 21
14.1467468937
  0
LINE
  5
29C
100
AcDbEntity
  8
0
100
AcDbLine
 62
9
  6
CONTINUOUS
 10
6.6334408224
 20
13.1170714912
 11
6.6202157424
 21
13.1302965712
  0
LINE
  5
29D
100
AcDbEntity
  8
0
100
AcDbLine
 62
9
  6
CONTINUOUS
 10
6.3626646489
 20
13.3878476647
 11
6.359117052
 21
13.3913952615
  0
LINE
  5
29E
100
AcDbEntity
  8
0
100
AcDbLine
 62
9
  6
CONTINUOUS
 10
6.2869584996
 20
13.463553814
 11
6.2834109028
 21
13.4671014108
  0
LINE
  5
29F
100
AcDbEntity
  8
0
100
AcDbLine
 62
9
  6
CONTINUOUS
 10
6.0258598092
 20
13.7246525043
 11
6.0126347293
 21
13.7378775843
  0
LINE
  5
2A0
100
AcDbEntity
  8
0
100
AcDbLine
 62
9
  6
CONTINUOUS
 10
7.0627003622
 20
12.7019540869
 11
6.9834466161
 21
12.781207833
  0
LINE
  5
2A1
100
AcDbEntity
  8
0
100
AcDbLine
 62
9
  6
CONTINUOUS
 10
6.9698607037
 20
12.7947937455
 11
6.8906069576
 21
12.8740474916
  0
LINE
  5
2A2
100
AcDbEntity
  8
0
100
AcDbLine
 62
9
  6
CONTINUOUS
 10
6.7162180395
 20
13.0484364097
 11
6.6369642934
 21
13.1276901558
  0
LINE
  5
2A3
100
AcDbEntity
  8
0
100
AcDbLine
 62
9
  6
CONTINUOUS
 10
6.3697357167
 20
13.3949187325
 11
6.2904819706
 21
13.4741724786
  0
LINE
  5
2A4
100
AcDbEntity
  8
0
100
AcDbLine
 62
9
  6
CONTINUOUS
 10
6.0232533939
 20
13.7414010553
 11
5.9439996478
 21
13.8206548014
  0
LINE
  5
2A5
100
AcDbEntity
  8
0
100
AcDbLine
 62
9
  6
CONTINUOUS
 10
5.7696107297
 20
13.9950437195
 11
5.6903569836
 21
14.0742974656
  0
LINE
  5
2A6
100
AcDbEntity
  8
0
100
AcDbLine
 62
9
  6
CONTINUOUS
 10
5.6767710711
 20
14.0878833781
 11
5.597517325
 21
14.1671371242
  0
LINE
  5
2A7
100
AcDbEntity
  8
0
100
AcDbLine
 62
7
  6
CONTINUOUS
 10
7.3488967346
 20
12.4314863846
 11
7.2907967803
 21
12.4895863388
  0
LINE
  5
2A8
100
AcDbEntity
  8
0
100
AcDbLine
 62
7
  6
CONTINUOUS
 10
7.2304682901
 20
12.5499148291
 11
7.1723683358
 21
12.6080147834
  0
LINE
  5
2A9
100
AcDbEntity
  8
0
100
AcDbLine
 62
7
  6
CONTINUOUS
 10
7.0078956193
 20
12.7724874999
 11
6.949795665
 21
12.8305874542
  0
LINE
  5
2AA
100
AcDbEntity
  8
0
100
AcDbLine
 62
7
  6
CONTINUOUS
 10
6.7080242711
 20
13.0723588481
 11
6.6499243168
 21
13.1304588024
  0
LINE
  5
2AB
100
AcDbEntity
  8
0
100
AcDbLine
 62
7
  6
CONTINUOUS
 10
6.3670231558
 20
13.4133599634
 11
6.3089232015
 21
13.4714599177
  0
LINE
  5
2AC
100
AcDbEntity
  8
0
100
AcDbLine
 62
7
  6
CONTINUOUS
 10
6.0260220404
 20
13.7543610787
 11
5.9679220862
 21
13.812461033
  0
LINE
  5
2AD
100
AcDbEntity
  8
0
100
AcDbLine
 62
7
  6
CONTINUOUS
 10
5.7261506923
 20
14.0542324269
 11
5.668050738
 21
14.1123323812
  0
LINE
  5
2AE
100
AcDbEntity
  8
0
100
AcDbLine
 62
7
  6
CONTINUOUS
 10
5.5035780214
 20
14.2768050977
 11
5.4454780672
 21
14.334905052
  0
LINE
  5
2AF
100
AcDbEntity
  8
0
100
AcDbLine
 62
7
  6
CONTINUOUS
 10
5.3851495769
 20
14.3952335423
 11
5.3270496226
 21
14.4533334965
  0
LINE
  5
2B0
100
AcDbEntity
  8
0
100
AcDbLine
 62
7
  6
CONTINUOUS
 10
6.3792533483
 20
13.4021216619
 11
6.4692838786
 21
13.3120911315
  0
LINE
  5
2B1
100
AcDbEntity
  8
0
100
AcDbLine
 62
7
  6
CONTINUOUS
 10
6.2976849
 20
13.4836901102
 11
6.2076543696
 21
13.5737206406
  0
LINE
  5
2B2
100
AcDbEntity
  8
0
100
AcDbLine
 62
7
  6
CONTINUOUS
 10
6.0448858799
 20
13.7410237745
 11
6.2996569534
 21
13.486252701
  0
LINE
  5
2B3
100
AcDbEntity
  8
0
100
AcDbLine
 62
7
  6
CONTINUOUS
 10
6.3818159391
 20
13.4040937153
 11
6.6365870125
 21
13.1493226419
  0
LINE
  5
2B4
100
AcDbEntity
  8
0
100
AcDbLine
 62
9
  6
CONTINUOUS
 10
6.0450691101
 20
13.7410767318
 11
6.2997750472
 21
13.4863707948
  0
LINE
  5
2B5
100
AcDbEntity
  8
0
100
AcDbLine
 62
9
  6
CONTINUOUS
 10
6.3819340328
 20
13.4042118091
 11
6.6366399699
 21
13.149505872
  0
LINE
  5
2B6
100
AcDbEntity
  8
0
100
AcDbLine
 62
9
  6
CONTINUOUS
 10
6.7785564071
 20
13.0128011802
 11
6.7305709762
 21
13.0607866111
  0
LINE
  5
2B7
100
AcDbEntity
  8
0
100
AcDbLine
 62
9
  6
CONTINUOUS
 10
6.6461241403
 20
13.145233447
 11
6.3840886534
 21
13.4072689339
  0
LINE
  5
2B8
100
AcDbEntity
  8
0
100
AcDbLine
 62
9
  6
CONTINUOUS
 10
6.302832172
 20
13.4885254154
 11
6.0410833642
 21
13.7502742231
  0
LINE
  5
2B9
100
AcDbEntity
  8
0
100
AcDbLine
 62
9
  6
CONTINUOUS
 10
5.9563498492
 20
13.8350077381
 11
5.9083644183
 21
13.882993169
  0
LINE
  5
2BA
100
AcDbEntity
  8
0
100
AcDbLine
 62
9
  6
CONTINUOUS
 10
7.3692869651
 20
12.4307228232
 11
7.290033219
 21
12.5099765693
  0
LINE
  5
2BB
100
AcDbEntity
  8
0
100
AcDbLine
 62
9
  6
CONTINUOUS
 10
7.2508585205
 20
12.5491512677
 11
7.1716047744
 21
12.6284050138
  0
LINE
  5
2BC
100
AcDbEntity
  8
0
100
AcDbLine
 62
9
  6
CONTINUOUS
 10
7.0282858497
 20
12.7717239385
 11
6.9490321036
 21
12.8509776846
  0
LINE
  5
2BD
100
AcDbEntity
  8
0
100
AcDbLine
 62
9
  6
CONTINUOUS
 10
6.7284145015
 20
13.0715952867
 11
6.6491607554
 21
13.1508490328
  0
LINE
  5
2BE
100
AcDbEntity
  8
0
100
AcDbLine
 62
9
  6
CONTINUOUS
 10
6.3874133862
 20
13.412596402
 11
6.3081596401
 21
13.4918501481
  0
LINE
  5
2BF
100
AcDbEntity
  8
0
100
AcDbLine
 62
9
  6
CONTINUOUS
 10
6.0464122709
 20
13.7535975174
 11
5.9671585248
 21
13.8328512635
  0
LINE
  5
2C0
100
AcDbEntity
  8
0
100
AcDbLine
 62
9
  6
CONTINUOUS
 10
5.7465409227
 20
14.0534688655
 11
5.6672871766
 21
14.1327226117
  0
LINE
  5
2C1
100
AcDbEntity
  8
0
100
AcDbLine
 62
9
  6
CONTINUOUS
 10
5.5239682519
 20
14.2760415364
 11
5.4447145058
 21
14.3552952825
  0
LINE
  5
2C2
100
AcDbEntity
  8
0
100
AcDbLine
 62
9
  6
CONTINUOUS
 10
5.4055398074
 20
14.3944699809
 11
5.3262860613
 21
14.473723727
  0
LINE
  5
2C3
100
AcDbEntity
  8
0
100
AcDbLine
 62
7
  6
CONTINUOUS
 10
5.7909619311
 20
14.0133344623
 11
5.962334047
 21
13.8419623465
  0
LINE
  5
2C4
100
AcDbEntity
  8
0
100
AcDbLine
 62
7
  6
CONTINUOUS
 10
6.0487163212
 20
13.7555800723
 11
6.3086652394
 21
13.4956311541
  0
LINE
  5
2C5
100
AcDbEntity
  8
0
100
AcDbLine
 62
7
  6
CONTINUOUS
 10
6.3911943922
 20
13.4131020013
 11
6.6511433104
 21
13.1531530831
  0
LINE
  5
2C6
100
AcDbEntity
  8
0
100
AcDbLine
 62
7
  6
CONTINUOUS
 10
6.7375255845
 20
13.066770809
 11
6.9088977004
 21
12.8953986931
  0
LINE
  5
2C7
100
AcDbEntity
  8
0
100
AcDbLine
 62
9
  6
CONTINUOUS
 10
5.7914729219
 20
14.0138454531
 11
5.9628067135
 21
13.8425116616
  0
LINE
  5
2C8
100
AcDbEntity
  8
0
100
AcDbLine
 62
9
  6
CONTINUOUS
 10
6.0492656363
 20
13.7560527388
 11
6.3091762302
 21
13.4961421449
  0
LINE
  5
2C9
100
AcDbEntity
  8
0
100
AcDbLine
 62
9
  6
CONTINUOUS
 10
6.391705383
 20
13.4136129921
 11
6.6516159769
 21
13.1537023982
  0
LINE
  5
2CA
100
AcDbEntity
  8
0
100
AcDbLine
 62
9
  6
CONTINUOUS
 10
6.7380748996
 20
13.0672434754
 11
6.9094086912
 21
12.8959096839
  0
LINE
  5
2CB
100
AcDbEntity
  8
0
100
AcDbLine
 62
9
  6
CONTINUOUS
 10
7.0915599669
 20
12.7203895112
 11
7.034703433
 21
12.7772460451
  0
LINE
  5
2CC
100
AcDbEntity
  8
0
100
AcDbLine
 62
9
  6
CONTINUOUS
 10
6.9545542102
 20
12.8573952679
 11
6.7348320848
 21
13.0771173932
  0
LINE
  5
2CD
100
AcDbEntity
  8
0
100
AcDbLine
 62
9
  6
CONTINUOUS
 10
6.654682862
 20
13.1572666161
 11
6.3938309695
 21
13.4181185086
  0
LINE
  5
2CE
100
AcDbEntity
  8
0
100
AcDbLine
 62
9
  6
CONTINUOUS
 10
6.3136817467
 20
13.4982677314
 11
6.0528298542
 21
13.7591196239
  0
LINE
  5
2CF
100
AcDbEntity
  8
0
100
AcDbLine
 62
9
  6
CONTINUOUS
 10
5.9726806313
 20
13.8392688468
 11
5.752958506
 21
14.0589909721
  0
LINE
  5
2D0
100
AcDbEntity
  8
0
100
AcDbLine
 62
9
  6
CONTINUOUS
 10
5.6728092831
 20
14.1391401949
 11
5.6159527493
 21
14.1959967288
  0
LINE
  5
2D1
100
AcDbEntity
  8
0
100
AcDbLine
 62
7
  6
CONTINUOUS
 10
7.6893128366
 20
12.1334966895
 11
7.5868797764
 21
12.2359297497
  0
LINE
  5
2D2
100
AcDbEntity
  8
0
100
AcDbLine
 62
7
  6
CONTINUOUS
 10
7.5150016409
 20
12.3078078852
 11
7.4569016866
 21
12.3659078395
  0
LINE
  5
2D3
100
AcDbEntity
  8
0
100
AcDbLine
 62
7
  6
CONTINUOUS
 10
7.3082363592
 20
12.5145731668
 11
7.2501364049
 21
12.5726731211
  0
LINE
  5
2D4
100
AcDbEntity
  8
0
100
AcDbLine
 62
7
  6
CONTINUOUS
 10
7.0387745979
 20
12.7840349282
 11
6.9806746436
 21
12.8421348824
  0
LINE
  5
2D5
100
AcDbEntity
  8
0
100
AcDbLine
 62
7
  6
CONTINUOUS
 10
6.7249797307
 20
13.0978297954
 11
6.6668797764
 21
13.1559297497
  0
LINE
  5
2D6
100
AcDbEntity
  8
0
100
AcDbLine
 62
7
  6
CONTINUOUS
 10
6.3882363592
 20
13.4345731668
 11
6.3301364049
 21
13.4926731211
  0
LINE
  5
2D7
100
AcDbEntity
  8
0
100
AcDbLine
 62
7
  6
CONTINUOUS
 10
6.0514929877
 20
13.7713165383
 11
5.9933930334
 21
13.8294164926
  0
LINE
  5
2D8
100
AcDbEntity
  8
0
100
AcDbLine
 62
7
  6
CONTINUOUS
 10
5.7376981205
 20
14.0851114055
 11
5.6795981662
 21
14.1432113598
  0
LINE
  5
2D9
100
AcDbEntity
  8
0
100
AcDbLine
 62
7
  6
CONTINUOUS
 10
5.4682363592
 20
14.3545731668
 11
5.4101364049
 21
14.4126731211
  0
LINE
  5
2DA
100
AcDbEntity
  8
0
100
AcDbLine
 62
7
  6
CONTINUOUS
 10
5.2614710775
 20
14.5613384485
 11
5.2033711232
 21
14.6194384028
  0
LINE
  5
2DB
100
AcDbEntity
  8
0
100
AcDbLine
 62
7
  6
CONTINUOUS
 10
5.1314929877
 20
14.6913165383
 11
5.0290599275
 21
14.7937495985
  0
LINE
  5
2DC
100
AcDbEntity
  8
0
100
AcDbLine
 62
7
  6
CONTINUOUS
 10
5.5409760893
 20
14.2904967411
 11
5.675448558
 21
14.1560242723
  0
LINE
  5
2DD
100
AcDbEntity
  8
0
100
AcDbLine
 62
7
  6
CONTINUOUS
 10
5.7635882953
 20
14.067884535
 11
5.9817101818
 21
13.8497626486
  0
LINE
  5
2DE
100
AcDbEntity
  8
0
100
AcDbLine
 62
7
  6
CONTINUOUS
 10
6.0643059003
 20
13.7671669301
 11
6.3227112971
 21
13.5087615333
  0
LINE
  5
2DF
100
AcDbEntity
  8
0
100
AcDbLine
 62
7
  6
CONTINUOUS
 10
6.4043247714
 20
13.427148059
 11
6.6627301682
 21
13.1687426622
  0
LINE
  5
2E0
100
AcDbEntity
  8
0
100
AcDbLine
 62
7
  6
CONTINUOUS
 10
6.7453258867
 20
13.0861469437
 11
6.9634477731
 21
12.8680250572
  0
LINE
  5
2E1
100
AcDbEntity
  8
0
100
AcDbLine
 62
7
  6
CONTINUOUS
 10
7.0515875104
 20
12.7798853199
 11
7.1860599792
 21
12.6454128512
  0
LINE
  5
2E2
100
AcDbEntity
  8
0
100
AcDbLine
 62
9
  6
CONTINUOUS
 10
5.5420677998
 20
14.2915884516
 11
5.6757786759
 21
14.1578775754
  0
LINE
  5
2E3
100
AcDbEntity
  8
0
100
AcDbLine
 62
9
  6
CONTINUOUS
 10
6.0661592033
 20
13.767497048
 11
6.3235527481
 21
13.5101035032
  0
LINE
  5
2E4
100
AcDbEntity
  8
0
100
AcDbLine
 62
9
  6
CONTINUOUS
 10
6.4056667413
 20
13.42798951
 11
6.6630602861
 21
13.1705959653
  0
LINE
  5
2E5
100
AcDbEntity
  8
0
100
AcDbLine
 62
9
  6
CONTINUOUS
 10
7.0534408135
 20
12.7802154378
 11
7.1871516896
 21
12.6465045617
  0
LINE
  5
2E6
100
AcDbEntity
  8
0
100
AcDbLine
 62
9
  6
CONTINUOUS
 10
7.709703067
 20
12.1327331281
 11
7.586116215
 21
12.2563199801
  0
LINE
  5
2E7
100
AcDbEntity
  8
0
100
AcDbLine
 62
9
  6
CONTINUOUS
 10
7.5353918713
 20
12.3070443238
 11
7.4561381252
 21
12.3862980699
  0
LINE
  5
2E8
100
AcDbEntity
  8
0
100
AcDbLine
 62
9
  6
CONTINUOUS
 10
7.3286265896
 20
12.5138096055
 11
7.2493728435
 21
12.5930633516
  0
LINE
  5
2E9
100
AcDbEntity
  8
0
100
AcDbLine
 62
9
  6
CONTINUOUS
 10
7.0591648283
 20
12.7832713668
 11
6.9799110822
 21
12.8625251129
  0
LINE
  5
2EA
100
AcDbEntity
  8
0
100
AcDbLine
 62
9
  6
CONTINUOUS
 10
6.7453699611
 20
13.097066234
 11
6.666116215
 21
13.1763199801
  0
LINE
  5
2EB
100
AcDbEntity
  8
0
100
AcDbLine
 62
9
  6
CONTINUOUS
 10
6.4086265896
 20
13.4338096055
 11
6.3293728435
 21
13.5130633516
  0
LINE
  5
2EC
100
AcDbEntity
  8
0
100
AcDbLine
 62
9
  6
CONTINUOUS
 10
6.0718832182
 20
13.7705529769
 11
5.9926294721
 21
13.8498067231
  0
LINE
  5
2ED
100
AcDbEntity
  8
0
100
AcDbLine
 62
9
  6
CONTINUOUS
 10
5.758088351
 20
14.0843478442
 11
5.6788346048
 21
14.1636015903
  0
LINE
  5
2EE
100
AcDbEntity
  8
0
100
AcDbLine
 62
9
  6
CONTINUOUS
 10
5.4886265896
 20
14.3538096055
 11
5.4093728435
 21
14.4330633516
  0
LINE
  5
2EF
100
AcDbEntity
  8
0
100
AcDbLine
 62
9
  6
CONTINUOUS
 10
5.281861308
 20
14.5605748871
 11
5.2026075619
 21
14.6398286332
  0
LINE
  5
2F0
100
AcDbEntity
  8
0
100
AcDbLine
 62
9
  6
CONTINUOUS
 10
5.1518832182
 20
14.6905529769
 11
5.0282963662
 21
14.814139829
  0
LINE
  5
2F1
100
AcDbEntity
  8
0
100
AcDbLine
 62
7
  6
CONTINUOUS
 10
5.6159527493
 20
14.1959967288
 11
5.6192550149
 21
14.1923998449
  0
LINE
  5
2F2
100
AcDbEntity
  8
0
100
AcDbLine
 62
7
  6
CONTINUOUS
 10
5.04702812
 20
14.8381073362
 11
5.0479709256
 21
14.8370048575
  0
LINE
  5
2F3
100
AcDbEntity
  8
0
100
AcDbLine
 62
7
  6
CONTINUOUS
 10
6.2076543696
 20
13.5737206406
 11
6.1818807737
 21
13.6040288807
  0
LINE
  5
2F4
100
AcDbEntity
  8
0
100
AcDbLine
 62
7
  6
CONTINUOUS
 10
6.4692838786
 20
13.3120911315
 11
6.4995921188
 21
13.2863175356
  0
LINE
  5
2F5
100
AcDbEntity
  8
0
100
AcDbLine
 62
7
  6
CONTINUOUS
 10
7.7336705743
 20
12.1514648819
 11
7.7325680956
 21
12.1524076875
  0
LINE
  5
2F6
100
AcDbEntity
  8
0
100
AcDbLine
 62
7
  6
CONTINUOUS
 10
7.0915599669
 20
12.7203895112
 11
7.0879630829
 21
12.7236917768
  0
LINE
  5
2F7
100
AcDbEntity
  8
0
100
AcDbLine
 62
9
  6
CONTINUOUS
 10
7.4099258783
 20
12.4332720037
 11
7.3290074331
 21
12.5141904489
  0
LINE
  5
2F8
100
AcDbEntity
  8
0
100
AcDbLine
 62
9
  6
CONTINUOUS
 10
7.249753687
 20
12.593444195
 11
7.0595456718
 21
12.7836522102
  0
LINE
  5
2F9
100
AcDbEntity
  8
0
100
AcDbLine
 62
9
  6
CONTINUOUS
 10
6.9802919257
 20
12.8629059563
 11
6.7457508046
 21
13.0974470774
  0
LINE
  5
2FA
100
AcDbEntity
  8
0
100
AcDbLine
 62
9
  6
CONTINUOUS
 10
6.6664970585
 20
13.1767008235
 11
6.4090074331
 21
13.4341904489
  0
LINE
  5
2FB
100
AcDbEntity
  8
0
100
AcDbLine
 62
9
  6
CONTINUOUS
 10
6.329753687
 20
13.513444195
 11
6.0722640616
 21
13.7709338204
  0
LINE
  5
2FC
100
AcDbEntity
  8
0
100
AcDbLine
 62
9
  6
CONTINUOUS
 10
5.9930103155
 20
13.8501875665
 11
5.7584691944
 21
14.0847286876
  0
LINE
  5
2FD
100
AcDbEntity
  8
0
100
AcDbLine
 62
9
  6
CONTINUOUS
 10
5.6792154483
 20
14.1639824337
 11
5.4890074331
 21
14.3541904489
  0
LINE
  5
2FE
100
AcDbEntity
  8
0
100
AcDbLine
 62
9
  6
CONTINUOUS
 10
5.4110522855
 20
14.4321455965
 11
5.3288352418
 21
14.5143626402
  0
LINE
  5
2FF
100
AcDbEntity
  8
0
100
AcDbLine
 62
7
  6
CONTINUOUS
 10
5.1730471376
 20
14.6958218813
 11
5.2148327429
 21
14.654036276
  0
LINE
  5
300
100
AcDbEntity
  8
0
100
AcDbLine
 62
7
  6
CONTINUOUS
 10
5.2962386937
 20
14.5726303252
 11
5.4215980245
 21
14.4472709943
  0
LINE
  5
301
100
AcDbEntity
  8
0
100
AcDbLine
 62
7
  6
CONTINUOUS
 10
5.5030405965
 20
14.3658284224
 11
5.6910597858
 21
14.177809233
  0
LINE
  5
302
100
AcDbEntity
  8
0
100
AcDbLine
 62
7
  6
CONTINUOUS
 10
5.7725501837
 20
14.0963188352
 11
6.0048546531
 21
13.8640143658
  0
LINE
  5
303
100
AcDbEntity
  8
0
100
AcDbLine
 62
7
  6
CONTINUOUS
 10
6.0860908609
 20
13.7827781579
 11
6.3415980245
 21
13.5272709943
  0
LINE
  5
304
100
AcDbEntity
  8
0
100
AcDbLine
 62
7
  6
CONTINUOUS
 10
6.4228342324
 20
13.4460347865
 11
6.678031368
 21
13.1908376509
  0
LINE
  5
305
100
AcDbEntity
  8
0
100
AcDbLine
 62
7
  6
CONTINUOUS
 10
6.7595776039
 20
13.109291415
 11
6.9918820733
 21
12.8769869456
  0
LINE
  5
306
100
AcDbEntity
  8
0
100
AcDbLine
 62
7
  6
CONTINUOUS
 10
7.0733724711
 20
12.7954965478
 11
7.2613916605
 21
12.6074773584
  0
LINE
  5
307
100
AcDbEntity
  8
0
100
AcDbLine
 62
7
  6
CONTINUOUS
 10
7.3428342324
 20
12.5260347865
 11
7.4681935633
 21
12.4006754556
  0
LINE
  5
308
100
AcDbEntity
  8
0
100
AcDbLine
 62
7
  6
CONTINUOUS
 10
7.5495995141
 20
12.3192695048
 11
7.5913851193
 21
12.2774838996
  0
LINE
  5
309
100
AcDbEntity
  8
0
100
AcDbLine
 62
7
  6
CONTINUOUS
 10
8.0093244066
 20
11.8629825941
 11
7.9512244524
 21
11.9210825484
  0
LINE
  5
30A
100
AcDbEntity
  8
0
100
AcDbLine
 62
7
  6
CONTINUOUS
 10
7.9395567187
 20
11.932750282
 11
7.8814567644
 21
11.9908502363
  0
LINE
  5
30B
100
AcDbEntity
  8
0
100
AcDbLine
 62
7
  6
CONTINUOUS
 10
7.8030705256
 20
12.0692364752
 11
7.7449705713
 21
12.1273364294
  0
LINE
  5
30C
100
AcDbEntity
  8
0
100
AcDbLine
 62
7
  6
CONTINUOUS
 10
7.6058309288
 20
12.2664760719
 11
7.5477309746
 21
12.3245760262
  0
LINE
  5
30D
100
AcDbEntity
  8
0
100
AcDbLine
 62
7
  6
CONTINUOUS
 10
7.3564582453
 20
12.5158487554
 11
7.298358291
 21
12.5739487097
  0
LINE
  5
30E
100
AcDbEntity
  8
0
100
AcDbLine
 62
7
  6
CONTINUOUS
 10
7.0658512579
 20
12.8064557429
 11
7.0077513036
 21
12.8645556971
  0
LINE
  5
30F
100
AcDbEntity
  8
0
100
AcDbLine
 62
7
  6
CONTINUOUS
 10
6.7467108864
 20
13.1255961143
 11
6.6886109321
 21
13.1836960686
  0
LINE
  5
310
100
AcDbEntity
  8
0
100
AcDbLine
 62
7
  6
CONTINUOUS
 10
6.4129850966
 20
13.4593219042
 11
6.3548851423
 21
13.5174218585
  0
LINE
  5
311
100
AcDbEntity
  8
0
100
AcDbLine
 62
7
  6
CONTINUOUS
 10
6.0792593067
 20
13.7930476941
 11
6.0211593524
 21
13.8511476483
  0
LINE
  5
312
100
AcDbEntity
  8
0
100
AcDbLine
 62
7
  6
CONTINUOUS
 10
5.7601189352
 20
14.1121880655
 11
5.7020189809
 21
14.1702880198
  0
LINE
  5
313
100
AcDbEntity
  8
0
100
AcDbLine
 62
7
  6
CONTINUOUS
 10
5.4695119478
 20
14.4027950529
 11
5.4114119935
 21
14.4608950072
  0
LINE
  5
314
100
AcDbEntity
  8
0
100
AcDbLine
 62
7
  6
CONTINUOUS
 10
5.2201392643
 20
14.6521677365
 11
5.16203931
 21
14.7102676908
  0
LINE
  5
315
100
AcDbEntity
  8
0
100
AcDbLine
 62
7
  6
CONTINUOUS
 10
5.0228996675
 20
14.8494073332
 11
4.9647997132
 21
14.9075072875
  0
LINE
  5
316
100
AcDbEntity
  8
0
100
AcDbLine
 62
7
  6
CONTINUOUS
 10
4.8864134744
 20
14.9858935263
 11
4.8283135201
 21
15.0439934806
  0
LINE
  5
317
100
AcDbEntity
  8
0
100
AcDbLine
 62
7
  6
CONTINUOUS
 10
4.8166457865
 20
15.0556612143
 11
4.7585458322
 21
15.1137611686
  0
LINE
  5
318
100
AcDbEntity
  8
0
100
AcDbLine
 62
9
  6
CONTINUOUS
 10
5.2981295046
 20
14.5745211361
 11
5.4099819286
 21
14.4626687122
  0
LINE
  5
319
100
AcDbEntity
  8
0
100
AcDbLine
 62
9
  6
CONTINUOUS
 10
5.5049314074
 20
14.3677192333
 11
5.692808786
 21
14.1798418548
  0
LINE
  5
31A
100
AcDbEntity
  8
0
100
AcDbLine
 62
9
  6
CONTINUOUS
 10
5.7744409946
 20
14.0982096461
 11
6.0066036532
 21
13.8660469876
  0
LINE
  5
31B
100
AcDbEntity
  8
0
100
AcDbLine
 62
9
  6
CONTINUOUS
 10
6.0882916999
 20
13.7843589408
 11
6.3433470246
 21
13.5293036161
  0
LINE
  5
31C
100
AcDbEntity
  8
0
100
AcDbLine
 62
9
  6
CONTINUOUS
 10
6.4248668542
 20
13.4477837866
 11
6.6799221789
 21
13.1927284618
  0
LINE
  5
31D
100
AcDbEntity
  8
0
100
AcDbLine
 62
9
  6
CONTINUOUS
 10
6.7616102257
 20
13.1110404151
 11
6.9937728842
 21
12.8788777565
  0
LINE
  5
31E
100
AcDbEntity
  8
0
100
AcDbLine
 62
9
  6
CONTINUOUS
 10
7.0754050929
 20
12.7972455479
 11
7.2632824714
 21
12.6093681693
  0
LINE
  5
31F
100
AcDbEntity
  8
0
100
AcDbLine
 62
9
  6
CONTINUOUS
 10
7.3582319503
 20
12.5144186905
 11
7.4700843742
 21
12.4025662666
  0
LINE
  5
320
100
AcDbEntity
  8
0
100
AcDbLine
 62
9
  6
CONTINUOUS
 10
7.7336705743
 20
12.1514648819
 11
7.6219231876
 21
12.2632122687
  0
LINE
  5
321
100
AcDbEntity
  8
0
100
AcDbLine
 62
9
  6
CONTINUOUS
 10
7.5435683064
 20
12.3415671499
 11
7.372550504
 21
12.5125849522
  0
LINE
  5
322
100
AcDbEntity
  8
0
100
AcDbLine
 62
9
  6
CONTINUOUS
 10
7.2950944878
 20
12.5900409685
 11
7.0819924148
 21
12.8031430415
  0
LINE
  5
323
100
AcDbEntity
  8
0
100
AcDbLine
 62
9
  6
CONTINUOUS
 10
7.0044875004
 20
12.8806479559
 11
6.7628031452
 21
13.1223323111
  0
LINE
  5
324
100
AcDbEntity
  8
0
100
AcDbLine
 62
9
  6
CONTINUOUS
 10
6.6853471289
 20
13.1997883273
 11
6.4290773553
 21
13.456058101
  0
LINE
  5
325
100
AcDbEntity
  8
0
100
AcDbLine
 62
9
  6
CONTINUOUS
 10
6.351621339
 20
13.5335141172
 11
6.0953515654
 21
13.7897838908
  0
LINE
  5
326
100
AcDbEntity
  8
0
100
AcDbLine
 62
9
  6
CONTINUOUS
 10
6.0178955492
 20
13.8672399071
 11
5.776211194
 21
14.1089242623
  0
LINE
  5
327
100
AcDbEntity
  8
0
100
AcDbLine
 62
9
  6
CONTINUOUS
 10
5.6987062795
 20
14.1864291767
 11
5.4856042065
 21
14.3995312497
  0
LINE
  5
328
100
AcDbEntity
  8
0
100
AcDbLine
 62
9
  6
CONTINUOUS
 10
5.4081481903
 20
14.476987266
 11
5.2371303879
 21
14.6480050683
  0
LINE
  5
329
100
AcDbEntity
  8
0
100
AcDbLine
 62
9
  6
CONTINUOUS
 10
5.1587755067
 20
14.7263599495
 11
5.04702812
 21
14.8381073362
  0
LINE
  5
32A
100
AcDbEntity
  8
0
100
AcDbLine
 62
9
  6
CONTINUOUS
 10
8.0297146371
 20
11.8622190327
 11
7.880693203
 21
12.0112404668
  0
LINE
  5
32B
100
AcDbEntity
  8
0
100
AcDbLine
 62
9
  6
CONTINUOUS
 10
7.823460756
 20
12.0684729138
 11
7.7442070099
 21
12.1477266599
  0
LINE
  5
32C
100
AcDbEntity
  8
0
100
AcDbLine
 62
9
  6
CONTINUOUS
 10
7.6262211593
 20
12.2657125105
 11
7.5469674132
 21
12.3449662566
  0
LINE
  5
32D
100
AcDbEntity
  8
0
100
AcDbLine
 62
9
  6
CONTINUOUS
 10
7.3768484757
 20
12.515085194
 11
7.2975947296
 21
12.5943389402
  0
LINE
  5
32E
100
AcDbEntity
  8
0
100
AcDbLine
 62
9
  6
CONTINUOUS
 10
7.0862414883
 20
12.8056921815
 11
7.0069877422
 21
12.8849459276
  0
LINE
  5
32F
100
AcDbEntity
  8
0
100
AcDbLine
 62
9
  6
CONTINUOUS
 10
6.7671011169
 20
13.1248325529
 11
6.6878473708
 21
13.204086299
  0
LINE
  5
330
100
AcDbEntity
  8
0
100
AcDbLine
 62
9
  6
CONTINUOUS
 10
6.433375327
 20
13.4585583428
 11
6.3541215809
 21
13.5378120889
  0
LINE
  5
331
100
AcDbEntity
  8
0
100
AcDbLine
 62
9
  6
CONTINUOUS
 10
6.0996495371
 20
13.7922841327
 11
6.020395791
 21
13.8715378788
  0
LINE
  5
332
100
AcDbEntity
  8
0
100
AcDbLine
 62
9
  6
CONTINUOUS
 10
5.7805091657
 20
14.1114245041
 11
5.7012554195
 21
14.1906782503
  0
LINE
  5
333
100
AcDbEntity
  8
0
100
AcDbLine
 62
9
  6
CONTINUOUS
 10
5.4899021782
 20
14.4020314916
 11
5.4106484321
 21
14.4812852377
  0
LINE
  5
334
100
AcDbEntity
  8
0
100
AcDbLine
 62
9
  6
CONTINUOUS
 10
5.2405294947
 20
14.6514041751
 11
5.1612757486
 21
14.7306579212
  0
LINE
  5
335
100
AcDbEntity
  8
0
100
AcDbLine
 62
9
  6
CONTINUOUS
 10
5.043289898
 20
14.8486437718
 11
4.9640361519
 21
14.9278975179
  0
LINE
  5
336
100
AcDbEntity
  8
0
100
AcDbLine
 62
9
  6
CONTINUOUS
 10
4.9068037048
 20
14.985129965
 11
4.7577822708
 21
15.134151399
  0
LINE
  5
337
100
AcDbEntity
  8
0
100
AcDbLine
 62
9
  6
CONTINUOUS
 10
7.8459859013
 20
12.0682740663
 11
7.8354611411
 21
12.0787988265
  0
LINE
  5
338
100
AcDbEntity
  8
0
100
AcDbLine
 62
9
  6
CONTINUOUS
 10
7.7541850534
 20
12.1600749143
 11
7.6382215444
 21
12.2760384233
  0
LINE
  5
339
100
AcDbEntity
  8
0
100
AcDbLine
 62
9
  6
CONTINUOUS
 10
7.5572933259
 20
12.3569666417
 11
7.3888488608
 21
12.5254111068
  0
LINE
  5
33A
100
AcDbEntity
  8
0
100
AcDbLine
 62
9
  6
CONTINUOUS
 10
7.3079206424
 20
12.6063393253
 11
7.0982418734
 21
12.8160180942
  0
LINE
  5
33B
100
AcDbEntity
  8
0
100
AcDbLine
 62
9
  6
CONTINUOUS
 10
7.017313655
 20
12.8969463127
 11
6.779101502
 21
13.1351584657
  0
LINE
  5
33C
100
AcDbEntity
  8
0
100
AcDbLine
 62
9
  6
CONTINUOUS
 10
6.6981732835
 20
13.2160866841
 11
6.4453757121
 21
13.4688842556
  0
LINE
  5
33D
100
AcDbEntity
  8
0
100
AcDbLine
 62
9
  6
CONTINUOUS
 10
6.3644474936
 20
13.549812474
 11
6.1116499222
 21
13.8026100454
  0
LINE
  5
33E
100
AcDbEntity
  8
0
100
AcDbLine
 62
9
  6
CONTINUOUS
 10
6.0307217038
 20
13.8835382639
 11
5.7925095508
 21
14.1217504169
  0
LINE
  5
33F
100
AcDbEntity
  8
0
100
AcDbLine
 62
9
  6
CONTINUOUS
 10
5.7115813323
 20
14.2026786354
 11
5.5019025633
 21
14.4123574043
  0
LINE
  5
340
100
AcDbEntity
  8
0
100
AcDbLine
 62
9
  6
CONTINUOUS
 10
5.4209743449
 20
14.4932856228
 11
5.2525298798
 21
14.6617300878
  0
LINE
  5
341
100
AcDbEntity
  8
0
100
AcDbLine
 62
9
  6
CONTINUOUS
 10
5.1716016614
 20
14.7426583063
 11
5.0556381524
 21
14.8586218153
  0
LINE
  5
342
100
AcDbEntity
  8
0
100
AcDbLine
 62
9
  6
CONTINUOUS
 10
4.9743620646
 20
14.939897903
 11
4.9638373044
 21
14.9504226632
  0
LINE
  5
343
100
AcDbEntity
  8
0
100
AcDbLine
 62
7
  6
CONTINUOUS
 10
4.9202559554
 20
14.9962603222
 11
4.975405608
 21
14.9411106697
  0
LINE
  5
344
100
AcDbEntity
  8
0
100
AcDbLine
 62
7
  6
CONTINUOUS
 10
5.0567663074
 20
14.8597499703
 11
5.1726452047
 21
14.7438710729
  0
LINE
  5
345
100
AcDbEntity
  8
0
100
AcDbLine
 62
7
  6
CONTINUOUS
 10
5.2540408681
 20
14.6624754096
 11
5.4220178883
 21
14.4944983894
  0
LINE
  5
346
100
AcDbEntity
  8
0
100
AcDbLine
 62
7
  6
CONTINUOUS
 10
5.50311533
 20
14.4134009477
 11
5.7126248757
 21
14.203891402
  0
LINE
  5
347
100
AcDbEntity
  8
0
100
AcDbLine
 62
7
  6
CONTINUOUS
 10
5.7937223174
 20
14.1227939603
 11
6.0317652472
 21
13.8847510305
  0
LINE
  5
348
100
AcDbEntity
  8
0
100
AcDbLine
 62
7
  6
CONTINUOUS
 10
6.1128626889
 20
13.8036535888
 11
6.365491037
 21
13.5510252407
  0
LINE
  5
349
100
AcDbEntity
  8
0
100
AcDbLine
 62
7
  6
CONTINUOUS
 10
6.4465884787
 20
13.469927799
 11
6.6992168269
 21
13.2172994508
  0
LINE
  5
34A
100
AcDbEntity
  8
0
100
AcDbLine
 62
7
  6
CONTINUOUS
 10
6.7803142686
 20
13.1362020091
 11
7.0183571984
 21
12.8981590793
  0
LINE
  5
34B
100
AcDbEntity
  8
0
100
AcDbLine
 62
7
  6
CONTINUOUS
 10
7.0994546401
 20
12.8170616376
 11
7.3086216716
 21
12.6078946061
  0
LINE
  5
34C
100
AcDbEntity
  8
0
100
AcDbLine
 62
7
  6
CONTINUOUS
 10
7.3900616275
 20
12.5264546502
 11
7.5580386477
 21
12.35847763
  0
LINE
  5
34D
100
AcDbEntity
  8
0
100
AcDbLine
 62
7
  6
CONTINUOUS
 10
7.639434311
 20
12.2770819667
 11
7.7553132084
 21
12.1612030693
  0
LINE
  5
34E
100
AcDbEntity
  8
0
100
AcDbLine
 62
7
  6
CONTINUOUS
 10
7.8366739078
 20
12.0798423699
 11
7.8918235603
 21
12.0246927174
  0
LINE
  5
34F
100
AcDbEntity
  8
0
100
AcDbLine
 62
9
  6
CONTINUOUS
 10
4.9231649168
 20
14.9991692836
 11
4.9780963973
 21
14.9442378032
  0
LINE
  5
350
100
AcDbEntity
  8
0
100
AcDbLine
 62
9
  6
CONTINUOUS
 10
5.0596752688
 20
14.8626589317
 11
5.175335994
 21
14.7469982064
  0
LINE
  5
351
100
AcDbEntity
  8
0
100
AcDbLine
 62
9
  6
CONTINUOUS
 10
5.2569498294
 20
14.665384371
 11
5.4247086775
 21
14.4976255229
  0
LINE
  5
352
100
AcDbEntity
  8
0
100
AcDbLine
 62
9
  6
CONTINUOUS
 10
5.5063668055
 20
14.4159673949
 11
5.715315665
 21
14.2070185355
  0
LINE
  5
353
100
AcDbEntity
  8
0
100
AcDbLine
 62
9
  6
CONTINUOUS
 10
5.7970255326
 20
14.1253086678
 11
6.0344560364
 21
13.887878164
  0
LINE
  5
354
100
AcDbEntity
  8
0
100
AcDbLine
 62
9
  6
CONTINUOUS
 10
6.1159898223
 20
13.8063443781
 11
6.3681818263
 21
13.5541523741
  0
LINE
  5
355
100
AcDbEntity
  8
0
100
AcDbLine
 62
9
  6
CONTINUOUS
 10
6.4497156122
 20
13.4726185882
 11
6.7019076162
 21
13.2204265842
  0
LINE
  5
356
100
AcDbEntity
  8
0
100
AcDbLine
 62
9
  6
CONTINUOUS
 10
6.7834414021
 20
13.1388927983
 11
7.0208719059
 21
12.9014622946
  0
LINE
  5
357
100
AcDbEntity
  8
0
100
AcDbLine
 62
9
  6
CONTINUOUS
 10
7.1025817735
 20
12.8197524269
 11
7.311530633
 21
12.6108035674
  0
LINE
  5
358
100
AcDbEntity
  8
0
100
AcDbLine
 62
9
  6
CONTINUOUS
 10
7.393188761
 20
12.5291454395
 11
7.5609476091
 21
12.3613865913
  0
LINE
  5
359
100
AcDbEntity
  8
0
100
AcDbLine
 62
9
  6
CONTINUOUS
 10
7.6425614445
 20
12.2797727559
 11
7.7582221697
 21
12.1641120307
  0
LINE
  5
35A
100
AcDbEntity
  8
0
100
AcDbLine
 62
9
  6
CONTINUOUS
 10
7.8398010412
 20
12.0825331592
 11
7.8947325217
 21
12.0276016787
  0
LINE
  5
35B
100
AcDbEntity
  8
0
100
AcDbLine
 62
7
  6
CONTINUOUS
 10
4.5539920883
 20
15.4004399861
 11
8.2960032242
 21
11.6584288503
  0
LINE
  5
35C
100
AcDbEntity
  8
0
100
AcDbLine
 62
9
  6
CONTINUOUS
 10
8.3040297238
 20
11.6549587621
 11
4.5505220002
 21
15.4084664857
  0
LINE
  5
35D
100
AcDbEntity
  8
0
100
AcDbLine
 62
9
  6
CONTINUOUS
 10
8.6228754253
 20
11.5695243139
 11
4.4650875519
 21
15.7273121872
  0
LINE
  5
35E
100
AcDbEntity
  8
0
100
AcDbLine
 62
9
  6
CONTINUOUS
 10
8.6518532001
 20
11.5772888852
 11
4.4728521233
 21
15.756289962
  0
LINE
  5
35F
100
AcDbEntity
  8
0
100
AcDbLine
 62
9
  6
CONTINUOUS
 10
9.2731734273
 20
12.1986091124
 11
5.0941723505
 21
16.3776101893
  0
LINE
  5
360
100
AcDbEntity
  8
0
100
AcDbLine
 62
7
  6
CONTINUOUS
 10
5.1365987574
 20
16.3776101893
 11
9.2731734273
 21
12.2410355193
  0
LINE
  5
361
100
AcDbEntity
  8
0
100
AcDbLine
 62
9
  6
CONTINUOUS
 10
6.1937233953
 20
15.3629119583
 11
8.2584751963
 21
13.2981601572
  0
LINE
  5
362
100
AcDbEntity
  8
0
100
AcDbLine
 62
7
  6
CONTINUOUS
 10
8.3040297238
 20
11.6549587621
 11
8.6228754253
 21
11.5695243139
  0
LINE
  5
363
100
AcDbEntity
  8
0
100
AcDbLine
 62
9
  6
CONTINUOUS
 10
8.4218168628
 20
13.4615018236
 11
6.3570650617
 21
15.5262536247
  0
LINE
  5
364
100
AcDbEntity
  8
0
100
AcDbLine
 62
7
  6
CONTINUOUS
 10
6.3994914686
 20
15.5262536247
 11
8.4218168628
 21
13.5039282305
  0
LINE
  5
365
100
AcDbEntity
  8
0
100
AcDbLine
 62
9
  6
CONTINUOUS
 10
6.9368926223
 20
15.0312788779
 11
7.926842116
 21
14.0413293842
  0
LINE
  5
366
100
AcDbEntity
  8
0
100
AcDbLine
 62
9
  6
CONTINUOUS
 10
8.0569497637
 20
14.171437032
 11
7.06700027
 21
15.1613865256
  0
LINE
  5
367
100
AcDbEntity
  8
0
100
AcDbLine
 62
7
  6
CONTINUOUS
 10
7.0952845413
 20
15.1613865256
 11
8.0569497637
 21
14.1997213032
  0
LINE
  5
368
100
AcDbEntity
  8
0
100
AcDbLine
 62
9
  6
CONTINUOUS
 10
7.0952845413
 20
15.1896707969
 11
8.0852340349
 21
14.1997213032
  0
LINE
  5
369
100
AcDbEntity
  8
0
100
AcDbLine
 62
7
  6
CONTINUOUS
 10
7.9076142005
 20
14.644627501
 11
7.5401907391
 21
15.0120509624
  0
LINE
  5
36A
100
AcDbEntity
  8
0
100
AcDbLine
 62
7
  6
CONTINUOUS
 10
8.46636459
 20
14.5808518583
 11
7.4764150963
 21
15.5708013519
  0
LINE
  5
36B
100
AcDbEntity
  8
0
100
AcDbLine
 62
9
  6
CONTINUOUS
 10
8.2854424401
 20
14.9010997914
 11
7.7966630295
 21
15.3898792021
  0
LINE
  5
36C
100
AcDbEntity
  8
0
100
AcDbLine
 62
9
  6
CONTINUOUS
 10
8.365442432
 20
14.9811358715
 11
7.8766991095
 21
15.4698791939
  0
LINE
  5
36D
100
AcDbEntity
  8
0
100
AcDbLine
 62
9
  6
CONTINUOUS
 10
7.8766991095
 20
15.5431953587
 11
8.4387585968
 21
14.9811358715
  0
LINE
  5
36E
100
AcDbEntity
  8
0
100
AcDbLine
 62
7
  6
CONTINUOUS
 10
13.5999016515
 20
2.744891804
 11
13.5999016515
 21
5.824891804
  0
LINE
  5
36F
100
AcDbEntity
  8
0
100
AcDbLine
 62
9
  6
CONTINUOUS
 10
13.6299016515
 20
2.714891804
 11
13.6299016515
 21
5.854891804
  0
LINE
  5
370
100
AcDbEntity
  8
0
100
AcDbLine
 62
9
  6
CONTINUOUS
 10
14.0199016515
 20
5.854891804
 11
14.0199016515
 21
2.714891804
  0
LINE
  5
371
100
AcDbEntity
  8
0
100
AcDbLine
 62
9
  6
CONTINUOUS
 10
7.9441374034
 20
15.6637570649
 11
8.559320303
 21
15.0485741653
  0
LINE
  5
372
100
AcDbEntity
  8
0
100
AcDbLine
 62
7
  6
CONTINUOUS
 10
8.2668525858
 20
15.7965994571
 11
8.2325603977
 21
15.8308916453
  0
LINE
  5
373
100
AcDbEntity
  8
0
100
AcDbLine
 62
7
  6
CONTINUOUS
 10
14.0499016515
 20
5.824891804
 11
14.0499016515
 21
2.744891804
  0
LINE
  5
374
100
AcDbEntity
  8
0
100
AcDbLine
 62
9
  6
CONTINUOUS
 10
14.0799016515
 20
3.959891804
 11
14.0799016515
 21
4.609891804
  0
LINE
  5
375
100
AcDbEntity
  8
0
100
AcDbLine
 62
7
  6
CONTINUOUS
 10
14.5999016515
 20
3.959891804
 11
14.5999016515
 21
4.609891804
  0
LINE
  5
376
100
AcDbEntity
  8
0
100
AcDbLine
 62
7
  6
CONTINUOUS
 10
14.6259016515
 20
3.734891804
 11
14.6259016515
 21
4.834891804
  0
LINE
  5
377
100
AcDbEntity
  8
0
100
AcDbLine
 62
9
  6
CONTINUOUS
 10
14.6559016515
 20
3.704891804
 11
14.6559016515
 21
4.864891804
  0
LINE
  5
378
100
AcDbEntity
  8
0
100
AcDbLine
 62
7
  6
CONTINUOUS
 10
16.3019016515
 20
14.284891804
 11
16.9559016515
 21
14.284891804
  0
LINE
  5
379
100
AcDbEntity
  8
0
100
AcDbLine
 62
9
  6
CONTINUOUS
 10
16.2219016515
 20
15.890891804
 11
16.2219016515
 21
15.830891804
  0
LINE
  5
37A
100
AcDbEntity
  8
0
100
AcDbLine
 62
7
  6
CONTINUOUS
 10
16.2959016515
 20
3.299891804
 11
16.2959016515
 21
5.269891804
  0
LINE
  5
37B
100
AcDbEntity
  8
0
100
AcDbLine
 62
7
  6
CONTINUOUS
 10
16.3019016515
 20
15.750891804
 11
16.3019016515
 21
14.284891804
  0
LINE
  5
37C
100
AcDbEntity
  8
0
100
AcDbLine
 62
9
  6
CONTINUOUS
 10
16.3259016515
 20
3.269891804
 11
16.3259016515
 21
5.299891804
  0
LINE
  5
37D
100
AcDbEntity
  8
0
100
AcDbLine
 62
9
  6
CONTINUOUS
 10
16.3619016515
 20
15.750891804
 11
16.3619016515
 21
14.284891804
  0
LINE
  5
37E
100
AcDbEntity
  8
0
100
AcDbLine
 62
7
  6
CONTINUOUS
 10
16.6459016515
 20
1.564891804
 11
16.6459016515
 21
7.004891804
  0
LINE
  5
37F
100
AcDbEntity
  8
0
100
AcDbLine
 62
9
  6
CONTINUOUS
 10
16.6759016515
 20
1.534891804
 11
16.6759016515
 21
7.034891804
  0
LINE
  5
380
100
AcDbEntity
  8
0
100
AcDbLine
 62
7
  6
CONTINUOUS
 10
16.9559016515
 20
1.534891804
 11
16.9559016515
 21
7.034891804
  0
LINE
  5
381
100
AcDbEntity
  8
0
100
AcDbLine
 62
7
  6
CONTINUOUS
 10
16.9559016515
 20
14.284891804
 11
16.9559016515
 21
16.484891804
  0
LINE
  5
382
100
AcDbEntity
  8
0
100
AcDbLine
 62
7
  6
CONTINUOUS
 10
8.365442432
 20
14.9811358715
 11
8.4387585968
 21
14.9811358715
  0
LINE
  5
383
100
AcDbEntity
  8
0
100
AcDbLine
 62
7
  6
CONTINUOUS
 10
8.72345948
 20
15.187964605
 11
8.6987107427
 21
15.187964605
  0
LINE
  5
384
100
AcDbEntity
  8
0
100
AcDbLine
 62
9
  6
CONTINUOUS
 10
16.3619016515
 20
15.750891804
 11
16.3019016515
 21
15.750891804
  0
LINE
  5
385
100
AcDbEntity
  8
0
100
AcDbLine
 62
7
  6
CONTINUOUS
 10
8.0159016515
 20
15.830891804
 11
16.2219016515
 21
15.830891804
  0
LINE
  5
386
100
AcDbEntity
  8
0
100
AcDbLine
 62
9
  6
CONTINUOUS
 10
7.9559016515
 20
15.890891804
 11
16.2219016515
 21
15.890891804
  0
LINE
  5
387
100
AcDbEntity
  8
0
100
AcDbLine
 62
9
  6
CONTINUOUS
 10
16.9559016515
 20
16.424891804
 11
7.9559016515
 21
16.424891804
  0
LINE
  5
388
100
AcDbEntity
  8
0
100
AcDbLine
 62
7
  6
CONTINUOUS
 10
16.9559016515
 20
16.484891804
 11
8.0159016515
 21
16.484891804
  0
ARC
  5
389
100
AcDbEntity
  8
0
100
AcDbCircle
 62
7
  6
CONTINUOUS
 10
1.6514043949
 20
11.12140909
 40
5.0046011082
100
AcDbArc
 50
41.3865448126
 51
41.7453511537
  0
ARC
  5
38A
100
AcDbEntity
  8
0
100
AcDbCircle
 62
7
  6
CONTINUOUS
 10
4.0169954876
 20
8.755867213
 40
5.0045662473
100
AcDbArc
 50
48.2546480544
 51
48.6134643057
  0
ARC
  5
38B
100
AcDbEntity
  8
0
100
AcDbCircle
 62
7
  6
CONTINUOUS
 10
5.1240242804
 20
8.44774564
 40
4.5157998728
100
AcDbArc
 50
50.2831511704
 51
50.8041976693
  0
ARC
  5
38C
100
AcDbEntity
  8
0
100
AcDbCircle
 62
7
  6
CONTINUOUS
 10
1.3432882818
 20
12.2284440387
 40
4.5158265809
100
AcDbArc
 50
39.1958083952
 51
39.7168477953
  0
ARC
  5
38D
100
AcDbEntity
  8
0
100
AcDbCircle
 62
7
  6
CONTINUOUS
 10
4.0965111857
 20
13.0628135338
 40
1.8982983578
100
AcDbArc
 50
42.1180883584
 51
42.8449495589
  0
ARC
  5
38E
100
AcDbEntity
  8
0
100
AcDbCircle
 62
7
  6
CONTINUOUS
 10
4.8584363663
 20
14.8832241346
 40
0.125
100
AcDbArc
 50
32.5196096022
 51
36.7613591885
  0
ARC
  5
38F
100
AcDbEntity
  8
0
100
AcDbCircle
 62
7
  6
CONTINUOUS
 10
4.579499775
 20
15.4162310571
 40
0.03
100
AcDbArc
 50
195.0
 51
211.7604517071
  0
ARC
  5
390
100
AcDbEntity
  8
0
100
AcDbCircle
 62
7
  6
CONTINUOUS
 10
4.4940653267
 20
15.7350767586
 40
0.03
100
AcDbArc
 50
135.0
 51
195.0
  0
ARC
  5
391
100
AcDbEntity
  8
0
100
AcDbCircle
 62
7
  6
CONTINUOUS
 10
5.0839996352
 20
14.7600230943
 40
0.015
100
AcDbArc
 50
139.2891533288
 51
225.0
  0
ARC
  5
392
100
AcDbEntity
  8
0
100
AcDbCircle
 62
7
  6
CONTINUOUS
 10
5.1420995894
 20
14.70192314
 40
0.015
100
AcDbArc
 50
225.0
 51
310.7108466712
  0
ARC
  5
393
100
AcDbEntity
  8
0
100
AcDbCircle
 62
7
  6
CONTINUOUS
 10
5.0396665293
 20
14.8043562002
 40
0.015
100
AcDbArc
 50
139.2891533288
 51
225.0
  0
ARC
  5
394
100
AcDbEntity
  8
0
100
AcDbCircle
 62
7
  6
CONTINUOUS
 10
5.213977725
 20
14.6300450045
 40
0.015
100
AcDbArc
 50
139.2891533288
 51
225.0
  0
ARC
  5
395
100
AcDbEntity
  8
0
100
AcDbCircle
 62
7
  6
CONTINUOUS
 10
5.2720776792
 20
14.5719450502
 40
0.015
100
AcDbArc
 50
225.0
 51
310.7108466712
  0
ARC
  5
396
100
AcDbEntity
  8
0
100
AcDbCircle
 62
7
  6
CONTINUOUS
 10
4.8389201218
 20
15.0546000823
 40
0.015
100
AcDbArc
 50
139.2891533288
 51
225.0
  0
ARC
  5
397
100
AcDbEntity
  8
0
100
AcDbCircle
 62
7
  6
CONTINUOUS
 10
4.8970200761
 20
14.9965001281
 40
0.015
100
AcDbArc
 50
225.0
 51
310.7108466712
  0
ARC
  5
398
100
AcDbEntity
  8
0
100
AcDbCircle
 62
7
  6
CONTINUOUS
 10
4.7691524339
 20
15.1243677703
 40
0.015
100
AcDbArc
 50
139.2891533288
 51
225.0
  0
ARC
  5
399
100
AcDbEntity
  8
0
100
AcDbCircle
 62
7
  6
CONTINUOUS
 10
4.8272523882
 20
15.066267816
 40
0.015
100
AcDbArc
 50
225.0
 51
258.527106598
  0
ARC
  5
39A
100
AcDbEntity
  8
0
100
AcDbCircle
 62
7
  6
CONTINUOUS
 10
5.1726459117
 20
14.7208742925
 40
0.015
100
AcDbArc
 50
139.2891533288
 51
225.0
  0
ARC
  5
39B
100
AcDbEntity
  8
0
100
AcDbCircle
 62
7
  6
CONTINUOUS
 10
5.230745866
 20
14.6627743382
 40
0.015
100
AcDbArc
 50
225.0
 51
310.7108466712
  0
ARC
  5
39C
100
AcDbEntity
  8
0
100
AcDbCircle
 62
7
  6
CONTINUOUS
 10
4.975406315
 20
14.9181138892
 40
0.015
100
AcDbArc
 50
139.2891533288
 51
225.0
  0
ARC
  5
39D
100
AcDbEntity
  8
0
100
AcDbCircle
 62
7
  6
CONTINUOUS
 10
5.0335062692
 20
14.8600139349
 40
0.015
100
AcDbArc
 50
225.0
 51
310.7108466712
  0
ARC
  5
39E
100
AcDbEntity
  8
0
100
AcDbCircle
 62
7
  6
CONTINUOUS
 10
6.0167048855
 20
11.2646431492
 40
1.8119332427
100
AcDbArc
 50
47.1377271849
 51
47.8992346702
  0
ARC
  5
39F
100
AcDbEntity
  8
0
100
AcDbCircle
 62
7
  6
CONTINUOUS
 10
7.7787873726
 20
11.9628731283
 40
0.125
100
AcDbArc
 50
53.2386408115
 51
57.4803903978
  0
ARC
  5
3A0
100
AcDbEntity
  8
0
100
AcDbCircle
 62
7
  6
CONTINUOUS
 10
8.3117942952
 20
11.6839365369
 40
0.03
100
AcDbArc
 50
238.2395482929
 51
255.0
  0
ARC
  5
3A1
100
AcDbEntity
  8
0
100
AcDbCircle
 62
7
  6
CONTINUOUS
 10
8.6306399967
 20
11.5985020887
 40
0.03
100
AcDbArc
 50
255.0
 51
315.0
  0
ARC
  5
3A2
100
AcDbEntity
  8
0
100
AcDbCircle
 62
7
  6
CONTINUOUS
 10
7.6999194383
 20
12.1441032912
 40
0.015
100
AcDbArc
 50
225.0
 51
310.7108466712
  0
ARC
  5
3A3
100
AcDbEntity
  8
0
100
AcDbCircle
 62
7
  6
CONTINUOUS
 10
7.9618310541
 20
11.9316891501
 40
0.015
100
AcDbArc
 50
191.472893402
 51
225.0
  0
ARC
  5
3A4
100
AcDbEntity
  8
0
100
AcDbCircle
 62
7
  6
CONTINUOUS
 10
8.0199310084
 20
11.8735891958
 40
0.015
100
AcDbArc
 50
225.0
 51
310.7108466712
  0
ARC
  5
3A5
100
AcDbEntity
  8
0
100
AcDbCircle
 62
7
  6
CONTINUOUS
 10
7.8920633661
 20
12.001456838
 40
0.015
100
AcDbArc
 50
139.2891533288
 51
225.0
  0
ARC
  5
3A6
100
AcDbEntity
  8
0
100
AcDbCircle
 62
7
  6
CONTINUOUS
 10
7.9501633204
 20
11.9433568838
 40
0.015
100
AcDbArc
 50
225.0
 51
310.7108466712
  0
ARC
  5
3A7
100
AcDbEntity
  8
0
100
AcDbCircle
 62
7
  6
CONTINUOUS
 10
7.755577173
 20
12.1379430312
 40
0.015
100
AcDbArc
 50
139.2891533288
 51
225.0
  0
ARC
  5
3A8
100
AcDbEntity
  8
0
100
AcDbCircle
 62
7
  6
CONTINUOUS
 10
7.8136771273
 20
12.0798430769
 40
0.015
100
AcDbArc
 50
225.0
 51
310.7108466712
  0
ARC
  5
3A9
100
AcDbEntity
  8
0
100
AcDbCircle
 62
7
  6
CONTINUOUS
 10
5.494665641
 20
13.8616623509
 40
0.3420968016
100
AcDbArc
 50
39.5287227355
 51
40.1935403425
  0
ARC
  5
3AA
100
AcDbEntity
  8
0
100
AcDbCircle
 62
7
  6
CONTINUOUS
 10
5.9566527945
 20
13.7912096524
 40
0.0962157781
100
AcDbArc
 50
50.9702541797
 51
51.6704505065
  0
ARC
  5
3AB
100
AcDbEntity
  8
0
100
AcDbCircle
 62
7
  6
CONTINUOUS
 10
5.9671197781
 20
13.8044123776
 40
0.0793673636
100
AcDbArc
 50
51.6868954147
 51
52.2060023211
  0
ARC
  5
3AC
100
AcDbEntity
  8
0
100
AcDbCircle
 62
7
  6
CONTINUOUS
 10
6.2947810659
 20
13.4573177821
 40
0.015
100
AcDbArc
 50
139.2891533288
 51
225.0
  0
ARC
  5
3AD
100
AcDbEntity
  8
0
100
AcDbCircle
 62
7
  6
CONTINUOUS
 10
6.3528810202
 20
13.3992178278
 40
0.015
100
AcDbArc
 50
225.0
 51
310.7108466712
  0
ARC
  5
3AE
100
AcDbEntity
  8
0
100
AcDbCircle
 62
7
  6
CONTINUOUS
 10
5.9579762262
 20
13.7941226217
 40
0.015
100
AcDbArc
 50
154.3855401187
 51
225.0
  0
ARC
  5
3AF
100
AcDbEntity
  8
0
100
AcDbCircle
 62
7
  6
CONTINUOUS
 10
6.0160761805
 20
13.7360226674
 40
0.015
100
AcDbArc
 50
225.0
 51
310.7108466712
  0
ARC
  5
3B0
100
AcDbEntity
  8
0
100
AcDbCircle
 62
7
  6
CONTINUOUS
 10
6.3018521337
 20
13.4643888499
 40
0.015
100
AcDbArc
 50
139.2891533288
 51
225.0
  0
ARC
  5
3B1
100
AcDbEntity
  8
0
100
AcDbCircle
 62
7
  6
CONTINUOUS
 10
6.359952088
 20
13.4062888956
 40
0.015
100
AcDbArc
 50
225.0
 51
310.7108466712
  0
ARC
  5
3B2
100
AcDbEntity
  8
0
100
AcDbCircle
 62
7
  6
CONTINUOUS
 10
5.9553698109
 20
13.8108711727
 40
0.015
100
AcDbArc
 50
139.2891533288
 51
225.0
  0
ARC
  5
3B3
100
AcDbEntity
  8
0
100
AcDbCircle
 62
7
  6
CONTINUOUS
 10
6.0134697652
 20
13.7527712184
 40
0.015
100
AcDbArc
 50
225.0
 51
310.7108466712
  0
ARC
  5
3B4
100
AcDbEntity
  8
0
100
AcDbCircle
 62
7
  6
CONTINUOUS
 10
5.759827101
 20
14.0064138826
 40
0.015
100
AcDbArc
 50
225.0
 51
310.7108466712
  0
ARC
  5
3B5
100
AcDbEntity
  8
0
100
AcDbCircle
 62
7
  6
CONTINUOUS
 10
6.3195298032
 20
13.4820665194
 40
0.015
100
AcDbArc
 50
139.2891533288
 51
225.0
  0
ARC
  5
3B6
100
AcDbEntity
  8
0
100
AcDbCircle
 62
7
  6
CONTINUOUS
 10
6.3776297575
 20
13.4239665651
 40
0.015
100
AcDbArc
 50
225.0
 51
310.7108466712
  0
ARC
  5
3B7
100
AcDbEntity
  8
0
100
AcDbCircle
 62
7
  6
CONTINUOUS
 10
5.9785286879
 20
13.8230676347
 40
0.015
100
AcDbArc
 50
139.2891533288
 51
225.0
  0
ARC
  5
3B8
100
AcDbEntity
  8
0
100
AcDbCircle
 62
7
  6
CONTINUOUS
 10
6.0366286422
 20
13.7649676805
 40
0.015
100
AcDbArc
 50
225.0
 51
310.7108466712
  0
ARC
  5
3B9
100
AcDbEntity
  8
0
100
AcDbCircle
 62
7
  6
CONTINUOUS
 10
6.3407430066
 20
13.5032797228
 40
0.015
100
AcDbArc
 50
139.2891533288
 51
225.0
  0
ARC
  5
3BA
100
AcDbEntity
  8
0
100
AcDbCircle
 62
7
  6
CONTINUOUS
 10
6.0039996352
 20
13.8400230943
 40
0.015
100
AcDbArc
 50
139.2891533288
 51
225.0
  0
ARC
  5
3BB
100
AcDbEntity
  8
0
100
AcDbCircle
 62
7
  6
CONTINUOUS
 10
6.0620995894
 20
13.78192314
 40
0.015
100
AcDbArc
 50
225.0
 51
310.7108466712
  0
ARC
  5
3BC
100
AcDbEntity
  8
0
100
AcDbCircle
 62
7
  6
CONTINUOUS
 10
6.365491744
 20
13.5280284602
 40
0.015
100
AcDbArc
 50
139.2891533288
 51
225.0
  0
ARC
  5
3BD
100
AcDbEntity
  8
0
100
AcDbCircle
 62
7
  6
CONTINUOUS
 10
6.0317659541
 20
13.8617542501
 40
0.015
100
AcDbArc
 50
139.2891533288
 51
225.0
  0
ARC
  5
3BE
100
AcDbEntity
  8
0
100
AcDbCircle
 62
7
  6
CONTINUOUS
 10
6.0898659084
 20
13.8036542958
 40
0.015
100
AcDbArc
 50
225.0
 51
310.7108466712
  0
ARC
  5
3BF
100
AcDbEntity
  8
0
100
AcDbCircle
 62
7
  6
CONTINUOUS
 10
6.7429939078
 20
12.5820580328
 40
0.3643012092
100
AcDbArc
 50
49.8267237045
 51
50.4509918517
  0
ARC
  5
3C0
100
AcDbEntity
  8
0
100
AcDbCircle
 62
7
  6
CONTINUOUS
 10
6.6894628726
 20
13.0632430759
 40
0.092770028
100
AcDbArc
 50
38.3157292141
 51
39.0422032554
  0
ARC
  5
3C1
100
AcDbEntity
  8
0
100
AcDbCircle
 62
7
  6
CONTINUOUS
 10
6.7018302556
 20
13.0730084939
 40
0.0770119979
100
AcDbArc
 50
37.760948265
 51
38.3199709487
  0
ARC
  5
3C2
100
AcDbEntity
  8
0
100
AcDbCircle
 62
7
  6
CONTINUOUS
 10
6.6315859055
 20
13.1205129424
 40
0.015
100
AcDbArc
 50
139.2891533288
 51
225.0
  0
ARC
  5
3C3
100
AcDbEntity
  8
0
100
AcDbCircle
 62
7
  6
CONTINUOUS
 10
6.6896858598
 20
13.0624129882
 40
0.015
100
AcDbArc
 50
225.0
 51
295.6144598813
  0
ARC
  5
3C4
100
AcDbEntity
  8
0
100
AcDbCircle
 62
7
  6
CONTINUOUS
 10
6.9948167792
 20
12.7714242043
 40
0.015
100
AcDbArc
 50
139.2891533288
 51
225.0
  0
ARC
  5
3C5
100
AcDbEntity
  8
0
100
AcDbCircle
 62
7
  6
CONTINUOUS
 10
7.0529167335
 20
12.71332425
 40
0.015
100
AcDbArc
 50
225.0
 51
310.7108466712
  0
ARC
  5
3C6
100
AcDbEntity
  8
0
100
AcDbCircle
 62
7
  6
CONTINUOUS
 10
6.9019771207
 20
12.8642638629
 40
0.015
100
AcDbArc
 50
139.2891533288
 51
225.0
  0
ARC
  5
3C7
100
AcDbEntity
  8
0
100
AcDbCircle
 62
7
  6
CONTINUOUS
 10
6.9600770749
 20
12.8061639086
 40
0.015
100
AcDbArc
 50
225.0
 51
310.7108466712
  0
ARC
  5
3C8
100
AcDbEntity
  8
0
100
AcDbCircle
 62
7
  6
CONTINUOUS
 10
6.6483344565
 20
13.1179065271
 40
0.015
100
AcDbArc
 50
139.2891533288
 51
225.0
  0
ARC
  5
3C9
100
AcDbEntity
  8
0
100
AcDbCircle
 62
7
  6
CONTINUOUS
 10
6.7064344107
 20
13.0598065728
 40
0.015
100
AcDbArc
 50
225.0
 51
310.7108466712
  0
ARC
  5
3CA
100
AcDbEntity
  8
0
100
AcDbCircle
 62
7
  6
CONTINUOUS
 10
7.1829749375
 20
12.6186213851
 40
0.015
100
AcDbArc
 50
139.2891533288
 51
225.0
  0
ARC
  5
3CB
100
AcDbEntity
  8
0
100
AcDbCircle
 62
7
  6
CONTINUOUS
 10
7.2410748918
 20
12.5605214308
 40
0.015
100
AcDbArc
 50
225.0
 51
310.7108466712
  0
ARC
  5
3CC
100
AcDbEntity
  8
0
100
AcDbCircle
 62
7
  6
CONTINUOUS
 10
6.9604022667
 20
12.8411940559
 40
0.015
100
AcDbArc
 50
139.2891533288
 51
225.0
  0
ARC
  5
3CD
100
AcDbEntity
  8
0
100
AcDbCircle
 62
7
  6
CONTINUOUS
 10
7.018502221
 20
12.7830941016
 40
0.015
100
AcDbArc
 50
225.0
 51
310.7108466712
  0
ARC
  5
3CE
100
AcDbEntity
  8
0
100
AcDbCircle
 62
7
  6
CONTINUOUS
 10
6.6605309185
 20
13.1410654041
 40
0.015
100
AcDbArc
 50
139.2891533288
 51
225.0
  0
ARC
  5
3CF
100
AcDbEntity
  8
0
100
AcDbCircle
 62
7
  6
CONTINUOUS
 10
6.7186308728
 20
13.0829654498
 40
0.015
100
AcDbArc
 50
225.0
 51
310.7108466712
  0
ARC
  5
3D0
100
AcDbEntity
  8
0
100
AcDbCircle
 62
7
  6
CONTINUOUS
 10
7.2607430066
 20
12.5832797228
 40
0.015
100
AcDbArc
 50
139.2891533288
 51
225.0
  0
ARC
  5
3D1
100
AcDbEntity
  8
0
100
AcDbCircle
 62
7
  6
CONTINUOUS
 10
6.9912812453
 20
12.8527414842
 40
0.015
100
AcDbArc
 50
139.2891533288
 51
225.0
  0
ARC
  5
3D2
100
AcDbEntity
  8
0
100
AcDbCircle
 62
7
  6
CONTINUOUS
 10
7.0493811996
 20
12.7946415299
 40
0.015
100
AcDbArc
 50
225.0
 51
310.7108466712
  0
ARC
  5
3D3
100
AcDbEntity
  8
0
100
AcDbCircle
 62
7
  6
CONTINUOUS
 10
6.6774863781
 20
13.1665363514
 40
0.015
100
AcDbArc
 50
139.2891533288
 51
225.0
  0
ARC
  5
3D4
100
AcDbEntity
  8
0
100
AcDbCircle
 62
7
  6
CONTINUOUS
 10
6.7355863324
 20
13.1084363971
 40
0.015
100
AcDbArc
 50
225.0
 51
310.7108466712
  0
ARC
  5
3D5
100
AcDbEntity
  8
0
100
AcDbCircle
 62
7
  6
CONTINUOUS
 10
7.0183579053
 20
12.8751622989
 40
0.015
100
AcDbArc
 50
139.2891533288
 51
225.0
  0
ARC
  5
3D6
100
AcDbEntity
  8
0
100
AcDbCircle
 62
7
  6
CONTINUOUS
 10
7.0764578596
 20
12.8170623446
 40
0.015
100
AcDbArc
 50
225.0
 51
310.7108466712
  0
ARC
  5
3D7
100
AcDbEntity
  8
0
100
AcDbCircle
 62
7
  6
CONTINUOUS
 10
6.6992175339
 20
13.1943026703
 40
0.015
100
AcDbArc
 50
139.2891533288
 51
225.0
  0
ARC
  5
3D8
100
AcDbEntity
  8
0
100
AcDbCircle
 62
7
  6
CONTINUOUS
 10
6.7573174881
 20
13.136202716
 40
0.015
100
AcDbArc
 50
225.0
 51
310.7108466712
  0
ARC
  5
3D9
100
AcDbEntity
  8
0
100
AcDbCircle
 62
7
  6
CONTINUOUS
 10
6.3988429609
 20
13.4451797686
 40
0.015
100
AcDbArc
 50
225.0
 51
310.7108466712
  0
ARC
  5
3DA
100
AcDbEntity
  8
0
100
AcDbCircle
 62
7
  6
CONTINUOUS
 10
6.4235916983
 20
13.4699285059
 40
0.015
100
AcDbArc
 50
225.0
 51
310.7108466712
  0
ARC
  5
3DB
100
AcDbEntity
  8
0
100
AcDbCircle
 62
7
  6
CONTINUOUS
 10
6.6330788891
 20
14.5720424676
 40
1.0
100
AcDbArc
 50
217.3648233597
 51
223.5548996513
  0
ARC
  5
3DC
100
AcDbEntity
  8
0
100
AcDbCircle
 62
7
  6
CONTINUOUS
 10
6.3526518311
 20
14.8722174493
 40
1.0
100
AcDbArc
 50
215.6146107376
 51
222.549018051
  0
ARC
  5
3DD
100
AcDbEntity
  8
0
100
AcDbCircle
 62
7
  6
CONTINUOUS
 10
6.0773019513
 20
15.1775350045
 40
1.0
100
AcDbArc
 50
217.7862094089
 51
221.542266468
  0
ARC
  5
3DE
100
AcDbEntity
  8
0
100
AcDbCircle
 62
7
  6
CONTINUOUS
 10
5.8070448089
 20
15.4880108926
 40
1.0
100
AcDbArc
 50
219.9084855398
 51
220.5343308342
  0
ARC
  5
3DF
100
AcDbEntity
  8
0
100
AcDbCircle
 62
7
  6
CONTINUOUS
 10
5.8070448089
 20
15.4880108926
 40
1.0
100
AcDbArc
 50
212.5196096022
 51
213.3992494667
  0
ARC
  5
3E0
100
AcDbEntity
  8
0
100
AcDbCircle
 62
7
  6
CONTINUOUS
 10
5.8801539188
 20
15.4029286624
 40
1.0
100
AcDbArc
 50
224.442736359
 51
225.0
  0
ARC
  5
3E1
100
AcDbEntity
  8
0
100
AcDbCircle
 62
7
  6
CONTINUOUS
 10
6.9156794189
 20
15.0524920813
 40
0.03
100
AcDbArc
 50
225.0
 51
315.0
  0
ARC
  5
3E2
100
AcDbEntity
  8
0
100
AcDbCircle
 62
7
  6
CONTINUOUS
 10
6.3782782652
 20
15.5050404213
 40
0.03
100
AcDbArc
 50
45.0
 51
135.0
  0
ARC
  5
3E3
100
AcDbEntity
  8
0
100
AcDbCircle
 62
7
  6
CONTINUOUS
 10
6.1725101918
 20
15.3841251617
 40
0.03
100
AcDbArc
 50
225.0
 51
315.0
  0
ARC
  5
3E4
100
AcDbEntity
  8
0
100
AcDbCircle
 62
7
  6
CONTINUOUS
 10
7.1094266769
 20
15.1755286612
 40
0.02
100
AcDbArc
 50
135.0
 51
225.0
  0
ARC
  5
3E5
100
AcDbEntity
  8
0
100
AcDbCircle
 62
7
  6
CONTINUOUS
 10
7.0811424057
 20
15.14724439
 40
0.02
100
AcDbArc
 50
45.0
 51
135.0
  0
ARC
  5
3E6
100
AcDbEntity
  8
0
100
AcDbCircle
 62
7
  6
CONTINUOUS
 10
5.6088874881
 20
14.1573534954
 40
0.015
100
AcDbArc
 50
139.2891533288
 51
225.0
  0
ARC
  5
3E7
100
AcDbEntity
  8
0
100
AcDbCircle
 62
7
  6
CONTINUOUS
 10
5.6669874424
 20
14.0992535412
 40
0.015
100
AcDbArc
 50
225.0
 51
310.7108466712
  0
ARC
  5
3E8
100
AcDbEntity
  8
0
100
AcDbCircle
 62
7
  6
CONTINUOUS
 10
5.7017271467
 20
14.0645138369
 40
0.015
100
AcDbArc
 50
139.2891533288
 51
225.0
  0
ARC
  5
3E9
100
AcDbEntity
  8
0
100
AcDbCircle
 62
7
  6
CONTINUOUS
 10
5.3376562244
 20
14.4639400983
 40
0.015
100
AcDbArc
 50
139.2891533288
 51
225.0
  0
ARC
  5
3EA
100
AcDbEntity
  8
0
100
AcDbCircle
 62
7
  6
CONTINUOUS
 10
5.3957561786
 20
14.405840144
 40
0.015
100
AcDbArc
 50
225.0
 51
310.7108466712
  0
ARC
  5
3EB
100
AcDbEntity
  8
0
100
AcDbCircle
 62
7
  6
CONTINUOUS
 10
5.6786573397
 20
14.1229389829
 40
0.015
100
AcDbArc
 50
139.2891533288
 51
225.0
  0
ARC
  5
3EC
100
AcDbEntity
  8
0
100
AcDbCircle
 62
7
  6
CONTINUOUS
 10
5.736757294
 20
14.0648390286
 40
0.015
100
AcDbArc
 50
225.0
 51
310.7108466712
  0
ARC
  5
3ED
100
AcDbEntity
  8
0
100
AcDbCircle
 62
7
  6
CONTINUOUS
 10
5.4560846689
 20
14.3455116537
 40
0.015
100
AcDbArc
 50
139.2891533288
 51
225.0
  0
ARC
  5
3EE
100
AcDbEntity
  8
0
100
AcDbCircle
 62
7
  6
CONTINUOUS
 10
5.5141846232
 20
14.2874116995
 40
0.015
100
AcDbArc
 50
225.0
 51
310.7108466712
  0
ARC
  5
3EF
100
AcDbEntity
  8
0
100
AcDbCircle
 62
7
  6
CONTINUOUS
 10
5.690204768
 20
14.1538179615
 40
0.015
100
AcDbArc
 50
139.2891533288
 51
225.0
  0
ARC
  5
3F0
100
AcDbEntity
  8
0
100
AcDbCircle
 62
7
  6
CONTINUOUS
 10
5.7483047222
 20
14.0957180073
 40
0.015
100
AcDbArc
 50
225.0
 51
310.7108466712
  0
ARC
  5
3F1
100
AcDbEntity
  8
0
100
AcDbCircle
 62
7
  6
CONTINUOUS
 10
5.4207430066
 20
14.4232797228
 40
0.015
100
AcDbArc
 50
139.2891533288
 51
225.0
  0
ARC
  5
3F2
100
AcDbEntity
  8
0
100
AcDbCircle
 62
7
  6
CONTINUOUS
 10
5.4788429609
 20
14.3651797686
 40
0.015
100
AcDbArc
 50
225.0
 51
310.7108466712
  0
ARC
  5
3F3
100
AcDbEntity
  8
0
100
AcDbCircle
 62
7
  6
CONTINUOUS
 10
5.7126255826
 20
14.1808946215
 40
0.015
100
AcDbArc
 50
139.2891533288
 51
225.0
  0
ARC
  5
3F4
100
AcDbEntity
  8
0
100
AcDbCircle
 62
7
  6
CONTINUOUS
 10
5.7707255369
 20
14.1227946672
 40
0.015
100
AcDbArc
 50
225.0
 51
310.7108466712
  0
ARC
  5
3F5
100
AcDbEntity
  8
0
100
AcDbCircle
 62
7
  6
CONTINUOUS
 10
5.4220185952
 20
14.4715016089
 40
0.015
100
AcDbArc
 50
139.2891533288
 51
225.0
  0
ARC
  5
3F6
100
AcDbEntity
  8
0
100
AcDbCircle
 62
7
  6
CONTINUOUS
 10
5.4801185495
 20
14.4134016547
 40
0.015
100
AcDbArc
 50
225.0
 51
310.7108466712
  0
ARC
  5
3F7
100
AcDbEntity
  8
0
100
AcDbCircle
 62
7
  6
CONTINUOUS
 10
7.4676057057
 20
13.737515651
 40
1.0
100
AcDbArc
 50
226.4451003487
 51
232.6351766403
  0
ARC
  5
3F8
100
AcDbEntity
  8
0
100
AcDbCircle
 62
7
  6
CONTINUOUS
 10
7.7677806874
 20
13.457088593
 40
1.0
100
AcDbArc
 50
227.450981949
 51
234.3853892624
  0
ARC
  5
3F9
100
AcDbEntity
  8
0
100
AcDbCircle
 62
7
  6
CONTINUOUS
 10
8.0730982426
 20
13.1817387132
 40
1.0
100
AcDbArc
 50
228.457733532
 51
232.2137905911
  0
ARC
  5
3FA
100
AcDbEntity
  8
0
100
AcDbCircle
 62
7
  6
CONTINUOUS
 10
8.3835741307
 20
12.9114815708
 40
1.0
100
AcDbArc
 50
229.4656691658
 51
230.0915144602
  0
ARC
  5
3FB
100
AcDbEntity
  8
0
100
AcDbCircle
 62
7
  6
CONTINUOUS
 10
8.3835741307
 20
12.9114815708
 40
1.0
100
AcDbArc
 50
236.6007505333
 51
237.4803903978
  0
ARC
  5
3FC
100
AcDbEntity
  8
0
100
AcDbCircle
 62
7
  6
CONTINUOUS
 10
8.2984919005
 20
12.9845906807
 40
1.0
100
AcDbArc
 50
225.0
 51
225.557263641
  0
ARC
  5
3FD
100
AcDbEntity
  8
0
100
AcDbCircle
 62
7
  6
CONTINUOUS
 10
7.9480553194
 20
14.0201161808
 40
0.03
100
AcDbArc
 50
135.0
 51
225.0
  0
ARC
  5
3FE
100
AcDbEntity
  8
0
100
AcDbCircle
 62
7
  6
CONTINUOUS
 10
8.4006036594
 20
13.4827150271
 40
0.03
100
AcDbArc
 50
315.0
 51
45.0
  0
ARC
  5
3FF
100
AcDbEntity
  8
0
100
AcDbCircle
 62
7
  6
CONTINUOUS
 10
8.2796883998
 20
13.2769469538
 40
0.03
100
AcDbArc
 50
135.0
 51
225.0
  0
ARC
  5
400
100
AcDbEntity
  8
0
100
AcDbCircle
 62
7
  6
CONTINUOUS
 10
9.2519602239
 20
12.2198223159
 40
0.03
100
AcDbArc
 50
315.0
 51
45.0
  0
ARC
  5
401
100
AcDbEntity
  8
0
100
AcDbCircle
 62
7
  6
CONTINUOUS
 10
7.3014033821
 20
12.5001929406
 40
0.015
100
AcDbArc
 50
139.2891533288
 51
225.0
  0
ARC
  5
402
100
AcDbEntity
  8
0
100
AcDbCircle
 62
7
  6
CONTINUOUS
 10
7.3595033363
 20
12.4420929863
 40
0.015
100
AcDbArc
 50
225.0
 51
310.7108466712
  0
ARC
  5
403
100
AcDbEntity
  8
0
100
AcDbCircle
 62
7
  6
CONTINUOUS
 10
7.5974863781
 20
12.2465363514
 40
0.015
100
AcDbArc
 50
139.2891533288
 51
225.0
  0
ARC
  5
404
100
AcDbEntity
  8
0
100
AcDbCircle
 62
7
  6
CONTINUOUS
 10
7.6555863324
 20
12.1884363971
 40
0.015
100
AcDbArc
 50
225.0
 51
310.7108466712
  0
ARC
  5
405
100
AcDbEntity
  8
0
100
AcDbCircle
 62
7
  6
CONTINUOUS
 10
7.4675082883
 20
12.3765144412
 40
0.015
100
AcDbArc
 50
139.2891533288
 51
225.0
  0
ARC
  5
406
100
AcDbEntity
  8
0
100
AcDbCircle
 62
7
  6
CONTINUOUS
 10
7.5256082426
 20
12.3184144869
 40
0.015
100
AcDbArc
 50
225.0
 51
310.7108466712
  0
ARC
  5
407
100
AcDbEntity
  8
0
100
AcDbCircle
 62
7
  6
CONTINUOUS
 10
7.3188429609
 20
12.5251797686
 40
0.015
100
AcDbArc
 50
225.0
 51
310.7108466712
  0
ARC
  5
408
100
AcDbEntity
  8
0
100
AcDbCircle
 62
7
  6
CONTINUOUS
 10
7.5583375763
 20
12.3351826279
 40
0.015
100
AcDbArc
 50
139.2891533288
 51
225.0
  0
ARC
  5
409
100
AcDbEntity
  8
0
100
AcDbCircle
 62
7
  6
CONTINUOUS
 10
7.6164375306
 20
12.2770826736
 40
0.015
100
AcDbArc
 50
225.0
 51
310.7108466712
  0
ARC
  5
40A
100
AcDbEntity
  8
0
100
AcDbCircle
 62
7
  6
CONTINUOUS
 10
7.3089648927
 20
12.5845553114
 40
0.015
100
AcDbArc
 50
139.2891533288
 51
225.0
  0
ARC
  5
40B
100
AcDbEntity
  8
0
100
AcDbCircle
 62
7
  6
CONTINUOUS
 10
7.367064847
 20
12.5264553572
 40
0.015
100
AcDbArc
 50
225.0
 51
310.7108466712
  0
ARC
  5
40C
100
AcDbEntity
  8
0
100
AcDbCircle
 62
7
  6
CONTINUOUS
 10
7.7964424899
 20
14.9008792518
 40
0.489
100
AcDbArc
 50
345.394893546
 51
0.0258404644
  0
ARC
  5
40D
100
AcDbEntity
  8
0
100
AcDbCircle
 62
7
  6
CONTINUOUS
 10
7.7964424899
 20
14.9008792518
 40
0.489
100
AcDbArc
 50
89.9741595356
 51
104.605106454
  0
ARC
  5
40E
100
AcDbEntity
  8
0
100
AcDbCircle
 62
7
  6
CONTINUOUS
 10
8.0646991095
 20
15.5431953587
 40
0.188
100
AcDbArc
 50
159.9175653171
 51
180.0
  0
ARC
  5
40F
100
AcDbEntity
  8
0
100
AcDbCircle
 62
7
  6
CONTINUOUS
 10
8.4387585968
 20
15.1691358715
 40
0.188
100
AcDbArc
 50
270.0
 51
290.0824346829
  0
ARC
  5
410
100
AcDbEntity
  8
0
100
AcDbCircle
 62
7
  6
CONTINUOUS
 10
8.365442432
 20
14.9011358715
 40
0.08
100
AcDbArc
 50
90.0
 51
180.0258404644
  0
ARC
  5
411
100
AcDbEntity
  8
0
100
AcDbCircle
 62
7
  6
CONTINUOUS
 10
7.7966991095
 20
15.4698791939
 40
0.08
100
AcDbArc
 50
269.9741595356
 51
360.0
  0
ARC
  5
412
100
AcDbEntity
  8
0
100
AcDbCircle
 62
7
  6
CONTINUOUS
 10
8.0159016515
 20
15.890891804
 40
0.06
100
AcDbArc
 50
180.0
 51
270.0
  0
ARC
  5
413
100
AcDbEntity
  8
0
100
AcDbCircle
 62
7
  6
CONTINUOUS
 10
8.0710918993
 20
14.2138634388
 40
0.02
100
AcDbArc
 50
225.0
 51
315.0
  0
ARC
  5
414
100
AcDbEntity
  8
0
100
AcDbCircle
 62
7
  6
CONTINUOUS
 10
8.0428076281
 20
14.1855791676
 40
0.02
100
AcDbArc
 50
315.0
 51
45.0
  0
ARC
  5
415
100
AcDbEntity
  8
0
100
AcDbCircle
 62
7
  6
CONTINUOUS
 10
8.0159016515
 20
16.424891804
 40
0.06
100
AcDbArc
 50
90.0
 51
180.0
  0
ARC
  5
416
100
AcDbEntity
  8
0
100
AcDbCircle
 62
7
  6
CONTINUOUS
 10
5.115385554
 20
16.3563969858
 40
0.03
100
AcDbArc
 50
45.0
 51
135.0
  0
ARC
  5
417
100
AcDbEntity
  8
0
100
AcDbCircle
 62
7
  6
CONTINUOUS
 10
14.0199016515
 20
2.744891804
 40
0.03
100
AcDbArc
 50
270.0
 51
360.0
  0
ARC
  5
418
100
AcDbEntity
  8
0
100
AcDbCircle
 62
7
  6
CONTINUOUS
 10
13.6299016515
 20
2.744891804
 40
0.03
100
AcDbArc
 50
180.0
 51
270.0
  0
ARC
  5
419
100
AcDbEntity
  8
0
100
AcDbCircle
 62
7
  6
CONTINUOUS
 10
13.6299016515
 20
4.014891804
 40
0.03
100
AcDbArc
 50
180.0
 51
270.0
  0
ARC
  5
41A
100
AcDbEntity
  8
0
100
AcDbCircle
 62
7
  6
CONTINUOUS
 10
14.0199016515
 20
4.014891804
 40
0.03
100
AcDbArc
 50
270.0
 51
360.0
  0
ARC
  5
41B
100
AcDbEntity
  8
0
100
AcDbCircle
 62
7
  6
CONTINUOUS
 10
14.0799016515
 20
3.929891804
 40
0.03
100
AcDbArc
 50
90.0
 51
180.0
  0
ARC
  5
41C
100
AcDbEntity
  8
0
100
AcDbCircle
 62
7
  6
CONTINUOUS
 10
14.0199016515
 20
4.554891804
 40
0.03
100
AcDbArc
 50
0.0
 51
90.0
  0
ARC
  5
41D
100
AcDbEntity
  8
0
100
AcDbCircle
 62
7
  6
CONTINUOUS
 10
13.6299016515
 20
4.554891804
 40
0.03
100
AcDbArc
 50
90.0
 51
180.0
  0
ARC
  5
41E
100
AcDbEntity
  8
0
100
AcDbCircle
 62
7
  6
CONTINUOUS
 10
14.0199016515
 20
5.824891804
 40
0.03
100
AcDbArc
 50
0.0
 51
90.0
  0
ARC
  5
41F
100
AcDbEntity
  8
0
100
AcDbCircle
 62
7
  6
CONTINUOUS
 10
13.6299016515
 20
5.824891804
 40
0.03
100
AcDbArc
 50
90.0
 51
180.0
  0
ARC
  5
420
100
AcDbEntity
  8
0
100
AcDbCircle
 62
7
  6
CONTINUOUS
 10
14.0799016515
 20
4.639891804
 40
0.03
100
AcDbArc
 50
180.0
 51
270.0
  0
ARC
  5
421
100
AcDbEntity
  8
0
100
AcDbCircle
 62
7
  6
CONTINUOUS
 10
14.6559016515
 20
3.734891804
 40
0.03
100
AcDbArc
 50
180.0
 51
270.0
  0
ARC
  5
422
100
AcDbEntity
  8
0
100
AcDbCircle
 62
7
  6
CONTINUOUS
 10
14.6559016515
 20
4.834891804
 40
0.03
100
AcDbArc
 50
90.0
 51
180.0
  0
ARC
  5
423
100
AcDbEntity
  8
0
100
AcDbCircle
 62
7
  6
CONTINUOUS
 10
16.6759016515
 20
7.004891804
 40
0.03
100
AcDbArc
 50
90.0
 51
180.0
  0
ARC
  5
424
100
AcDbEntity
  8
0
100
AcDbCircle
 62
7
  6
CONTINUOUS
 10
16.6759016515
 20
1.564891804
 40
0.03
100
AcDbArc
 50
180.0
 51
270.0
  0
ARC
  5
425
100
AcDbEntity
  8
0
100
AcDbCircle
 62
7
  6
CONTINUOUS
 10
16.3259016515
 20
3.299891804
 40
0.03
100
AcDbArc
 50
180.0
 51
270.0
  0
ARC
  5
426
100
AcDbEntity
  8
0
100
AcDbCircle
 62
7
  6
CONTINUOUS
 10
16.3259016515
 20
5.269891804
 40
0.03
100
AcDbArc
 50
90.0
 51
180.0
  0
ARC
  5
427
100
AcDbEntity
  8
0
100
AcDbCircle
 62
9
  6
CONTINUOUS
 10
16.2219016515
 20
15.750891804
 40
0.14
100
AcDbArc
 50
0.0
 51
90.0
  0
ARC
  5
428
100
AcDbEntity
  8
0
100
AcDbCircle
 62
7
  6
CONTINUOUS
 10
16.2219016515
 20
15.750891804
 40
0.08
100
AcDbArc
 50
0.0
 51
90.0
  0
ARC
  5
429
100
AcDbEntity
  8
0
100
AcDbCircle
 62
7
  6
CONTINUOUS
 10
23.5906210252
 20
30.6950577871
 40
24.3989285714
100
AcDbArc
 50
226.2854429774
 51
226.4451003487
  0
ARC
  5
42A
100
AcDbEntity
  8
0
100
AcDbCircle
 62
7
  6
CONTINUOUS
 10
23.5906210252
 20
30.6950577871
 40
24.3989285714
100
AcDbArc
 50
228.3998844708
 51
228.457733532
  0
ARC
  5
42B
100
AcDbEntity
  8
0
100
AcDbCircle
 62
7
  6
CONTINUOUS
 10
23.5906210252
 20
30.6950577871
 40
24.3989285714
100
AcDbArc
 50
223.5548996513
 51
223.7145570226
  0
ARC
  5
42C
100
AcDbEntity
  8
0
100
AcDbCircle
 62
7
  6
CONTINUOUS
 10
23.5906210252
 20
30.6950577871
 40
24.3989285714
100
AcDbArc
 50
221.542266468
 51
221.6001155292
  0
ARC
  5
42D
100
AcDbEntity
  8
0
100
AcDbCircle
 62
7
  6
CONTINUOUS
 10
23.5906210252
 20
30.6950577871
 40
24.3989285714
100
AcDbArc
 50
230.4471965673
 51
230.7535485216
  0
ARC
  5
42E
100
AcDbEntity
  8
0
100
AcDbCircle
 62
7
  6
CONTINUOUS
 10
23.5906210252
 20
30.6950577871
 40
24.3989285714
100
AcDbArc
 50
219.2464514784
 51
219.5528034327
  0
SPLINE
  5
42F
100
AcDbEntity
  8
0
100
AcDbSpline
 62
7
  6
CONTINUOUS
 70
0
 71
3
 72
21
 73
17
 74
0
 42
0.0000001
 43
0.0000001
 44
0.0000000001
 40
0.0
 40
0.0
 40
0.0
 40
0.0
 40
0.0066673253
 40
0.0123976794
 40
0.0199788998
 40
0.0294755326
 40
0.0409177912
 40
0.0696889528
 40
0.106317169
 40
0.1507552758
 40
0.2029383079
 40
0.2627811098
 40
0.4049387529
 40
0.5761339583
 40
0.7750034648
 40
1.0
 40
1.0
 40
1.0
 40
1.0
 10
4.9234439395
 20
14.999448308
 30
0.0
 10
4.9234677466
 20
14.999468806
 30
0.0
 10
4.9234672172
 20
14.9995401567
 30
0.0
 10
4.9234444973
 20
14.9996273124
 30
0.0
 10
4.9234069035
 20
14.999729717
 30
0.0
 10
4.9233515672
 20
14.9998516578
 30
0.0
 10
4.9232451891
 20
15.0000606789
 30
0.0
 10
4.9230642578
 20
15.0003743379
 30
0.0
 10
4.9227896683
 20
15.0008131579
 30
0.0
 10
4.9224434451
 20
15.001336965
 30
0.0
 10
4.9220262392
 20
15.0019448389
 30
0.0
 10
4.9213354298
 20
15.0029232523
 30
0.0
 10
4.9202985288
 20
15.0043435874
 30
0.0
 10
4.9188501678
 20
15.0062742857
 30
0.0
 10
4.9171462044
 20
15.0085010258
 30
0.0
 10
4.9159208819
 20
15.010078208
 30
0.0
 10
4.9152681382
 20
15.0109135913
 30
0.0
  0
SPLINE
  5
430
100
AcDbEntity
  8
0
100
AcDbSpline
 62
7
  6
CONTINUOUS
 70
0
 71
3
 72
11
 73
7
 74
0
 42
0.0000001
 43
0.0000001
 44
0.0000000001
 40
0.0
 40
0.0
 40
0.0
 40
0.0
 40
0.2066726118
 40
0.4498041588
 40
0.7182973075
 40
1.0
 40
1.0
 40
1.0
 40
1.0
 10
4.9152681382
 20
15.0109135913
 30
0.0
 10
4.9134007747
 20
15.0133034483
 30
0.0
 10
4.909297093
 20
15.0184738515
 30
0.0
 10
4.9026690707
 20
15.0266703334
 30
0.0
 10
4.8952832971
 20
15.0356696872
 30
0.0
 10
4.890121837
 20
15.0418786095
 30
0.0
 10
4.887469599
 20
15.0450496052
 30
0.0
  0
LINE
  5
431
100
AcDbEntity
  8
0
100
AcDbLine
 62
7
  6
CONTINUOUS
 10
6.04581948
 20
13.741827146
 11
6.0438738153
 21
13.7441517647
  0
LINE
  5
432
100
AcDbEntity
  8
0
100
AcDbLine
 62
7
  6
CONTINUOUS
 10
6.0438738153
 20
13.7441517647
 11
6.0383795767
 21
13.7501202625
  0
SPLINE
  5
433
100
AcDbEntity
  8
0
100
AcDbSpline
 62
7
  6
CONTINUOUS
 70
0
 71
3
 72
32
 73
28
 74
0
 42
0.0000001
 43
0.0000001
 44
0.0000000001
 40
0.0
 40
0.0
 40
0.0
 40
0.0
 40
0.1944812746
 40
0.2894774246
 40
0.3817561618
 40
0.4704311536
 40
0.554632455
 40
0.6335398597
 40
0.7063828075
 40
0.7724413925
 40
0.8310653257
 40
0.8574031652
 40
0.88167148
 40
0.9038069529
 40
0.9237551246
 40
0.9414688217
 40
0.9569013247
 40
0.9700134688
 40
0.9807765736
 40
0.9852686607
 40
0.9891633123
 40
0.9924583063
 40
0.9951529829
 40
0.9972472939
 40
0.9987425367
 40
0.9996449358
 40
1.0
 40
1.0
 40
1.0
 40
1.0
 10
4.8169148888
 20
15.1140302709
 30
0.0
 10
4.8144853326
 20
15.1169581639
 30
0.0
 10
4.8108649613
 20
15.1213128334
 30
0.0
 10
4.8060820299
 20
15.1270486127
 30
0.0
 10
4.8026204383
 20
15.1311911088
 30
0.0
 10
4.79928987
 20
15.1351678824
 30
0.0
 10
4.7961226842
 20
15.1389402798
 30
0.0
 10
4.7931498456
 20
15.1424714323
 30
0.0
 10
4.7904004884
 20
15.1457267646
 30
0.0
 10
4.7879016433
 20
15.148674272
 30
0.0
 10
4.7859859469
 20
15.1509234273
 30
0.0
 10
4.7845965492
 20
15.1525469405
 30
0.0
 10
4.7836693558
 20
15.1536264662
 30
0.0
 10
4.7828215263
 20
15.1546093745
 30
0.0
 10
4.7820551781
 20
15.1554932221
 30
0.0
 10
4.7813722359
 20
15.1562758214
 30
0.0
 10
4.7807744355
 20
15.1569552237
 30
0.0
 10
4.7802632945
 20
15.1575297273
 30
0.0
 10
4.7798912359
 20
15.1579415286
 30
0.0
 10
4.7796374823
 20
15.1582170823
 30
0.0
 10
4.7794812327
 20
15.1583839772
 30
0.0
 10
4.7793478211
 20
15.1585235977
 30
0.0
 10
4.7792360886
 20
15.1586365484
 30
0.0
 10
4.779149464
 20
15.1587211666
 30
0.0
 10
4.7790799973
 20
15.1587817596
 30
0.0
 10
4.7790441301
 20
15.1588108605
 30
0.0
 10
4.7790136449
 20
15.1588256979
 30
0.0
 10
4.779009114
 20
15.158820433
 30
0.0
  0
LINE
  5
434
100
AcDbEntity
  8
0
100
AcDbLine
 62
7
  6
CONTINUOUS
 10
6.3834855114
 20
13.4057633296
 11
6.3831900559
 21
13.4063295807
  0
SPLINE
  5
435
100
AcDbEntity
  8
0
100
AcDbSpline
 62
7
  6
CONTINUOUS
 70
0
 71
3
 72
30
 73
26
 74
0
 42
0.0000001
 43
0.0000001
 44
0.0000000001
 40
0.0
 40
0.0
 40
0.0
 40
0.0
 40
0.1946365782
 40
0.2896968051
 40
0.3820240214
 40
0.4707276217
 40
0.5549326069
 40
0.6338150989
 40
0.7066019939
 40
0.7725726639
 40
0.831078644
 40
0.8815411807
 40
0.9234640309
 40
0.9564462732
 40
0.969483017
 40
0.9801817477
 40
0.9846487944
 40
0.988525506
 40
0.9918125559
 40
0.994514063
 40
0.9966386259
 40
0.9982055506
 40
0.998795043
 40
0.9992716238
 40
1.0
 40
1.0
 40
1.0
 40
1.0
 10
4.887469599
 20
15.0450496052
 30
0.0
 10
4.8850282453
 20
15.0479684692
 30
0.0
 10
4.8813824843
 20
15.0523028452
 30
0.0
 10
4.8765498446
 20
15.0579974478
 30
0.0
 10
4.8730446581
 20
15.0621022428
 30
0.0
 10
4.8696643813
 20
15.0660345906
 30
0.0
 10
4.866442029
 20
15.0697560334
 30
0.0
 10
4.8634093087
 20
15.0732300045
 30
0.0
 10
4.860596109
 20
15.076422335
 30
0.0
 10
4.8580302376
 20
15.079301568
 30
0.0
 10
4.8557372163
 20
15.0818392336
 30
0.0
 10
4.8537400585
 20
15.0840104846
 30
0.0
 10
4.8520585634
 20
15.0857938033
 30
0.0
 10
4.8508570247
 20
15.0870238944
 30
0.0
 10
4.8500621454
 20
15.087797107
 30
0.0
 10
4.8496580941
 20
15.0881724268
 30
0.0
 10
4.849378177
 20
15.0884179162
 30
0.0
 10
4.8492036332
 20
15.0885637107
 30
0.0
 10
4.8490516557
 20
15.0886825087
 30
0.0
 10
4.8489223176
 20
15.0887745401
 30
0.0
 10
4.8488155903
 20
15.0888396641
 30
0.0
 10
4.8487394648
 20
15.088875575
 30
0.0
 10
4.8486892842
 20
15.0888882431
 30
0.0
 10
4.848654389
 20
15.0888911674
 30
0.0
 10
4.8486296461
 20
15.0888817233
 30
0.0
 10
4.8486203568
 20
15.0888709302
 30
0.0
  0
SPLINE
  5
436
100
AcDbEntity
  8
0
100
AcDbSpline
 62
7
  6
CONTINUOUS
 70
0
 71
3
 72
32
 73
28
 74
0
 42
0.0000001
 43
0.0000001
 44
0.0000000001
 40
0.0
 40
0.0
 40
0.0
 40
0.0
 40
0.0003653955
 40
0.0012741335
 40
0.0027727696
 40
0.0048679682
 40
0.007561234
 40
0.0108526506
 40
0.0147416042
 40
0.0192258134
 40
0.0299671174
 40
0.0430502644
 40
0.058447445
 40
0.0761201614
 40
0.0960229568
 40
0.1181099246
 40
0.1423276411
 40
0.1686141369
 40
0.2271386037
 40
0.2931103295
 40
0.3658887538
 40
0.4447619582
 40
0.5289654929
 40
0.6176829596
 40
0.7100454514
 40
0.8051655443
 40
1.0
 40
1.0
 40
1.0
 40
1.0
 10
7.392312906
 20
12.4505358432
 30
0.0
 10
7.3923182935
 20
12.4505404857
 30
0.0
 10
7.3923049579
 20
12.4505713268
 30
0.0
 10
7.3922771419
 20
12.4506090255
 30
0.0
 10
7.3922197023
 20
12.4506803949
 30
0.0
 10
7.3921388841
 20
12.4507700066
 30
0.0
 10
7.3920309748
 20
12.4508853252
 30
0.0
 10
7.391897376
 20
12.4510231375
 30
0.0
 10
7.391737574
 20
12.4511845205
 30
0.0
 10
7.3914735958
 20
12.4514466229
 30
0.0
 10
7.39107879
 20
12.4518309932
 30
0.0
 10
7.3905276292
 20
12.4523591623
 30
0.0
 10
7.3898755222
 20
12.4529769714
 30
0.0
 10
7.3891240662
 20
12.4536828869
 30
0.0
 10
7.3882750889
 20
12.4544751515
 30
0.0
 10
7.3873306441
 20
12.4553518181
 30
0.0
 10
7.3862930319
 20
12.4563107401
 30
0.0
 10
7.3847319276
 20
12.457748116
 30
0.0
 10
7.3825681466
 20
12.4597306994
 30
0.0
 10
7.3797310215
 20
12.4623178332
 30
0.0
 10
7.3765957166
 20
12.4651657484
 30
0.0
 10
7.3731927359
 20
12.4682467276
 30
0.0
 10
7.3695551496
 20
12.471530794
 30
0.0
 10
7.3657183452
 20
12.4749859796
 30
0.0
 10
7.3617195415
 20
12.4785787755
 30
0.0
 10
7.3561790617
 20
12.4835460046
 30
0.0
 10
7.3519713217
 20
12.4873067883
 30
0.0
 10
7.3491414954
 20
12.4898310996
 30
0.0
  0
LINE
  5
437
100
AcDbEntity
  8
0
100
AcDbLine
 62
7
  6
CONTINUOUS
 10
7.0879630829
 20
12.7236917768
 11
7.0449095339
 21
12.7634170047
  0
SPLINE
  5
438
100
AcDbEntity
  8
0
100
AcDbSpline
 62
7
  6
CONTINUOUS
 70
0
 71
3
 72
28
 73
24
 74
0
 42
0.0000001
 43
0.0000001
 44
0.0000000001
 40
0.0
 40
0.0
 40
0.0
 40
0.0
 40
0.1934292159
 40
0.3792891335
 40
0.4671377106
 40
0.5504576801
 40
0.628459734
 40
0.7004131369
 40
0.7656463873
 40
0.8235672176
 40
0.8736611706
 40
0.8956397148
 40
0.9155137257
 40
0.933252933
 40
0.9488332945
 40
0.9622465001
 40
0.973511125
 40
0.9826798931
 40
0.9898800753
 40
0.9928331199
 40
0.9954331383
 40
0.9977779062
 40
1.0
 40
1.0
 40
1.0
 40
1.0
 10
6.7503584553
 20
13.1873436375
 30
0.0
 10
6.7476201617
 20
13.1899768127
 30
0.0
 10
6.7422047107
 20
13.1950924947
 30
0.0
 10
6.7354201271
 20
13.2012693142
 30
0.0
 10
6.7301606127
 20
13.2059069289
 30
0.0
 10
6.7264529023
 20
13.2091010207
 30
0.0
 10
6.7229434016
 20
13.2120463431
 30
0.0
 10
6.7196659149
 20
13.2147148735
 30
0.0
 10
6.7166518648
 20
13.2170814866
 30
0.0
 10
6.7139301952
 20
13.2191240319
 30
0.0
 10
6.7118457287
 20
13.2205991327
 30
0.0
 10
6.7103405354
 20
13.2215970621
 30
0.0
 10
6.7093497747
 20
13.2222203547
 30
0.0
 10
6.708449421
 20
13.2227506089
 30
0.0
 10
6.707641508
 20
13.2231867455
 30
0.0
 10
6.7069278725
 20
13.2235279897
 30
0.0
 10
6.7063095753
 20
13.2237743754
 30
0.0
 10
6.7057876314
 20
13.2239259246
 30
0.0
 10
6.7054085134
 20
13.2239772783
 30
0.0
 10
6.7051577063
 20
13.2239602475
 30
0.0
 10
6.7050060661
 20
13.2239232017
 30
0.0
 10
6.7048786745
 20
13.2238602999
 30
0.0
 10
6.7048104321
 20
13.2238001162
 30
0.0
 10
6.7047819633
 20
13.2237670387
 30
0.0
  0
SPLINE
  5
439
100
AcDbEntity
  8
0
100
AcDbSpline
 62
7
  6
CONTINUOUS
 70
0
 71
3
 72
28
 73
24
 74
0
 42
0.0000001
 43
0.0000001
 44
0.0000000001
 40
0.0
 40
0.0
 40
0.0
 40
0.0
 40
0.1934789994
 40
0.3793691096
 40
0.4672376985
 40
0.5505869638
 40
0.6286308137
 40
0.7006397207
 40
0.7659415823
 40
0.8239409096
 40
0.8741164322
 40
0.8961338884
 40
0.9160429527
 40
0.9338110699
 40
0.9494112055
 40
0.9628301984
 40
0.9740800594
 40
0.9832033765
 40
0.9903100067
 40
0.9931896098
 40
0.9956937991
 40
0.9979185899
 40
1.0
 40
1.0
 40
1.0
 40
1.0
 10
7.0692475477
 20
12.8679519869
 30
0.0
 10
7.0664628389
 20
12.8705314299
 30
0.0
 10
7.0609606542
 20
12.8755440102
 30
0.0
 10
7.0540792193
 20
12.8816005984
 30
0.0
 10
7.0487520597
 20
12.8861510732
 30
0.0
 10
7.0449998078
 20
12.889287245
 30
0.0
 10
7.0414512742
 20
12.8921814952
 30
0.0
 10
7.0381404477
 20
12.8948064032
 30
0.0
 10
7.0350989452
 20
12.8971373057
 30
0.0
 10
7.0323559114
 20
12.8991523755
 30
0.0
 10
7.0302584443
 20
12.9006108101
 30
0.0
 10
7.0287462591
 20
12.9016000926
 30
0.0
 10
7.0277521067
 20
12.9022193554
 30
0.0
 10
7.026850053
 20
12.9027476822
 30
0.0
 10
7.0260421783
 20
12.903183978
 30
0.0
 10
7.0253303664
 20
12.9035274088
 30
0.0
 10
7.0247157775
 20
12.9037779886
 30
0.0
 10
7.0241995629
 20
12.9039356466
 30
0.0
 10
7.0238264721
 20
12.9039947028
 30
0.0
 10
7.023580765
 20
12.9039849868
 30
0.0
 10
7.0234338343
 20
12.9039537027
 30
0.0
 10
7.0233113335
 20
12.9038970793
 30
0.0
 10
7.0232463041
 20
12.9038409984
 30
0.0
 10
7.0232196652
 20
12.9038100495
 30
0.0
  0
SPLINE
  5
43A
100
AcDbEntity
  8
0
100
AcDbSpline
 62
7
  6
CONTINUOUS
 70
0
 71
3
 72
27
 73
23
 74
0
 42
0.0000001
 43
0.0000001
 44
0.0000000001
 40
0.0
 40
0.0
 40
0.0
 40
0.0
 40
0.1936596016
 40
0.3797170028
 40
0.55111695
 40
0.6292637076
 40
0.7013811566
 40
0.766793253
 40
0.8248977142
 40
0.8751625087
 40
0.8972142919
 40
0.917147314
 40
0.9349259295
 40
0.9505190687
 40
0.9639071781
 40
0.9750933447
 40
0.984106133
 40
0.9910310085
 40
0.9937804444
 40
0.9961212382
 40
0.9981468019
 40
1.0
 40
1.0
 40
1.0
 40
1.0
 10
7.3594484497
 20
12.5769389141
 30
0.0
 10
7.3566234601
 20
12.5794680488
 30
0.0
 10
7.3510480887
 20
12.5843867039
 30
0.0
 10
7.3428487627
 20
12.5914019536
 30
0.0
 10
7.3362750927
 20
12.5968367864
 30
0.0
 10
7.3313568202
 20
12.6007707839
 30
0.0
 10
7.3280270341
 20
12.6033679856
 30
0.0
 10
7.3249727509
 20
12.6056797849
 30
0.0
 10
7.3222232248
 20
12.60768441
 30
0.0
 10
7.320125567
 20
12.6091412395
 30
0.0
 10
7.3186167337
 20
12.6101342318
 30
0.0
 10
7.3176267538
 20
12.6107582101
 30
0.0
 10
7.3167305579
 20
12.6112933041
 30
0.0
 10
7.3159302663
 20
12.6117383789
 30
0.0
 10
7.3152278048
 20
12.6120925091
 30
0.0
 10
7.3146244627
 20
12.6123556758
 30
0.0
 10
7.3141215456
 20
12.6125276354
 30
0.0
 10
7.3137607937
 20
12.6126018933
 30
0.0
 10
7.3135248133
 20
12.6126056048
 30
0.0
 10
7.3133862174
 20
12.6125843421
 30
0.0
 10
7.3132719757
 20
12.6125383062
 30
0.0
 10
7.3132122019
 20
12.612488958
 30
0.0
 10
7.3131885303
 20
12.6124614588
 30
0.0
  0
SPLINE
  5
43B
100
AcDbEntity
  8
0
100
AcDbSpline
 62
7
  6
CONTINUOUS
 70
0
 71
3
 72
27
 73
23
 74
0
 42
0.0000001
 43
0.0000001
 44
0.0000000001
 40
0.0
 40
0.0
 40
0.0
 40
0.0
 40
0.1939528795
 40
0.3802947186
 40
0.5519888492
 40
0.6302848853
 40
0.7025483267
 40
0.7680968924
 40
0.8263192625
 40
0.8766707671
 40
0.8987491564
 40
0.9186938864
 40
0.9364658685
 40
0.9520295015
 40
0.965358279
 40
0.9764451861
 40
0.9853023374
 40
0.991985338
 40
0.9945645938
 40
0.9966913052
 40
0.9984525876
 40
1.0
 40
1.0
 40
1.0
 40
1.0
 10
7.6082786357
 20
12.327023733
 30
0.0
 10
7.6054211245
 20
12.3295084048
 30
0.0
 10
7.5997888839
 20
12.3343466285
 30
0.0
 10
7.591526724
 20
12.3412664246
 30
0.0
 10
7.5849200844
 20
12.3466450352
 30
0.0
 10
7.5799883494
 20
12.3505518468
 30
0.0
 10
7.5766547495
 20
12.3531383005
 30
0.0
 10
7.5736028885
 20
12.3554481556
 30
0.0
 10
7.5708620718
 20
12.3574595116
 30
0.0
 10
7.5687771447
 20
12.3589295657
 30
0.0
 10
7.5672819983
 20
12.3599382084
 30
0.0
 10
7.5663036482
 20
12.3605752787
 30
0.0
 10
7.5654206815
 20
12.3611253846
 30
0.0
 10
7.5646352437
 20
12.3615873248
 30
0.0
 10
7.5639492788
 20
12.361960056
 30
0.0
 10
7.5633642337
 20
12.3622434861
 30
0.0
 10
7.5628815231
 20
12.3624371051
 30
0.0
 10
7.5625390853
 20
12.3625331276
 30
0.0
 10
7.562317267
 20
12.3625558914
 30
0.0
 10
7.5621904557
 20
12.3625484192
 30
0.0
 10
7.5620875765
 20
12.3625170435
 30
0.0
 10
7.5620346501
 20
12.3624768104
 30
0.0
 10
7.5620149392
 20
12.3624539149
 30
0.0
  0
SPLINE
  5
43C
100
AcDbEntity
  8
0
100
AcDbSpline
 62
7
  6
CONTINUOUS
 70
0
 71
3
 72
28
 73
24
 74
0
 42
0.0000001
 43
0.0000001
 44
0.0000000001
 40
0.0
 40
0.0
 40
0.0
 40
0.0
 40
0.1943192762
 40
0.3810217156
 40
0.4693047624
 40
0.5530764679
 40
0.631545906
 40
0.703971504
 40
0.7696636224
 40
0.8280013748
 40
0.8784280062
 40
0.9204687872
 40
0.9382218222
 40
0.9537421668
 40
0.966996992
 40
0.9779695084
 40
0.9866549899
 40
0.9901463868
 40
0.9930806224
 40
0.9954754608
 40
0.9973651044
 40
0.9988213394
 40
1.0
 40
1.0
 40
1.0
 40
1.0
 10
7.804863771
 20
12.1291296749
 30
0.0
 10
7.8019825858
 20
12.1315779389
 30
0.0
 10
7.7963116169
 20
12.1363532216
 30
0.0
 10
7.7892723907
 20
12.142169888
 30
0.0
 10
7.783855883
 20
12.146573053
 30
0.0
 10
7.7800556457
 20
12.1496257836
 30
0.0
 10
7.7764774027
 20
12.1524620501
 30
0.0
 10
7.7731552645
 20
12.1550549345
 30
0.0
 10
7.7701209778
 20
12.1573797574
 30
0.0
 10
7.7674038695
 20
12.1594144873
 30
0.0
 10
7.7650301994
 20
12.1611396141
 30
0.0
 10
7.7632712278
 20
12.16236693
 30
0.0
 10
7.7620502063
 20
12.1631773099
 30
0.0
 10
7.7612863122
 20
12.1636632734
 30
0.0
 10
7.760623297
 20
12.1640616945
 30
0.0
 10
7.7600628053
 20
12.1643716927
 30
0.0
 10
7.7596574364
 20
12.1645691097
 30
0.0
 10
7.7593843246
 20
12.1646783989
 30
0.0
 10
7.7592210614
 20
12.1647317861
 30
0.0
 10
7.7590838225
 20
12.1647631188
 30
0.0
 10
7.7589720077
 20
12.1647723131
 30
0.0
 10
7.758883564
 20
12.1647594191
 30
0.0
 10
7.7588382767
 20
12.1647305488
 30
0.0
 10
7.7588233134
 20
12.1647131695
 30
0.0
  0
SPLINE
  5
43D
100
AcDbEntity
  8
0
100
AcDbSpline
 62
7
  6
CONTINUOUS
 70
0
 71
3
 72
11
 73
7
 74
0
 42
0.0000001
 43
0.0000001
 44
0.0000000001
 40
0.0
 40
0.0
 40
0.0
 40
0.0
 40
0.2817028822
 40
0.5501963041
 40
0.7933279092
 40
1.0
 40
1.0
 40
1.0
 40
1.0
 10
7.9406128433
 20
11.9919063609
 30
0.0
 10
7.9374418252
 20
11.9945586176
 30
0.0
 10
7.9312328578
 20
11.999720115
 30
0.0
 10
7.9222334401
 20
12.00710594
 30
0.0
 10
7.9140369069
 20
12.0137340016
 30
0.0
 10
7.9088664748
 20
12.017837704
 30
0.0
 10
7.9064766076
 20
12.0197050734
 30
0.0
  0
SPLINE
  5
43E
100
AcDbEntity
  8
0
100
AcDbSpline
 62
7
  6
CONTINUOUS
 70
0
 71
3
 72
21
 73
17
 74
0
 42
0.0000001
 43
0.0000001
 44
0.0000000001
 40
0.0
 40
0.0
 40
0.0
 40
0.0
 40
0.2249972035
 40
0.4238670235
 40
0.5950623436
 40
0.7372196037
 40
0.7970622912
 40
0.8492452815
 40
0.8936831565
 40
0.9303111794
 40
0.9590823638
 40
0.9705245981
 40
0.9800211718
 40
0.9876023253
 40
0.9933326316
 40
1.0
 40
1.0
 40
1.0
 40
1.0
 10
7.9064766076
 20
12.0197050734
 30
0.0
 10
7.9056412381
 20
12.0203578056
 30
0.0
 10
7.9040640831
 20
12.0215831057
 30
0.0
 10
7.9018373822
 20
12.0232870369
 30
0.0
 10
7.8999067213
 20
12.024735368
 30
0.0
 10
7.8984864149
 20
12.0257722458
 30
0.0
 10
7.8975080224
 20
12.0264630389
 30
0.0
 10
7.8969001618
 20
12.0268802351
 30
0.0
 10
7.8963763664
 20
12.0272264493
 30
0.0
 10
7.8959375561
 20
12.0275010313
 30
0.0
 10
7.895623904
 20
12.0276819582
 30
0.0
 10
7.8954148872
 20
12.0277883336
 30
0.0
 10
7.8952929491
 20
12.0278436681
 30
0.0
 10
7.8951905473
 20
12.0278812602
 30
0.0
 10
7.8951033929
 20
12.0279039789
 30
0.0
 10
7.8950320448
 20
12.0279045074
 30
0.0
 10
7.8950115463
 20
12.0278807012
 30
0.0
  0
SPLINE
  5
43F
100
AcDbEntity
  8
0
100
AcDbSpline
 62
7
  6
CONTINUOUS
 70
0
 71
3
 72
30
 73
26
 74
0
 42
0.0000001
 43
0.0000001
 44
0.0000000001
 40
0.0
 40
0.0
 40
0.0
 40
0.0
 40
0.0005674187
 40
0.0010088313
 40
0.0015813933
 40
0.0031465566
 40
0.0052908426
 40
0.0113415671
 40
0.0197511079
 40
0.0305118385
 40
0.0435999505
 40
0.0589857239
 40
0.0766365579
 40
0.096508623
 40
0.1185539753
 40
0.1689550151
 40
0.2273539513
 40
0.2931921872
 40
0.3658401349
 40
0.4445968633
 40
0.5287091682
 40
0.617372359
 40
0.7097274012
 40
0.8048920555
 40
1.0
 40
1.0
 40
1.0
 40
1.0
 10
5.7915439078
 20
14.0139166635
 30
0.0
 10
5.7915522811
 20
14.0139238491
 30
0.0
 10
5.7915556201
 20
14.0139466933
 30
0.0
 10
5.7915496786
 20
14.0139761174
 30
0.0
 10
5.7915340337
 20
14.0140242443
 30
0.0
 10
5.7914974158
 20
14.0140990541
 30
0.0
 10
5.7914019384
 20
14.0142632602
 30
0.0
 10
5.7912191106
 20
14.0145297141
 30
0.0
 10
5.790926894
 20
14.0149235913
 30
0.0
 10
5.7905405648
 20
14.0154178811
 30
0.0
 10
5.7900614138
 20
14.0160116066
 30
0.0
 10
5.7894901826
 20
14.0167031278
 30
0.0
 10
5.7888282403
 20
14.0174907614
 30
0.0
 10
5.7880771299
 20
14.0183725822
 30
0.0
 10
5.7869057886
 20
14.0197329849
 30
0.0
 10
5.7852325826
 20
14.0216498431
 30
0.0
 10
5.7829836517
 20
14.0241944242
 30
0.0
 10
5.7804344613
 20
14.0270509211
 30
0.0
 10
5.777609471
 20
14.0301918269
 30
0.0
 10
5.7745357598
 20
14.0335869315
 30
0.0
 10
5.771242798
 20
14.0372036077
 30
0.0
 10
5.7677622241
 20
14.0410070544
 30
0.0
 10
5.7641274815
 20
14.0449607283
 30
0.0
 10
5.7590801198
 20
14.050427385
 30
0.0
 10
5.7552383377
 20
14.0545628085
 30
0.0
 10
5.7526507049
 20
14.0573374408
 30
0.0
  0
SPLINE
  5
440
100
AcDbEntity
  8
0
100
AcDbSpline
 62
7
  6
CONTINUOUS
 70
0
 71
3
 72
22
 73
18
 74
0
 42
0.0000001
 43
0.0000001
 44
0.0000000001
 40
0.0
 40
0.0
 40
0.0
 40
0.0
 40
0.0038965962
 40
0.0085572638
 40
0.0145762227
 40
0.0222364951
 40
0.0316734305
 40
0.0429576685
 40
0.0712073894
 40
0.1071492881
 40
0.1508108562
 40
0.2021777349
 40
0.2612172145
 40
0.4020898291
 40
0.5727563717
 40
0.7724036371
 40
1.0
 40
1.0
 40
1.0
 40
1.0
 10
6.7405848822
 20
13.0694032627
 30
0.0
 10
6.7405942983
 20
13.0694113793
 30
0.0
 10
6.7406099418
 20
13.0694354178
 30
0.0
 10
6.7406154307
 20
13.0694825377
 30
0.0
 10
6.7406072879
 20
13.0695407873
 30
0.0
 10
6.7405857828
 20
13.0696115397
 30
0.0
 10
6.7405508902
 20
13.0696951919
 30
0.0
 10
6.7404808196
 20
13.0698349314
 30
0.0
 10
6.7403563629
 20
13.0700413946
 30
0.0
 10
6.7401627981
 20
13.0703259539
 30
0.0
 10
6.7399149883
 20
13.0706624761
 30
0.0
 10
6.7396132255
 20
13.0710505125
 30
0.0
 10
6.7391086162
 20
13.0716734866
 30
0.0
 10
6.7383428297
 20
13.072574405
 30
0.0
 10
6.7372630249
 20
13.0737966439
 30
0.0
 10
6.7359801779
 20
13.0752084347
 30
0.0
 10
6.7350529654
 20
13.0762075477
 30
0.0
 10
6.7345569534
 20
13.0767378325
 30
0.0
  0
SPLINE
  5
441
100
AcDbEntity
  8
0
100
AcDbSpline
 62
7
  6
CONTINUOUS
 70
0
 71
3
 72
32
 73
28
 74
0
 42
0.0000001
 43
0.0000001
 44
0.0000000001
 40
0.0
 40
0.0
 40
0.0
 40
0.0
 40
0.0003550656
 40
0.0012574633
 40
0.002752703
 40
0.0048470111
 40
0.0075416868
 40
0.0108366839
 40
0.0147313421
 40
0.0192234329
 40
0.0299865394
 40
0.0430986865
 40
0.0585311988
 40
0.0762448998
 40
0.0961930752
 40
0.1183285571
 40
0.1425968789
 40
0.168934724
 40
0.2275586697
 40
0.2936172635
 40
0.3664602262
 40
0.4453676607
 40
0.5295689999
 40
0.6182440077
 40
0.7105227494
 40
0.8055188711
 40
1.0
 40
1.0
 40
1.0
 40
1.0
 10
8.0543836711
 20
11.8834458759
 30
0.0
 10
8.0543889359
 20
11.883450407
 30
0.0
 10
8.0543740985
 20
11.8834808919
 30
0.0
 10
8.0543449976
 20
11.8835167593
 30
0.0
 10
8.0542844048
 20
11.8835862258
 30
0.0
 10
8.0541997867
 20
11.8836728504
 30
0.0
 10
8.054086836
 20
11.8837845829
 30
0.0
 10
8.0539472154
 20
11.8839179946
 30
0.0
 10
8.0537803202
 20
11.8840742443
 30
0.0
 10
8.0535047664
 20
11.884327998
 30
0.0
 10
8.0530929649
 20
11.8847000568
 30
0.0
 10
8.0525184612
 20
11.8852111979
 30
0.0
 10
8.0518390587
 20
11.8858089986
 30
0.0
 10
8.0510564591
 20
11.886491941
 30
0.0
 10
8.0501726112
 20
11.8872582894
 30
0.0
 10
8.0491897027
 20
11.8881061192
 30
0.0
 10
8.0481101766
 20
11.8890333128
 30
0.0
 10
8.046486663
 20
11.8904227108
 30
0.0
 10
8.0442375074
 20
11.8923384075
 30
0.0
 10
8.0412899994
 20
11.8948372531
 30
0.0
 10
8.0380346663
 20
11.8975866109
 30
0.0
 10
8.0345035126
 20
11.9005594506
 30
0.0
 10
8.0307311139
 20
11.9037266375
 30
0.0
 10
8.0267543394
 20
11.9070572065
 30
0.0
 10
8.0226118435
 20
11.9105187979
 30
0.0
 10
8.0168760667
 20
11.9153017272
 30
0.0
 10
8.0125213998
 20
11.9189220963
 30
0.0
 10
8.009593509
 20
11.9213516507
 30
0.0
  0
SPLINE
  5
442
100
AcDbEntity
  8
0
100
AcDbSpline
 62
7
  6
CONTINUOUS
 70
0
 71
3
 72
19
 73
15
 74
0
 42
0.0000001
 43
0.0000001
 44
0.0000000001
 40
0.0
 40
0.0
 40
0.0
 40
0.0
 40
0.013017355
 40
0.0295548433
 40
0.0519102235
 40
0.0810233132
 40
0.1173011098
 40
0.1609189799
 40
0.211943333
 40
0.2703929953
 40
0.4095119647
 40
0.5779288229
 40
0.7750110275
 40
1.0
 40
1.0
 40
1.0
 40
1.0
 10
6.749788232
 20
13.0899866487
 30
0.0
 10
6.7498156031
 20
13.0900102195
 30
0.0
 10
6.7498586384
 20
13.0900863679
 30
0.0
 10
6.7498599287
 20
13.0902333909
 30
0.0
 10
6.7498174361
 20
13.0904179003
 30
0.0
 10
6.7497292455
 20
13.0906455183
 30
0.0
 10
6.7495954683
 20
13.09091703
 30
0.0
 10
6.7494154147
 20
13.091232757
 30
0.0
 10
6.749189165
 20
13.0915924108
 30
0.0
 10
6.7488028539
 20
13.0921640201
 30
0.0
 10
6.7482012966
 20
13.0929826634
 30
0.0
 10
6.7473363813
 20
13.0940840166
 30
0.0
 10
6.7462945727
 20
13.0953488472
 30
0.0
 10
6.745534156
 20
13.0962396759
 30
0.0
 10
6.7451257457
 20
13.096711873
 30
0.0
  0
SPLINE
  5
443
100
AcDbEntity
  8
0
100
AcDbSpline
 62
7
  6
CONTINUOUS
 70
0
 71
3
 72
30
 73
26
 74
0
 42
0.0000001
 43
0.0000001
 44
0.0000000001
 40
0.0
 40
0.0
 40
0.0
 40
0.0
 40
0.0007283796
 40
0.0012049603
 40
0.0017944499
 40
0.0033613633
 40
0.0054859132
 40
0.0081874135
 40
0.0114744711
 40
0.0153512021
 40
0.0198182532
 40
0.0305169668
 40
0.0435537036
 40
0.0765359556
 40
0.1184588094
 40
0.1689213291
 40
0.2274273228
 40
0.2933979796
 40
0.3661848628
 40
0.4450673679
 40
0.5292723704
 40
0.6179759815
 40
0.710303182
 40
0.8053634203
 40
1.0
 40
1.0
 40
1.0
 40
1.0
 10
7.9844341681
 20
11.9530571188
 30
0.0
 10
7.984444961
 20
11.9530664085
 30
0.0
 10
7.9844544047
 20
11.9530911514
 30
0.0
 10
7.9844514805
 20
11.9531260466
 30
0.0
 10
7.9844388126
 20
11.953176227
 30
0.0
 10
7.9844029022
 20
11.9532523521
 30
0.0
 10
7.9843377788
 20
11.9533590791
 30
0.0
 10
7.9842457476
 20
11.953488417
 30
0.0
 10
7.9841269492
 20
11.9536403947
 30
0.0
 10
7.9839811541
 20
11.9538149388
 30
0.0
 10
7.9837356647
 20
11.954094856
 30
0.0
 10
7.9833603452
 20
11.9544989072
 30
0.0
 10
7.9825871329
 20
11.9552937863
 30
0.0
 10
7.9813570416
 20
11.956495325
 30
0.0
 10
7.979573723
 20
11.95817682
 30
0.0
 10
7.9774024721
 20
11.960173978
 30
0.0
 10
7.9748648067
 20
11.9624669989
 30
0.0
 10
7.971985574
 20
11.9650328702
 30
0.0
 10
7.9687932437
 20
11.9678460697
 30
0.0
 10
7.9653192722
 20
11.9708787902
 30
0.0
 10
7.961597829
 20
11.9741011431
 30
0.0
 10
7.957665481
 20
11.97748142
 30
0.0
 10
7.953560686
 20
11.9809866064
 30
0.0
 10
7.9478660835
 20
11.9858192461
 30
0.0
 10
7.9435317072
 20
11.9894650072
 30
0.0
 10
7.9406128433
 20
11.9919063609
 30
0.0
  0
SPLINE
  5
444
100
AcDbEntity
  8
0
100
AcDbSpline
 62
7
  6
CONTINUOUS
 70
0
 71
3
 72
30
 73
26
 74
0
 42
0.0000001
 43
0.0000001
 44
0.0000000001
 40
0.0
 40
0.0
 40
0.0
 40
0.0
 40
0.0011454329
 40
0.0024977587
 40
0.0042514292
 40
0.0064983235
 40
0.0092813269
 40
0.0126222682
 40
0.0165331032
 40
0.0210194448
 40
0.031724314
 40
0.044737714
 40
0.0600462217
 40
0.0776202465
 40
0.0974201264
 40
0.1194040712
 40
0.1697117339
 40
0.2280628487
 40
0.2938886578
 40
0.3665474193
 40
0.4453222073
 40
0.5294412838
 40
0.6180800678
 40
0.8053909612
 40
1.0
 40
1.0
 40
1.0
 40
1.0
 10
7.847592619
 20
12.0892375408
 30
0.0
 10
7.8476095944
 20
12.0892521516
 30
0.0
 10
7.8476376695
 20
12.0892953461
 30
0.0
 10
7.8476447378
 20
12.0893801612
 30
0.0
 10
7.8476249871
 20
12.0894835433
 30
0.0
 10
7.8475791593
 20
12.0896084396
 30
0.0
 10
7.847507077
 20
12.0897555844
 30
0.0
 10
7.8474084241
 20
12.089925335
 30
0.0
 10
7.8472830762
 20
12.090117691
 30
0.0
 10
7.847067211
 20
12.0904225941
 30
0.0
 10
7.846728014
 20
12.090857763
 30
0.0
 10
7.846236829
 20
12.0914419014
 30
0.0
 10
7.8456409782
 20
12.0921130928
 30
0.0
 10
7.8449418395
 20
12.092869709
 30
0.0
 10
7.8441409901
 20
12.0937098598
 30
0.0
 10
7.8428822656
 20
12.0949976178
 30
0.0
 10
7.8410678157
 20
12.0967959938
 30
0.0
 10
7.8386101779
 20
12.0991626096
 30
0.0
 10
7.8358079699
 20
12.1018011127
 30
0.0
 10
7.8326888004
 20
12.1046852611
 30
0.0
 10
7.8292833718
 20
12.1077864921
 30
0.0
 10
7.8256252493
 20
12.1110741483
 30
0.0
 10
7.8203611662
 20
12.1157496449
 30
0.0
 10
7.8134325826
 20
12.1218042186
 30
0.0
 10
7.8077635462
 20
12.1266656141
 30
0.0
 10
7.804863771
 20
12.1291296749
 30
0.0
  0
SPLINE
  5
445
100
AcDbEntity
  8
0
100
AcDbSpline
 62
7
  6
CONTINUOUS
 70
0
 71
3
 72
26
 73
22
 74
0
 42
0.0000001
 43
0.0000001
 44
0.0000000001
 40
0.0
 40
0.0
 40
0.0
 40
0.0
 40
0.0015248357
 40
0.0031939343
 40
0.0051866012
 40
0.0076107936
 40
0.0139607874
 40
0.0224874025
 40
0.0332623158
 40
0.0463044122
 40
0.0616116574
 40
0.0791618745
 40
0.1208485039
 40
0.171018279
 40
0.2292087811
 40
0.2948649919
 40
0.3673554393
 40
0.4459704466
 40
0.6184503594
 40
0.8055491535
 40
1.0
 40
1.0
 40
1.0
 40
1.0
 10
7.6498402532
 20
12.2860359181
 30
0.0
 10
7.6498628683
 20
12.2860553825
 30
0.0
 10
7.6499022754
 20
12.2861064307
 30
0.0
 10
7.6499294734
 20
12.2862061156
 30
0.0
 10
7.6499283722
 20
12.2863261723
 30
0.0
 10
7.6498875961
 20
12.2865336565
 30
0.0
 10
7.649758627
 20
12.2868491344
 30
0.0
 10
7.6495151097
 20
12.2872882936
 30
0.0
 10
7.6491672104
 20
12.2878176625
 30
0.0
 10
7.6487155306
 20
12.2884359872
 30
0.0
 10
7.6481601162
 20
12.2891420338
 30
0.0
 10
7.6472277656
 20
12.2902640004
 30
0.0
 10
7.6458068936
 20
12.2918660339
 30
0.0
 10
7.6438011089
 20
12.2940104893
 30
0.0
 10
7.6414267243
 20
12.2964515113
 30
0.0
 10
7.6387067883
 20
12.2991650203
 30
0.0
 10
7.6356676819
 20
12.3021240166
 30
0.0
 10
7.6310859747
 20
12.306494617
 30
0.0
 10
7.6248020596
 20
12.3123292165
 30
0.0
 10
7.6167545802
 20
12.3195939532
 30
0.0
 10
7.611149977
 20
12.3245270357
 30
0.0
 10
7.6082786357
 20
12.327023733
 30
0.0
  0
SPLINE
  5
446
100
AcDbEntity
  8
0
100
AcDbSpline
 62
7
  6
CONTINUOUS
 70
0
 71
3
 72
28
 73
24
 74
0
 42
0.0000001
 43
0.0000001
 44
0.0000000001
 40
0.0
 40
0.0
 40
0.0
 40
0.0
 40
0.0018398871
 40
0.0037938762
 40
0.0060228257
 40
0.0086367952
 40
0.0152586758
 40
0.0239618562
 40
0.0348505739
 40
0.0479618404
 40
0.0633044319
 40
0.080863355
 40
0.1006092991
 40
0.1225081734
 40
0.1725752512
 40
0.2306235348
 40
0.296112851
 40
0.3684237447
 40
0.44685612
 40
0.5306506165
 40
0.6189904738
 40
0.805791743
 40
1.0
 40
1.0
 40
1.0
 40
1.0
 10
7.3998205592
 20
12.5348518722
 30
0.0
 10
7.3998478775
 20
12.5348753842
 30
0.0
 10
7.399896511
 20
12.534933702
 30
0.0
 10
7.3999395595
 20
12.5350453108
 30
0.0
 10
7.3999544239
 20
12.5351787117
 30
0.0
 10
7.3999370594
 20
12.5354035438
 30
0.0
 10
7.3998372207
 20
12.5357434702
 30
0.0
 10
7.3996260578
 20
12.536212064
 30
0.0
 10
7.3993123283
 20
12.5367714564
 30
0.0
 10
7.3988962442
 20
12.5374204888
 30
0.0
 10
7.3983777342
 20
12.5381580789
 30
0.0
 10
7.3977577876
 20
12.538982468
 30
0.0
 10
7.3970376807
 20
12.539891748
 30
0.0
 10
7.3958938337
 20
12.5412773153
 30
0.0
 10
7.3942221412
 20
12.5431994043
 30
0.0
 10
7.3919306103
 20
12.5457126221
 30
0.0
 10
7.389294159
 20
12.5485001433
 30
0.0
 10
7.3863382961
 20
12.5515344863
 30
0.0
 10
7.3830917675
 20
12.5547857743
 30
0.0
 10
7.3795863907
 20
12.5582219162
 30
0.0
 10
7.3745181934
 20
12.5630959644
 30
0.0
 10
7.3678074691
 20
12.5693818481
 30
0.0
 10
7.3622829684
 20
12.5744012483
 30
0.0
 10
7.3594484497
 20
12.5769389141
 30
0.0
  0
SPLINE
  5
447
100
AcDbEntity
  8
0
100
AcDbSpline
 62
7
  6
CONTINUOUS
 70
0
 71
3
 72
28
 73
24
 74
0
 42
0.0000001
 43
0.0000001
 44
0.0000000001
 40
0.0
 40
0.0
 40
0.0
 40
0.0
 40
0.0020747754
 40
0.0042515807
 40
0.0066770669
 40
0.0094583156
 40
0.0163383486
 40
0.0252249307
 40
0.0362443454
 40
0.0494469019
 40
0.0648496017
 40
0.0824431232
 40
0.1022021759
 40
0.1240956433
 40
0.1741059098
 40
0.2320495885
 40
0.2973998686
 40
0.3695487942
 40
0.4478063562
 40
0.5314220024
 40
0.6195861089
 40
0.8060635789
 40
1.0
 40
1.0
 40
1.0
 40
1.0
 10
7.1084613891
 20
12.8248116328
 30
0.0
 10
7.1084922325
 20
12.8248381783
 30
0.0
 10
7.1085478023
 20
12.8249022287
 30
0.0
 10
7.1086024681
 20
12.8250228626
 30
0.0
 10
7.108629506
 20
12.8251662287
 30
0.0
 10
7.1086300801
 20
12.8254042587
 30
0.0
 10
7.1085536414
 20
12.8257631775
 30
0.0
 10
7.108368999
 20
12.8262557487
 30
0.0
 10
7.1080836555
 20
12.8268399861
 30
0.0
 10
7.1076976069
 20
12.8275148726
 30
0.0
 10
7.1072107675
 20
12.82827942
 30
0.0
 10
7.106623991
 20
12.8291318664
 30
0.0
 10
7.1059384581
 20
12.8300702858
 30
0.0
 10
7.1048450359
 20
12.8314975389
 30
0.0
 10
7.1032380871
 20
12.8334739646
 30
0.0
 10
7.1010245778
 20
12.8360538931
 30
0.0
 10
7.0984689017
 20
12.8389112729
 30
0.0
 10
7.0955955064
 20
12.8420181378
 30
0.0
 10
7.0924320781
 20
12.845344089
 30
0.0
 10
7.089009407
 20
12.8488564465
 30
0.0
 10
7.0840512942
 20
12.853835697
 30
0.0
 10
7.0774699043
 20
12.8602513015
 30
0.0
 10
7.0720381027
 20
12.8653671287
 30
0.0
 10
7.0692475477
 20
12.8679519869
 30
0.0
  0
SPLINE
  5
448
100
AcDbEntity
  8
0
100
AcDbSpline
 62
7
  6
CONTINUOUS
 70
0
 71
3
 72
28
 73
24
 74
0
 42
0.0000001
 43
0.0000001
 44
0.0000000001
 40
0.0
 40
0.0
 40
0.0
 40
0.0
 40
0.002219554
 40
0.0045404067
 40
0.0071000604
 40
0.0100017413
 40
0.0170814888
 40
0.0261227008
 40
0.0372621148
 40
0.0505570702
 40
0.0660290688
 40
0.0836719637
 40
0.1034628132
 40
0.1253722324
 40
0.1753725913
 40
0.2332594559
 40
0.2985155588
 40
0.3705421279
 40
0.4486581697
 40
0.5321216731
 40
0.6201306928
 40
0.8063131025
 40
1.0
 40
1.0
 40
1.0
 40
1.0
 10
6.7884972201
 20
13.1432431551
 30
0.0
 10
6.7885302494
 20
13.1432715812
 30
0.0
 10
6.7885901692
 20
13.143339333
 30
0.0
 10
6.788652098
 20
13.1434657586
 30
0.0
 10
6.7886870252
 20
13.1436155792
 30
0.0
 10
6.7886994755
 20
13.1438624616
 30
0.0
 10
6.7886393496
 20
13.1442344018
 30
0.0
 10
6.7884740567
 20
13.1447443024
 30
0.0
 10
6.7882099741
 20
13.1453471079
 30
0.0
 10
6.7878470262
 20
13.146041886
 30
0.0
 10
6.7873851408
 20
13.1468276723
 30
0.0
 10
6.7868250964
 20
13.1477026959
 30
0.0
 10
6.7861680107
 20
13.148665004
 30
0.0
 10
6.7851169349
 20
13.1501269015
 30
0.0
 10
6.7835659795
 20
13.1521496428
 30
0.0
 10
6.781422034
 20
13.1547880735
 30
0.0
 10
6.7789404927
 20
13.1577081598
 30
0.0
 10
6.7761448481
 20
13.160881539
 30
0.0
 10
6.7730617815
 20
13.1642773869
 30
0.0
 10
6.7697210583
 20
13.1678625426
 30
0.0
 10
6.7648747835
 20
13.1729442221
 30
0.0
 10
6.7584294503
 20
13.179490394
 30
0.0
 10
6.7530994844
 20
13.1847078318
 30
0.0
 10
6.7503584553
 20
13.1873436375
 30
0.0
  0
SPLINE
  5
449
100
AcDbEntity
  8
0
100
AcDbSpline
 62
7
  6
CONTINUOUS
 70
0
 71
3
 72
28
 73
24
 74
0
 42
0.0000001
 43
0.0000001
 44
0.0000000001
 40
0.0
 40
0.0
 40
0.0
 40
0.0
 40
0.0022690144
 40
0.0046466737
 40
0.0072659431
 40
0.0102268492
 40
0.0174181054
 40
0.0265584366
 40
0.0377844479
 40
0.051154101
 40
0.0666893416
 40
0.084384315
 40
0.1042164826
 40
0.126156735
 40
0.1761883328
 40
0.2340688193
 40
0.2992852027
 40
0.3712441974
 40
0.4492712971
 40
0.5326313993
 40
0.6205296289
 40
0.8064940792
 40
1.0
 40
1.0
 40
1.0
 40
1.0
 10
6.4539124786
 20
13.4762298472
 30
0.0
 10
6.4539462618
 20
13.4762589222
 30
0.0
 10
6.4540077437
 20
13.4763280966
 30
0.0
 10
6.4540724365
 20
13.4764568123
 30
0.0
 10
6.4541107253
 20
13.4766094201
 30
0.0
 10
6.4541286941
 20
13.4768606081
 30
0.0
 10
6.4540770254
 20
13.4772393292
 30
0.0
 10
6.4539229317
 20
13.4777591486
 30
0.0
 10
6.4536720159
 20
13.4783734625
 30
0.0
 10
6.4533242077
 20
13.4790813362
 30
0.0
 10
6.4528794548
 20
13.4798817768
 30
0.0
 10
6.4523385126
 20
13.4807729882
 30
0.0
 10
6.4517024656
 20
13.4817529806
 30
0.0
 10
6.450683684
 20
13.4832411861
 30
0.0
 10
6.449177335
 20
13.4853004113
 30
0.0
 10
6.4470912372
 20
13.4879867347
 30
0.0
 10
6.4446736875
 20
13.4909597629
 30
0.0
 10
6.4419473969
 20
13.494190812
 30
0.0
 10
6.4389381738
 20
13.4976487208
 30
0.0
 10
6.4356748393
 20
13.5012999561
 30
0.0
 10
6.4309370688
 20
13.5064764806
 30
0.0
 10
6.4246286377
 20
13.5131476273
 30
0.0
 10
6.4194055564
 20
13.5184666377
 30
0.0
 10
6.4167177161
 20
13.521154478
 30
0.0
  0
SPLINE
  5
44A
100
AcDbEntity
  8
0
100
AcDbSpline
 62
7
  6
CONTINUOUS
 70
0
 71
3
 72
28
 73
24
 74
0
 42
0.0000001
 43
0.0000001
 44
0.0000000001
 40
0.0
 40
0.0
 40
0.0
 40
0.0
 40
0.0022220803
 40
0.0045668351
 40
0.0071668422
 40
0.0101198752
 40
0.0173200164
 40
0.0264887218
 40
0.0377532967
 40
0.0511664587
 40
0.0667467814
 40
0.0844859652
 40
0.1043599602
 40
0.1263384897
 40
0.1764324332
 40
0.2343532466
 40
0.2995864907
 40
0.3715399028
 40
0.4495419828
 40
0.5328619982
 40
0.6207106405
 40
0.806570671
 40
1.0
 40
1.0
 40
1.0
 40
1.0
 10
6.119330277
 20
13.809218725
 30
0.0
 10
6.1193633546
 20
13.8092471933
 30
0.0
 10
6.1194235384
 20
13.809315435
 30
0.0
 10
6.1194864401
 20
13.8094428258
 30
0.0
 10
6.1195234856
 20
13.8095944653
 30
0.0
 10
6.1195405163
 20
13.8098452712
 30
0.0
 10
6.1194891639
 20
13.810224387
 30
0.0
 10
6.1193376169
 20
13.8107463285
 30
0.0
 10
6.1190912329
 20
13.811364623
 30
0.0
 10
6.1187499904
 20
13.8120782564
 30
0.0
 10
6.1183138554
 20
13.812886168
 30
0.0
 10
6.1177836025
 20
13.8137865207
 30
0.0
 10
6.1171603108
 20
13.8147772807
 30
0.0
 10
6.1161623825
 20
13.8162824739
 30
0.0
 10
6.1146872825
 20
13.8183669399
 30
0.0
 10
6.112644738
 20
13.8210886094
 30
0.0
 10
6.1102781254
 20
13.8241026595
 30
0.0
 10
6.1076095949
 20
13.8273801469
 30
0.0
 10
6.1046642716
 20
13.8308896491
 30
0.0
 10
6.1014701782
 20
13.8345973618
 30
0.0
 10
6.0968325608
 20
13.8398568796
 30
0.0
 10
6.0906557375
 20
13.8466414677
 30
0.0
 10
6.0855400523
 20
13.852056922
 30
0.0
 10
6.0829068755
 20
13.8547952172
 30
0.0
  0
SPLINE
  5
44B
100
AcDbEntity
  8
0
100
AcDbSpline
 62
7
  6
CONTINUOUS
 70
0
 71
3
 72
28
 73
24
 74
0
 42
0.0000001
 43
0.0000001
 44
0.0000000001
 40
0.0
 40
0.0
 40
0.0
 40
0.0
 40
0.0020813902
 40
0.0043061636
 40
0.0068103451
 40
0.0096899413
 40
0.0167964881
 40
0.0259196564
 40
0.0371694149
 40
0.0505882797
 40
0.066188236
 40
0.0839562057
 40
0.1038651397
 40
0.1258824675
 40
0.1760578107
 40
0.2340570798
 40
0.2993589799
 40
0.3713679912
 40
0.4494119656
 40
0.5327613647
 40
0.6206300935
 40
0.8065205277
 40
1.0
 40
1.0
 40
1.0
 40
1.0
 10
5.7993732885
 20
14.1276564262
 30
0.0
 10
5.799404238
 20
14.1276830637
 30
0.0
 10
5.7994603199
 20
14.1277480916
 30
0.0
 10
5.7995169427
 20
14.1278705918
 30
0.0
 10
5.7995482255
 20
14.1280175222
 30
0.0
 10
5.79955794
 20
14.1282632274
 30
0.0
 10
5.7994988871
 20
14.1286363136
 30
0.0
 10
5.7993412341
 20
14.129152523
 30
0.0
 10
5.799090657
 20
14.1297671051
 30
0.0
 10
5.798747231
 20
14.1304789103
 30
0.0
 10
5.7983109415
 20
14.1312867783
 30
0.0
 10
5.7977826201
 20
14.1321888249
 30
0.0
 10
5.7971633625
 20
14.1331829711
 30
0.0
 10
5.7961740863
 20
14.1346951503
 30
0.0
 10
5.7947156571
 20
14.1367926126
 30
0.0
 10
5.7927005909
 20
14.1395356444
 30
0.0
 10
5.7903696886
 20
14.1425771492
 30
0.0
 10
5.787744778
 20
14.1458879806
 30
0.0
 10
5.784850524
 20
14.1494365204
 30
0.0
 10
5.7817143474
 20
14.1531887788
 30
0.0
 10
5.7771638655
 20
14.1585159481
 30
0.0
 10
5.7711072653
 20
14.1653973974
 30
0.0
 10
5.7660946744
 20
14.1708995939
 30
0.0
 10
5.763515225
 20
14.1736843096
 30
0.0
  0
LINE
  5
44C
100
AcDbEntity
  8
0
100
AcDbLine
 62
7
  6
CONTINUOUS
 10
7.7325680956
 20
12.1524076875
 11
7.7320201438
 21
12.1528785593
  0
LINE
  5
44D
100
AcDbEntity
  8
0
100
AcDbLine
 62
7
  6
CONTINUOUS
 10
7.7320201438
 20
12.1528785593
 11
7.7303921661
 21
12.1542775312
  0
LINE
  5
44E
100
AcDbEntity
  8
0
100
AcDbLine
 62
7
  6
CONTINUOUS
 10
7.7303921661
 20
12.1542775312
 11
7.6882275711
 21
12.1905113783
  0
SPLINE
  5
44F
100
AcDbEntity
  8
0
100
AcDbSpline
 62
7
  6
CONTINUOUS
 70
0
 71
3
 72
27
 73
23
 74
0
 42
0.0000001
 43
0.0000001
 44
0.0000000001
 40
0.0
 40
0.0
 40
0.0
 40
0.0
 40
0.0018531851
 40
0.0038787423
 40
0.006219543
 40
0.0089689875
 40
0.0158938014
 40
0.0249064858
 40
0.0360926149
 40
0.0494806418
 40
0.0650736367
 40
0.0828521693
 40
0.1027851125
 40
0.1248367858
 40
0.1751014798
 40
0.2332058852
 40
0.2986180112
 40
0.3707355298
 40
0.4488823642
 40
0.6202824849
 40
0.8063400945
 40
1.0
 40
1.0
 40
1.0
 40
1.0
 10
5.508024698
 20
14.417625291
 30
0.0
 10
5.5080521978
 20
14.4176489614
 30
0.0
 10
5.5081015471
 20
14.4177087342
 30
0.0
 10
5.5081475823
 20
14.4178229762
 30
0.0
 10
5.5081688435
 20
14.4179615724
 30
0.0
 10
5.5081651302
 20
14.4181975518
 30
0.0
 10
5.5080908756
 20
14.4185583009
 30
0.0
 10
5.5079189189
 20
14.4190612151
 30
0.0
 10
5.5076557531
 20
14.4196645529
 30
0.0
 10
5.5073016262
 20
14.4203670102
 30
0.0
 10
5.5068565559
 20
14.4211672974
 30
0.0
 10
5.5063214651
 20
14.4220634883
 30
0.0
 10
5.50569749
 20
14.423053464
 30
0.0
 10
5.5047045022
 20
14.4245622935
 30
0.0
 10
5.5032476758
 20
14.4266599473
 30
0.0
 10
5.5012430533
 20
14.4294094723
 30
0.0
 10
5.498931254
 20
14.4324637568
 30
0.0
 10
5.4963340505
 20
14.435793546
 30
0.0
 10
5.4924000496
 20
14.4407118241
 30
0.0
 10
5.4869652112
 20
14.4472855015
 30
0.0
 10
5.4799499528
 20
14.4554848383
 30
0.0
 10
5.475031291
 20
14.4610602175
 30
0.0
 10
5.4725021522
 20
14.4638852116
 30
0.0
  0
SPLINE
  5
450
100
AcDbEntity
  8
0
100
AcDbSpline
 62
9
  6
CONTINUOUS
 70
0
 71
3
 72
61
 73
57
 74
0
 42
0.0000001
 43
0.0000001
 44
0.0000000001
 40
0.0
 40
0.0
 40
0.0
 40
0.0
 40
0.0331101067
 40
0.0673340446
 40
0.1024825094
 40
0.1384000269
 40
0.2120152471
 40
0.2872756553
 40
0.3634499488
 40
0.4398987219
 40
0.5160121036
 40
0.5911526672
 40
0.6281364882
 40
0.6645931457
 40
0.7004054752
 40
0.7354376019
 40
0.7695332305
 40
0.8025092024
 40
0.8341478626
 40
0.8641914217
 40
0.8785216049
 40
0.8923337572
 40
0.9055813842
 40
0.9182129382
 40
0.9301745377
 40
0.9414073174
 40
0.9518503412
 40
0.9614392379
 40
0.9701086467
 40
0.9740778787
 40
0.9777925034
 40
0.9812447201
 40
0.9844268509
 40
0.9873312526
 40
0.9899509149
 40
0.9922793831
 40
0.9943102326
 40
0.9952122438
 40
0.9960379695
 40
0.9967869414
 40
0.9974586913
 40
0.9980527508
 40
0.9985686521
 40
0.9990059539
 40
0.9993642666
 40
0.999513682
 40
0.9996432061
 40
0.9997527909
 40
0.9998423885
 40
0.9999119512
 40
0.9999392047
 40
0.9999614318
 40
0.999978627
 40
0.9999907851
 40
0.9999979032
 40
1.0
 40
1.0
 40
1.0
 40
1.0
 10
8.2668525813
 20
15.7965994617
 30
0.0
 10
8.2788197977
 20
15.7967542542
 30
0.0
 10
8.3031568718
 20
15.7970642666
 30
0.0
 10
8.3401978392
 20
15.7975433869
 30
0.0
 10
8.3782533695
 20
15.7980462609
 30
0.0
 10
8.4305462045
 20
15.7987454434
 30
0.0
 10
8.4973365897
 20
15.7996612389
 30
0.0
 10
8.5786765532
 20
15.8008165813
 30
0.0
 10
8.6610399777
 20
15.8020329592
 30
0.0
 10
8.7437108925
 20
15.8033068829
 30
0.0
 10
8.8260072423
 20
15.804635355
 30
0.0
 10
8.8940392203
 20
15.8057907473
 30
0.0
 10
8.9477379703
 20
15.8067420035
 30
0.0
 10
8.987222713
 20
15.8074620937
 30
0.0
 10
9.0260016953
 20
15.8081911587
 30
0.0
 10
9.0639269559
 20
15.8089271208
 30
0.0
 10
9.1008266863
 20
15.8096671772
 30
0.0
 10
9.1364995284
 20
15.8104075577
 30
0.0
 10
9.170707456
 20
15.8111430981
 30
0.0
 10
9.1981766228
 20
15.8117555459
 30
0.0
 10
9.2192033866
 20
15.8122377755
 30
0.0
 10
9.23416042
 20
15.8125871911
 30
0.0
 10
9.2485034744
 20
15.8129285313
 30
0.0
 10
9.2621776603
 20
15.8132599398
 30
0.0
 10
9.2751236181
 20
15.8135794515
 30
0.0
 10
9.287278603
 20
15.8138847426
 30
0.0
 10
9.29857608
 20
15.8141733914
 30
0.0
 10
9.3089471727
 20
15.8144427248
 30
0.0
 10
9.3169789053
 20
15.814654572
 30
0.0
 10
9.3228879746
 20
15.814812114
 30
0.0
 10
9.3269118512
 20
15.8149200971
 30
0.0
 10
9.3306513017
 20
15.8150210918
 30
0.0
 10
9.3340979739
 20
15.815114765
 30
0.0
 10
9.3372438012
 20
15.8152008112
 30
0.0
 10
9.340081161
 20
15.815278852
 30
0.0
 10
9.3426028727
 20
15.8153484638
 30
0.0
 10
9.3445039456
 20
15.815400969
 30
0.0
 10
9.3458620346
 20
15.8154384364
 30
0.0
 10
9.3467569419
 20
15.8154631659
 30
0.0
 10
9.3475686468
 20
15.8154856798
 30
0.0
 10
9.3482966404
 20
15.8155060094
 30
0.0
 10
9.3489404141
 20
15.8155241791
 30
0.0
 10
9.3494994683
 20
15.8155402288
 30
0.0
 10
9.3499733346
 20
15.815554146
 30
0.0
 10
9.3503147791
 20
15.815564308
 30
0.0
 10
9.3505450259
 20
15.8155711495
 30
0.0
 10
9.3506853976
 20
15.8155752845
 30
0.0
 10
9.3508041825
 20
15.815578724
 30
0.0
 10
9.3509012377
 20
15.8155814234
 30
0.0
 10
9.3509687108
 20
15.8155832009
 30
0.0
 10
9.3510115571
 20
15.8155841584
 30
0.0
 10
9.3510360131
 20
15.8155847062
 30
0.0
 10
9.3510537348
 20
15.8155848215
 30
0.0
 10
9.3510689699
 20
15.8155852906
 30
0.0
 10
9.3510732191
 20
15.8155845738
 30
0.0
 10
9.3510799054
 20
15.8155850074
 30
0.0
 10
9.3510793581
 20
15.8155844831
 30
0.0
  0
SPLINE
  5
451
100
AcDbEntity
  8
0
100
AcDbSpline
 62
7
  6
CONTINUOUS
 70
0
 71
3
 72
16
 73
12
 74
0
 42
0.0000001
 43
0.0000001
 44
0.0000000001
 40
0.0
 40
0.0
 40
0.0
 40
0.0
 40
0.0476703053
 40
0.0760370179
 40
0.1090855655
 40
0.1919664582
 40
0.299874155
 40
0.4342220952
 40
0.5955824804
 40
0.7841619718
 40
1.0
 40
1.0
 40
1.0
 40
1.0
 10
6.4079118197
 20
13.4302345968
 30
0.0
 10
6.4079433572
 20
13.4302617505
 30
0.0
 10
6.4079782749
 20
13.4303236702
 30
0.0
 10
6.40799247
 20
13.4304179949
 30
0.0
 10
6.4079899003
 20
13.4305445462
 30
0.0
 10
6.4079464441
 20
13.4307365216
 30
0.0
 10
6.4078471434
 20
13.4310027419
 30
0.0
 10
6.407695377
 20
13.4313211601
 30
0.0
 10
6.4074912781
 20
13.4316915763
 30
0.0
 10
6.4072346371
 20
13.4321137346
 30
0.0
 10
6.407041618
 20
13.4324094217
 30
0.0
 10
6.4069367663
 20
13.4325659827
 30
0.0
  0
SPLINE
  5
452
100
AcDbEntity
  8
0
100
AcDbSpline
 62
7
  6
CONTINUOUS
 70
0
 71
3
 72
27
 73
23
 74
0
 42
0.0000001
 43
0.0000001
 44
0.0000000001
 40
0.0
 40
0.0
 40
0.0
 40
0.0
 40
0.0015474089
 40
0.0033087091
 40
0.0054354624
 40
0.0080147599
 40
0.0146977089
 40
0.0235547715
 40
0.0346417101
 40
0.0479704343
 40
0.0635339183
 40
0.0813058588
 40
0.1012505156
 40
0.1233287259
 40
0.173679999
 40
0.2319020684
 40
0.297450457
 40
0.3697138361
 40
0.448009896
 40
0.6197043909
 40
0.8060467628
 40
1.0
 40
1.0
 40
1.0
 40
1.0
 10
5.2580171541
 20
14.6664516998
 30
0.0
 10
5.2580400504
 20
14.6664714096
 30
0.0
 10
5.2580802847
 20
14.6665243361
 30
0.0
 10
5.2581116585
 20
14.6666272172
 30
0.0
 10
5.2581191283
 20
14.6667540306
 30
0.0
 10
5.258096362
 20
14.6669758492
 30
0.0
 10
5.2580003439
 20
14.6673182858
 30
0.0
 10
5.2578067265
 20
14.6678009951
 30
0.0
 10
5.2575232952
 20
14.6683860372
 30
0.0
 10
5.257150566
 20
14.6690719994
 30
0.0
 10
5.2566886296
 20
14.6698574339
 30
0.0
 10
5.2561385256
 20
14.6707403958
 30
0.0
 10
5.2555014586
 20
14.6717187412
 30
0.0
 10
5.2544928227
 20
14.6732138808
 30
0.0
 10
5.2530227759
 20
14.6752987962
 30
0.0
 10
5.2510114296
 20
14.6780396029
 30
0.0
 10
5.2487015811
 20
14.6810914559
 30
0.0
 10
5.2461151306
 20
14.6844250531
 30
0.0
 10
5.2422083158
 20
14.6893567937
 30
0.0
 10
5.2368296942
 20
14.6959634479
 30
0.0
 10
5.2299098826
 20
14.7042256271
 30
0.0
 10
5.2250716475
 20
14.7098578811
 30
0.0
 10
5.2225869711
 20
14.7127153976
 30
0.0
  0
SPLINE
  5
453
100
AcDbEntity
  8
0
100
AcDbSpline
 62
7
  6
CONTINUOUS
 70
0
 71
3
 72
31
 73
27
 74
0
 42
0.0000001
 43
0.0000001
 44
0.0000000001
 40
0.0
 40
0.0
 40
0.0
 40
0.0
 40
0.0005315169
 40
0.0009498286
 40
0.001499125
 40
0.0030187007
 40
0.0051197604
 40
0.0078109971
 40
0.0110958457
 40
0.0194485548
 40
0.0301657858
 40
0.0432246148
 40
0.0585990965
 40
0.0762516723
 40
0.0961374465
 40
0.1182108311
 40
0.1686978305
 40
0.2272172854
 40
0.2931930364
 40
0.3659806626
 40
0.4448640601
 40
0.5290745646
 40
0.6177922487
 40
0.7101451024
 40
0.8052443341
 40
1.0
 40
1.0
 40
1.0
 40
1.0
 10
7.6881201227
 20
12.1966419554
 30
0.0
 10
7.688127965
 20
12.1966487085
 30
0.0
 10
7.6881302474
 20
12.1966708647
 30
0.0
 10
7.6881217246
 20
12.19669803
 30
0.0
 10
7.6881019825
 20
12.196742745
 30
0.0
 10
7.6880584089
 20
12.1968113133
 30
0.0
 10
7.6879853761
 20
12.1969102704
 30
0.0
 10
7.6878857871
 20
12.1970320334
 30
0.0
 10
7.6877026583
 20
12.1972425564
 30
0.0
 10
7.6874058596
 20
12.1975610779
 30
0.0
 10
7.6869689711
 20
12.1980088536
 30
0.0
 10
7.6864280327
 20
12.1985460068
 30
0.0
 10
7.6857843406
 20
12.1991712275
 30
0.0
 10
7.6850393595
 20
12.1998828998
 30
0.0
 10
7.6841949238
 20
12.2006792513
 30
0.0
 10
7.6828789522
 20
12.2019073927
 30
0.0
 10
7.6810015937
 20
12.2036364692
 30
0.0
 10
7.678481675
 20
12.2059295798
 30
0.0
 10
7.6756285684
 20
12.2085016424
 30
0.0
 10
7.6724702855
 20
12.2113273071
 30
0.0
 10
7.6690377245
 20
12.2143788612
 30
0.0
 10
7.66536443
 20
12.2176264372
 30
0.0
 10
7.6614863013
 20
12.2210382583
 30
0.0
 10
7.6574410976
 20
12.2245811283
 30
0.0
 10
7.6518325012
 20
12.2294726435
 30
0.0
 10
7.6475680777
 20
12.2331695589
 30
0.0
 10
7.6446981174
 20
12.2356481363
 30
0.0
  0
SPLINE
  5
454
100
AcDbEntity
  8
0
100
AcDbSpline
 62
7
  6
CONTINUOUS
 70
0
 71
3
 72
28
 73
24
 74
0
 42
0.0000001
 43
0.0000001
 44
0.0000000001
 40
0.0
 40
0.0
 40
0.0
 40
0.0
 40
0.0011786564
 40
0.0026348989
 40
0.0045245635
 40
0.006919424
 40
0.0098536677
 40
0.0133450426
 40
0.0220305037
 40
0.03300306
 40
0.046257868
 40
0.0617781273
 40
0.0795311252
 40
0.1215717693
 40
0.1719983045
 40
0.2303359165
 40
0.2960279168
 40
0.3684534235
 40
0.4469228882
 40
0.5306947101
 40
0.61897786
 40
0.8056805928
 40
1.0
 40
1.0
 40
1.0
 40
1.0
 10
5.0602764081
 20
14.8632600747
 30
0.0
 10
5.0602937879
 20
14.8632750373
 30
0.0
 10
5.0603226589
 20
14.8633203247
 30
0.0
 10
5.060335552
 20
14.863408769
 30
0.0
 10
5.0603263567
 20
14.8635205847
 30
0.0
 10
5.0602950232
 20
14.8636578244
 30
0.0
 10
5.0602416358
 20
14.8638210877
 30
0.0
 10
5.0601323478
 20
14.8640941993
 30
0.0
 10
5.0599349308
 20
14.8644995682
 30
0.0
 10
5.0596249318
 20
14.8650600595
 30
0.0
 10
5.0592265115
 20
14.8657230737
 30
0.0
 10
5.05874055
 20
14.866486966
 30
0.0
 10
5.0579301724
 20
14.8677079829
 30
0.0
 10
5.0567028601
 20
14.8694669506
 30
0.0
 10
5.0549777374
 20
14.8718406148
 30
0.0
 10
5.0529430121
 20
14.874557718
 30
0.0
 10
5.0506181934
 20
14.8775919995
 30
0.0
 10
5.0480253115
 20
14.8809141351
 30
0.0
 10
5.0451890444
 20
14.8844923791
 30
0.0
 10
5.042136311
 20
14.8882926203
 30
0.0
 10
5.0377331397
 20
14.8937091361
 30
0.0
 10
5.0319164668
 20
14.9007483704
 30
0.0
 10
5.0271411786
 20
14.9064193457
 30
0.0
 10
5.0246929129
 20
14.9093005329
 30
0.0
  0
LINE
  5
455
100
AcDbEntity
  8
0
100
AcDbLine
 62
7
  6
CONTINUOUS
 10
7.5444130603
 20
12.3402531124
 11
7.5435082578
 21
12.341100738
  0
SPLINE
  5
456
100
AcDbEntity
  8
0
100
AcDbSpline
 62
7
  6
CONTINUOUS
 70
0
 71
3
 72
10
 73
6
 74
0
 42
0.0000001
 43
0.0000001
 44
0.0000000001
 40
0.0
 40
0.0
 40
0.0
 40
0.0
 40
0.2218337513
 40
0.4676471516
 40
1.0
 40
1.0
 40
1.0
 40
1.0
 10
7.5435082578
 20
12.341100738
 30
0.0
 10
7.5414693338
 20
12.3430072691
 30
0.0
 10
7.5371471793
 20
12.347000886
 30
0.0
 10
7.5278310629
 20
12.3554598883
 30
0.0
 10
7.5205082082
 20
12.3619612222
 30
0.0
 10
7.5154710767
 20
12.3663772753
 30
0.0
  0
SPLINE
  5
457
100
AcDbEntity
  8
0
100
AcDbSpline
 62
7
  6
CONTINUOUS
 70
0
 71
3
 72
16
 73
12
 74
0
 42
0.0000001
 43
0.0000001
 44
0.0000000001
 40
0.0
 40
0.0
 40
0.0
 40
0.0
 40
0.0408555895
 40
0.0667896623
 40
0.0980933749
 40
0.1792099543
 40
0.2870981011
 40
0.422788892
 40
0.5867356298
 40
0.7791386469
 40
1.0
 40
1.0
 40
1.0
 40
1.0
 10
6.3932094307
 20
13.4151171079
 30
0.0
 10
6.393228322
 20
13.415133341
 30
0.0
 10
6.3932468629
 20
13.4151739245
 30
0.0
 10
6.3932491486
 20
13.4152336047
 30
0.0
 10
6.3932386913
 20
13.4153177352
 30
0.0
 10
6.3931970808
 20
13.4154462454
 30
0.0
 10
6.3931149801
 20
13.4156264987
 30
0.0
 10
6.3929952709
 20
13.415844437
 30
0.0
 10
6.3928380856
 20
13.416100003
 30
0.0
 10
6.3926431557
 20
13.416393051
 30
0.0
 10
6.3924980913
 20
13.4165990754
 30
0.0
 10
6.3924195125
 20
13.4167084172
 30
0.0
  0
LINE
  5
458
100
AcDbEntity
  8
0
100
AcDbLine
 62
7
  6
CONTINUOUS
 10
6.9536718709
 20
12.8563679878
 11
6.9529006789
 21
12.8570874668
  0
SPLINE
  5
459
100
AcDbEntity
  8
0
100
AcDbSpline
 62
7
  6
CONTINUOUS
 70
0
 71
3
 72
31
 73
27
 74
0
 42
0.0000001
 43
0.0000001
 44
0.0000000001
 40
0.0
 40
0.0
 40
0.0
 40
0.0
 40
0.1947560661
 40
0.2898553722
 40
0.3822082042
 40
0.470925843
 40
0.5551362619
 40
0.634019585
 40
0.70680716
 40
0.7727828733
 40
0.8313022838
 40
0.8817892535
 40
0.9038626132
 40
0.9237483808
 40
0.9414009505
 40
0.9567754069
 40
0.9698342299
 40
0.9805514622
 40
0.9889041484
 40
0.9921889887
 40
0.9948802277
 40
0.9969812948
 40
0.9985008775
 40
0.9990501757
 40
0.9994684872
 40
1.0
 40
1.0
 40
1.0
 40
1.0
 10
5.1312113744
 20
14.7491348793
 30
0.0
 10
5.1287327919
 20
14.7520048455
 30
0.0
 10
5.1250358704
 20
14.756269276
 30
0.0
 10
5.1201443493
 20
14.7618778791
 30
0.0
 10
5.1166014791
 20
14.7659230828
 30
0.0
 10
5.1131896599
 20
14.7698012094
 30
0.0
 10
5.1099420865
 20
14.7734745008
 30
0.0
 10
5.1068905351
 20
14.7769070587
 30
0.0
 10
5.1040648724
 20
14.7800653393
 30
0.0
 10
5.1014928116
 20
14.7829184439
 30
0.0
 10
5.0991997024
 20
14.785438361
 30
0.0
 10
5.0974706271
 20
14.7873157181
 30
0.0
 10
5.0962424865
 20
14.7886316888
 30
0.0
 10
5.0954461354
 20
14.7894761239
 30
0.0
 10
5.0947344637
 20
14.7902211045
 30
0.0
 10
5.0941092434
 20
14.790864796
 30
0.0
 10
5.0935720907
 20
14.791405734
 30
0.0
 10
5.0931243154
 20
14.7918426222
 30
0.0
 10
5.0928057942
 20
14.7921394205
 30
0.0
 10
5.0925952716
 20
14.7923225488
 30
0.0
 10
5.0924735086
 20
14.7924221378
 30
0.0
 10
5.0923745513
 20
14.7924951709
 30
0.0
 10
5.0923059828
 20
14.7925387448
 30
0.0
 10
5.0922612676
 20
14.792558487
 30
0.0
 10
5.0922341024
 20
14.7925670099
 30
0.0
 10
5.0922119462
 20
14.7925647272
 30
0.0
 10
5.0922051934
 20
14.7925568847
 30
0.0
  0
LINE
  5
45A
100
AcDbEntity
  8
0
100
AcDbLine
 62
7
  6
CONTINUOUS
 10
5.0891945846
 20
14.7890337412
 11
5.0887408643
 21
14.7895617182
  0
LINE
  5
45B
100
AcDbEntity
  8
0
100
AcDbLine
 62
7
  6
CONTINUOUS
 10
5.0887408643
 20
14.7895617182
 11
5.0860746163
 21
14.792664333
  0
LINE
  5
45C
100
AcDbEntity
  8
0
100
AcDbLine
 62
7
  6
CONTINUOUS
 10
5.0860746163
 20
14.792664333
 11
5.0479709256
 21
14.8370048575
  0
SPLINE
  5
45D
100
AcDbEntity
  8
0
100
AcDbSpline
 62
7
  6
CONTINUOUS
 70
0
 71
3
 72
13
 73
9
 74
0
 42
0.0000001
 43
0.0000001
 44
0.0000000001
 40
0.0
 40
0.0
 40
0.0
 40
0.0
 40
0.0758747607
 40
0.1569621035
 40
0.2498786311
 40
0.3590915343
 40
0.6360315301
 40
1.0
 40
1.0
 40
1.0
 40
1.0
 10
7.08034886
 20
12.8014994919
 30
0.0
 10
7.0803695656
 20
12.8015173164
 30
0.0
 10
7.0804064375
 20
12.8015617786
 30
0.0
 10
7.0804390364
 20
12.8016469585
 30
0.0
 10
7.0804505021
 20
12.801749093
 30
0.0
 10
7.0804379232
 20
12.8019218078
 30
0.0
 10
7.0803635409
 20
12.8021836554
 30
0.0
 10
7.0802711722
 20
12.802395358
 30
0.0
 10
7.0802142337
 20
12.8025134009
 30
0.0
  0
SPLINE
  5
45E
100
AcDbEntity
  8
0
100
AcDbSpline
 62
7
  6
CONTINUOUS
 70
0
 71
3
 72
17
 73
13
 74
0
 42
0.0000001
 43
0.0000001
 44
0.0000000001
 40
0.0
 40
0.0
 40
0.0
 40
0.0
 40
0.2164860098
 40
0.4060185177
 40
0.568329515
 40
0.7034453755
 40
0.8117210829
 40
0.8942312145
 40
0.9267224065
 40
0.9542450756
 40
0.9780396288
 40
1.0
 40
1.0
 40
1.0
 40
1.0
 10
6.3506606276
 20
13.5305398186
 30
0.0
 10
6.350358308
 20
13.5307507998
 30
0.0
 10
6.34978681
 20
13.5311401282
 30
0.0
 10
6.3489705028
 20
13.5316604527
 30
0.0
 10
6.3482535351
 20
13.5320776
 30
0.0
 10
6.3476373116
 20
13.5323915051
 30
0.0
 10
6.3471232678
 20
13.5326018534
 30
0.0
 10
6.3467531465
 20
13.532700123
 30
0.0
 10
6.3465100709
 20
13.5327156946
 30
0.0
 10
6.3463672422
 20
13.5326994279
 30
0.0
 10
6.3462489107
 20
13.5326549087
 30
0.0
 10
6.346187268
 20
13.5326044213
 30
0.0
 10
6.3461628704
 20
13.532576079
 30
0.0
  0
SPLINE
  5
45F
100
AcDbEntity
  8
0
100
AcDbSpline
 62
7
  6
CONTINUOUS
 70
0
 71
3
 72
18
 73
14
 74
0
 42
0.0000001
 43
0.0000001
 44
0.0000000001
 40
0.0
 40
0.0
 40
0.0
 40
0.0
 40
0.2199126641
 40
0.4124229828
 40
0.5770576388
 40
0.7135495948
 40
0.8220228562
 40
0.8659599767
 40
0.9032634766
 40
0.9343185361
 40
0.9598120844
 40
0.9809937177
 40
1.0
 40
1.0
 40
1.0
 40
1.0
 10
6.015758025
 20
13.8671299935
 30
0.0
 10
6.0153777197
 20
13.8674248157
 30
0.0
 10
6.0146590511
 20
13.8679707925
 30
0.0
 10
6.013633658
 20
13.8687079026
 30
0.0
 10
6.0127349035
 20
13.86930768
 30
0.0
 10
6.0119656899
 20
13.8697682821
 30
0.0
 10
6.0114006878
 20
13.8700544479
 30
0.0
 10
6.0110136256
 20
13.8702054485
 30
0.0
 10
6.0107775614
 20
13.8702750646
 30
0.0
 10
6.0105744299
 20
13.8703095361
 30
0.0
 10
6.010403119
 20
13.8703085224
 30
0.0
 10
6.0102622159
 20
13.8702698433
 30
0.0
 10
6.0101900078
 20
13.8702148966
 30
0.0
 10
6.0101628763
 20
13.8701833773
 30
0.0
  0
SPLINE
  5
460
100
AcDbEntity
  8
0
100
AcDbSpline
 62
7
  6
CONTINUOUS
 70
0
 71
3
 72
13
 73
9
 74
0
 42
0.0000001
 43
0.0000001
 44
0.0000000001
 40
0.0
 40
0.0
 40
0.0
 40
0.0
 40
0.3640773844
 40
0.6410614419
 40
0.7502666835
 40
0.8431532293
 40
0.9241894069
 40
1.0
 40
1.0
 40
1.0
 40
1.0
 10
5.6980787967
 20
14.1846499553
 30
0.0
 10
5.6979604848
 20
14.1847070946
 30
0.0
 10
5.6977483122
 20
14.1847998003
 30
0.0
 10
5.6974858868
 20
14.1848745369
 30
0.0
 10
5.6973127976
 20
14.1848872779
 30
0.0
 10
5.6972104598
 20
14.1848758714
 30
0.0
 10
5.6971251173
 20
14.1848432747
 30
0.0
 10
5.6970805778
 20
14.1848063568
 30
0.0
 10
5.6970627294
 20
14.1847856225
 30
0.0
  0
SPLINE
  5
461
100
AcDbEntity
  8
0
100
AcDbSpline
 62
7
  6
CONTINUOUS
 70
0
 71
3
 72
10
 73
6
 74
0
 42
0.0000001
 43
0.0000001
 44
0.0000000001
 40
0.0
 40
0.0
 40
0.0
 40
0.0
 40
0.5323533305
 40
0.7781666479
 40
1.0
 40
1.0
 40
1.0
 40
1.0
 10
5.2619405134
 20
14.6199078387
 30
0.0
 10
5.2575244331
 20
14.6249450011
 30
0.0
 10
5.2510230615
 20
14.6322678976
 30
0.0
 10
5.2425640139
 20
14.6415840619
 30
0.0
 10
5.2385703791
 20
14.6459062336
 30
0.0
 10
5.2366638409
 20
14.6479451643
 30
0.0
  0
LINE
  5
462
100
AcDbEntity
  8
0
100
AcDbLine
 62
7
  6
CONTINUOUS
 10
5.2366638409
 20
14.6479451643
 11
5.2358169203
 21
14.6488492152
  0
SPLINE
  5
463
100
AcDbEntity
  8
0
100
AcDbSpline
 62
7
  6
CONTINUOUS
 70
0
 71
3
 72
32
 73
28
 74
0
 42
0.0000001
 43
0.0000001
 44
0.0000000001
 40
0.0
 40
0.0
 40
0.0
 40
0.0
 40
0.1948348195
 40
0.2899549805
 40
0.3823174524
 40
0.4710348795
 40
0.5552383372
 40
0.6341114747
 40
0.7068898516
 40
0.7728615439
 40
0.8313859733
 40
0.857672456
 40
0.8818901571
 40
0.9039771038
 40
0.9238798917
 40
0.9415526007
 40
0.9569497601
 40
0.970032901
 40
0.9807742045
 40
0.9852584077
 40
0.9891473483
 40
0.992438758
 40
0.9951320252
 40
0.9972272293
 40
0.9987258707
 40
0.9996346099
 40
1.0
 40
1.0
 40
1.0
 40
1.0
 10
5.3853943377
 20
14.4535782573
 30
0.0
 10
5.3828700217
 20
14.456408089
 30
0.0
 10
5.3791092324
 20
14.4606158352
 30
0.0
 10
5.3741419979
 20
14.466156321
 30
0.0
 10
5.3705492018
 20
14.4701551248
 30
0.0
 10
5.3670940179
 20
14.4739919272
 30
0.0
 10
5.3638099539
 20
14.4776295108
 30
0.0
 10
5.3607289772
 20
14.4810324888
 30
0.0
 10
5.3578810638
 20
14.4841677915
 30
0.0
 10
5.3552939316
 20
14.4870049149
 30
0.0
 10
5.3533113492
 20
14.4891686948
 30
0.0
 10
5.3518739743
 20
14.4907297981
 30
0.0
 10
5.3509150529
 20
14.4917674096
 30
0.0
 10
5.3500383869
 20
14.4927118537
 30
0.0
 10
5.3492461227
 20
14.4935608305
 30
0.0
 10
5.3485402077
 20
14.494312286
 30
0.0
 10
5.347922399
 20
14.4949643925
 30
0.0
 10
5.3473942303
 20
14.495515553
 30
0.0
 10
5.3470098602
 20
14.4959103585
 30
0.0
 10
5.3467477581
 20
14.4961743365
 30
0.0
 10
5.3465863754
 20
14.4963341381
 30
0.0
 10
5.3464485634
 20
14.4964677367
 30
0.0
 10
5.3463332446
 20
14.4965756459
 30
0.0
 10
5.346243633
 20
14.4966564644
 30
0.0
 10
5.3461722631
 20
14.4967139041
 30
0.0
 10
5.346134565
 20
14.4967417202
 30
0.0
 10
5.3461037234
 20
14.4967550556
 30
0.0
 10
5.3460990812
 20
14.496749668
 30
0.0
  0
SPLINE
  5
464
100
AcDbEntity
  8
0
100
AcDbSpline
 62
7
  6
CONTINUOUS
 70
0
 71
3
 72
16
 73
12
 74
0
 42
0.0000001
 43
0.0000001
 44
0.0000000001
 40
0.0
 40
0.0
 40
0.0
 40
0.0
 40
0.2158380345
 40
0.4044176355
 40
0.5657782142
 40
0.7001264061
 40
0.8080341901
 40
0.8909149301
 40
0.9239633493
 40
0.9523299228
 40
1.0
 40
1.0
 40
1.0
 40
1.0
 10
6.3281292352
 20
13.5113735185
 30
0.0
 10
6.3279726731
 20
13.511478371
 30
0.0
 10
6.3276769841
 20
13.5116713916
 30
0.0
 10
6.3272548228
 20
13.5119280348
 30
0.0
 10
6.3268844038
 20
13.5121321357
 30
0.0
 10
6.3265659833
 20
13.5122839039
 30
0.0
 10
6.3262997613
 20
13.512383206
 30
0.0
 10
6.3261077849
 20
13.5124266628
 30
0.0
 10
6.325981233
 20
13.5124292326
 30
0.0
 10
6.3258869082
 20
13.5124150375
 30
0.0
 10
6.3258249884
 20
13.5123801194
 30
0.0
 10
6.3257978348
 20
13.5123485817
 30
0.0
  0
SPLINE
  5
465
100
AcDbEntity
  8
0
100
AcDbSpline
 62
7
  6
CONTINUOUS
 70
0
 71
3
 72
19
 73
15
 74
0
 42
0.0000001
 43
0.0000001
 44
0.0000000001
 40
0.0
 40
0.0
 40
0.0
 40
0.0
 40
0.2249874789
 40
0.4220697629
 40
0.5904878389
 40
0.7296078308
 40
0.7880575918
 40
0.8390818787
 40
0.8826996316
 40
0.9189773609
 40
0.9480903947
 40
0.9704456792
 40
0.9869829817
 40
1.0
 40
1.0
 40
1.0
 40
1.0
 10
5.9922755581
 20
13.8495621217
 30
0.0
 10
5.9918033324
 20
13.8499705602
 30
0.0
 10
5.9909124468
 20
13.8507310318
 30
0.0
 10
5.9896475319
 20
13.8517729196
 30
0.0
 10
5.9885461008
 20
13.8526379065
 30
0.0
 10
5.9877273991
 20
13.8532395167
 30
0.0
 10
5.9871557502
 20
13.8536258617
 30
0.0
 10
5.9867960732
 20
13.8538521306
 30
0.0
 10
5.9864803263
 20
13.8540321997
 30
0.0
 10
5.9862087976
 20
13.8541659893
 30
0.0
 10
5.9859811653
 20
13.8542541893
 30
0.0
 10
5.9857966447
 20
13.854296688
 30
0.0
 10
5.9856496131
 20
13.8542954013
 30
0.0
 10
5.9855734594
 20
13.8542523656
 30
0.0
 10
5.9855498872
 20
13.8542249935
 30
0.0
  0
LINE
  5
466
100
AcDbEntity
  8
0
100
AcDbLine
 62
9
  6
CONTINUOUS
 10
5.7645475151
 20
14.0691087402
 11
5.9823254878
 21
13.8513372115
  0
LINE
  5
467
100
AcDbEntity
  8
0
100
AcDbLine
 62
9
  6
CONTINUOUS
 10
5.9823254878
 20
13.8513372115
 11
5.9825528359
 21
13.8511099702
  0
LINE
  5
468
100
AcDbEntity
  8
0
100
AcDbLine
 62
7
  6
CONTINUOUS
 10
5.4070899164
 20
14.4291050634
 11
5.4061881998
 21
14.4301295119
  0
LINE
  5
469
100
AcDbEntity
  8
0
100
AcDbLine
 62
7
  6
CONTINUOUS
 10
5.6589802428
 20
14.1493462958
 11
5.6192550149
 21
14.1923998449
  0
SPLINE
  5
46A
100
AcDbEntity
  8
0
100
AcDbSpline
 62
7
  6
CONTINUOUS
 70
0
 71
3
 72
16
 73
12
 74
0
 42
0.0000001
 43
0.0000001
 44
0.0000000001
 40
0.0
 40
0.0
 40
0.0
 40
0.0
 40
0.2208607829
 40
0.4132633646
 40
0.5772096694
 40
0.7129000676
 40
0.820787979
 40
0.9019046379
 40
0.9332085816
 40
0.9591430568
 40
1.0
 40
1.0
 40
1.0
 40
1.0
 10
6.3122715326
 20
13.4968563624
 30
0.0
 10
6.3121621995
 20
13.4969349338
 30
0.0
 10
6.3119561916
 20
13.4970799842
 30
0.0
 10
6.3116631667
 20
13.497274895
 30
0.0
 10
6.3114076209
 20
13.4974320644
 30
0.0
 10
6.3111896997
 20
13.4975517608
 30
0.0
 10
6.3110094603
 20
13.4976338519
 30
0.0
 10
6.3108809598
 20
13.4976754564
 30
0.0
 10
6.3107968355
 20
13.4976859108
 30
0.0
 10
6.3107371591
 20
13.4976836236
 30
0.0
 10
6.3106965785
 20
13.4976650827
 30
0.0
 10
6.3106803463
 20
13.4976461923
 30
0.0
  0
SPLINE
  5
46B
100
AcDbEntity
  8
0
100
AcDbSpline
 62
7
  6
CONTINUOUS
 70
0
 71
3
 72
22
 73
18
 74
0
 42
0.0000001
 43
0.0000001
 44
0.0000000001
 40
0.0
 40
0.0
 40
0.0
 40
0.0
 40
0.2275964518
 40
0.4272437777
 40
0.5979101795
 40
0.7387826272
 40
0.7978220847
 40
0.8491889848
 40
0.8928506059
 40
0.928792577
 40
0.9570423584
 40
0.9683266058
 40
0.9777635395
 40
0.9854238027
 40
0.9914427487
 40
0.9961034053
 40
1.0
 40
1.0
 40
1.0
 40
1.0
 10
5.9723010551
 20
13.8389937298
 30
0.0
 10
5.9717707711
 20
13.8394897408
 30
0.0
 10
5.9707716599
 20
13.8404169516
 30
0.0
 10
5.969359872
 20
13.8416997957
 30
0.0
 10
5.9681376363
 20
13.8427795976
 30
0.0
 10
5.9672367205
 20
13.8435453816
 30
0.0
 10
5.9666137481
 20
13.8440499894
 30
0.0
 10
5.9662257122
 20
13.8443517514
 30
0.0
 10
5.9658891903
 20
13.8445995609
 30
0.0
 10
5.9656046312
 20
13.8447931256
 30
0.0
 10
5.9653981681
 20
13.8449175825
 30
0.0
 10
5.9652584288
 20
13.844987653
 30
0.0
 10
5.9651747767
 20
13.8450225455
 30
0.0
 10
5.9651040245
 20
13.8450440505
 30
0.0
 10
5.9650457751
 20
13.8450521931
 30
0.0
 10
5.9649986554
 20
13.8450467041
 30
0.0
 10
5.9649746171
 20
13.8450310604
 30
0.0
 10
5.9649665006
 20
13.8450216444
 30
0.0
  0
LINE
  5
46C
100
AcDbEntity
  8
0
100
AcDbLine
 62
7
  6
CONTINUOUS
 10
5.7526507049
 20
14.0573374408
 11
5.7519312259
 21
14.0581086328
  0
LINE
  5
46D
100
AcDbEntity
  8
0
100
AcDbLine
 62
7
  6
CONTINUOUS
 10
5.6706867475
 20
14.1366590426
 11
5.6703844918
 21
14.1369866203
  0
LINE
  5
46E
100
AcDbEntity
  8
0
100
AcDbLine
 62
7
  6
CONTINUOUS
 10
5.6703844918
 20
14.1369866203
 11
5.6589802428
 21
14.1493462958
  0
LINE
  5
46F
100
AcDbEntity
  8
0
100
AcDbLine
 62
7
  6
CONTINUOUS
 10
6.3018923893
 20
13.4876271322
 11
6.3013265677
 21
13.4879222732
  0
SPLINE
  5
470
100
AcDbEntity
  8
0
100
AcDbSpline
 62
7
  6
CONTINUOUS
 70
0
 71
3
 72
18
 73
14
 74
0
 42
0.0000001
 43
0.0000001
 44
0.0000000001
 40
0.0
 40
0.0
 40
0.0
 40
0.0
 40
0.0190505529
 40
0.0402685276
 40
0.0657877864
 40
0.0968592056
 40
0.134171747
 40
0.178111874
 40
0.2865756982
 40
0.4230445316
 40
0.5876480141
 40
0.7801225999
 40
1.0
 40
1.0
 40
1.0
 40
1.0
 10
6.7657466142
 20
13.1145996394
 30
0.0
 10
6.7657780442
 20
13.1146266959
 30
0.0
 10
6.7658328559
 20
13.1146986316
 30
0.0
 10
6.7658716095
 20
13.1148389751
 30
0.0
 10
6.76587289
 20
13.1150095808
 30
0.0
 10
6.7658388688
 20
13.115211833
 30
0.0
 10
6.7657698894
 20
13.1154468368
 30
0.0
 10
6.7656200885
 20
13.1158320904
 30
0.0
 10
6.7653359337
 20
13.1163944084
 30
0.0
 10
6.7648783349
 20
13.1171599088
 30
0.0
 10
6.7642823026
 20
13.1180542761
 30
0.0
 10
6.7635496578
 20
13.1190746411
 30
0.0
 10
6.7630069186
 20
13.1197897711
 30
0.0
 10
6.7627138291
 20
13.1201682045
 30
0.0
  0
SPLINE
  5
471
100
AcDbEntity
  8
0
100
AcDbSpline
 62
7
  6
CONTINUOUS
 70
0
 71
3
 72
21
 73
17
 74
0
 42
0.0000001
 43
0.0000001
 44
0.0000000001
 40
0.0
 40
0.0
 40
0.0
 40
0.0
 40
0.0044355494
 40
0.0096300324
 40
0.0161315125
 40
0.0242244313
 40
0.0456769715
 40
0.0745442347
 40
0.1109991156
 40
0.1550917186
 40
0.2067962639
 40
0.2660599648
 40
0.4069708024
 40
0.576997923
 40
0.7751025613
 40
1.0
 40
1.0
 40
1.0
 40
1.0
 10
5.7654014276
 20
14.0696977383
 30
0.0
 10
5.7654148799
 20
14.0697093034
 30
0.0
 10
5.7654379247
 20
14.0697420206
 30
0.0
 10
5.765451518
 20
14.0698061733
 30
0.0
 10
5.7654485509
 20
14.0698857233
 30
0.0
 10
5.7654204192
 20
14.0700275172
 30
0.0
 10
5.7653382832
 20
14.0702473719
 30
0.0
 10
5.7651860242
 20
14.0705593509
 30
0.0
 10
5.7649698674
 20
14.0709401591
 30
0.0
 10
5.7646901363
 20
14.0713891708
 30
0.0
 10
5.7643468267
 20
14.0719057504
 30
0.0
 10
5.7637707524
 20
14.0727322644
 30
0.0
 10
5.7628919133
 20
14.0739241716
 30
0.0
 10
5.7616483267
 20
14.0755362978
 30
0.0
 10
5.7601697548
 20
14.0773910104
 30
0.0
 10
5.7590991873
 20
14.0787010821
 30
0.0
 10
5.7585268254
 20
14.0793949783
 30
0.0
  0
LINE
  5
472
100
AcDbEntity
  8
0
100
AcDbLine
 62
7
  6
CONTINUOUS
 10
5.7559827123
 20
14.0824419014
 11
5.7558019612
 21
14.0826559209
  0
LINE
  5
473
100
AcDbEntity
  8
0
100
AcDbLine
 62
7
  6
CONTINUOUS
 10
7.6882275711
 20
12.1905113783
 11
7.685124956
 21
12.1931776265
  0
LINE
  5
474
100
AcDbEntity
  8
0
100
AcDbLine
 62
7
  6
CONTINUOUS
 10
7.685124956
 20
12.1931776265
 11
7.6845969788
 21
12.1936313469
  0
LINE
  5
475
100
AcDbEntity
  8
0
100
AcDbLine
 62
7
  6
CONTINUOUS
 10
7.6446981174
 20
12.2356481363
 11
7.6129372154
 21
12.2626232124
  0
SPLINE
  5
476
100
AcDbEntity
  8
0
100
AcDbSpline
 62
7
  6
CONTINUOUS
 70
0
 71
3
 72
28
 73
24
 74
0
 42
0.0000001
 43
0.0000001
 44
0.0000000001
 40
0.0
 40
0.0
 40
0.0
 40
0.0
 40
0.1946814205
 40
0.3817476407
 40
0.4701952815
 40
0.5541133108
 40
0.6327034241
 40
0.7052199397
 40
0.7709703783
 40
0.8293261219
 40
0.8797337075
 40
0.9217135097
 40
0.9394170328
 40
0.9548740017
 40
0.9680538532
 40
0.9789302319
 40
0.9835008648
 40
0.9874936936
 40
0.9909112193
 40
0.9937589516
 40
0.9960483872
 40
0.9978050204
 40
1.0
 40
1.0
 40
1.0
 40
1.0
 10
7.5154710767
 20
12.3663772753
 30
0.0
 10
7.5126351516
 20
12.3688635309
 30
0.0
 10
7.5070564882
 20
12.3737185901
 30
0.0
 10
7.5001404501
 20
12.3796466197
 30
0.0
 10
7.4948242537
 20
12.3841436166
 30
0.0
 10
7.4910976892
 20
12.3872658661
 30
0.0
 10
7.4875922613
 20
12.3901713983
 30
0.0
 10
7.4843414942
 20
12.3928325431
 30
0.0
 10
7.4813765704
 20
12.3952238901
 30
0.0
 10
7.4787260875
 20
12.3973226879
 30
0.0
 10
7.4764156749
 20
12.399108844
 30
0.0
 10
7.4747079738
 20
12.4003867467
 30
0.0
 10
7.4735260827
 20
12.4012365639
 30
0.0
 10
7.4727889635
 20
12.4017490731
 30
0.0
 10
7.4721513832
 20
12.4021727811
 30
0.0
 10
7.4716806665
 20
12.4024662659
 30
0.0
 10
7.4713541038
 20
12.4026539613
 30
0.0
 10
7.4711495478
 20
12.4027636216
 30
0.0
 10
7.4709705904
 20
12.4028505309
 30
0.0
 10
7.4708182566
 20
12.4029149382
 30
0.0
 10
7.4706897824
 20
12.4029565163
 30
0.0
 10
7.4705748551
 20
12.4029804698
 30
0.0
 10
7.4704846158
 20
12.4029708588
 30
0.0
 10
7.4704568784
 20
12.4029386288
 30
0.0
  0
SPLINE
  5
477
100
AcDbEntity
  8
0
100
AcDbSpline
 62
7
  6
CONTINUOUS
 70
0
 71
3
 72
23
 73
19
 74
0
 42
0.0000001
 43
0.0000001
 44
0.0000000001
 40
0.0
 40
0.0
 40
0.0
 40
0.0
 40
0.2100167769
 40
0.4029764914
 40
0.5744936665
 40
0.7206748814
 40
0.7832079271
 40
0.8382272273
 40
0.8854241403
 40
0.9245609542
 40
0.9410453075
 40
0.9554544732
 40
0.9677843119
 40
0.9780402694
 40
0.9862488617
 40
0.9896090246
 40
0.9924945606
 40
1.0
 40
1.0
 40
1.0
 40
1.0
 10
7.2942339587
 20
12.5871076249
 30
0.0
 10
7.2922124826
 20
12.5888521533
 30
0.0
 10
7.2883189017
 20
12.5921824261
 30
0.0
 10
7.2827189727
 20
12.5968721461
 30
0.0
 10
7.2776888619
 20
12.6009773952
 30
0.0
 10
7.2738941606
 20
12.6039730848
 30
0.0
 10
7.2712236791
 20
12.6060010224
 30
0.0
 10
7.2695361895
 20
12.6072421256
 30
0.0
 10
7.2680671153
 20
12.6082775278
 30
0.0
 10
7.2669780338
 20
12.6090011336
 30
0.0
 10
7.2662202236
 20
12.6094686938
 30
0.0
 10
7.2657445325
 20
12.6097440938
 30
0.0
 10
7.2653290819
 20
12.6099647511
 30
0.0
 10
7.2649738041
 20
12.610130417
 30
0.0
 10
7.2647146622
 20
12.6102289503
 30
0.0
 10
7.2645356996
 20
12.6102767733
 30
0.0
 10
7.2643682552
 20
12.6103077057
 30
0.0
 10
7.2642054366
 20
12.610301198
 30
0.0
 10
7.2641431823
 20
12.6102288777
 30
0.0
  0
SPLINE
  5
478
100
AcDbEntity
  8
0
100
AcDbSpline
 62
7
  6
CONTINUOUS
 70
0
 71
3
 72
19
 73
15
 74
0
 42
0.0000001
 43
0.0000001
 44
0.0000000001
 40
0.0
 40
0.0
 40
0.0
 40
0.0
 40
0.2218896955
 40
0.4168481963
 40
0.5840260166
 40
0.7227275768
 40
0.7812710188
 40
0.8325861555
 40
0.8766930872
 40
0.9136726097
 40
0.9437347117
 40
0.9673152522
 40
0.9853638625
 40
1.0
 40
1.0
 40
1.0
 40
1.0
 10
7.003313218
 20
12.8757127141
 30
0.0
 10
7.0027532114
 20
12.8761340231
 30
0.0
 10
7.001695285
 20
12.8769177488
 30
0.0
 10
7.0001915327
 20
12.8779862129
 30
0.0
 10
6.998878441
 20
12.8788685021
 30
0.0
 10
6.9979003874
 20
12.8794761044
 30
0.0
 10
6.9972160944
 20
12.8798610827
 30
0.0
 10
6.9967838849
 20
12.8800841883
 30
0.0
 10
6.9964034978
 20
12.8802583945
 30
0.0
 10
6.9960752314
 20
12.8803836234
 30
0.0
 10
6.9957988058
 20
12.8804604521
 30
0.0
 10
6.9955731554
 20
12.8804887934
 30
0.0
 10
6.9953934513
 20
12.8804688329
 30
0.0
 10
6.9953014268
 20
12.8804111788
 30
0.0
 10
6.9952712917
 20
12.8803761269
 30
0.0
  0
SPLINE
  5
479
100
AcDbEntity
  8
0
100
AcDbSpline
 62
7
  6
CONTINUOUS
 70
0
 71
3
 72
14
 73
10
 74
0
 42
0.0000001
 43
0.0000001
 44
0.0000000001
 40
0.0
 40
0.0
 40
0.0
 40
0.0
 40
0.3829491285
 40
0.5378784853
 40
0.6691287707
 40
0.7778077447
 40
0.8659716979
 40
0.9375861493
 40
1.0
 40
1.0
 40
1.0
 40
1.0
 10
6.6841858804
 20
13.1944985425
 30
0.0
 10
6.6839407622
 20
13.194627961
 30
0.0
 10
6.6835909003
 20
13.1948005092
 30
0.0
 10
6.683138763
 20
13.1949750459
 30
0.0
 10
6.6828645296
 20
13.195056927
 30
0.0
 10
6.6826302251
 20
13.1950996411
 30
0.0
 10
6.6824347119
 20
13.1951029367
 30
0.0
 10
6.6822757482
 20
13.195064781
 30
0.0
 10
6.6821945752
 20
13.1950055686
 30
0.0
 10
6.6821651194
 20
13.1949713157
 30
0.0
  0
SPLINE
  5
47A
100
AcDbEntity
  8
0
100
AcDbSpline
 62
7
  6
CONTINUOUS
 70
0
 71
3
 72
17
 73
13
 74
0
 42
0.0000001
 43
0.0000001
 44
0.0000000001
 40
0.0
 40
0.0
 40
0.0
 40
0.0
 40
0.0219584501
 40
0.045751208
 40
0.073272283
 40
0.1057622392
 40
0.1882717655
 40
0.2965476486
 40
0.4316635468
 40
0.5939764137
 40
0.7835118063
 40
1.0
 40
1.0
 40
1.0
 40
1.0
 10
6.4281393164
 20
13.4505996329
 30
0.0
 10
6.428167661
 20
13.4506240335
 30
0.0
 10
6.4282181524
 20
13.4506856838
 30
0.0
 10
6.4282626728
 20
13.45080403
 30
0.0
 10
6.4282789357
 20
13.450946878
 30
0.0
 10
6.4282633504
 20
13.4511899919
 30
0.0
 10
6.4281650429
 20
13.4515601734
 30
0.0
 10
6.4279546374
 20
13.4520743034
 30
0.0
 10
6.4276406557
 20
13.4526906351
 30
0.0
 10
6.4272234073
 20
13.4534077307
 30
0.0
 10
6.4267029607
 20
13.454224186
 30
0.0
 10
6.4263135447
 20
13.4547957892
 30
0.0
 10
6.4261025167
 20
13.4550981636
 30
0.0
  0
LINE
  5
47B
100
AcDbEntity
  8
0
100
AcDbLine
 62
7
  6
CONTINUOUS
 10
7.3256922642
 20
12.5106253895
 11
7.3246676836
 21
12.511527222
  0
SPLINE
  5
47C
100
AcDbEntity
  8
0
100
AcDbSpline
 62
7
  6
CONTINUOUS
 70
0
 71
3
 72
29
 73
25
 74
0
 42
0.0000001
 43
0.0000001
 44
0.0000000001
 40
0.0
 40
0.0
 40
0.0
 40
0.0
 40
0.1949467394
 40
0.2900222211
 40
0.3822882342
 40
0.4708637965
 40
0.5548970892
 40
0.6335843293
 40
0.7061757242
 40
0.7719761304
 40
0.8303538906
 40
0.8807530016
 40
0.9226917602
 40
0.9403607981
 40
0.9557736915
 40
0.9688971689
 40
0.979701438
 40
0.9842288672
 40
0.988172241
 40
0.9915321402
 40
0.994311061
 40
0.9965155375
 40
0.9981625213
 40
1.0
 40
1.0
 40
1.0
 40
1.0
 10
7.231491121
 20
12.6090376143
 30
0.0
 10
7.2286905279
 20
12.6115702013
 30
0.0
 10
7.2245135951
 20
12.6153263578
 30
0.0
 10
7.2189861065
 20
12.6202531354
 30
0.0
 10
7.2149856851
 20
12.6237967279
 30
0.0
 10
7.2111341617
 20
12.6271858225
 30
0.0
 10
7.2074684743
 20
12.630387935
 30
0.0
 10
7.2040237882
 20
12.6333723959
 30
0.0
 10
7.2008331375
 20
12.6361106896
 30
0.0
 10
7.1979271753
 20
12.6385766058
 30
0.0
 10
7.1953339345
 20
12.640746609
 30
0.0
 10
7.193078463
 20
12.6425999042
 30
0.0
 10
7.1914159401
 20
12.643932697
 30
0.0
 10
7.1902689703
 20
12.6448248435
 30
0.0
 10
7.1895558821
 20
12.6453656597
 30
0.0
 10
7.1889413176
 20
12.6458162062
 30
0.0
 10
7.1884895484
 20
12.6461320192
 30
0.0
 10
7.1881776433
 20
12.6463373067
 30
0.0
 10
7.1879834324
 20
12.6464587939
 30
0.0
 10
7.1878143931
 20
12.6465572179
 30
0.0
 10
7.1876721736
 20
12.6466323819
 30
0.0
 10
7.187552533
 20
12.6466851133
 30
0.0
 10
7.1874536743
 20
12.6467183522
 30
0.0
 10
7.1873692267
 20
12.6467258554
 30
0.0
 10
7.1873460048
 20
12.6466988855
 30
0.0
  0
LINE
  5
47D
100
AcDbEntity
  8
0
100
AcDbLine
 62
7
  6
CONTINUOUS
 10
6.9782191368
 20
12.8602387419
 11
6.9780051171
 21
12.8604194931
  0
SPLINE
  5
47E
100
AcDbEntity
  8
0
100
AcDbSpline
 62
7
  6
CONTINUOUS
 70
0
 71
3
 72
21
 73
17
 74
0
 42
0.0000001
 43
0.0000001
 44
0.0000000001
 40
0.0
 40
0.0
 40
0.0
 40
0.0
 40
0.2248974033
 40
0.4230020368
 40
0.5930291769
 40
0.7339400477
 40
0.7932037677
 40
0.8449083311
 40
0.8890009488
 40
0.925455839
 40
0.9543231045
 40
0.975775637
 40
0.9838685465
 40
0.9903700124
 40
0.9955644754
 40
1.0
 40
1.0
 40
1.0
 40
1.0
 10
6.9749583309
 20
12.8629634928
 30
0.0
 10
6.9742644266
 20
12.863535862
 30
0.0
 10
6.9729543393
 20
12.8646064434
 30
0.0
 10
6.9710996047
 20
12.8660850347
 30
0.0
 10
6.9694874592
 20
12.8673286379
 30
0.0
 10
6.9682955378
 20
12.8682074889
 30
0.0
 10
6.9674690138
 20
12.8687835713
 30
0.0
 10
6.9669524281
 20
12.8691268859
 30
0.0
 10
6.9665034111
 20
12.8694066211
 30
0.0
 10
6.9661225984
 20
12.8696227812
 30
0.0
 10
6.9658106157
 20
12.8697750426
 30
0.0
 10
6.9655907587
 20
12.8698571801
 30
0.0
 10
6.9654489632
 20
12.8698853126
 30
0.0
 10
6.9653694124
 20
12.86988828
 30
0.0
 10
6.9653052591
 20
12.8698746869
 30
0.0
 10
6.9652725416
 20
12.8698516419
 30
0.0
 10
6.9652609764
 20
12.8698381895
 30
0.0
  0
LINE
  5
47F
100
AcDbEntity
  8
0
100
AcDbLine
 62
9
  6
CONTINUOUS
 10
6.7466731972
 20
13.0869896086
 11
6.7469004384
 21
13.0867622605
  0
LINE
  5
480
100
AcDbEntity
  8
0
100
AcDbLine
 62
9
  6
CONTINUOUS
 10
6.7469004384
 20
13.0867622605
 11
6.9646719809
 21
12.8689842743
  0
LINE
  5
481
100
AcDbEntity
  8
0
100
AcDbLine
 62
7
  6
CONTINUOUS
 10
7.0449095339
 20
12.7634170047
 11
7.0325497836
 21
12.7748213227
  0
LINE
  5
482
100
AcDbEntity
  8
0
100
AcDbLine
 62
7
  6
CONTINUOUS
 10
7.0325497836
 20
12.7748213227
 11
7.0322222829
 21
12.7751235074
  0
SPLINE
  5
483
100
AcDbEntity
  8
0
100
AcDbSpline
 62
7
  6
CONTINUOUS
 70
0
 71
3
 72
30
 73
26
 74
0
 42
0.0000001
 43
0.0000001
 44
0.0000000001
 40
0.0
 40
0.0
 40
0.0
 40
0.0
 40
0.1951067242
 40
0.2902713621
 40
0.3826260795
 40
0.4712890718
 40
0.5554019239
 40
0.6341585647
 40
0.7068063259
 40
0.7726454277
 40
0.8310448857
 40
0.8814458959
 40
0.9034913548
 40
0.9233635873
 40
0.9410145747
 40
0.9564003278
 40
0.969488284
 40
0.9802488787
 40
0.9886583646
 40
0.9947090911
 40
0.9968533976
 40
0.9984185917
 40
0.9989911648
 40
0.9994325827
 40
1.0
 40
1.0
 40
1.0
 40
1.0
 10
6.9529006789
 20
12.8570874668
 30
0.0
 10
6.9501260638
 20
12.8596750836
 30
0.0
 10
6.9459906578
 20
12.8635168495
 30
0.0
 10
6.9405240231
 20
12.8685641909
 30
0.0
 10
6.9365703572
 20
12.872198927
 30
0.0
 10
6.9327669097
 20
12.8756795013
 30
0.0
 10
6.9291502298
 20
12.8789724669
 30
0.0
 10
6.9257551216
 20
12.8820461823
 30
0.0
 10
6.9226142069
 20
12.8848711803
 30
0.0
 10
6.9197576925
 20
12.8874203864
 30
0.0
 10
6.917213092
 20
12.8896693355
 30
0.0
 10
6.9152962247
 20
12.8913425491
 30
0.0
 10
6.9139358182
 20
12.8925138933
 30
0.0
 10
6.9130539909
 20
12.893265009
 30
0.0
 10
6.912266353
 20
12.8939269553
 30
0.0
 10
6.9115748323
 20
12.8944981865
 30
0.0
 10
6.9109811113
 20
12.8949773335
 30
0.0
 10
6.9104868264
 20
12.8953636581
 30
0.0
 10
6.9100929519
 20
12.8956558721
 30
0.0
 10
6.9098264984
 20
12.8958386994
 30
0.0
 10
6.9096622915
 20
12.8959341776
 30
0.0
 10
6.9095874808
 20
12.8959707965
 30
0.0
 10
6.9095393533
 20
12.8959864423
 30
0.0
 10
6.909509929
 20
12.8959923843
 30
0.0
 10
6.9094870845
 20
12.8959890455
 30
0.0
 10
6.909479899
 20
12.8959806721
 30
0.0
  0
LINE
  5
484
100
AcDbEntity
  8
0
100
AcDbLine
 62
7
  6
CONTINUOUS
 10
6.6456835385
 20
13.1428163033
 11
6.6397154804
 21
13.1483101478
  0
LINE
  5
485
100
AcDbEntity
  8
0
100
AcDbLine
 62
7
  6
CONTINUOUS
 10
6.6397154804
 20
13.1483101478
 11
6.6373903841
 21
13.1502562419
  0
SPLINE
  5
486
100
AcDbEntity
  8
0
100
AcDbSpline
 62
7
  6
CONTINUOUS
 70
0
 71
3
 72
14
 73
10
 74
0
 42
0.0000001
 43
0.0000001
 44
0.0000000001
 40
0.0
 40
0.0
 40
0.0
 40
0.0
 40
0.062413731
 40
0.1340281097
 40
0.2221920326
 40
0.3308710078
 40
0.4621213179
 40
0.6170507188
 40
1.0
 40
1.0
 40
1.0
 40
1.0
 10
6.0905345539
 20
13.7866018812
 30
0.0
 10
6.0905688069
 20
13.7866313371
 30
0.0
 10
6.0906280193
 20
13.7867125105
 30
0.0
 10
6.0906661748
 20
13.7868714747
 30
0.0
 10
6.090662879
 20
13.7870669887
 30
0.0
 10
6.0906201644
 20
13.7873012942
 30
0.0
 10
6.0905382826
 20
13.7875755287
 30
0.0
 10
6.0903637448
 20
13.7880276679
 30
0.0
 10
6.0901911956
 20
13.7883775313
 30
0.0
 10
6.0900617762
 20
13.7886226506
 30
0.0
  0
SPLINE
  5
487
100
AcDbEntity
  8
0
100
AcDbSpline
 62
7
  6
CONTINUOUS
 70
0
 71
3
 72
19
 73
15
 74
0
 42
0.0000001
 43
0.0000001
 44
0.0000000001
 40
0.0
 40
0.0
 40
0.0
 40
0.0
 40
0.0146359164
 40
0.0326842775
 40
0.0562646923
 40
0.0863267114
 40
0.1233060687
 40
0.1674127467
 40
0.2187276534
 40
0.2772709323
 40
0.4159724612
 40
0.583150187
 40
0.7781093498
 40
1.0
 40
1.0
 40
1.0
 40
1.0
 10
5.7759393643
 20
14.0997080544
 30
0.0
 10
5.7759744163
 20
14.0997381898
 30
0.0
 10
5.7760320727
 20
14.0998302135
 30
0.0
 10
5.7760520331
 20
14.1000099202
 30
0.0
 10
5.7760236897
 20
14.1002355736
 30
0.0
 10
5.7759468582
 20
14.1005120035
 30
0.0
 10
5.7758216262
 20
14.100840275
 30
0.0
 10
5.7756474164
 20
14.1012206679
 30
0.0
 10
5.775424306
 20
14.1016528843
 30
0.0
 10
5.7750393188
 20
14.1023371899
 30
0.0
 10
5.7744317017
 20
14.1033152619
 30
0.0
 10
5.7735493914
 20
14.1046283819
 30
0.0
 10
5.7724808988
 20
14.106132168
 30
0.0
 10
5.771697152
 20
14.10719012
 30
0.0
 10
5.7712758316
 20
14.1077501403
 30
0.0
  0
SPLINE
  5
488
100
AcDbEntity
  8
0
100
AcDbSpline
 62
7
  6
CONTINUOUS
 70
0
 71
3
 72
28
 73
24
 74
0
 42
0.0000001
 43
0.0000001
 44
0.0000000001
 40
0.0
 40
0.0
 40
0.0
 40
0.0
 40
0.1935058215
 40
0.3794701746
 40
0.4673683569
 40
0.5507284691
 40
0.6287555631
 40
0.7007145537
 40
0.7659309554
 40
0.8238114361
 40
0.8738430621
 40
0.8957832818
 40
0.9156154558
 40
0.9333104361
 40
0.9488456454
 40
0.962215341
 40
0.9734414315
 40
0.982581794
 40
0.9897730839
 40
0.9927340138
 40
0.9953533023
 40
0.9977309742
 40
1.0
 40
1.0
 40
1.0
 40
1.0
 10
6.4167177161
 20
13.521154478
 30
0.0
 10
6.4140298772
 20
13.523842317
 30
0.0
 10
6.4087108694
 20
13.5290653955
 30
0.0
 10
6.4020397264
 20
13.5353738237
 30
0.0
 10
6.3968632038
 20
13.5401115924
 30
0.0
 10
6.3932119693
 20
13.5433749267
 30
0.0
 10
6.3897540605
 20
13.5463841498
 30
0.0
 10
6.3865230114
 20
13.5491104407
 30
0.0
 10
6.3835499835
 20
13.551527991
 30
0.0
 10
6.3808636592
 20
13.5536140889
 30
0.0
 10
6.3788044348
 20
13.5551204389
 30
0.0
 10
6.377316229
 20
13.5561392202
 30
0.0
 10
6.3763362375
 20
13.5567752677
 30
0.0
 10
6.375445027
 20
13.5573162108
 30
0.0
 10
6.3746445856
 20
13.5577609631
 30
0.0
 10
6.3739367105
 20
13.5581087724
 30
0.0
 10
6.3733223947
 20
13.5583596914
 30
0.0
 10
6.3728025725
 20
13.5585137861
 30
0.0
 10
6.3724238499
 20
13.5585654551
 30
0.0
 10
6.3721726602
 20
13.5585474878
 30
0.0
 10
6.3720200511
 20
13.5585091998
 30
0.0
 10
6.3718913343
 20
13.5584445071
 30
0.0
 10
6.3718221598
 20
13.5583830245
 30
0.0
 10
6.371793085
 20
13.5583492408
 30
0.0
  0
SPLINE
  5
489
100
AcDbEntity
  8
0
100
AcDbSpline
 62
7
  6
CONTINUOUS
 70
0
 71
3
 72
30
 73
26
 74
0
 42
0.0000001
 43
0.0000001
 44
0.0000000001
 40
0.0
 40
0.0
 40
0.0
 40
0.0
 40
0.1946090435
 40
0.3819199534
 40
0.4705587081
 40
0.5546777662
 40
0.6334525301
 40
0.7061113033
 40
0.7719371356
 40
0.8302882155
 40
0.8805959175
 40
0.9025798164
 40
0.9223797273
 40
0.9399537807
 40
0.9552622292
 40
0.9682756462
 40
0.9789805595
 40
0.9834668934
 40
0.9873776857
 40
0.9907186098
 40
0.9935016277
 40
0.9957485492
 40
0.9975022412
 40
0.9988545706
 40
1.0
 40
1.0
 40
1.0
 40
1.0
 10
5.0246929129
 20
14.9093005329
 30
0.0
 10
5.0222288521
 20
14.9122003083
 30
0.0
 10
5.0173674561
 20
14.9178693451
 30
0.0
 10
5.0113128825
 20
14.9247979288
 30
0.0
 10
5.0066373861
 20
14.9300620115
 30
0.0
 10
5.0033497308
 20
14.9337201332
 30
0.0
 10
5.0002485001
 20
14.9371255613
 30
0.0
 10
4.9973643514
 20
14.940244731
 30
0.0
 10
4.9947258485
 20
14.9430469393
 30
0.0
 10
4.9923592318
 20
14.9455045771
 30
0.0
 10
4.990560857
 20
14.9473190271
 30
0.0
 10
4.9892730981
 20
14.9485777514
 30
0.0
 10
4.9884329472
 20
14.9493786012
 30
0.0
 10
4.9876763314
 20
14.9500777404
 30
0.0
 10
4.9870051395
 20
14.9506735903
 30
0.0
 10
4.9864210013
 20
14.9511647755
 30
0.0
 10
4.985985832
 20
14.9515039737
 30
0.0
 10
4.9856809291
 20
14.9517198389
 30
0.0
 10
4.9854885736
 20
14.9518451853
 30
0.0
 10
4.9853188235
 20
14.9519438373
 30
0.0
 10
4.9851716784
 20
14.9520159201
 30
0.0
 10
4.9850467813
 20
14.9520617491
 30
0.0
 10
4.9849433985
 20
14.9520815012
 30
0.0
 10
4.9848585826
 20
14.9520744339
 30
0.0
 10
4.9848153885
 20
14.9520463573
 30
0.0
 10
4.9848007787
 20
14.9520293812
 30
0.0
  0
SPLINE
  5
48A
100
AcDbEntity
  8
0
100
AcDbSpline
 62
7
  6
CONTINUOUS
 70
0
 71
3
 72
23
 73
19
 74
0
 42
0.0000001
 43
0.0000001
 44
0.0000000001
 40
0.0
 40
0.0
 40
0.0
 40
0.0
 40
0.0075054745
 40
0.0103910636
 40
0.0137512638
 40
0.0219598021
 40
0.0322156954
 40
0.0445455937
 40
0.0589548164
 40
0.0754390935
 40
0.1145756868
 40
0.1617723677
 40
0.2167912224
 40
0.2793238784
 40
0.4255044305
 40
0.5970214895
 40
0.7899819089
 40
1.0
 40
1.0
 40
1.0
 40
1.0
 10
5.5057921165
 20
14.3685799435
 30
0.0
 10
5.5058644411
 20
14.3686421941
 30
0.0
 10
5.5058709438
 20
14.3688050205
 30
0.0
 10
5.5058400092
 20
14.3689724659
 30
0.0
 10
5.5057921847
 20
14.3691514297
 30
0.0
 10
5.5056936529
 20
14.3694105723
 30
0.0
 10
5.5055279867
 20
14.3697658516
 30
0.0
 10
5.5053073267
 20
14.3701813042
 30
0.0
 10
5.505031924
 20
14.3706569976
 30
0.0
 10
5.5045643634
 20
14.3714148092
 30
0.0
 10
5.5038407572
 20
14.3725038903
 30
0.0
 10
5.5028053556
 20
14.3739729621
 30
0.0
 10
5.5015642545
 20
14.3756604496
 30
0.0
 10
5.4995363175
 20
14.378330929
 30
0.0
 10
5.4965406221
 20
14.3821256381
 30
0.0
 10
5.4924353524
 20
14.3871557734
 30
0.0
 10
5.4877455924
 20
14.3927557488
 30
0.0
 10
5.4844152852
 20
14.3966493683
 30
0.0
 10
5.4826707367
 20
14.398670867
 30
0.0
  0
SPLINE
  5
48B
100
AcDbEntity
  8
0
100
AcDbSpline
 62
7
  6
CONTINUOUS
 70
0
 71
3
 72
26
 73
22
 74
0
 42
0.0000001
 43
0.0000001
 44
0.0000000001
 40
0.0
 40
0.0
 40
0.0
 40
0.0
 40
0.1944509543
 40
0.3815498753
 40
0.5540297885
 40
0.6326448311
 40
0.7051352311
 40
0.7707913772
 40
0.828981802
 40
0.8791516293
 40
0.9208381947
 40
0.9383883911
 40
0.9536955382
 40
0.9667376453
 40
0.9775126167
 40
0.986039198
 40
0.9923891883
 40
0.994813399
 40
0.9968060758
 40
0.9984751692
 40
1.0
 40
1.0
 40
1.0
 40
1.0
 10
5.2225869711
 20
14.7127153976
 30
0.0
 10
5.2200902723
 20
14.7155867406
 30
0.0
 10
5.2151571864
 20
14.7211913474
 30
0.0
 10
5.2078924465
 20
14.7292388306
 30
0.0
 10
5.2020578443
 20
14.7355227481
 30
0.0
 10
5.1976872437
 20
14.7401044552
 30
0.0
 10
5.1947282481
 20
14.7431435604
 30
0.0
 10
5.1920147419
 20
14.7458634942
 30
0.0
 10
5.1895737203
 20
14.7482378768
 30
0.0
 10
5.1874292666
 20
14.750243661
 30
0.0
 10
5.1858272329
 20
14.751664532
 30
0.0
 10
5.1847052697
 20
14.7525968812
 30
0.0
 10
5.1839992236
 20
14.753152293
 30
0.0
 10
5.1833808993
 20
14.7536039721
 30
0.0
 10
5.1828515306
 20
14.7539518732
 30
0.0
 10
5.1824123704
 20
14.7541953897
 30
0.0
 10
5.1820968927
 20
14.7543243578
 30
0.0
 10
5.1818894084
 20
14.7543651358
 30
0.0
 10
5.1817693512
 20
14.7543662383
 30
0.0
 10
5.1816696661
 20
14.7543390404
 30
0.0
 10
5.181618619
 20
14.7542996315
 30
0.0
 10
5.1815991558
 20
14.7542770156
 30
0.0
  0
SPLINE
  5
48C
100
AcDbEntity
  8
0
100
AcDbSpline
 62
7
  6
CONTINUOUS
 70
0
 71
3
 72
28
 73
24
 74
0
 42
0.0000001
 43
0.0000001
 44
0.0000000001
 40
0.0
 40
0.0
 40
0.0
 40
0.0
 40
0.194208208
 40
0.3810094623
 40
0.4693493428
 40
0.55314387
 40
0.6315762269
 40
0.703887132
 40
0.769376483
 40
0.8274247016
 40
0.8774918517
 40
0.899390651
 40
0.9191366519
 40
0.9366956252
 40
0.952038118
 40
0.9651494061
 40
0.9760381857
 40
0.9847412776
 40
0.9913631462
 40
0.9939771503
 40
0.9962061245
 40
0.9981601157
 40
1.0
 40
1.0
 40
1.0
 40
1.0
 10
5.4725021522
 20
14.4638852116
 30
0.0
 10
5.4699644869
 20
14.4667197297
 30
0.0
 10
5.4649450873
 20
14.4722442296
 30
0.0
 10
5.4586592042
 20
14.4789549538
 30
0.0
 10
5.453785155
 20
14.4840231515
 30
0.0
 10
5.4503490129
 20
14.4875285293
 30
0.0
 10
5.4470977242
 20
14.4907750581
 30
0.0
 10
5.4440633806
 20
14.4937309214
 30
0.0
 10
5.4412758602
 20
14.4963673732
 30
0.0
 10
5.4387626405
 20
14.4986589033
 30
0.0
 10
5.436840554
 20
14.5003305969
 30
0.0
 10
5.4354549844
 20
14.5014744429
 30
0.0
 10
5.4345457043
 20
14.5021945507
 30
0.0
 10
5.433721316
 20
14.5028144987
 30
0.0
 10
5.4329837248
 20
14.5033330063
 30
0.0
 10
5.4323346927
 20
14.5037490902
 30
0.0
 10
5.4317753019
 20
14.5040628226
 30
0.0
 10
5.4313067072
 20
14.5042739824
 30
0.0
 10
5.4309667819
 20
14.5043738185
 30
0.0
 10
5.4307419493
 20
14.5043911863
 30
0.0
 10
5.4306085469
 20
14.5043763244
 30
0.0
 10
5.4304969369
 20
14.5043332768
 30
0.0
 10
5.4304386202
 20
14.5042846413
 30
0.0
 10
5.4304151097
 20
14.5042573219
 30
0.0
  0
SPLINE
  5
48D
100
AcDbEntity
  8
0
100
AcDbSpline
 62
7
  6
CONTINUOUS
 70
0
 71
3
 72
29
 73
25
 74
0
 42
0.0000001
 43
0.0000001
 44
0.0000000001
 40
0.0
 40
0.0
 40
0.0
 40
0.0
 40
0.0018374825
 40
0.0034844859
 40
0.0056889934
 40
0.0084679678
 40
0.0118279353
 40
0.0157713767
 40
0.0202988576
 40
0.0311031281
 40
0.0442265937
 40
0.0596394941
 40
0.0773085005
 40
0.1192472405
 40
0.1696461039
 40
0.2280234051
 40
0.2938232573
 40
0.3664147196
 40
0.4451020253
 40
0.5291348029
 40
0.6177105076
 40
0.7099769437
 40
0.805052372
 40
1.0
 40
1.0
 40
1.0
 40
1.0
 10
5.5422621255
 20
14.2917827646
 30
0.0
 10
5.5422890958
 20
14.2918059862
 30
0.0
 10
5.5422815918
 20
14.291890435
 30
0.0
 10
5.5422483521
 20
14.2919892942
 30
0.0
 10
5.5421956194
 20
14.2921089366
 30
0.0
 10
5.5421204535
 20
14.2922511583
 30
0.0
 10
5.5420220273
 20
14.2924202006
 30
0.0
 10
5.5419005378
 20
14.2926144144
 30
0.0
 10
5.541695249
 20
14.2929263214
 30
0.0
 10
5.5413794361
 20
14.2933780917
 30
0.0
 10
5.5409288894
 20
14.293992656
 30
0.0
 10
5.5403880731
 20
14.2947057433
 30
0.0
 10
5.5394959269
 20
14.2958527123
 30
0.0
 10
5.5381631373
 20
14.2975152306
 30
0.0
 10
5.5363098513
 20
14.2997706915
 30
0.0
 10
5.5341398635
 20
14.3023639136
 30
0.0
 10
5.5316739596
 20
14.3052698624
 30
0.0
 10
5.5289356708
 20
14.3084605069
 30
0.0
 10
5.5259512151
 20
14.311905188
 30
0.0
 10
5.5227491068
 20
14.3155708713
 30
0.0
 10
5.5193600111
 20
14.3194223954
 30
0.0
 10
5.5158164124
 20
14.3234228248
 30
0.0
 10
5.5108896185
 20
14.3289503319
 30
0.0
 10
5.507133451
 20
14.333127277
 30
0.0
 10
5.5046008524
 20
14.335927883
 30
0.0
  0
SPLINE
  5
48E
100
AcDbEntity
  8
0
100
AcDbSpline
 62
7
  6
CONTINUOUS
 70
0
 71
3
 72
28
 73
24
 74
0
 42
0.0000001
 43
0.0000001
 44
0.0000000001
 40
0.0
 40
0.0
 40
0.0
 40
0.0
 40
0.1939363983
 40
0.3804138782
 40
0.4685779915
 40
0.5521936543
 40
0.6304511984
 40
0.7026001337
 40
0.7679504492
 40
0.8258940859
 40
0.8759044117
 40
0.8977978208
 40
0.9175569126
 40
0.9351504656
 40
0.9505530838
 40
0.9637556533
 40
0.9747751125
 40
0.9836616262
 40
0.990541648
 40
0.9933229202
 40
0.9957484222
 40
0.9979252275
 40
1.0
 40
1.0
 40
1.0
 40
1.0
 10
5.763515225
 20
14.1736843096
 30
0.0
 10
5.760930367
 20
14.1764748643
 30
0.0
 10
5.7558145398
 20
14.1819066659
 30
0.0
 10
5.7493989355
 20
14.1884880561
 30
0.0
 10
5.744419684
 20
14.1934461692
 30
0.0
 10
5.7409073267
 20
14.1968688408
 30
0.0
 10
5.737581375
 20
14.2000322691
 30
0.0
 10
5.7344745095
 20
14.2029056647
 30
0.0
 10
5.7316171301
 20
14.2054613415
 30
0.0
 10
5.7290371997
 20
14.2076748502
 30
0.0
 10
5.7270607759
 20
14.2092818002
 30
0.0
 10
5.7256335208
 20
14.2103752213
 30
0.0
 10
5.7246951016
 20
14.2110607548
 30
0.0
 10
5.7238426561
 20
14.2116475323
 30
0.0
 10
5.723078108
 20
14.2121343694
 30
0.0
 10
5.7224032219
 20
14.2125204176
 30
0.0
 10
5.7218189859
 20
14.2128057636
 30
0.0
 10
5.7213264141
 20
14.2129904032
 30
0.0
 10
5.7209674964
 20
14.2130668399
 30
0.0
 10
5.720729466
 20
14.2130662685
 30
0.0
 10
5.7205860987
 20
14.2130392325
 30
0.0
 10
5.7204654641
 20
14.2129845673
 30
0.0
 10
5.7204014145
 20
14.212928996
 30
0.0
 10
5.7203748703
 20
14.2128981517
 30
0.0
  0
SPLINE
  5
48F
100
AcDbEntity
  8
0
100
AcDbSpline
 62
7
  6
CONTINUOUS
 70
0
 71
3
 72
28
 73
24
 74
0
 42
0.0000001
 43
0.0000001
 44
0.0000000001
 40
0.0
 40
0.0
 40
0.0
 40
0.0
 40
0.1936868326
 40
0.3798691908
 40
0.4678781646
 40
0.5513416633
 40
0.6294576809
 40
0.7014842566
 40
0.7667403967
 40
0.8246272251
 40
0.8746276309
 40
0.8965369905
 40
0.9163278739
 40
0.9339707994
 40
0.9494427309
 40
0.9627377275
 40
0.9738772243
 40
0.9829184138
 40
0.9899981807
 40
0.9928998951
 40
0.9954595748
 40
0.9977804388
 40
1.0
 40
1.0
 40
1.0
 40
1.0
 10
6.0829068755
 20
13.8547952172
 30
0.0
 10
6.0802710707
 20
13.8575362454
 30
0.0
 10
6.0750536343
 20
13.8628662097
 30
0.0
 10
6.068507465
 20
13.8693115412
 30
0.0
 10
6.0634257866
 20
13.8741578144
 30
0.0
 10
6.0598406323
 20
13.8774985371
 30
0.0
 10
6.0564447845
 20
13.8805816032
 30
0.0
 10
6.0532714051
 20
13.8833772482
 30
0.0
 10
6.0503513192
 20
13.8858587903
 30
0.0
 10
6.0477128869
 20
13.8880027354
 30
0.0
 10
6.0456901478
 20
13.8895536922
 30
0.0
 10
6.044228249
 20
13.8906047669
 30
0.0
 10
6.0432659414
 20
13.8912618535
 30
0.0
 10
6.0423909187
 20
13.8918218994
 30
0.0
 10
6.0416051312
 20
13.892283783
 30
0.0
 10
6.0409103524
 20
13.8926467318
 30
0.0
 10
6.0403075465
 20
13.8929108185
 30
0.0
 10
6.0397976436
 20
13.8930761101
 30
0.0
 10
6.039425703
 20
13.8931362349
 30
0.0
 10
6.0391788189
 20
13.8931237874
 30
0.0
 10
6.0390289964
 20
13.893088862
 30
0.0
 10
6.0389025694
 20
13.8930269338
 30
0.0
 10
6.038834818
 20
13.8929670127
 30
0.0
 10
6.0388063927
 20
13.8929339825
 30
0.0
  0
SPLINE
  5
490
100
AcDbEntity
  8
0
100
AcDbSpline
 62
7
  6
CONTINUOUS
 70
0
 71
3
 72
28
 73
24
 74
0
 42
0.0000001
 43
0.0000001
 44
0.0000000001
 40
0.0
 40
0.0
 40
0.0
 40
0.0
 40
0.002194975
 40
0.0039516055
 40
0.0062410371
 40
0.0090887583
 40
0.0125062691
 40
0.0164990829
 40
0.0210697042
 40
0.0319460778
 40
0.0451259088
 40
0.0605828559
 40
0.0782863774
 40
0.1202661446
 40
0.1706737226
 40
0.2290294944
 40
0.2947799876
 40
0.3672964904
 40
0.4458865983
 40
0.5298047163
 40
0.6182523779
 40
0.8053186007
 40
1.0
 40
1.0
 40
1.0
 40
1.0
 10
5.2985018666
 20
14.5748936406
 30
0.0
 10
5.2985340967
 20
14.5749213778
 30
0.0
 10
5.298543708
 20
14.5750116169
 30
0.0
 10
5.2985197544
 20
14.575126544
 30
0.0
 10
5.2984781765
 20
14.5752550179
 30
0.0
 10
5.2984137696
 20
14.5754073513
 30
0.0
 10
5.2983268607
 20
14.575586308
 30
0.0
 10
5.2982172009
 20
14.5757908633
 30
0.0
 10
5.2980295059
 20
14.5761174256
 30
0.0
 10
5.2977360213
 20
14.5765881415
 30
0.0
 10
5.297312314
 20
14.5772257212
 30
0.0
 10
5.2967998055
 20
14.5779628398
 30
0.0
 10
5.2959499889
 20
14.5791447299
 30
0.0
 10
5.294672087
 20
14.5808524305
 30
0.0
 10
5.292885931
 20
14.5831628429
 30
0.0
 10
5.2907871324
 20
14.585813327
 30
0.0
 10
5.2883957846
 20
14.5887782519
 30
0.0
 10
5.2857346394
 20
14.5920290196
 30
0.0
 10
5.2828291064
 20
14.5955344485
 30
0.0
 10
5.2797068555
 20
14.5992610145
 30
0.0
 10
5.2752098573
 20
14.6045772126
 30
0.0
 10
5.2692818277
 20
14.6114932507
 30
0.0
 10
5.2644267687
 20
14.6170719138
 30
0.0
 10
5.2619405134
 20
14.6199078387
 30
0.0
  0
LINE
  5
491
100
AcDbEntity
  8
0
100
AcDbLine
 62
7
  6
CONTINUOUS
 10
5.1581872223
 20
14.7173730463
 11
5.1312113744
 21
14.7491348793
  0
ENDSEC
  0
SECTION
  2
OBJECTS
  0
DICTIONARY
  5
C
100
AcDbDictionary
280
0
281
1
  3
ACAD_GROUP
350
D
  3
ACAD_MLINESTYLE
350
17
  3
ACAD_LAYOUT
350
1A
  3
ACAD_PLOTSETTINGS
350
19
  3
ACAD_PLOTSTYLENAME
350
E
  0
DICTIONARY
  5
D
102
{ACAD_REACTORS
330
C
102
}
100
AcDbDictionary
280
0
281
1
  0
ACDBDICTIONARYWDFLT
  5
E
102
{ACAD_REACTORS
330
C
102
}
100
AcDbDictionary
281
1
  3
Normal
350
F
100
AcDbDictionaryWithDefault
340
F
  0
DICTIONARY
  5
17
102
{ACAD_REACTORS
330
C
102
}
100
AcDbDictionary
280
0
281
1
  3
Standard
350
18
  0
DICTIONARY
  5
19
102
{ACAD_REACTORS
330
C
102
}
100
AcDbDictionary
281
1
  0
DICTIONARY
  5
1A
102
{ACAD_REACTORS
330
C
102
}
100
AcDbDictionary
281
1
  3
Model
350
492
  3
Layout1
350
493
  0
ACDBPLACEHOLDER
  5
F
102
{ACAD_REACTORS
330
E
102
}
  0
MLINESTYLE
  5
18
102
{ACAD_REACTORS
330
17
102
}
100
AcDbMlineStyle
  2
STANDARD
 70
0
  3

 62
256
 51
90.0
 52
90.0
 71
2
 49
0.5
 62
256
  6
BYLAYER
 49
-0.5
 62
256
  6
BYLAYER
  0
LAYOUT
  5
492
102
{ACAD_REACTORS
330
1A
102
}
100
AcDbPlotSettings
  1

  2
none_device
  4
ANSI_C_(22.00_x_17.00_Inches)
  6

 40
0.0
 41
0.0
 42
0.0
 43
0.0
 44
558.8
 45
431.8
 46
0.0
 47
0.0
 48
0.0
 49
0.0
140
0.0
141
0.0
142
1.0
143
1.0
 70
1024
 72
0
 73
0
 74
0
  7

 75
0
147
1.0
148
0.0
149
0.0
100
AcDbLayout
  1
Model
 70
0
 71
0
 10
0.0
 20
0.0
 11
22.0
 21
17.0
 12
0.0
 22
0.0
 32
0.0
 14
0.0
 24
0.0
 34
0.0
 15
0.0
 25
0.0
 35
0.0
146
0.0
 13
0.0
 23
0.0
 33
0.0
 16
1.0
 26
0.0
 36
0.0
 17
0.0
 27
1.0
 37
0.0
 76
0
330
205
345
0
346
0
  0
LAYOUT
  5
493
102
{ACAD_REACTORS
330
1A
102
}
100
AcDbPlotSettings
  1

  2
none_device
  4
ANSI_C_(22.00_x_17.00_Inches)
  6

 40
0.0
 41
0.0
 42
0.0
 43
0.0
 44
558.8
 45
431.8
 46
0.0
 47
0.0
 48
0.0
 49
0.0
140
0.0
141
0.0
142
1.0
143
1.0
 70
0
 72
0
 73
0
 74
0
  7

 75
0
147
1.0
148
0.0
149
0.0
100
AcDbLayout
  1
Layout1
 70
0
 71
1
 10
0.0
 20
0.0
 11
22.0
 21
17.0
 12
0.0
 22
0.0
 32
0.0
 14
0.0
 24
0.0
 34
0.0
 15
0.0
 25
0.0
 35
0.0
146
0.0
 13
0.0
 23
0.0
 33
0.0
 16
1.0
 26
0.0
 36
0.0
 17
0.0
 27
1.0
 37
0.0
 76
0
330
206
345
0
346
0
  0
ENDSEC
  0
EOF
