999
DXF file: E:\BT Custom\CADOUTPUT\_TOP.dxf
999
Pro/ENGINEER 2018400 by Parametric Technology Corporation
  0
SECTION
  2
HEADER
  9
$ACADVER
  1
AC1018
  9
$DWGCODEPAGE
  3
ANSI_1252
  9
$EXTMAX
 10
22.0
 20
17.0
 30
0.0
  9
$EXTMIN
 10
0.0
 20
0.0
 30
0.0
  9
$LIMMIN
 10
0.0
 20
0.0
  9
$LIMMAX
 10
22.0
 20
17.0
  9
$VIEWCTR
 10
11.0
 20
8.5
  9
$VIEWSIZE
 40
17.0
  9
$CLAYER
  8
0
  9
$LTSCALE
 40
1.21
  9
$CELTYPE
  6
BYLAYER
  9
$DIMSCALE
 40
1.0
  9
$DIMASZ
 40
0.1
  9
$DIMEXO
 40
0.0625
  9
$DIMDLI
 40
0.836
  9
$DIMEXE
 40
0.125
  9
$DIMCEN
 40
0.198
  9
$DIMLFAC
 40
1.0
  9
$DIMBLK
  1
_FILLED
  9
$DIMALT
 70
1
  9
$DIMALTD
 70
2
  9
$DIMALTTD
 70
2
  9
$DIMALTF
 40
25.4
  9
$DIMTXT
 40
0.08
  9
$DIMTOL
 70
1
  9
$DIMLIM
 70
0
  9
$DIMTFAC
 40
1.0
  9
$DIMTP
 40
0.001
  9
$DIMTM
 40
0.001
  9
$DIMGAP
 40
0.09
  9
$DIMDSEP
 70
46
  9
$AUNITS
 70
0
  9
$PDMODE
 70
3
  9
$PDSIZE
 40
0.06
  9
$HANDSEED
  5
27D
  9
$TILEMODE
 70
1
  9
$MEASUREMENT
 70
0
  9
$INSUNITS
 70
1
  0
ENDSEC
  0
SECTION
  2
CLASSES
  0
CLASS
  1
ACDBDICTIONARYWDFLT
  2
AcDbDictionaryWithDefault
  3
AutoCAD 2000
 90
0
 91
1
280
0
281
0
  0
CLASS
  1
ACDBPLACEHOLDER
  2
AcDbPlaceHolder
  3
AutoCAD 2000
 90
0
 91
1
280
0
281
0
  0
CLASS
  1
LAYOUT
  2
AcDbLayout
  3
AutoCAD 2000
 90
0
 91
0
280
0
281
0
  0
ENDSEC
  0
SECTION
  2
TABLES
  0
TABLE
  2
VPORT
  5
8
100
AcDbSymbolTable
 70
2
  0
VPORT
  5
1F4
100
AcDbSymbolTableRecord
100
AcDbViewportTableRecord
  2
*ACTIVE
 70
0
 10
0.0
 20
0.0
 11
1.0
 21
1.0
 12
11.0
 22
8.5
 13
0.0
 23
0.0
 14
1.0
 24
1.0
 15
0.0
 25
0.0
 16
0.0
 26
0.0
 36
1.0
 17
0.0
 27
0.0
 37
0.0
 40
17.0
 41
1.2941176471
 42
50.0
 43
0.0
 44
0.0
 50
0.0
 51
0.0
 71
0
 72
100
 73
1
 74
1
 75
0
 76
0
 77
0
 78
0
  0
ENDTAB
  0
TABLE
  2
LTYPE
  5
5
100
AcDbSymbolTable
 70
6
  0
LTYPE
  5
14
100
AcDbSymbolTableRecord
100
AcDbLinetypeTableRecord
  2
BYBLOCK
 70
0
  3

 72
65
 73
0
 40
0.0
  0
LTYPE
  5
15
100
AcDbSymbolTableRecord
100
AcDbLinetypeTableRecord
  2
BYLAYER
 70
0
  3

 72
65
 73
0
 40
0.0
  0
LTYPE
  5
16
100
AcDbSymbolTableRecord
100
AcDbLinetypeTableRecord
  2
CONTINUOUS
 70
64
  3
Solid line
 72
65
 73
0
 40
0.0
  0
LTYPE
  5
1F5
100
AcDbSymbolTableRecord
100
AcDbLinetypeTableRecord
  2
CENTER
 70
64
  3
____ _ ____ _ ____ _ ____ _ ____ _ ____ _ ____
 72
65
 73
4
 40
0.6
 49
0.375
 74
0
 49
-0.075
 74
0
 49
0.075
 74
0
 49
-0.075
 74
0
  0
LTYPE
  5
1F6
100
AcDbSymbolTableRecord
100
AcDbLinetypeTableRecord
  2
HIDDEN
 70
64
  3
- - - - - - - - - - - - - - - - - - - -
 72
65
 73
2
 40
0.2
 49
0.1
 74
0
 49
-0.1
 74
0
  0
LTYPE
  5
1F7
100
AcDbSymbolTableRecord
100
AcDbLinetypeTableRecord
  2
PHANTOM
 70
64
  3
_____ _ _ _____ _ _ _____ _ _ _____
 72
65
 73
6
 40
0.8
 49
0.45
 74
0
 49
-0.05
 74
0
 49
0.1
 74
0
 49
-0.05
 74
0
 49
0.1
 74
0
 49
-0.05
 74
0
  0
LTYPE
  5
1F8
100
AcDbSymbolTableRecord
100
AcDbLinetypeTableRecord
  2
DOT
 70
64
  3
. . . . . . . . . . . . . . . . . . . .
 72
65
 73
2
 40
0.2
 49
0.1
 74
0
 49
-0.1
 74
0
  0
LTYPE
  5
1F9
100
AcDbSymbolTableRecord
100
AcDbLinetypeTableRecord
  2
DASHED
 70
64
  3
- - - - - - - - - - - - - - - - - - - -
 72
65
 73
2
 40
0.2
 49
0.1
 74
0
 49
-0.1
 74
0
  0
ENDTAB
  0
TABLE
  2
LAYER
  5
2
100
AcDbSymbolTable
 70
36
  0
LAYER
  5
10
100
AcDbSymbolTableRecord
100
AcDbLayerTableRecord
  2
0
 70
0
 62
7
  6
CONTINUOUS
370
-3
390
F
  0
LAYER
  5
1FA
100
AcDbSymbolTableRecord
100
AcDbLayerTableRecord
  2
DEFAULT_1
 70
0
 62
7
  6
CENTER
370
-3
390
F
  0
LAYER
  5
1FB
100
AcDbSymbolTableRecord
100
AcDbLayerTableRecord
  2
DEFAULT_2
 70
0
 62
8
  6
HIDDEN
370
-3
390
F
  0
LAYER
  5
1FC
100
AcDbSymbolTableRecord
100
AcDbLayerTableRecord
  2
DEFAULT_3
 70
0
 62
7
  6
PHANTOM
370
-3
390
F
  0
LAYER
  5
1FD
100
AcDbSymbolTableRecord
100
AcDbLayerTableRecord
  2
ALL_FEATURES
 70
0
 62
7
  6
CONTINUOUS
370
-3
390
F
  0
LAYER
  5
1FE
100
AcDbSymbolTableRecord
100
AcDbLayerTableRecord
  2
AXES_FEATURES
 70
0
 62
7
  6
CONTINUOUS
370
-3
390
F
  0
LAYER
  5
1FF
100
AcDbSymbolTableRecord
100
AcDbLayerTableRecord
  2
DEFAULT_COORDINATE_SYSTEM
 70
0
 62
7
  6
CONTINUOUS
370
-3
390
F
  0
LAYER
  5
200
100
AcDbSymbolTableRecord
100
AcDbLayerTableRecord
  2
DEFAULT_DATUM_AXES
 70
0
 62
7
  6
CONTINUOUS
370
-3
390
F
  0
LAYER
  5
201
100
AcDbSymbolTableRecord
100
AcDbLayerTableRecord
  2
DEFAULT_DATUM_PLANES
 70
0
 62
7
  6
CONTINUOUS
370
-3
390
F
  0
LAYER
  5
202
100
AcDbSymbolTableRecord
100
AcDbLayerTableRecord
  2
DIMENSIONS
 70
0
 62
7
  6
CONTINUOUS
370
-3
390
F
  0
ENDTAB
  0
TABLE
  2
STYLE
  5
3
100
AcDbSymbolTable
 70
1
  0
STYLE
  5
11
100
AcDbSymbolTableRecord
100
AcDbTextStyleTableRecord
  2
STANDARD
 70
0
 40
0.0
 41
0.8
 50
0.0
 71
0
 42
0.2
  3
txt
  4

  0
STYLE
  5
203
100
AcDbSymbolTableRecord
100
AcDbTextStyleTableRecord
  2
TEXTSTYLE_1
 70
0
 40
0.0
 41
0.8
 50
0.0
 71
0
 42
0.2
  3
gdt
  4

  0
ENDTAB
  0
TABLE
  2
VIEW
  5
6
100
AcDbSymbolTable
 70
0
  0
ENDTAB
  0
TABLE
  2
UCS
  5
7
100
AcDbSymbolTable
 70
0
  0
ENDTAB
  0
TABLE
  2
APPID
  5
9
100
AcDbSymbolTable
 70
1
  0
APPID
  5
204
100
AcDbSymbolTableRecord
100
AcDbRegAppTableRecord
  2
ACAD
 70
0
  0
ENDTAB
  0
TABLE
  2
BLOCK_RECORD
  5
1
100
AcDbSymbolTable
 70
0
  0
BLOCK_RECORD
  5
205
100
AcDbSymbolTableRecord
100
AcDbBlockTableRecord
  2
*Model_Space
  0
BLOCK_RECORD
  5
206
100
AcDbSymbolTableRecord
100
AcDbBlockTableRecord
  2
*Paper_Space
  0
BLOCK_RECORD
  5
207
100
AcDbSymbolTableRecord
100
AcDbBlockTableRecord
  2
_FILLED
  0
ENDTAB
  0
TABLE
  2
DIMSTYLE
  5
A
100
AcDbSymbolTable
 70
1
100
AcDbDimStyleTable
 71
0
  0
DIMSTYLE
105
208
100
AcDbSymbolTableRecord
100
AcDbDimStyleTableRecord
  2
STANDARD
 70
0
  3

  4

 40
1.0
 41
0.1
 42
0.0625
 43
0.38
 44
0.125
 45
0.0
 46
0.0
 47
0.001
 48
0.001
140
0.08
141
0.09
142
0.0
143
25.4
144
1.0
145
0.0
146
1.0
147
0.09
 71
1.0
 72
0.0
 73
1
 74
1
 75
0
 76
0
 77
0
 78
4
 79
1
170
1
171
2
172
0
173
0
174
0
175
0
176
0
177
0
178
0
270
2
179
3
271
3
272
3
273
2
274
2
275
0
280
0
281
0
282
0
283
1
284
4
285
0
286
0
287
3
288
0
340
11
278
46
341
207
342
207
343
207
344
207
  0
ENDTAB
  0
ENDSEC
  0
SECTION
  2
BLOCKS
  0
BLOCK
  5
20
100
AcDbEntity
  8
0
100
AcDbBlockBegin
  2
*Model_Space
 70
0
 10
0.0
 20
0.0
 30
0.0
  3
*Model_Space
  1

  0
ENDBLK
  5
21
100
AcDbEntity
  8
0
100
AcDbBlockEnd
  0
BLOCK
  5
1C
100
AcDbEntity
  8
0
100
AcDbBlockBegin
  2
*Paper_Space
 70
0
 10
0.0
 20
0.0
 30
0.0
  3
*Paper_Space
  1

  0
ENDBLK
  5
1D
100
AcDbEntity
  8
0
100
AcDbBlockEnd
  0
BLOCK
  5
209
100
AcDbEntity
  8
0
100
AcDbBlockBegin
  2
_FILLED
 70
64
 10
0.0
 20
0.0
  3
_FILLED
  1

  0
SOLID
  5
20A
100
AcDbEntity
  8
0
  6
BYBLOCK
 62
0
100
AcDbTrace
 10
0.0
 20
0.0
 11
-1.0
 21
0.2
 12
-1.0
 22
-0.2
 13
-1.0
 23
-0.2
  0
ENDBLK
  5
20B
100
AcDbEntity
  8
0
  6
BYBLOCK
 62
0
100
AcDbBlockEnd
  0
ENDSEC
  0
SECTION
  2
ENTITIES
  0
LINE
  5
20C
100
AcDbEntity
  8
0
100
AcDbLine
 62
7
  6
CONTINUOUS
 10
7.1723183383
 20
13.4482500228
 11
7.1723183383
 21
13.7282500228
  0
LINE
  5
20D
100
AcDbEntity
  8
0
100
AcDbLine
 62
9
  6
CONTINUOUS
 10
7.2023183383
 20
13.4182500228
 11
7.2023183383
 21
13.7282500228
  0
LINE
  5
20E
100
AcDbEntity
  8
0
100
AcDbLine
 62
7
  6
CONTINUOUS
 10
8.0923183383
 20
3.9560212602
 11
8.0923183383
 21
3.334701033
  0
LINE
  5
20F
100
AcDbEntity
  8
0
100
AcDbLine
 62
7
  6
CONTINUOUS
 10
11.8623183383
 20
4.7282500228
 11
10.2323183383
 21
4.7282500228
  0
LINE
  5
210
100
AcDbEntity
  8
0
100
AcDbLine
 62
9
  6
CONTINUOUS
 10
10.1723183383
 20
4.7882500228
 11
11.9223183383
 21
4.7882500228
  0
LINE
  5
211
100
AcDbEntity
  8
0
100
AcDbLine
 62
7
  6
CONTINUOUS
 10
11.0470430645
 20
4.6490475482
 11
11.0479866454
 21
4.6490478781
  0
LINE
  5
212
100
AcDbEntity
  8
0
100
AcDbLine
 62
7
  6
CONTINUOUS
 10
9.4773183383
 20
10.4022500228
 11
9.4773183383
 21
10.7922500228
  0
LINE
  5
213
100
AcDbEntity
  8
0
100
AcDbLine
 62
9
  6
CONTINUOUS
 10
9.5073183383
 20
10.3722500228
 11
9.5073183383
 21
10.8222500228
  0
LINE
  5
214
100
AcDbEntity
  8
0
100
AcDbLine
 62
7
  6
CONTINUOUS
 10
9.5873183383
 20
4.1617893335
 11
9.5873183383
 21
3.9984476671
  0
LINE
  5
215
100
AcDbEntity
  8
0
100
AcDbLine
 62
7
  6
CONTINUOUS
 10
9.9973183383
 20
13.0982500228
 11
9.9973183383
 21
13.4182500228
  0
LINE
  5
216
100
AcDbEntity
  8
0
100
AcDbLine
 62
9
  6
CONTINUOUS
 10
10.0273183383
 20
13.0682500228
 11
10.0273183383
 21
13.4182500228
  0
LINE
  5
217
100
AcDbEntity
  8
0
100
AcDbLine
 62
7
  6
CONTINUOUS
 10
10.1723183383
 20
4.7882500228
 11
10.1723183383
 21
13.7282500228
  0
LINE
  5
218
100
AcDbEntity
  8
0
100
AcDbLine
 62
9
  6
CONTINUOUS
 10
10.2323183383
 20
4.7282500228
 11
10.2323183383
 21
13.7282500228
  0
LINE
  5
219
100
AcDbEntity
  8
0
100
AcDbLine
 62
7
  6
CONTINUOUS
 10
10.3473183383
 20
4.3343233881
 11
10.3473183383
 21
4.2042157404
  0
LINE
  5
21A
100
AcDbEntity
  8
0
100
AcDbLine
 62
7
  6
CONTINUOUS
 10
10.3473183383
 20
4.3626076594
 11
10.3473183383
 21
4.496250841
  0
LINE
  5
21B
100
AcDbEntity
  8
0
100
AcDbLine
 62
7
  6
CONTINUOUS
 10
10.3973183383
 20
4.3125391103
 11
10.3973183383
 21
4.7282500228
  0
LINE
  5
21C
100
AcDbEntity
  8
0
100
AcDbLine
 62
7
  6
CONTINUOUS
 10
10.9226939025
 20
4.7282500228
 11
10.9226939025
 21
4.7164857746
  0
LINE
  5
21D
100
AcDbEntity
  8
0
100
AcDbLine
 62
7
  6
CONTINUOUS
 10
11.1719427741
 20
4.7282500228
 11
11.1719427741
 21
4.7164857746
  0
LINE
  5
21E
100
AcDbEntity
  8
0
100
AcDbLine
 62
7
  6
CONTINUOUS
 10
11.6973183383
 20
4.3125391103
 11
11.6973183383
 21
4.7282500228
  0
LINE
  5
21F
100
AcDbEntity
  8
0
100
AcDbLine
 62
7
  6
CONTINUOUS
 10
11.7473183383
 20
4.3343233881
 11
11.7473183383
 21
4.2042157404
  0
LINE
  5
220
100
AcDbEntity
  8
0
100
AcDbLine
 62
7
  6
CONTINUOUS
 10
11.7473183383
 20
4.3626076594
 11
11.7473183383
 21
4.496250841
  0
LINE
  5
221
100
AcDbEntity
  8
0
100
AcDbLine
 62
9
  6
CONTINUOUS
 10
11.8623183383
 20
4.7282500228
 11
11.8623183383
 21
13.7282500228
  0
LINE
  5
222
100
AcDbEntity
  8
0
100
AcDbLine
 62
7
  6
CONTINUOUS
 10
11.9223183383
 20
13.7282500228
 11
11.9223183383
 21
4.7882500228
  0
LINE
  5
223
100
AcDbEntity
  8
0
100
AcDbLine
 62
9
  6
CONTINUOUS
 10
12.0673183383
 20
13.0682500228
 11
12.0673183383
 21
13.4182500228
  0
LINE
  5
224
100
AcDbEntity
  8
0
100
AcDbLine
 62
7
  6
CONTINUOUS
 10
12.0973183383
 20
13.0982500228
 11
12.0973183383
 21
13.4182500228
  0
LINE
  5
225
100
AcDbEntity
  8
0
100
AcDbLine
 62
7
  6
CONTINUOUS
 10
12.5073183383
 20
4.1617893335
 11
12.5073183383
 21
3.9984476671
  0
LINE
  5
226
100
AcDbEntity
  8
0
100
AcDbLine
 62
9
  6
CONTINUOUS
 10
12.5873183383
 20
10.3722500228
 11
12.5873183383
 21
10.8222500228
  0
LINE
  5
227
100
AcDbEntity
  8
0
100
AcDbLine
 62
7
  6
CONTINUOUS
 10
12.6173183383
 20
10.4022500228
 11
12.6173183383
 21
10.7922500228
  0
LINE
  5
228
100
AcDbEntity
  8
0
100
AcDbLine
 62
7
  6
CONTINUOUS
 10
14.0023183383
 20
3.9560212602
 11
14.0023183383
 21
3.334701033
  0
LINE
  5
229
100
AcDbEntity
  8
0
100
AcDbLine
 62
7
  6
CONTINUOUS
 10
12.5873183383
 20
10.3722500228
 11
11.9223183383
 21
10.3722500228
  0
LINE
  5
22A
100
AcDbEntity
  8
0
100
AcDbLine
 62
7
  6
CONTINUOUS
 10
10.1723183383
 20
10.3722500228
 11
9.5073183383
 21
10.3722500228
  0
LINE
  5
22B
100
AcDbEntity
  8
0
100
AcDbLine
 62
9
  6
CONTINUOUS
 10
12.6173183383
 20
10.4022500228
 11
11.9223183383
 21
10.4022500228
  0
LINE
  5
22C
100
AcDbEntity
  8
0
100
AcDbLine
 62
9
  6
CONTINUOUS
 10
10.1723183383
 20
10.4022500228
 11
9.4773183383
 21
10.4022500228
  0
LINE
  5
22D
100
AcDbEntity
  8
0
100
AcDbLine
 62
9
  6
CONTINUOUS
 10
9.4773183383
 20
10.7922500228
 11
10.1723183383
 21
10.7922500228
  0
LINE
  5
22E
100
AcDbEntity
  8
0
100
AcDbLine
 62
9
  6
CONTINUOUS
 10
11.9223183383
 20
10.7922500228
 11
12.6173183383
 21
10.7922500228
  0
LINE
  5
22F
100
AcDbEntity
  8
0
100
AcDbLine
 62
7
  6
CONTINUOUS
 10
9.5073183383
 20
10.8222500228
 11
10.1723183383
 21
10.8222500228
  0
LINE
  5
230
100
AcDbEntity
  8
0
100
AcDbLine
 62
7
  6
CONTINUOUS
 10
11.9223183383
 20
10.8222500228
 11
12.5873183383
 21
10.8222500228
  0
LINE
  5
231
100
AcDbEntity
  8
0
100
AcDbLine
 62
9
  6
CONTINUOUS
 10
14.8923183383
 20
13.4182500228
 11
14.8923183383
 21
13.7282500228
  0
LINE
  5
232
100
AcDbEntity
  8
0
100
AcDbLine
 62
7
  6
CONTINUOUS
 10
14.9223183383
 20
13.4482500228
 11
14.9223183383
 21
13.7282500228
  0
LINE
  5
233
100
AcDbEntity
  8
0
100
AcDbLine
 62
7
  6
CONTINUOUS
 10
12.0673183383
 20
13.0682500228
 11
11.9223183383
 21
13.0682500228
  0
LINE
  5
234
100
AcDbEntity
  8
0
100
AcDbLine
 62
7
  6
CONTINUOUS
 10
10.1723183383
 20
13.0682500228
 11
10.0273183383
 21
13.0682500228
  0
LINE
  5
235
100
AcDbEntity
  8
0
100
AcDbLine
 62
9
  6
CONTINUOUS
 10
12.0973183383
 20
13.0982500228
 11
11.9223183383
 21
13.0982500228
  0
LINE
  5
236
100
AcDbEntity
  8
0
100
AcDbLine
 62
9
  6
CONTINUOUS
 10
10.1723183383
 20
13.0982500228
 11
9.9973183383
 21
13.0982500228
  0
LINE
  5
237
100
AcDbEntity
  8
0
100
AcDbLine
 62
7
  6
CONTINUOUS
 10
14.8923183383
 20
13.4182500228
 11
11.9223183383
 21
13.4182500228
  0
LINE
  5
238
100
AcDbEntity
  8
0
100
AcDbLine
 62
7
  6
CONTINUOUS
 10
10.1723183383
 20
13.4182500228
 11
7.2023183383
 21
13.4182500228
  0
LINE
  5
239
100
AcDbEntity
  8
0
100
AcDbLine
 62
9
  6
CONTINUOUS
 10
14.9223183383
 20
13.4482500228
 11
11.9223183383
 21
13.4482500228
  0
LINE
  5
23A
100
AcDbEntity
  8
0
100
AcDbLine
 62
9
  6
CONTINUOUS
 10
10.1723183383
 20
13.4482500228
 11
7.1723183383
 21
13.4482500228
  0
LINE
  5
23B
100
AcDbEntity
  8
0
100
AcDbLine
 62
7
  6
CONTINUOUS
 10
7.1723183383
 20
13.7282500228
 11
14.9223183383
 21
13.7282500228
  0
ARC
  5
23C
100
AcDbEntity
  8
0
100
AcDbCircle
 62
9
  6
CONTINUOUS
 10
11.0002487371
 20
5.7394525776
 40
3.8264365568
100
AcDbArc
 50
255.9041551974
 51
257.2054639385
  0
ARC
  5
23D
100
AcDbEntity
  8
0
100
AcDbCircle
 62
9
  6
CONTINUOUS
 10
10.3434398748
 20
3.9697165266
 40
0.7868857677
100
AcDbArc
 50
163.5732409525
 51
165.7571743713
  0
ARC
  5
23E
100
AcDbEntity
  8
0
100
AcDbCircle
 62
9
  6
CONTINUOUS
 10
10.3125292983
 20
3.9766309217
 40
0.7552170665
100
AcDbArc
 50
165.6886576039
 51
179.9542109444
  0
ARC
  5
23F
100
AcDbEntity
  8
0
100
AcDbCircle
 62
9
  6
CONTINUOUS
 10
11.0387684193
 20
5.2910578909
 40
0.5861795034
100
AcDbArc
 50
253.8281400057
 51
258.578876785
  0
ARC
  5
240
100
AcDbEntity
  8
0
100
AcDbCircle
 62
7
  6
CONTINUOUS
 10
10.7080334893
 20
4.3626273098
 40
0.3607151516
100
AcDbArc
 50
180.0031212593
 51
184.4888824328
  0
ARC
  5
241
100
AcDbEntity
  8
0
100
AcDbCircle
 62
7
  6
CONTINUOUS
 10
10.7074291526
 20
4.3343191288
 40
0.3601108143
100
AcDbArc
 50
177.746430169
 51
179.999322312
  0
ARC
  5
242
100
AcDbEntity
  8
0
100
AcDbCircle
 62
7
  6
CONTINUOUS
 10
10.2323183383
 20
4.7882500228
 40
0.06
100
AcDbArc
 50
180.0
 51
270.0
  0
ARC
  5
243
100
AcDbEntity
  8
0
100
AcDbCircle
 62
7
  6
CONTINUOUS
 10
7.2023183383
 20
13.4482500228
 40
0.03
100
AcDbArc
 50
180.0
 51
270.0
  0
ARC
  5
244
100
AcDbEntity
  8
0
100
AcDbCircle
 62
7
  6
CONTINUOUS
 10
10.0273183383
 20
13.0982500228
 40
0.03
100
AcDbArc
 50
180.0
 51
270.0
  0
ARC
  5
245
100
AcDbEntity
  8
0
100
AcDbCircle
 62
7
  6
CONTINUOUS
 10
9.5073183383
 20
10.7922500228
 40
0.03
100
AcDbArc
 50
90.0
 51
180.0
  0
ARC
  5
246
100
AcDbEntity
  8
0
100
AcDbCircle
 62
7
  6
CONTINUOUS
 10
9.5073183383
 20
10.4022500228
 40
0.03
100
AcDbArc
 50
180.0
 51
270.0
  0
ARC
  5
247
100
AcDbEntity
  8
0
100
AcDbCircle
 62
9
  6
CONTINUOUS
 10
11.0473183383
 20
6.0282961762
 40
4.1617861763
100
AcDbArc
 50
262.6248995921
 51
277.3751004079
  0
ARC
  5
248
100
AcDbEntity
  8
0
100
AcDbCircle
 62
9
  6
CONTINUOUS
 10
11.0965567661
 20
5.7303805419
 40
3.8171094782
100
AcDbArc
 50
282.7929461237
 51
284.0974347405
  0
ARC
  5
249
100
AcDbEntity
  8
0
100
AcDbCircle
 62
9
  6
CONTINUOUS
 10
11.7530367722
 20
3.9702210884
 40
0.7849782173
100
AcDbArc
 50
14.2401716458
 51
16.4294805573
  0
ARC
  5
24A
100
AcDbEntity
  8
0
100
AcDbCircle
 62
9
  6
CONTINUOUS
 10
11.7821073782
 20
3.9766309217
 40
0.7552170665
100
AcDbArc
 50
0.0457890574
 51
14.3113424147
  0
ARC
  5
24B
100
AcDbEntity
  8
0
100
AcDbCircle
 62
9
  6
CONTINUOUS
 10
11.0545855457
 20
5.2962815376
 40
0.5915537556
100
AcDbArc
 50
281.4427155867
 51
286.1502677202
  0
ARC
  5
24C
100
AcDbEntity
  8
0
100
AcDbCircle
 62
7
  6
CONTINUOUS
 10
11.3869504649
 20
4.3626136889
 40
0.3603678734
100
AcDbArc
 50
355.5089587378
 51
359.9990413537
  0
ARC
  5
24D
100
AcDbEntity
  8
0
100
AcDbCircle
 62
7
  6
CONTINUOUS
 10
11.3872075147
 20
4.3343191303
 40
0.3601108236
100
AcDbArc
 50
0.0006774428
 51
2.2535706311
  0
ARC
  5
24E
100
AcDbEntity
  8
0
100
AcDbCircle
 62
7
  6
CONTINUOUS
 10
11.8623183383
 20
4.7882500228
 40
0.06
100
AcDbArc
 50
270.0
 51
360.0
  0
ARC
  5
24F
100
AcDbEntity
  8
0
100
AcDbCircle
 62
7
  6
CONTINUOUS
 10
14.8923183383
 20
13.4482500228
 40
0.03
100
AcDbArc
 50
270.0
 51
360.0
  0
ARC
  5
250
100
AcDbEntity
  8
0
100
AcDbCircle
 62
7
  6
CONTINUOUS
 10
12.0673183383
 20
13.0982500228
 40
0.03
100
AcDbArc
 50
270.0
 51
360.0
  0
ARC
  5
251
100
AcDbEntity
  8
0
100
AcDbCircle
 62
7
  6
CONTINUOUS
 10
12.5873183383
 20
10.7922500228
 40
0.03
100
AcDbArc
 50
0.0
 51
90.0
  0
ARC
  5
252
100
AcDbEntity
  8
0
100
AcDbCircle
 62
7
  6
CONTINUOUS
 10
12.5873183383
 20
10.4022500228
 40
0.03
100
AcDbArc
 50
270.0
 51
360.0
  0
SPLINE
  5
253
100
AcDbEntity
  8
0
100
AcDbSpline
 62
7
  6
CONTINUOUS
 70
0
 71
3
 72
14
 73
10
 74
0
 42
0.0000001
 43
0.0000001
 44
0.0000000001
 40
0.0
 40
0.0
 40
0.0
 40
0.0
 40
0.2539914999
 40
0.3804481392
 40
0.5062206774
 40
0.6311444531
 40
0.7551094596
 40
0.8780606626
 40
1.0
 40
1.0
 40
1.0
 40
1.0
 10
11.0470430645
 20
4.6490475483
 30
0.0
 10
11.0220517732
 20
4.6490598011
 30
0.0
 10
10.9845533107
 20
4.6515766905
 30
0.0
 10
10.9354243155
 20
4.6599388158
 30
0.0
 10
10.8993240623
 20
4.6686742137
 30
0.0
 10
10.8641641557
 20
4.6798558973
 30
0.0
 10
10.8301618797
 20
4.6934545735
 30
0.0
 10
10.7975387591
 20
4.7094343492
 30
0.0
 10
10.7767643594
 20
4.7217017744
 30
0.0
 10
10.7666899791
 20
4.7282180521
 30
0.0
  0
SPLINE
  5
254
100
AcDbEntity
  8
0
100
AcDbSpline
 62
7
  6
CONTINUOUS
 70
0
 71
3
 72
13
 73
9
 74
0
 42
0.0000001
 43
0.0000001
 44
0.0000000001
 40
0.0
 40
0.0
 40
0.0
 40
0.0
 40
0.2610981934
 40
0.3902220177
 40
0.5175934836
 40
0.6426975328
 40
0.7650768114
 40
1.0
 40
1.0
 40
1.0
 40
1.0
 10
11.0479866454
 20
4.6490478788
 30
0.0
 10
11.0732985587
 20
4.6490780216
 30
0.0
 10
11.1111947842
 20
4.6516758846
 30
0.0
 10
11.1606598961
 20
4.6602694571
 30
0.0
 10
11.1966028531
 20
4.6691619815
 30
0.0
 10
11.2311857753
 20
4.6804460583
 30
0.0
 10
11.2744434735
 20
4.6982846233
 30
0.0
 10
11.3048865437
 20
4.7152541211
 30
0.0
 10
11.3236826593
 20
4.7281141439
 30
0.0
  0
SPLINE
  5
255
100
AcDbEntity
  8
0
100
AcDbSpline
 62
7
  6
CONTINUOUS
 70
0
 71
3
 72
14
 73
10
 74
0
 42
0.0000001
 43
0.0000001
 44
0.0000000001
 40
0.0
 40
0.0
 40
0.0
 40
0.0
 40
0.121944524
 40
0.2448990001
 40
0.3688650212
 40
0.493787865
 40
0.6195579996
 40
0.7460119734
 40
1.0
 40
1.0
 40
1.0
 40
1.0
 10
11.3278317786
 20
4.7281437505
 30
0.0
 10
11.3177730281
 20
4.7216419866
 30
0.0
 10
11.2970324295
 20
4.7094009931
 30
0.0
 10
11.2644657076
 20
4.6934523212
 30
0.0
 10
11.2305248605
 20
4.6798763206
 30
0.0
 10
11.1954302542
 20
4.6687087092
 30
0.0
 10
11.1593979797
 20
4.6599785515
 30
0.0
 10
11.110361403
 20
4.6516115707
 30
0.0
 10
11.0729327664
 20
4.6490775697
 30
0.0
 10
11.0479866454
 20
4.6490478785
 30
0.0
  0
SPLINE
  5
256
100
AcDbEntity
  8
0
100
AcDbSpline
 62
7
  6
CONTINUOUS
 70
0
 71
3
 72
19
 73
15
 74
0
 42
0.0000001
 43
0.0000001
 44
0.0000000001
 40
0.0
 40
0.0
 40
0.0
 40
0.0
 40
0.0525835218
 40
0.1064724164
 40
0.1617839153
 40
0.2185950912
 40
0.3367502859
 40
0.3981429862
 40
0.4609768419
 40
0.5905141761
 40
0.724419505
 40
0.7926393894
 40
0.8614437506
 40
1.0
 40
1.0
 40
1.0
 40
1.0
 10
10.723359273
 20
4.7282448379
 30
0.0
 10
10.7264415694
 20
4.7223818826
 30
0.0
 10
10.7332619517
 20
4.7108063516
 30
0.0
 10
10.7451820237
 20
4.694245447
 30
0.0
 10
10.7588414294
 20
4.6783761835
 30
0.0
 10
10.7795268374
 20
4.6580034003
 30
0.0
 10
10.8031614732
 20
4.6396821198
 30
0.0
 10
10.8291162606
 20
4.6235724398
 30
0.0
 10
10.8573626324
 20
4.6085592062
 30
0.0
 10
10.8954539685
 20
4.5928273468
 30
0.0
 10
10.9357731889
 20
4.5815221455
 30
0.0
 10
10.9693033193
 20
4.5750782961
 30
0.0
 10
11.0037148217
 20
4.5704095124
 30
0.0
 10
11.029864779
 20
4.5690114007
 30
0.0
 10
11.0473183383
 20
4.5690114007
 30
0.0
  0
SPLINE
  5
257
100
AcDbEntity
  8
0
100
AcDbSpline
 62
7
  6
CONTINUOUS
 70
0
 71
3
 72
51
 73
47
 74
0
 42
0.0000001
 43
0.0000001
 44
0.0000000001
 40
0.0
 40
0.0
 40
0.0
 40
0.0
 40
0.0130491553
 40
0.0261516184
 40
0.0393316323
 40
0.0526121929
 40
0.066014709
 40
0.0795592868
 40
0.0932642879
 40
0.1071461944
 40
0.1212194187
 40
0.1354962394
 40
0.1499867289
 40
0.1646987336
 40
0.1947985671
 40
0.2258237106
 40
0.2577589395
 40
0.2905583892
 40
0.324149061
 40
0.3584345753
 40
0.3932991381
 40
0.4286114405
 40
0.4642286348
 40
0.5000001842
 40
0.5357717307
 40
0.5713889162
 40
0.6067012045
 40
0.6415657484
 40
0.6758512394
 40
0.709441884
 40
0.7422413025
 40
0.7741764978
 40
0.8052016064
 40
0.8353014047
 40
0.8500133924
 40
0.8645038652
 40
0.8787806699
 40
0.892853879
 40
0.9067357711
 40
0.9204407592
 40
0.9339853251
 40
0.9473878308
 40
0.9606683826
 40
0.9738483895
 40
0.9869508468
 40
1.0
 40
1.0
 40
1.0
 40
1.0
 10
11.746211861
 20
4.334395725
 30
0.0
 10
11.7455846701
 20
4.3264045358
 30
0.0
 10
11.7437940278
 20
4.3104263708
 30
0.0
 10
11.7395225197
 20
4.2866297805
 30
0.0
 10
11.7336741893
 20
4.2630236532
 30
0.0
 10
11.7262671908
 20
4.2396666105
 30
0.0
 10
11.717322138
 20
4.2166144145
 30
0.0
 10
11.7068653016
 20
4.1939207193
 30
0.0
 10
11.6949244138
 20
4.1716376173
 30
0.0
 10
11.6815319641
 20
4.1498143607
 30
0.0
 10
11.6667218349
 20
4.1284988267
 30
0.0
 10
11.6505315234
 20
4.1077365974
 30
0.0
 10
11.6329999572
 20
4.0875709927
 30
0.0
 10
11.6077036481
 20
4.061339879
 30
0.0
 10
11.5728708934
 20
4.030286725
 30
0.0
 10
11.5267759613
 20
3.9963505476
 30
0.0
 10
11.4764729038
 20
3.9657210602
 30
0.0
 10
11.4224091253
 20
3.9386477088
 30
0.0
 10
11.3650580082
 20
3.9153492614
 30
0.0
 10
11.3049214763
 20
3.8960168635
 30
0.0
 10
11.2425254896
 20
3.8808103265
 30
0.0
 10
11.1784164088
 20
3.8698564055
 30
0.0
 10
11.1131563175
 20
3.8632469454
 30
0.0
 10
11.0473180114
 20
3.8610375951
 30
0.0
 10
10.9814797123
 20
3.8632469913
 30
0.0
 10
10.9162196413
 20
3.8698564947
 30
0.0
 10
10.8521105931
 20
3.8808104538
 30
0.0
 10
10.7897146497
 20
3.896017022
 30
0.0
 10
10.7295781696
 20
3.9153494412
 30
0.0
 10
10.672227113
 20
3.9386479044
 30
0.0
 10
10.6181634015
 20
3.9657212632
 30
0.0
 10
10.5678604147
 20
3.9963507485
 30
0.0
 10
10.5217655517
 20
4.0302869125
 30
0.0
 10
10.4869328551
 20
4.0613400504
 30
0.0
 10
10.4616365806
 20
4.0875711387
 30
0.0
 10
10.4441050479
 20
4.1077367321
 30
0.0
 10
10.4279147546
 20
4.1284989381
 30
0.0
 10
10.4131046538
 20
4.1498144577
 30
0.0
 10
10.3997122172
 20
4.1716376916
 30
0.0
 10
10.3877713487
 20
4.1939207766
 30
0.0
 10
10.3773145221
 20
4.2166144523
 30
0.0
 10
10.3683694782
 20
4.2396666314
 30
0.0
 10
10.3609624861
 20
4.2630236591
 30
0.0
 10
10.3551141581
 20
4.2866297734
 30
0.0
 10
10.3508426512
 20
4.3104263545
 30
0.0
 10
10.3490520087
 20
4.3264045147
 30
0.0
 10
10.3484248174
 20
4.3343957025
 30
0.0
  0
SPLINE
  5
258
100
AcDbEntity
  8
0
100
AcDbSpline
 62
7
  6
CONTINUOUS
 70
0
 71
3
 72
22
 73
18
 74
0
 42
0.0000001
 43
0.0000001
 44
0.0000000001
 40
0.0
 40
0.0
 40
0.0
 40
0.0
 40
0.0567979694
 40
0.1137666834
 40
0.1710698924
 40
0.2288685264
 40
0.2873115164
 40
0.3465361205
 40
0.4066647642
 40
0.4678035133
 40
0.5300408142
 40
0.5934467966
 40
0.6580730223
 40
0.7239525313
 40
0.7911002693
 40
0.8595138311
 40
1.0
 40
1.0
 40
1.0
 40
1.0
 10
12.5073183383
 20
4.1617893335
 30
0.0
 10
12.5073183383
 20
4.182051293
 30
0.0
 10
12.5056593307
 20
4.2226554904
 30
0.0
 10
12.4982092861
 20
4.2832901525
 30
0.0
 10
12.485828396
 20
4.3434804166
 30
0.0
 10
12.4685708148
 20
4.4030024357
 30
0.0
 10
12.4465084506
 20
4.461646421
 30
0.0
 10
12.4197314317
 20
4.5192081781
 30
0.0
 10
12.3883454065
 20
4.5754926352
 30
0.0
 10
12.3524704499
 20
4.630313172
 30
0.0
 10
12.3122395711
 20
4.6834915785
 30
0.0
 10
12.2677979581
 20
4.7348576209
 30
0.0
 10
12.2193019952
 20
4.7842489499
 30
0.0
 10
12.1669202695
 20
4.8315099474
 30
0.0
 10
12.1108279717
 20
4.8764951689
 30
0.0
 10
12.0306578278
 20
4.9337444749
 30
0.0
 10
11.9665440895
 20
4.9720795128
 30
0.0
 10
11.9223197134
 20
4.9956567289
 30
0.0
  0
SPLINE
  5
259
100
AcDbEntity
  8
0
100
AcDbSpline
 62
7
  6
CONTINUOUS
 70
0
 71
3
 72
22
 73
18
 74
0
 42
0.0000001
 43
0.0000001
 44
0.0000000001
 40
0.0
 40
0.0
 40
0.0
 40
0.0
 40
0.140485775
 40
0.2088991592
 40
0.2760467407
 40
0.3419261193
 40
0.4065522463
 40
0.4699581662
 40
0.5321954425
 40
0.5933342063
 40
0.6534629038
 40
0.7126875996
 40
0.7711307159
 40
0.8289295069
 40
0.8862328989
 40
0.9432018154
 40
1.0
 40
1.0
 40
1.0
 40
1.0
 10
10.1722909359
 20
4.9956428525
 30
0.0
 10
10.1280683505
 20
4.9720655109
 30
0.0
 10
10.0639572857
 20
4.9337304159
 30
0.0
 10
9.9837905791
 20
4.8764814152
 30
0.0
 10
9.9277007285
 20
4.8314965742
 30
0.0
 10
9.8753213268
 20
4.784236109
 30
0.0
 10
9.8268275475
 20
4.7348454559
 30
0.0
 10
9.7823879577
 20
4.6834802267
 30
0.0
 10
9.7421589305
 20
4.630302757
 30
0.0
 10
9.7062856414
 20
4.5754832692
 30
0.0
 10
9.6749010878
 20
4.5191999608
 30
0.0
 10
9.6481253339
 20
4.4616394395
 30
0.0
 10
9.6260640155
 20
4.4029967645
 30
0.0
 10
9.6088072553
 20
4.3434761143
 30
0.0
 10
9.5964269556
 20
4.2832872622
 30
0.0
 10
9.5889772668
 20
4.2226540387
 30
0.0
 10
9.5873183383
 20
4.1820508116
 30
0.0
 10
9.5873183383
 20
4.1617893335
 30
0.0
  0
SPLINE
  5
25A
100
AcDbEntity
  8
0
100
AcDbSpline
 62
7
  6
CONTINUOUS
 70
0
 71
3
 72
30
 73
26
 74
0
 42
0.0000001
 43
0.0000001
 44
0.0000000001
 40
0.0
 40
0.0
 40
0.0
 40
0.0
 40
0.0268384488
 40
0.0537180118
 40
0.0806760762
 40
0.1077524197
 40
0.1349844283
 40
0.1624079141
 40
0.1900570251
 40
0.2179636637
 40
0.2461573388
 40
0.27466498
 40
0.3035107435
 40
0.3327159184
 40
0.3622988634
 40
0.3922749339
 40
0.4534390703
 40
0.5162871377
 40
0.5808372939
 40
0.6470650403
 40
0.7149068172
 40
0.7842639428
 40
0.855006679
 40
0.9269784577
 40
1.0
 40
1.0
 40
1.0
 40
1.0
 10
14.0023183383
 20
3.9560212602
 30
0.0
 10
14.0023183383
 20
3.9838894162
 30
0.0
 10
14.0007543446
 20
4.0396810016
 30
0.0
 10
13.9937240618
 20
4.1231984093
 30
0.0
 10
13.9820204533
 20
4.2064418122
 30
0.0
 10
13.9656653269
 20
4.289269253
 30
0.0
 10
13.9446883247
 20
4.3715467015
 30
0.0
 10
13.9191268798
 20
4.453139666
 30
0.0
 10
13.8890259157
 20
4.533916117
 30
0.0
 10
13.854438369
 20
4.6137466877
 30
0.0
 10
13.8154240035
 20
4.6925045161
 30
0.0
 10
13.7720489853
 20
4.7700651847
 30
0.0
 10
13.7243865976
 20
4.8463075658
 30
0.0
 10
13.6725166494
 20
4.9211128947
 30
0.0
 10
13.6165229589
 20
4.9943666864
 30
0.0
 10
13.5359598513
 20
5.0904516092
 30
0.0
 10
13.4251901596
 20
5.2060611907
 30
0.0
 10
13.2783232846
 20
5.3358577135
 30
0.0
 10
13.1175379526
 20
5.456896928
 30
0.0
 10
12.9438544837
 20
5.5684464723
 30
0.0
 10
12.7583577642
 20
5.669839993
 30
0.0
 10
12.5622058352
 20
5.7604666538
 30
0.0
 10
12.3566173576
 20
5.8397803961
 30
0.0
 10
12.1428813214
 20
5.9072981755
 30
0.0
 10
11.9967455988
 20
5.9439457932
 30
0.0
 10
11.9226931978
 20
5.9602366506
 30
0.0
  0
SPLINE
  5
25B
100
AcDbEntity
  8
0
100
AcDbSpline
 62
7
  6
CONTINUOUS
 70
0
 71
3
 72
30
 73
26
 74
0
 42
0.0000001
 43
0.0000001
 44
0.0000000001
 40
0.0
 40
0.0
 40
0.0
 40
0.0
 40
0.0730215451
 40
0.1449933244
 40
0.2157360589
 40
0.2850931813
 40
0.3529349543
 40
0.4191626956
 40
0.4837128468
 40
0.5465609096
 40
0.6077250419
 40
0.637701111
 40
0.6672840547
 40
0.6964892289
 40
0.7253349921
 40
0.7538426335
 40
0.7820363093
 40
0.8099429492
 40
0.8375920621
 40
0.8650155503
 40
0.8922475619
 40
0.9193239091
 40
0.9462819777
 40
0.9731615457
 40
1.0
 40
1.0
 40
1.0
 40
1.0
 10
10.1719416126
 20
5.9602362394
 30
0.0
 10
10.0978892631
 20
5.943945351
 30
0.0
 10
9.9517536438
 20
5.907297688
 30
0.0
 10
9.7380177671
 20
5.8397798538
 30
0.0
 10
9.5324294572
 20
5.7604660645
 30
0.0
 10
9.3362776972
 20
5.6698393764
 30
0.0
 10
9.1507811428
 20
5.5684458502
 30
0.0
 10
8.9770978399
 20
5.4568963086
 30
0.0
 10
8.8163126657
 20
5.3358571156
 30
0.0
 10
8.6694459352
 20
5.2060606321
 30
0.0
 10
8.5586763604
 20
5.0904510893
 30
0.0
 10
8.4781133335
 20
4.9943662085
 30
0.0
 10
8.4221197029
 20
4.9211124467
 30
0.0
 10
8.3702498076
 20
4.846307152
 30
0.0
 10
8.3225874674
 20
4.7700648073
 30
0.0
 10
8.2792124948
 20
4.6925041749
 30
0.0
 10
8.2401981681
 20
4.613746385
 30
0.0
 10
8.2056106549
 20
4.5339158536
 30
0.0
 10
8.175509721
 20
4.4531394416
 30
0.0
 10
8.1499483002
 20
4.3715465166
 30
0.0
 10
8.1289713171
 20
4.2892691072
 30
0.0
 10
8.112616206
 20
4.2064417046
 30
0.0
 10
8.1009126075
 20
4.1231983389
 30
0.0
 10
8.0938823307
 20
4.0396809669
 30
0.0
 10
8.0923183383
 20
3.9838894049
 30
0.0
 10
8.0923183383
 20
3.9560212602
 30
0.0
  0
SPLINE
  5
25C
100
AcDbEntity
  8
0
100
AcDbSpline
 62
7
  6
CONTINUOUS
 70
0
 71
3
 72
69
 73
65
 74
0
 42
0.0000001
 43
0.0000001
 44
0.0000000001
 40
0.0
 40
0.0
 40
0.0
 40
0.0
 40
0.0129399442
 40
0.025909553
 40
0.0389373218
 40
0.0520516206
 40
0.0652790499
 40
0.0786446835
 40
0.0921715373
 40
0.1058803657
 40
0.1197894541
 40
0.1339144766
 40
0.1482684147
 40
0.1628615258
 40
0.1777013513
 40
0.1927927546
 40
0.2081380043
 40
0.2237368739
 40
0.2395867552
 40
0.2556827843
 40
0.2720179787
 40
0.2885833793
 40
0.3053681996
 40
0.3223599712
 40
0.339544691
 40
0.3569069687
 40
0.3744301689
 40
0.3920965551
 40
0.409887435
 40
0.4277833009
 40
0.4638031447
 40
0.4818908199
 40
0.5000000307
 40
0.5181092414
 40
0.5361969163
 40
0.5722167585
 40
0.5901126233
 40
0.6079035018
 40
0.6255698864
 40
0.6430930848
 40
0.6604553604
 40
0.6776400779
 40
0.6946318471
 40
0.711416665
 40
0.7279820629
 40
0.7443172544
 40
0.7604132806
 40
0.7762631589
 40
0.7918620255
 40
0.8072072722
 40
0.8222986725
 40
0.837138495
 40
0.8517316032
 40
0.8660855385
 40
0.8802105584
 40
0.8941196444
 40
0.9078284706
 40
0.9213553224
 40
0.9347209543
 40
0.9479483821
 40
0.9610626797
 40
0.9740904477
 40
0.9870600559
 40
1.0
 40
1.0
 40
1.0
 40
1.0
 10
8.0923183383
 20
3.334701033
 30
0.0
 10
8.0923183383
 20
3.3002177139
 30
0.0
 10
8.0947147202
 20
3.231148204
 30
0.0
 10
8.1054832356
 20
3.127866707
 30
0.0
 10
8.1233975742
 20
3.0251066144
 30
0.0
 10
8.1484063801
 20
2.9231346612
 30
0.0
 10
8.1804410383
 20
2.8222039998
 30
0.0
 10
8.2194136545
 20
2.7225654696
 30
0.0
 10
8.265219575
 20
2.6244631269
 30
0.0
 10
8.3177374967
 20
2.5281347418
 30
0.0
 10
8.3768307153
 20
2.4338112931
 30
0.0
 10
8.4423478006
 20
2.341716885
 30
0.0
 10
8.514123223
 20
2.2520686372
 30
0.0
 10
8.5919778872
 20
2.1650766292
 30
0.0
 10
8.6757195226
 20
2.0809438073
 30
0.0
 10
8.765142998
 20
1.9998657828
 30
0.0
 10
8.8600308072
 20
1.92203077
 30
0.0
 10
8.9601534162
 20
1.8476193432
 30
0.0
 10
9.0652696304
 20
1.776804178
 30
0.0
 10
9.1751269955
 20
1.7097497791
 30
0.0
 10
9.2894621837
 20
1.6466120728
 30
0.0
 10
9.4080014879
 20
1.587538036
 30
0.0
 10
9.5304614214
 20
1.5326654482
 30
0.0
 10
9.6565492758
 20
1.4821225258
 30
0.0
 10
9.785963764
 20
1.4360275865
 30
0.0
 10
9.9183955874
 20
1.3944887653
 30
0.0
 10
10.0535284274
 20
1.3576035415
 30
0.0
 10
10.191038417
 20
1.325458723
 30
0.0
 10
10.3305997857
 20
1.2981294908
 30
0.0
 10
10.5193514155
 20
1.2681368366
 30
0.0
 10
10.7103753804
 20
1.2481224327
 30
0.0
 10
10.9025908463
 20
1.2380895337
 30
0.0
 10
11.0473185838
 20
1.2355753778
 30
0.0
 10
11.19204632
 20
1.238089549
 30
0.0
 10
11.3842617794
 20
1.2481224696
 30
0.0
 10
11.5752857331
 20
1.2681369004
 30
0.0
 10
11.7640373488
 20
1.2981295733
 30
0.0
 10
11.9035987041
 20
1.325458818
 30
0.0
 10
12.041108678
 20
1.3576036482
 30
0.0
 10
12.1762414998
 20
1.3944888836
 30
0.0
 10
12.3086733015
 20
1.4360277184
 30
0.0
 10
12.4380877673
 20
1.4821226668
 30
0.0
 10
12.5641755988
 20
1.532665595
 30
0.0
 10
12.6866355086
 20
1.5875381865
 30
0.0
 10
12.8051747878
 20
1.6466122258
 30
0.0
 10
12.9195099493
 20
1.7097499337
 30
0.0
 10
13.029367286
 20
1.776804334
 30
0.0
 10
13.1344834735
 20
1.847619496
 30
0.0
 10
13.234606057
 20
1.9220309171
 30
0.0
 10
13.3294938415
 20
1.9998659224
 30
0.0
 10
13.4189172926
 20
2.0809439381
 30
0.0
 10
13.502658904
 20
2.1650767505
 30
0.0
 10
13.5805135454
 20
2.2520687478
 30
0.0
 10
13.6522889485
 20
2.3417169826
 30
0.0
 10
13.7178060172
 20
2.433811377
 30
0.0
 10
13.7768992213
 20
2.5281348119
 30
0.0
 10
13.8294171306
 20
2.6244631836
 30
0.0
 10
13.8752230406
 20
2.7225655136
 30
0.0
 10
13.914195649
 20
2.8222040319
 30
0.0
 10
13.9462303022
 20
2.9231346826
 30
0.0
 10
13.971239105
 20
3.025106627
 30
0.0
 10
13.9891534417
 20
3.127866713
 30
0.0
 10
13.9999219565
 20
3.2311482061
 30
0.0
 10
14.0023183383
 20
3.3002177142
 30
0.0
 10
14.0023183383
 20
3.334701033
 30
0.0
  0
SPLINE
  5
25D
100
AcDbEntity
  8
0
100
AcDbSpline
 62
7
  6
CONTINUOUS
 70
0
 71
3
 72
15
 73
11
 74
0
 42
0.0000001
 43
0.0000001
 44
0.0000000001
 40
0.0
 40
0.0
 40
0.0
 40
0.0
 40
0.1294271704
 40
0.2571654936
 40
0.3833852904
 40
0.5083131731
 40
0.6321826985
 40
0.7552426612
 40
0.8777657693
 40
1.0
 40
1.0
 40
1.0
 40
1.0
 10
11.6973183383
 20
4.6799625717
 30
0.0
 10
11.7014051069
 20
4.6727327678
 30
0.0
 10
11.7091057471
 20
4.6581251301
 30
0.0
 10
11.7192417935
 20
4.6356934546
 30
0.0
 10
11.7278590929
 20
4.6129425708
 30
0.0
 10
11.7349368692
 20
4.5899260089
 30
0.0
 10
11.7404595949
 20
4.5666955836
 30
0.0
 10
11.7444136911
 20
4.5433032055
 30
0.0
 10
11.7467894632
 20
4.5198045904
 30
0.0
 10
11.7473183383
 20
4.5040942162
 30
0.0
 10
11.7473183383
 20
4.496250841
 30
0.0
  0
SPLINE
  5
25E
100
AcDbEntity
  8
0
100
AcDbSpline
 62
7
  6
CONTINUOUS
 70
0
 71
3
 72
15
 73
11
 74
0
 42
0.0000001
 43
0.0000001
 44
0.0000000001
 40
0.0
 40
0.0
 40
0.0
 40
0.0
 40
0.1222342307
 40
0.2447573388
 40
0.3678173015
 40
0.4916868269
 40
0.6166147096
 40
0.7428345064
 40
0.8705728296
 40
1.0
 40
1.0
 40
1.0
 40
1.0
 10
10.3473183383
 20
4.496250841
 30
0.0
 10
10.3473183383
 20
4.5040942162
 30
0.0
 10
10.3478472134
 20
4.5198045904
 30
0.0
 10
10.3502229854
 20
4.5433032055
 30
0.0
 10
10.3541770817
 20
4.5666955836
 30
0.0
 10
10.3596998073
 20
4.5899260089
 30
0.0
 10
10.3667775836
 20
4.6129425708
 30
0.0
 10
10.3753948831
 20
4.6356934546
 30
0.0
 10
10.3855309294
 20
4.6581251301
 30
0.0
 10
10.3932315697
 20
4.6727327678
 30
0.0
 10
10.3973183383
 20
4.6799625717
 30
0.0
  0
SPLINE
  5
25F
100
AcDbEntity
  8
0
100
AcDbSpline
 62
7
  6
CONTINUOUS
 70
0
 71
3
 72
26
 73
22
 74
0
 42
0.0000001
 43
0.0000001
 44
0.0000000001
 40
0.0
 40
0.0
 40
0.0
 40
0.0
 40
0.0256234811
 40
0.0513660588
 40
0.0772822716
 40
0.1034239312
 40
0.156548502
 40
0.2111059135
 40
0.2390185671
 40
0.2673814785
 40
0.2962151099
 40
0.3255343953
 40
0.3856483478
 40
0.4477669548
 40
0.5118431074
 40
0.5777667851
 40
0.6453731097
 40
0.7144507271
 40
0.7847504158
 40
0.8559924596
 40
1.0
 40
1.0
 40
1.0
 40
1.0
 10
11.4685402323
 20
4.7282469176
 30
0.0
 10
11.4681931123
 20
4.7235279462
 30
0.0
 10
11.4671794329
 20
4.7140884221
 30
0.0
 10
11.4647144226
 20
4.7000217494
 30
0.0
 10
11.4613068296
 20
4.6860537883
 30
0.0
 10
11.455489605
 20
4.6675100354
 30
0.0
 10
11.4458426185
 20
4.6446835765
 30
0.0
 10
11.4333458377
 20
4.6229157848
 30
0.0
 10
11.4216799448
 20
4.6060887628
 30
0.0
 10
11.4120199837
 20
4.5936810214
 30
0.0
 10
11.401539025
 20
4.5816131886
 30
0.0
 10
11.3863781622
 20
4.5658819189
 30
0.0
 10
11.3654518117
 20
4.5472264636
 30
0.0
 10
11.3377051688
 20
4.5268078014
 30
0.0
 10
11.307360072
 20
4.5083446475
 30
0.0
 10
11.2746904892
 20
4.4920005843
 30
0.0
 10
11.2399878681
 20
4.4779186737
 30
0.0
 10
11.2035635686
 20
4.4662232881
 30
0.0
 10
11.1657390583
 20
4.4570172433
 30
0.0
 10
11.1137316243
 20
4.4481422924
 30
0.0
 10
11.0739112706
 20
4.4454867709
 30
0.0
 10
11.0473183383
 20
4.4454867709
 30
0.0
  0
SPLINE
  5
260
100
AcDbEntity
  8
0
100
AcDbSpline
 62
9
  6
CONTINUOUS
 70
0
 71
3
 72
49
 73
45
 74
0
 42
0.0000001
 43
0.0000001
 44
0.0000000001
 40
0.0
 40
0.0
 40
0.0
 40
0.0
 40
0.0128544444
 40
0.0257418213
 40
0.0386892172
 40
0.0517269529
 40
0.0648833767
 40
0.0781841778
 40
0.0916530972
 40
0.1053115743
 40
0.1191782305
 40
0.1332689663
 40
0.1621610354
 40
0.1920699218
 40
0.2230217214
 40
0.2550018613
 40
0.2879594263
 40
0.3218119036
 40
0.3564500217
 40
0.3917425183
 40
0.4275407669
 40
0.4636832639
 40
0.5
 40
0.5363167361
 40
0.5724592331
 40
0.6082574817
 40
0.6435499783
 40
0.6781880964
 40
0.7120405737
 40
0.7449981387
 40
0.7769782786
 40
0.8079300782
 40
0.8378389646
 40
0.8667310337
 40
0.8808217695
 40
0.8946884257
 40
0.9083469028
 40
0.9218158222
 40
0.9351166233
 40
0.9482730471
 40
0.9613107828
 40
0.9742581787
 40
0.9871455556
 40
1.0
 40
1.0
 40
1.0
 40
1.0
 10
10.3473183383
 20
4.3626076594
 30
0.0
 10
10.3473183383
 20
4.3545076196
 30
0.0
 10
10.3478826333
 20
4.3382811926
 30
0.0
 10
10.3504165746
 20
4.3140152378
 30
0.0
 10
10.3546338999
 20
4.2898663774
 30
0.0
 10
10.3605230853
 20
4.2658960939
 30
0.0
 10
10.3680690354
 20
4.2421613384
 30
0.0
 10
10.3772537223
 20
4.2187199768
 30
0.0
 10
10.3880535735
 20
4.195628466
 30
0.0
 10
10.4004424452
 20
4.1729429668
 30
0.0
 10
10.4143898079
 20
4.1507170211
 30
0.0
 10
10.4351880159
 20
4.1215289455
 30
0.0
 10
10.4650191327
 20
4.0864687245
 30
0.0
 10
10.5060916804
 20
4.0474498455
 30
0.0
 10
10.5523458313
 20
4.0114832928
 30
0.0
 10
10.6033321296
 20
3.978908838
 30
0.0
 10
10.6585622785
 20
3.9500294967
 30
0.0
 10
10.7175076862
 20
3.9251163603
 30
0.0
 10
10.779605176
 20
3.9044036766
 30
0.0
 10
10.8442615096
 20
3.8880869161
 30
0.0
 10
10.9108589196
 20
3.8763204051
 30
0.0
 10
10.9787608998
 20
3.8692155715
 30
0.0
 10
11.0473183383
 20
3.866839781
 30
0.0
 10
11.1158757767
 20
3.8692155715
 30
0.0
 10
11.1837777569
 20
3.8763204051
 30
0.0
 10
11.250375167
 20
3.8880869161
 30
0.0
 10
11.3150315006
 20
3.9044036766
 30
0.0
 10
11.3771289903
 20
3.9251163603
 30
0.0
 10
11.4360743981
 20
3.9500294967
 30
0.0
 10
11.491304547
 20
3.978908838
 30
0.0
 10
11.5422908452
 20
4.0114832928
 30
0.0
 10
11.5885449962
 20
4.0474498455
 30
0.0
 10
11.6296175439
 20
4.0864687245
 30
0.0
 10
11.6594486607
 20
4.1215289455
 30
0.0
 10
11.6802468687
 20
4.1507170211
 30
0.0
 10
11.6941942314
 20
4.1729429668
 30
0.0
 10
11.7065831031
 20
4.195628466
 30
0.0
 10
11.7173829543
 20
4.2187199768
 30
0.0
 10
11.7265676412
 20
4.2421613384
 30
0.0
 10
11.7341135913
 20
4.2658960939
 30
0.0
 10
11.7400027767
 20
4.2898663774
 30
0.0
 10
11.744220102
 20
4.3140152378
 30
0.0
 10
11.7467540433
 20
4.3382811926
 30
0.0
 10
11.7473183383
 20
4.3545076196
 30
0.0
 10
11.7473183383
 20
4.3626076594
 30
0.0
  0
SPLINE
  5
261
100
AcDbEntity
  8
0
100
AcDbSpline
 62
9
  6
CONTINUOUS
 70
0
 71
3
 72
49
 73
45
 74
0
 42
0.0000001
 43
0.0000001
 44
0.0000000001
 40
0.0
 40
0.0
 40
0.0
 40
0.0
 40
0.0128544444
 40
0.0257418213
 40
0.0386892173
 40
0.0517269529
 40
0.0648833767
 40
0.0781841778
 40
0.0916530972
 40
0.1053115744
 40
0.1191782306
 40
0.1332689664
 40
0.1621610355
 40
0.1920699218
 40
0.2230217213
 40
0.2550018611
 40
0.2879594262
 40
0.3218119035
 40
0.3564500216
 40
0.3917425182
 40
0.4275407669
 40
0.4636832639
 40
0.5
 40
0.5363167361
 40
0.5724592331
 40
0.6082574818
 40
0.6435499784
 40
0.6781880965
 40
0.7120405738
 40
0.7449981389
 40
0.7769782787
 40
0.8079300782
 40
0.8378389645
 40
0.8667310336
 40
0.8808217694
 40
0.8946884256
 40
0.9083469028
 40
0.9218158222
 40
0.9351166233
 40
0.9482730471
 40
0.9613107827
 40
0.9742581787
 40
0.9871455556
 40
1.0
 40
1.0
 40
1.0
 40
1.0
 10
10.3473183383
 20
4.2042157404
 30
0.0
 10
10.3473183383
 20
4.1961157006
 30
0.0
 10
10.3478826333
 20
4.1798892736
 30
0.0
 10
10.3504165746
 20
4.1556233188
 30
0.0
 10
10.3546338999
 20
4.1314744583
 30
0.0
 10
10.3605230853
 20
4.1075041748
 30
0.0
 10
10.3680690354
 20
4.0837694193
 30
0.0
 10
10.3772537223
 20
4.0603280577
 30
0.0
 10
10.3880535735
 20
4.0372365469
 30
0.0
 10
10.4004424453
 20
4.0145510477
 30
0.0
 10
10.414389808
 20
3.992325102
 30
0.0
 10
10.435188016
 20
3.9631370264
 30
0.0
 10
10.4650191328
 20
3.9280768055
 30
0.0
 10
10.5060916804
 20
3.8890579265
 30
0.0
 10
10.5523458311
 20
3.8530913739
 30
0.0
 10
10.6033321293
 20
3.8205169191
 30
0.0
 10
10.6585622782
 20
3.7916375778
 30
0.0
 10
10.717507686
 20
3.7667244414
 30
0.0
 10
10.7796051758
 20
3.7460117577
 30
0.0
 10
10.8442615095
 20
3.7296949971
 30
0.0
 10
10.9108589195
 20
3.7179284861
 30
0.0
 10
10.9787608998
 20
3.7108236525
 30
0.0
 10
11.0473183383
 20
3.708447862
 30
0.0
 10
11.1158757768
 20
3.7108236525
 30
0.0
 10
11.183777757
 20
3.7179284861
 30
0.0
 10
11.2503751671
 20
3.7296949971
 30
0.0
 10
11.3150315007
 20
3.7460117577
 30
0.0
 10
11.3771289905
 20
3.7667244414
 30
0.0
 10
11.4360743984
 20
3.7916375778
 30
0.0
 10
11.4913045473
 20
3.8205169191
 30
0.0
 10
11.5422908454
 20
3.8530913739
 30
0.0
 10
11.5885449962
 20
3.8890579265
 30
0.0
 10
11.6296175438
 20
3.9280768055
 30
0.0
 10
11.6594486606
 20
3.9631370264
 30
0.0
 10
11.6802468686
 20
3.992325102
 30
0.0
 10
11.6941942313
 20
4.0145510477
 30
0.0
 10
11.7065831031
 20
4.0372365469
 30
0.0
 10
11.7173829542
 20
4.0603280577
 30
0.0
 10
11.7265676411
 20
4.0837694193
 30
0.0
 10
11.7341135912
 20
4.1075041748
 30
0.0
 10
11.7400027767
 20
4.1314744583
 30
0.0
 10
11.744220102
 20
4.1556233188
 30
0.0
 10
11.7467540433
 20
4.1798892736
 30
0.0
 10
11.7473183383
 20
4.1961157006
 30
0.0
 10
11.7473183383
 20
4.2042157404
 30
0.0
  0
SPLINE
  5
262
100
AcDbEntity
  8
0
100
AcDbSpline
 62
9
  6
CONTINUOUS
 70
0
 71
3
 72
49
 73
45
 74
0
 42
0.0000001
 43
0.0000001
 44
0.0000000001
 40
0.0
 40
0.0
 40
0.0
 40
0.0
 40
0.0128544444
 40
0.0257418213
 40
0.0386892173
 40
0.0517269529
 40
0.0648833768
 40
0.0781841779
 40
0.0916530973
 40
0.1053115745
 40
0.1191782307
 40
0.1332689665
 40
0.1621610356
 40
0.1920699219
 40
0.2230217213
 40
0.2550018611
 40
0.2879594262
 40
0.3218119035
 40
0.3564500217
 40
0.3917425183
 40
0.4275407669
 40
0.4636832639
 40
0.5
 40
0.5363167361
 40
0.5724592331
 40
0.6082574818
 40
0.6435499783
 40
0.6781880965
 40
0.7120405738
 40
0.7449981389
 40
0.7769782787
 40
0.8079300782
 40
0.8378389645
 40
0.8667310335
 40
0.8808217693
 40
0.8946884255
 40
0.9083469027
 40
0.9218158221
 40
0.9351166232
 40
0.9482730471
 40
0.9613107827
 40
0.9742581787
 40
0.9871455556
 40
1.0
 40
1.0
 40
1.0
 40
1.0
 10
11.7473183383
 20
4.3343233881
 30
0.0
 10
11.7473183383
 20
4.3262233483
 30
0.0
 10
11.7467540433
 20
4.3099969214
 30
0.0
 10
11.744220102
 20
4.2857309665
 30
0.0
 10
11.7400027767
 20
4.261582106
 30
0.0
 10
11.7341135912
 20
4.2376118225
 30
0.0
 10
11.7265676411
 20
4.213877067
 30
0.0
 10
11.7173829542
 20
4.1904357053
 30
0.0
 10
11.706583103
 20
4.1673441945
 30
0.0
 10
11.6941942312
 20
4.1446586953
 30
0.0
 10
11.6802468685
 20
4.1224327496
 30
0.0
 10
11.6594486605
 20
4.093244674
 30
0.0
 10
11.6296175437
 20
4.0581844531
 30
0.0
 10
11.5885449961
 20
4.0191655742
 30
0.0
 10
11.5422908454
 20
3.9831990216
 30
0.0
 10
11.4913045472
 20
3.9506245668
 30
0.0
 10
11.4360743983
 20
3.9217452255
 30
0.0
 10
11.3771289905
 20
3.8968320891
 30
0.0
 10
11.3150315007
 20
3.8761194054
 30
0.0
 10
11.250375167
 20
3.8598026448
 30
0.0
 10
11.183777757
 20
3.8480361338
 30
0.0
 10
11.1158757767
 20
3.8409313002
 30
0.0
 10
11.0473183383
 20
3.8385555097
 30
0.0
 10
10.9787608998
 20
3.8409313002
 30
0.0
 10
10.9108589195
 20
3.8480361338
 30
0.0
 10
10.8442615095
 20
3.8598026449
 30
0.0
 10
10.7796051759
 20
3.8761194054
 30
0.0
 10
10.7175076861
 20
3.8968320891
 30
0.0
 10
10.6585622783
 20
3.9217452255
 30
0.0
 10
10.6033321293
 20
3.9506245668
 30
0.0
 10
10.5523458312
 20
3.9831990216
 30
0.0
 10
10.5060916804
 20
4.0191655742
 30
0.0
 10
10.4650191328
 20
4.0581844532
 30
0.0
 10
10.435188016
 20
4.093244674
 30
0.0
 10
10.4143898081
 20
4.1224327496
 30
0.0
 10
10.4004424453
 20
4.1446586953
 30
0.0
 10
10.3880535736
 20
4.1673441946
 30
0.0
 10
10.3772537224
 20
4.1904357054
 30
0.0
 10
10.3680690355
 20
4.213877067
 30
0.0
 10
10.3605230853
 20
4.2376118225
 30
0.0
 10
10.3546338999
 20
4.261582106
 30
0.0
 10
10.3504165746
 20
4.2857309665
 30
0.0
 10
10.3478826333
 20
4.3099969214
 30
0.0
 10
10.3473183383
 20
4.3262233483
 30
0.0
 10
10.3473183383
 20
4.3343233881
 30
0.0
  0
SPLINE
  5
263
100
AcDbEntity
  8
0
100
AcDbSpline
 62
9
  6
CONTINUOUS
 70
0
 71
3
 72
53
 73
49
 74
0
 42
0.0000001
 43
0.0000001
 44
0.0000000001
 40
0.0
 40
0.0
 40
0.0
 40
0.0
 40
0.0128544233
 40
0.0257407038
 40
0.0386874253
 40
0.0517248765
 40
0.0648807621
 40
0.0781809862
 40
0.0916494113
 40
0.1053073473
 40
0.1191734523
 40
0.133263628
 40
0.147590911
 40
0.1621654585
 40
0.1920731712
 40
0.2074226444
 40
0.2230325977
 40
0.2550114809
 40
0.2879677493
 40
0.3218188981
 40
0.3564556641
 40
0.3917467721
 40
0.4275436126
 40
0.46368469
 40
0.5
 40
0.53631531
 40
0.5724563874
 40
0.6082532279
 40
0.6435443359
 40
0.6781811019
 40
0.7120322507
 40
0.7449885191
 40
0.7769674023
 40
0.7925773556
 40
0.8079268288
 40
0.8378345415
 40
0.852409089
 40
0.866736372
 40
0.8808265477
 40
0.8946926527
 40
0.9083505887
 40
0.9218190138
 40
0.9351192379
 40
0.9482751235
 40
0.9613125747
 40
0.9742592962
 40
0.9871455767
 40
1.0
 40
1.0
 40
1.0
 40
1.0
 10
12.4773183383
 20
4.183002537
 30
0.0
 10
12.4773183383
 20
4.1664546857
 30
0.0
 10
12.4761660201
 20
4.1333065165
 30
0.0
 10
12.4709888522
 20
4.0837350387
 30
0.0
 10
12.4623737307
 20
4.0344030248
 30
0.0
 10
12.4503433354
 20
3.9854349823
 30
0.0
 10
12.434927543
 20
3.9369482165
 30
0.0
 10
12.416164988
 20
3.8890607145
 30
0.0
 10
12.3941021225
 20
3.8418882898
 30
0.0
 10
12.3687935182
 20
3.7955446749
 30
0.0
 10
12.3403015888
 20
3.7501410676
 30
0.0
 10
12.308696291
 20
3.7057869147
 30
0.0
 10
12.2740530814
 20
3.6625870672
 30
0.0
 10
12.2235011175
 20
3.6061904209
 30
0.0
 10
12.1675436726
 20
3.5530281199
 30
0.0
 10
12.1069077267
 20
3.503365839
 30
0.0
 10
12.0418213345
 20
3.4550652612
 30
0.0
 10
11.9543159051
 20
3.3991585978
 30
0.0
 10
11.8414925252
 20
3.340164871
 30
0.0
 10
11.7210743476
 20
3.2892700978
 30
0.0
 10
11.5942182478
 20
3.2469574322
 30
0.0
 10
11.4621345044
 20
3.2136244473
 30
0.0
 10
11.3260855015
 20
3.189587147
 30
0.0
 10
11.1873714239
 20
3.1750729595
 30
0.0
 10
11.0473183383
 20
3.1702193928
 30
0.0
 10
10.9072652527
 20
3.1750729595
 30
0.0
 10
10.768551175
 20
3.189587147
 30
0.0
 10
10.6325021722
 20
3.2136244473
 30
0.0
 10
10.5004184288
 20
3.2469574322
 30
0.0
 10
10.373562329
 20
3.2892700978
 30
0.0
 10
10.2531441513
 20
3.340164871
 30
0.0
 10
10.1403207714
 20
3.3991585978
 30
0.0
 10
10.0528153421
 20
3.4550652612
 30
0.0
 10
9.9877289499
 20
3.5033658389
 30
0.0
 10
9.9270930039
 20
3.5530281199
 30
0.0
 10
9.8711355591
 20
3.6061904209
 30
0.0
 10
9.8205835951
 20
3.6625870672
 30
0.0
 10
9.7859403856
 20
3.7057869147
 30
0.0
 10
9.7543350878
 20
3.7501410676
 30
0.0
 10
9.7258431583
 20
3.7955446749
 30
0.0
 10
9.700534554
 20
3.8418882898
 30
0.0
 10
9.6784716886
 20
3.8890607145
 30
0.0
 10
9.6597091335
 20
3.9369482165
 30
0.0
 10
9.6442933412
 20
3.9854349823
 30
0.0
 10
9.6322629459
 20
4.0344030248
 30
0.0
 10
9.6236478244
 20
4.0837350387
 30
0.0
 10
9.6184706565
 20
4.1333065165
 30
0.0
 10
9.6173183383
 20
4.1664546857
 30
0.0
 10
9.6173183383
 20
4.183002537
 30
0.0
  0
SPLINE
  5
264
100
AcDbEntity
  8
0
100
AcDbSpline
 62
9
  6
CONTINUOUS
 70
0
 71
3
 72
22
 73
18
 74
0
 42
0.0000001
 43
0.0000001
 44
0.0000000001
 40
0.0
 40
0.0
 40
0.0
 40
0.0
 40
0.0564478316
 40
0.1130806193
 40
0.1700721593
 40
0.2275958519
 40
0.2858094717
 40
0.3448578686
 40
0.4048689586
 40
0.4659524533
 40
0.5281989108
 40
0.5916792383
 40
0.6564447388
 40
0.7225274932
 40
0.7899411211
 40
0.8586817005
 40
1.0
 40
1.0
 40
1.0
 40
1.0
 10
9.6173183383
 20
4.183002537
 30
0.0
 10
9.6173183383
 20
4.2022196515
 30
0.0
 10
9.6188735543
 20
4.2407347772
 30
0.0
 10
9.6258588945
 20
4.2982706436
 30
0.0
 10
9.637475313
 20
4.3554294576
 30
0.0
 10
9.6536813628
 20
4.4120173014
 30
0.0
 10
9.6744226812
 20
4.4678503337
 30
0.0
 10
9.6996285812
 20
4.5227455226
 30
0.0
 10
9.7292142313
 20
4.5765245093
 30
0.0
 10
9.763080758
 20
4.6290130573
 30
0.0
 10
9.8011158392
 20
4.6800417142
 30
0.0
 10
9.8431940728
 20
4.7294460382
 30
0.0
 10
9.889177657
 20
4.7770672056
 30
0.0
 10
9.9389153484
 20
4.8227517299
 30
0.0
 10
9.9922481445
 20
4.8663549571
 30
0.0
 10
10.068602778
 20
4.9220293635
 30
0.0
 10
10.1297319073
 20
4.9594633742
 30
0.0
 10
10.1719329576
 20
4.982565012
 30
0.0
  0
SPLINE
  5
265
100
AcDbEntity
  8
0
100
AcDbSpline
 62
9
  6
CONTINUOUS
 70
0
 71
3
 72
22
 73
18
 74
0
 42
0.0000001
 43
0.0000001
 44
0.0000000001
 40
0.0
 40
0.0
 40
0.0
 40
0.0
 40
0.1413182995
 40
0.2100588789
 40
0.2774725068
 40
0.3435552612
 40
0.4083207617
 40
0.4718010892
 40
0.5340475467
 40
0.5951310414
 40
0.6551421314
 40
0.7141905283
 40
0.7724041481
 40
0.8299278407
 40
0.8869193807
 40
0.9435521684
 40
1.0
 40
1.0
 40
1.0
 40
1.0
 10
11.9227037191
 20
4.982565012
 30
0.0
 10
11.9649047693
 20
4.9594633741
 30
0.0
 10
12.0260338987
 20
4.9220293635
 30
0.0
 10
12.1023885322
 20
4.8663549571
 30
0.0
 10
12.1557213282
 20
4.8227517299
 30
0.0
 10
12.2054590196
 20
4.7770672056
 30
0.0
 10
12.2514426038
 20
4.7294460381
 30
0.0
 10
12.2935208374
 20
4.6800417142
 30
0.0
 10
12.3315559186
 20
4.6290130573
 30
0.0
 10
12.3654224453
 20
4.5765245092
 30
0.0
 10
12.3950080954
 20
4.5227455226
 30
0.0
 10
12.4202139954
 20
4.4678503337
 30
0.0
 10
12.4409553137
 20
4.4120173014
 30
0.0
 10
12.4571613636
 20
4.3554294576
 30
0.0
 10
12.468777782
 20
4.2982706436
 30
0.0
 10
12.4757631222
 20
4.2407347772
 30
0.0
 10
12.4773183383
 20
4.2022196515
 30
0.0
 10
12.4773183383
 20
4.183002537
 30
0.0
  0
SPLINE
  5
266
100
AcDbEntity
  8
0
100
AcDbSpline
 62
9
  6
CONTINUOUS
 70
0
 71
3
 72
49
 73
45
 74
0
 42
0.0000001
 43
0.0000001
 44
0.0000000001
 40
0.0
 40
0.0
 40
0.0
 40
0.0
 40
0.0128544034
 40
0.0257416904
 40
0.0386890436
 40
0.0517267823
 40
0.0648832106
 40
0.0781840206
 40
0.0916529523
 40
0.1053114373
 40
0.1191780961
 40
0.1332688296
 40
0.1621608991
 40
0.1920697977
 40
0.2230216103
 40
0.2550017597
 40
0.2879593356
 40
0.3218118264
 40
0.3564499589
 40
0.3917424704
 40
0.4275407345
 40
0.4636832476
 40
0.5
 40
0.5363167524
 40
0.5724592655
 40
0.6082575296
 40
0.6435500411
 40
0.6781881736
 40
0.7120406644
 40
0.7449982403
 40
0.7769783897
 40
0.8079302023
 40
0.8378391008
 40
0.8667311704
 40
0.8808219039
 40
0.8946885626
 40
0.9083470477
 40
0.9218159794
 40
0.9351167894
 40
0.9482732176
 40
0.9613109564
 40
0.9742583096
 40
0.9871455966
 40
1.0
 40
1.0
 40
1.0
 40
1.0
 10
10.3173183383
 20
4.183002537
 30
0.0
 10
10.3173183383
 20
4.1745553795
 30
0.0
 10
10.3179067924
 20
4.1576336193
 30
0.0
 10
10.3205493365
 20
4.1323278104
 30
0.0
 10
10.3249473571
 20
4.1071440775
 30
0.0
 10
10.3310889189
 20
4.0821465157
 30
0.0
 10
10.3389582329
 20
4.0573945342
 30
0.0
 10
10.3485365495
 20
4.0329485244
 30
0.0
 10
10.35979924
 20
4.0088673514
 30
0.0
 10
10.3727190499
 20
3.9852095917
 30
0.0
 10
10.3872641548
 20
3.962031098
 30
0.0
 10
10.4089536865
 20
3.9315920845
 30
0.0
 10
10.4400632719
 20
3.8950292659
 30
0.0
 10
10.4828960666
 20
3.8543381199
 30
0.0
 10
10.531132543
 20
3.816830112
 30
0.0
 10
10.5843039762
 20
3.7828595805
 30
0.0
 10
10.6419011435
 20
3.7527425277
 30
0.0
 10
10.7033728012
 20
3.7267616628
 30
0.0
 10
10.7681316355
 20
3.7051612739
 30
0.0
 10
10.8355589819
 20
3.6881452097
 30
0.0
 10
10.9050105958
 20
3.6758744089
 30
0.0
 10
10.9758226919
 20
3.6684650756
 30
0.0
 10
11.0473183383
 20
3.6659874632
 30
0.0
 10
11.1188139847
 20
3.6684650756
 30
0.0
 10
11.1896260808
 20
3.6758744089
 30
0.0
 10
11.2590776947
 20
3.6881452097
 30
0.0
 10
11.326505041
 20
3.7051612739
 30
0.0
 10
11.3912638753
 20
3.7267616628
 30
0.0
 10
11.4527355331
 20
3.7527425277
 30
0.0
 10
11.5103327004
 20
3.7828595805
 30
0.0
 10
11.5635041335
 20
3.816830112
 30
0.0
 10
11.6117406099
 20
3.8543381199
 30
0.0
 10
11.6545734047
 20
3.8950292658
 30
0.0
 10
11.68568299
 20
3.9315920845
 30
0.0
 10
11.7073725218
 20
3.962031098
 30
0.0
 10
11.7219176267
 20
3.9852095916
 30
0.0
 10
11.7348374365
 20
4.0088673514
 30
0.0
 10
11.7461001271
 20
4.0329485244
 30
0.0
 10
11.7556784437
 20
4.0573945342
 30
0.0
 10
11.7635477577
 20
4.0821465156
 30
0.0
 10
11.7696893195
 20
4.1071440775
 30
0.0
 10
11.7740873401
 20
4.1323278103
 30
0.0
 10
11.7767298841
 20
4.1576336193
 30
0.0
 10
11.7773183383
 20
4.1745553795
 30
0.0
 10
11.7773183383
 20
4.183002537
 30
0.0
  0
SPLINE
  5
267
100
AcDbEntity
  8
0
100
AcDbSpline
 62
9
  6
CONTINUOUS
 70
0
 71
3
 72
11
 73
7
 74
0
 42
0.0000001
 43
0.0000001
 44
0.0000000001
 40
0.0
 40
0.0
 40
0.0
 40
0.0
 40
0.2469533529
 40
0.495160497
 40
0.7457993824
 40
1.0
 40
1.0
 40
1.0
 40
1.0
 10
11.7773183383
 20
4.183002537
 30
0.0
 10
11.7773183383
 20
4.1952595555
 30
0.0
 10
11.7760765965
 20
4.2198534783
 30
0.0
 10
11.7705043655
 20
4.2565076698
 30
0.0
 10
11.7612522486
 20
4.2927799894
 30
0.0
 10
11.7527331731
 20
4.3163909773
 30
0.0
 10
11.7479063694
 20
4.3280478906
 30
0.0
  0
SPLINE
  5
268
100
AcDbEntity
  8
0
100
AcDbSpline
 62
9
  6
CONTINUOUS
 70
0
 71
3
 72
11
 73
7
 74
0
 42
0.0000001
 43
0.0000001
 44
0.0000000001
 40
0.0
 40
0.0
 40
0.0
 40
0.0
 40
0.2542006176
 40
0.504839503
 40
0.7530466471
 40
1.0
 40
1.0
 40
1.0
 40
1.0
 10
10.3467303076
 20
4.3280478917
 30
0.0
 10
10.3419035039
 20
4.3163909783
 30
0.0
 10
10.3333844282
 20
4.2927799903
 30
0.0
 10
10.3241323111
 20
4.2565076704
 30
0.0
 10
10.3185600801
 20
4.2198534786
 30
0.0
 10
10.3173183383
 20
4.1952595556
 30
0.0
 10
10.3173183383
 20
4.183002537
 30
0.0
  0
SPLINE
  5
269
100
AcDbEntity
  8
0
100
AcDbSpline
 62
9
  6
CONTINUOUS
 70
0
 71
3
 72
53
 73
49
 74
0
 42
0.0000001
 43
0.0000001
 44
0.0000000001
 40
0.0
 40
0.0
 40
0.0
 40
0.0
 40
0.0128544509
 40
0.0257407813
 40
0.0386875139
 40
0.0517249639
 40
0.0648808466
 40
0.0781810638
 40
0.0916494839
 40
0.1053074184
 40
0.1191735244
 40
0.1332637013
 40
0.1475909831
 40
0.1621655274
 40
0.1920732336
 40
0.2074227041
 40
0.2230326554
 40
0.2550115335
 40
0.2879677956
 40
0.3218189374
 40
0.3564556964
 40
0.3917467967
 40
0.4275436292
 40
0.4636846983
 40
0.5
 40
0.5363153017
 40
0.5724563708
 40
0.6082532033
 40
0.6435443036
 40
0.6781810626
 40
0.7120322044
 40
0.7449884665
 40
0.7769673446
 40
0.7925772959
 40
0.8079267664
 40
0.8378344726
 40
0.8524090169
 40
0.8667362987
 40
0.8808264756
 40
0.8946925816
 40
0.9083505161
 40
0.9218189362
 40
0.9351191534
 40
0.9482750361
 40
0.9613124861
 40
0.9742592187
 40
0.9871455491
 40
1.0
 40
1.0
 40
1.0
 40
1.0
 10
12.5073183383
 20
4.1617893335
 30
0.0
 10
12.5073183383
 20
4.1448942884
 30
0.0
 10
12.5061418218
 20
4.111050602
 30
0.0
 10
12.5008560406
 20
4.0604390464
 30
0.0
 10
12.4920601449
 20
4.0100720206
 30
0.0
 10
12.4797773234
 20
3.9600766773
 30
0.0
 10
12.4640381195
 20
3.9105727232
 30
0.0
 10
12.4448819316
 20
3.861680614
 30
0.0
 10
12.4223561916
 20
3.8135185856
 30
0.0
 10
12.3965166299
 20
3.7662027398
 30
0.0
 10
12.3674269565
 20
3.7198466149
 30
0.0
 10
12.3351585894
 20
3.6745619688
 30
0.0
 10
12.2997885922
 20
3.6304558421
 30
0.0
 10
12.2481760957
 20
3.5728760699
 30
0.0
 10
12.1910447126
 20
3.5185985061
 30
0.0
 10
12.1291366897
 20
3.4678943754
 30
0.0
 10
12.0626848476
 20
3.4185805221
 30
0.0
 10
11.9733436487
 20
3.3615010111
 30
0.0
 10
11.8581533562
 20
3.3012696841
 30
0.0
 10
11.7352089444
 20
3.2493072072
 30
0.0
 10
11.6056915507
 20
3.2061068841
 30
0.0
 10
11.4708368466
 20
3.1720746219
 30
0.0
 10
11.3319336992
 20
3.1475330522
 30
0.0
 10
11.1903095677
 20
3.132714379
 30
0.0
 10
11.0473183383
 20
3.1277589912
 30
0.0
 10
10.9043271088
 20
3.132714379
 30
0.0
 10
10.7627029774
 20
3.1475330522
 30
0.0
 10
10.6237998299
 20
3.1720746219
 30
0.0
 10
10.4889451259
 20
3.2061068841
 30
0.0
 10
10.3594277322
 20
3.2493072072
 30
0.0
 10
10.2364833204
 20
3.3012696841
 30
0.0
 10
10.1212930278
 20
3.3615010111
 30
0.0
 10
10.031951829
 20
3.4185805221
 30
0.0
 10
9.9654999868
 20
3.4678943754
 30
0.0
 10
9.903591964
 20
3.5185985061
 30
0.0
 10
9.8464605808
 20
3.5728760699
 30
0.0
 10
9.7948480844
 20
3.6304558421
 30
0.0
 10
9.7594780871
 20
3.6745619688
 30
0.0
 10
9.72720972
 20
3.7198466149
 30
0.0
 10
9.6981200466
 20
3.7662027398
 30
0.0
 10
9.6722804849
 20
3.8135185856
 30
0.0
 10
9.649754745
 20
3.861680614
 30
0.0
 10
9.630598557
 20
3.9105727232
 30
0.0
 10
9.6148593532
 20
3.9600766773
 30
0.0
 10
9.6025765316
 20
4.0100720206
 30
0.0
 10
9.5937806359
 20
4.0604390464
 30
0.0
 10
9.5884948548
 20
4.111050602
 30
0.0
 10
9.5873183383
 20
4.1448942884
 30
0.0
 10
9.5873183383
 20
4.1617893335
 30
0.0
  0
SPLINE
  5
26A
100
AcDbEntity
  8
0
100
AcDbSpline
 62
9
  6
CONTINUOUS
 70
0
 71
3
 72
53
 73
49
 74
0
 42
0.0000001
 43
0.0000001
 44
0.0000000001
 40
0.0
 40
0.0
 40
0.0
 40
0.0
 40
0.0128544509
 40
0.0257407813
 40
0.0386875139
 40
0.0517249639
 40
0.0648808466
 40
0.0781810638
 40
0.0916494839
 40
0.1053074184
 40
0.1191735244
 40
0.1332637013
 40
0.1475909831
 40
0.1621655274
 40
0.1920732336
 40
0.2074227041
 40
0.2230326554
 40
0.2550115335
 40
0.2879677956
 40
0.3218189374
 40
0.3564556964
 40
0.3917467967
 40
0.4275436292
 40
0.4636846983
 40
0.5
 40
0.5363153017
 40
0.5724563708
 40
0.6082532033
 40
0.6435443036
 40
0.6781810626
 40
0.7120322044
 40
0.7449884665
 40
0.7769673446
 40
0.7925772959
 40
0.8079267664
 40
0.8378344726
 40
0.8524090169
 40
0.8667362987
 40
0.8808264756
 40
0.8946925816
 40
0.9083505161
 40
0.9218189362
 40
0.9351191534
 40
0.9482750361
 40
0.9613124861
 40
0.9742592187
 40
0.9871455491
 40
1.0
 40
1.0
 40
1.0
 40
1.0
 10
9.5873183383
 20
3.9984476671
 30
0.0
 10
9.5873183383
 20
3.981552622
 30
0.0
 10
9.5884948548
 20
3.9477089356
 30
0.0
 10
9.5937806359
 20
3.89709738
 30
0.0
 10
9.6025765316
 20
3.8467303542
 30
0.0
 10
9.6148593532
 20
3.7967350109
 30
0.0
 10
9.630598557
 20
3.7472310568
 30
0.0
 10
9.649754745
 20
3.6983389475
 30
0.0
 10
9.6722804849
 20
3.6501769192
 30
0.0
 10
9.6981200466
 20
3.6028610734
 30
0.0
 10
9.72720972
 20
3.5565049484
 30
0.0
 10
9.7594780871
 20
3.5112203023
 30
0.0
 10
9.7948480844
 20
3.4671141756
 30
0.0
 10
9.8464605808
 20
3.4095344034
 30
0.0
 10
9.903591964
 20
3.3552568397
 30
0.0
 10
9.9654999868
 20
3.304552709
 30
0.0
 10
10.031951829
 20
3.2552388556
 30
0.0
 10
10.1212930278
 20
3.1981593447
 30
0.0
 10
10.2364833204
 20
3.1379280176
 30
0.0
 10
10.3594277322
 20
3.0859655407
 30
0.0
 10
10.4889451259
 20
3.0427652177
 30
0.0
 10
10.6237998299
 20
3.0087329555
 30
0.0
 10
10.7627029774
 20
2.9841913857
 30
0.0
 10
10.9043271088
 20
2.9693727125
 30
0.0
 10
11.0473183383
 20
2.9644173247
 30
0.0
 10
11.1903095677
 20
2.9693727125
 30
0.0
 10
11.3319336992
 20
2.9841913857
 30
0.0
 10
11.4708368466
 20
3.0087329555
 30
0.0
 10
11.6056915507
 20
3.0427652177
 30
0.0
 10
11.7352089444
 20
3.0859655407
 30
0.0
 10
11.8581533562
 20
3.1379280176
 30
0.0
 10
11.9733436487
 20
3.1981593447
 30
0.0
 10
12.0626848476
 20
3.2552388556
 30
0.0
 10
12.1291366897
 20
3.304552709
 30
0.0
 10
12.1910447126
 20
3.3552568397
 30
0.0
 10
12.2481760957
 20
3.4095344034
 30
0.0
 10
12.2997885922
 20
3.4671141756
 30
0.0
 10
12.3351585894
 20
3.5112203023
 30
0.0
 10
12.3674269565
 20
3.5565049484
 30
0.0
 10
12.3965166299
 20
3.6028610734
 30
0.0
 10
12.4223561916
 20
3.6501769192
 30
0.0
 10
12.4448819316
 20
3.6983389475
 30
0.0
 10
12.4640381195
 20
3.7472310568
 30
0.0
 10
12.4797773234
 20
3.7967350109
 30
0.0
 10
12.4920601449
 20
3.8467303542
 30
0.0
 10
12.5008560406
 20
3.89709738
 30
0.0
 10
12.5061418218
 20
3.9477089356
 30
0.0
 10
12.5073183383
 20
3.981552622
 30
0.0
 10
12.5073183383
 20
3.9984476671
 30
0.0
  0
SPLINE
  5
26B
100
AcDbEntity
  8
0
100
AcDbSpline
 62
9
  6
CONTINUOUS
 70
0
 71
3
 72
30
 73
26
 74
0
 42
0.0000001
 43
0.0000001
 44
0.0000000001
 40
0.0
 40
0.0
 40
0.0
 40
0.0
 40
0.0268368341
 40
0.053714881
 40
0.080670388
 40
0.1077430361
 40
0.1349699447
 40
0.162386491
 40
0.1900265398
 40
0.2179217417
 40
0.2461014063
 40
0.2745923261
 40
0.3034186015
 40
0.3326015887
 40
0.3621597774
 40
0.392108787
 40
0.4532141435
 40
0.5160005101
 40
0.5804928395
 40
0.6466755105
 40
0.7144956595
 40
0.7838668978
 40
0.854673118
 40
0.9267722496
 40
1.0
 40
1.0
 40
1.0
 40
1.0
 10
13.9723183383
 20
3.9772344636
 30
0.0
 10
13.9723183383
 20
3.9507424306
 30
0.0
 10
13.9708759894
 20
3.8977064273
 30
0.0
 10
13.9643922473
 20
3.8182996984
 30
0.0
 10
13.9535959483
 20
3.7391265416
 30
0.0
 10
13.9385041907
 20
3.6603093177
 30
0.0
 10
13.919140178
 20
3.5819631183
 30
0.0
 10
13.8955327308
 20
3.5042047257
 30
0.0
 10
13.8677174784
 20
3.427149545
 30
0.0
 10
13.8357367891
 20
3.3509114
 30
0.0
 10
13.7996383211
 20
3.2756031342
 30
0.0
 10
13.7594762069
 20
3.201335995
 30
0.0
 10
13.7153107948
 20
3.1282191746
 30
0.0
 10
13.6672078861
 20
3.0563609459
 30
0.0
 10
13.6152380782
 20
2.9858657434
 30
0.0
 10
13.5404023813
 20
2.8932197747
 30
0.0
 10
13.4373735525
 20
2.7813832116
 30
0.0
 10
13.3005170252
 20
2.6551968161
 30
0.0
 10
13.150408854
 20
2.536838878
 30
0.0
 10
12.9879425873
 20
2.4270022648
 30
0.0
 10
12.8140738562
 20
2.3263205965
 30
0.0
 10
12.6298265078
 20
2.2353784999
 30
0.0
 10
12.436280693
 20
2.1547037705
 30
0.0
 10
12.2345822576
 20
2.0847680465
 30
0.0
 10
12.0964057882
 20
2.0458392504
 30
0.0
 10
12.0262961841
 20
2.0282312495
 30
0.0
  0
SPLINE
  5
26C
100
AcDbEntity
  8
0
100
AcDbSpline
 62
9
  6
CONTINUOUS
 70
0
 71
3
 72
15
 73
11
 74
0
 42
0.0000001
 43
0.0000001
 44
0.0000000001
 40
0.0
 40
0.0
 40
0.0
 40
0.0
 40
0.1236934744
 40
0.2485010609
 40
0.3740610043
 40
0.5
 40
0.6259389957
 40
0.7514989391
 40
0.8763065256
 40
1.0
 40
1.0
 40
1.0
 40
1.0
 10
11.9417733709
 20
2.0080246132
 30
0.0
 10
11.8692658009
 20
1.9915575002
 30
0.0
 10
11.7226070974
 20
1.9626860954
 30
0.0
 10
11.4997811297
 20
1.9317395291
 30
0.0
 10
11.2742301883
 20
1.9130961423
 30
0.0
 10
11.0473183383
 20
1.9068695952
 30
0.0
 10
10.8204064883
 20
1.9130961423
 30
0.0
 10
10.5948555469
 20
1.9317395291
 30
0.0
 10
10.3720295791
 20
1.9626860954
 30
0.0
 10
10.2253708756
 20
1.9915575002
 30
0.0
 10
10.1528633056
 20
2.0080246132
 30
0.0
  0
SPLINE
  5
26D
100
AcDbEntity
  8
0
100
AcDbSpline
 62
9
  6
CONTINUOUS
 70
0
 71
3
 72
30
 73
26
 74
0
 42
0.0000001
 43
0.0000001
 44
0.0000000001
 40
0.0
 40
0.0
 40
0.0
 40
0.0
 40
0.0732277504
 40
0.145326882
 40
0.2161331022
 40
0.2855043405
 40
0.3533244895
 40
0.4195071605
 40
0.4839994899
 40
0.5467858565
 40
0.607891213
 40
0.6378402226
 40
0.6673984113
 40
0.6965813985
 40
0.7254076739
 40
0.7538985937
 40
0.7820782583
 40
0.8099734602
 40
0.837613509
 40
0.8650300553
 40
0.8922569639
 40
0.919329612
 40
0.946285119
 40
0.9731631659
 40
1.0
 40
1.0
 40
1.0
 40
1.0
 10
10.0683404924
 20
2.0282312494
 30
0.0
 10
9.9982308884
 20
2.0458392504
 30
0.0
 10
9.860054419
 20
2.0847680465
 30
0.0
 10
9.6583559835
 20
2.1547037705
 30
0.0
 10
9.4648101687
 20
2.2353784998
 30
0.0
 10
9.2805628204
 20
2.3263205965
 30
0.0
 10
9.1066940893
 20
2.4270022648
 30
0.0
 10
8.9442278226
 20
2.536838878
 30
0.0
 10
8.7941196514
 20
2.6551968161
 30
0.0
 10
8.657263124
 20
2.7813832116
 30
0.0
 10
8.5542342953
 20
2.8932197747
 30
0.0
 10
8.4793985983
 20
2.9858657434
 30
0.0
 10
8.4274287904
 20
3.0563609459
 30
0.0
 10
8.3793258818
 20
3.1282191746
 30
0.0
 10
8.3351604696
 20
3.201335995
 30
0.0
 10
8.2949983554
 20
3.2756031342
 30
0.0
 10
8.2588998875
 20
3.3509114
 30
0.0
 10
8.2269191981
 20
3.427149545
 30
0.0
 10
8.1991039457
 20
3.5042047257
 30
0.0
 10
8.1754964985
 20
3.5819631183
 30
0.0
 10
8.1561324859
 20
3.6603093177
 30
0.0
 10
8.1410407283
 20
3.7391265416
 30
0.0
 10
8.1302444293
 20
3.8182996984
 30
0.0
 10
8.1237606871
 20
3.8977064273
 30
0.0
 10
8.1223183383
 20
3.9507424306
 30
0.0
 10
8.1223183383
 20
3.9772344636
 30
0.0
  0
SPLINE
  5
26E
100
AcDbEntity
  8
0
100
AcDbSpline
 62
9
  6
CONTINUOUS
 70
0
 71
3
 72
30
 73
26
 74
0
 42
0.0000001
 43
0.0000001
 44
0.0000000001
 40
0.0
 40
0.0
 40
0.0
 40
0.0
 40
0.0266930324
 40
0.0534293592
 40
0.0802475513
 40
0.107189375
 40
0.1342937616
 40
0.1615978828
 40
0.189137149
 40
0.216944496
 40
0.2450502752
 40
0.2734820781
 40
0.302264514
 40
0.3314191631
 40
0.3609645217
 40
0.3909159254
 40
0.4520689133
 40
0.5149547565
 40
0.5795884558
 40
0.6459417674
 40
0.7139471816
 40
0.7835020908
 40
0.8544729996
 40
0.9266998188
 40
1.0
 40
1.0
 40
1.0
 40
1.0
 10
8.1223183383
 20
3.9772344636
 30
0.0
 10
8.1223183383
 20
4.0045316149
 30
0.0
 10
8.1238498004
 20
4.0591825027
 30
0.0
 10
8.1307339948
 20
4.1409976444
 30
0.0
 10
8.1421962918
 20
4.2225570782
 30
0.0
 10
8.1582173728
 20
4.3037271208
 30
0.0
 10
8.1787713726
 20
4.3843817254
 30
0.0
 10
8.2038253606
 20
4.4643932807
 30
0.0
 10
8.2333393436
 20
4.5436357288
 30
0.0
 10
8.267265749
 20
4.6219847122
 30
0.0
 10
8.305550424
 20
4.6993173261
 30
0.0
 10
8.348132757
 20
4.7755121807
 30
0.0
 10
8.394944874
 20
4.8504503174
 30
0.0
 10
8.4459122618
 20
4.9240142951
 30
0.0
 10
8.5009559756
 20
4.9960902846
 30
0.0
 10
8.5802036637
 20
5.0907004277
 30
0.0
 10
8.6892319619
 20
5.2046203351
 30
0.0
 10
8.8338700005
 20
5.3326230212
 30
0.0
 10
8.9923237908
 20
5.4521077571
 30
0.0
 10
9.1635926437
 20
5.5623332782
 30
0.0
 10
9.3466081543
 20
5.6626247382
 30
0.0
 10
9.5402271022
 20
5.7523638076
 30
0.0
 10
9.7432446461
 20
5.8309982711
 30
0.0
 10
9.9543856136
 20
5.8980401783
 30
0.0
 10
10.0987770299
 20
5.9344999851
 30
0.0
 10
10.1719580218
 20
5.9507299453
 30
0.0
  0
SPLINE
  5
26F
100
AcDbEntity
  8
0
100
AcDbSpline
 62
9
  6
CONTINUOUS
 70
0
 71
3
 72
30
 73
26
 74
0
 42
0.0000001
 43
0.0000001
 44
0.0000000001
 40
0.0
 40
0.0
 40
0.0
 40
0.0
 40
0.0733001812
 40
0.1455270004
 40
0.2164979092
 40
0.2860528184
 40
0.3540582326
 40
0.4204115442
 40
0.4850452435
 40
0.5479310867
 40
0.6090840746
 40
0.6390354783
 40
0.6685808369
 40
0.697735486
 40
0.7265179219
 40
0.7549497248
 40
0.783055504
 40
0.810862851
 40
0.8384021172
 40
0.8657062384
 40
0.892810625
 40
0.9197524487
 40
0.9465706408
 40
0.9733069676
 40
1.0
 40
1.0
 40
1.0
 40
1.0
 10
11.9226786548
 20
5.9507299453
 30
0.0
 10
11.9958596467
 20
5.9344999851
 30
0.0
 10
12.140251063
 20
5.8980401783
 30
0.0
 10
12.3513920305
 20
5.8309982711
 30
0.0
 10
12.5544095744
 20
5.7523638076
 30
0.0
 10
12.7480285223
 20
5.6626247382
 30
0.0
 10
12.9310440328
 20
5.5623332782
 30
0.0
 10
13.1023128858
 20
5.4521077571
 30
0.0
 10
13.260766676
 20
5.3326230211
 30
0.0
 10
13.4054047147
 20
5.2046203351
 30
0.0
 10
13.5144330129
 20
5.0907004277
 30
0.0
 10
13.593680701
 20
4.9960902846
 30
0.0
 10
13.6487244148
 20
4.9240142951
 30
0.0
 10
13.6996918026
 20
4.8504503174
 30
0.0
 10
13.7465039195
 20
4.7755121807
 30
0.0
 10
13.7890862525
 20
4.6993173261
 30
0.0
 10
13.8273709275
 20
4.6219847122
 30
0.0
 10
13.8612973329
 20
4.5436357288
 30
0.0
 10
13.890811316
 20
4.4643932806
 30
0.0
 10
13.915865304
 20
4.3843817254
 30
0.0
 10
13.9364193037
 20
4.3037271208
 30
0.0
 10
13.9524403847
 20
4.2225570782
 30
0.0
 10
13.9639026817
 20
4.1409976444
 30
0.0
 10
13.9707868762
 20
4.0591825027
 30
0.0
 10
13.9723183383
 20
4.0045316149
 30
0.0
 10
13.9723183383
 20
3.9772344636
 30
0.0
  0
SPLINE
  5
270
100
AcDbEntity
  8
0
100
AcDbSpline
 62
9
  6
CONTINUOUS
 70
0
 71
3
 72
53
 73
49
 74
0
 42
0.0000001
 43
0.0000001
 44
0.0000000001
 40
0.0
 40
0.0
 40
0.0
 40
0.0
 40
0.0128544742
 40
0.0257407032
 40
0.0386874326
 40
0.0517248983
 40
0.0648807764
 40
0.0781810013
 40
0.0916494231
 40
0.1053073579
 40
0.1191734661
 40
0.1332636389
 40
0.1475909215
 40
0.1621654742
 40
0.1920731782
 40
0.207422657
 40
0.2230326114
 40
0.2550114899
 40
0.2879677541
 40
0.3218189094
 40
0.3564556664
 40
0.3917467773
 40
0.4275436167
 40
0.46368469
 40
0.5
 40
0.53631531
 40
0.5724563833
 40
0.6082532227
 40
0.6435443336
 40
0.6781810907
 40
0.7120322459
 40
0.7449885101
 40
0.7769673886
 40
0.792577343
 40
0.8079268218
 40
0.8378345258
 40
0.8524090785
 40
0.8667363611
 40
0.8808265339
 40
0.8946926421
 40
0.9083505769
 40
0.9218189987
 40
0.9351192236
 40
0.9482751017
 40
0.9613125674
 40
0.9742592968
 40
0.9871455258
 40
1.0
 40
1.0
 40
1.0
 40
1.0
 10
9.5573183383
 20
3.9772344636
 30
0.0
 10
9.5573183383
 20
3.9599922286
 30
0.0
 10
9.5585189707
 20
3.9254532261
 30
0.0
 10
9.5639134169
 20
3.8738018202
 30
0.0
 10
9.572890031
 20
3.822399977
 30
0.0
 10
9.5854251257
 20
3.7713772922
 30
0.0
 10
9.6014877861
 20
3.7208561189
 30
0.0
 10
9.6210376297
 20
3.6709593874
 30
0.0
 10
9.6440261231
 20
3.6218076657
 30
0.0
 10
9.6703966447
 20
3.573519571
 30
0.0
 10
9.700084117
 20
3.5262109688
 30
0.0
 10
9.7330154481
 20
3.4799957608
 30
0.0
 10
9.7691121883
 20
3.4349832991
 30
0.0
 10
9.8217853374
 20
3.3762204811
 30
0.0
 10
9.8800904958
 20
3.3208274333
 30
0.0
 10
9.9432707036
 20
3.2690815355
 30
0.0
 10
10.0110880149
 20
3.2187543892
 30
0.0
 10
10.1022649497
 20
3.1605019363
 30
0.0
 10
10.2198221522
 20
3.0990328866
 30
0.0
 10
10.345292916
 20
3.046002883
 30
0.0
 10
10.4774715598
 20
3.0019145917
 30
0.0
 10
10.6150973322
 20
2.9671832394
 30
0.0
 10
10.7568546621
 20
2.9421373316
 30
0.0
 10
10.9013888981
 20
2.9270140052
 30
0.0
 10
11.0473183383
 20
2.9219570848
 30
0.0
 10
11.1932477784
 20
2.9270140052
 30
0.0
 10
11.3377820145
 20
2.9421373316
 30
0.0
 10
11.4795393444
 20
2.9671832394
 30
0.0
 10
11.6171651168
 20
3.0019145917
 30
0.0
 10
11.7493437605
 20
3.046002883
 30
0.0
 10
11.8748145244
 20
3.0990328866
 30
0.0
 10
11.9923717269
 20
3.1605019363
 30
0.0
 10
12.0835486616
 20
3.2187543892
 30
0.0
 10
12.151365973
 20
3.2690815355
 30
0.0
 10
12.2145461808
 20
3.3208274333
 30
0.0
 10
12.2728513392
 20
3.3762204811
 30
0.0
 10
12.3255244883
 20
3.4349832991
 30
0.0
 10
12.3616212284
 20
3.4799957608
 30
0.0
 10
12.3945525595
 20
3.5262109689
 30
0.0
 10
12.4242400319
 20
3.573519571
 30
0.0
 10
12.4506105534
 20
3.6218076657
 30
0.0
 10
12.4735990469
 20
3.6709593874
 30
0.0
 10
12.4931488905
 20
3.7208561189
 30
0.0
 10
12.5092115509
 20
3.7713772922
 30
0.0
 10
12.5217466456
 20
3.822399977
 30
0.0
 10
12.5307232597
 20
3.8738018202
 30
0.0
 10
12.5361177059
 20
3.9254532261
 30
0.0
 10
12.5373183383
 20
3.9599922286
 30
0.0
 10
12.5373183383
 20
3.9772344636
 30
0.0
  0
SPLINE
  5
271
100
AcDbEntity
  8
0
100
AcDbSpline
 62
9
  6
CONTINUOUS
 70
0
 71
3
 72
69
 73
65
 74
0
 42
0.0000001
 43
0.0000001
 44
0.0000000001
 40
0.0
 40
0.0
 40
0.0
 40
0.0
 40
0.0128533206
 40
0.0257378193
 40
0.038683215
 40
0.0517192565
 40
0.0648736351
 40
0.0781723954
 40
0.0916393207
 40
0.1052957362
 40
0.1191603096
 40
0.1332489225
 40
0.1475746084
 40
0.16214754
 40
0.1769750595
 40
0.1920617459
 40
0.2074095157
 40
0.2230177388
 40
0.2388833708
 40
0.2550010932
 40
0.2713634583
 40
0.287961041
 40
0.3047825941
 40
0.3218151992
 40
0.3390444165
 40
0.356454432
 40
0.3740282016
 40
0.3917475971
 40
0.4095935484
 40
0.4275461824
 40
0.4636832424
 40
0.4818306885
 40
0.5
 40
0.5181693115
 40
0.5363167576
 40
0.5724538176
 40
0.5904064516
 40
0.6082524029
 40
0.6259717984
 40
0.643545568
 40
0.6609555835
 40
0.6781848008
 40
0.6952174059
 40
0.712038959
 40
0.7286365417
 40
0.7449989068
 40
0.7611166292
 40
0.7769822612
 40
0.7925904843
 40
0.8079382541
 40
0.8230249405
 40
0.83785246
 40
0.8524253916
 40
0.8667510775
 40
0.8808396904
 40
0.8947042638
 40
0.9083606793
 40
0.9218276046
 40
0.9351263649
 40
0.9482807435
 40
0.961316785
 40
0.9742621807
 40
0.9871466794
 40
1.0
 40
1.0
 40
1.0
 40
1.0
 10
14.0023183383
 20
3.334701033
 30
0.0
 10
14.0023183383
 20
3.3005051378
 30
0.0
 10
13.9999375715
 20
3.2320067012
 30
0.0
 10
13.9892386096
 20
3.1295703791
 30
0.0
 10
13.9714360776
 20
3.0276296141
 30
0.0
 10
13.9465762377
 20
2.9264400886
 30
0.0
 10
13.914720485
 20
2.8262454142
 30
0.0
 10
13.8759487976
 20
2.7272892323
 30
0.0
 10
13.8303573017
 20
2.6298105913
 30
0.0
 10
13.7780588355
 20
2.5340445006
 30
0.0
 10
13.7191820868
 20
2.4402212133
 30
0.0
 10
13.6538712498
 20
2.3485658566
 30
0.0
 10
13.5822856249
 20
2.2592979927
 30
0.0
 10
13.5045991976
 20
2.172631238
 30
0.0
 10
13.4210003079
 20
2.0887728013
 30
0.0
 10
13.3316912472
 20
2.007923023
 30
0.0
 10
13.2368876998
 20
1.9302750526
 30
0.0
 10
13.1368182895
 20
1.8560144108
 30
0.0
 10
13.0317240786
 20
1.7853185781
 30
0.0
 10
12.921858034
 20
1.7183566118
 30
0.0
 10
12.8074845269
 20
1.6552886506
 30
0.0
 10
12.6888787048
 20
1.5962655394
 30
0.0
 10
12.5663258016
 20
1.5414285405
 30
0.0
 10
12.4401204904
 20
1.4909089674
 30
0.0
 10
12.310566175
 20
1.4448278586
 30
0.0
 10
12.1779743705
 20
1.4032957134
 30
0.0
 10
12.042663666
 20
1.3664120323
 30
0.0
 10
11.9049602119
 20
1.3342653442
 30
0.0
 10
11.7651920665
 20
1.3069322592
 30
0.0
 10
11.5761441777
 20
1.2769325495
 30
0.0
 10
11.3848143646
 20
1.2569128886
 30
0.0
 10
11.1922858129
 20
1.2468768951
 30
0.0
 10
11.0473183383
 20
1.2443618905
 30
0.0
 10
10.9023508637
 20
1.2468768951
 30
0.0
 10
10.7098223119
 20
1.2569128886
 30
0.0
 10
10.5184924988
 20
1.2769325495
 30
0.0
 10
10.3294446101
 20
1.3069322592
 30
0.0
 10
10.1896764646
 20
1.3342653442
 30
0.0
 10
10.0519730106
 20
1.3664120323
 30
0.0
 10
9.9166623061
 20
1.4032957134
 30
0.0
 10
9.7840705016
 20
1.4448278586
 30
0.0
 10
9.6545161862
 20
1.4909089674
 30
0.0
 10
9.528310875
 20
1.5414285405
 30
0.0
 10
9.4057579717
 20
1.5962655394
 30
0.0
 10
9.2871521497
 20
1.6552886506
 30
0.0
 10
9.1727786426
 20
1.7183566118
 30
0.0
 10
9.0629125979
 20
1.7853185781
 30
0.0
 10
8.957818387
 20
1.8560144108
 30
0.0
 10
8.8577489768
 20
1.9302750526
 30
0.0
 10
8.7629454294
 20
2.007923023
 30
0.0
 10
8.6736363686
 20
2.0887728013
 30
0.0
 10
8.5900374789
 20
2.172631238
 30
0.0
 10
8.5123510517
 20
2.2592979927
 30
0.0
 10
8.4407654268
 20
2.3485658566
 30
0.0
 10
8.3754545897
 20
2.4402212133
 30
0.0
 10
8.3165778411
 20
2.5340445006
 30
0.0
 10
8.2642793749
 20
2.6298105913
 30
0.0
 10
8.2186878789
 20
2.7272892323
 30
0.0
 10
8.1799161916
 20
2.8262454142
 30
0.0
 10
8.1480604389
 20
2.9264400886
 30
0.0
 10
8.123200599
 20
3.0276296141
 30
0.0
 10
8.1053980669
 20
3.1295703791
 30
0.0
 10
8.094699105
 20
3.2320067012
 30
0.0
 10
8.0923183383
 20
3.3005051378
 30
0.0
 10
8.0923183383
 20
3.334701033
 30
0.0
  0
SPLINE
  5
272
100
AcDbEntity
  8
0
100
AcDbSpline
 62
9
  6
CONTINUOUS
 70
0
 71
3
 72
34
 73
30
 74
0
 42
0.0000001
 43
0.0000001
 44
0.0000000001
 40
0.0
 40
0.0
 40
0.0
 40
0.0
 40
0.0262552383
 40
0.0525609793
 40
0.0789637334
 40
0.1055122114
 40
0.1322516176
 40
0.1592250935
 40
0.1864730022
 40
0.2140323975
 40
0.2419368092
 40
0.2702159802
 40
0.2988957331
 40
0.3279978815
 40
0.3575401724
 40
0.387536332
 40
0.4489100876
 40
0.4803112773
 40
0.5121828774
 40
0.5773020676
 40
0.6105435407
 40
0.6442176876
 40
0.7127841512
 40
0.7476471436
 40
0.7828623829
 40
0.8542365767
 40
0.8903495894
 40
0.92670368
 40
1.0
 40
1.0
 40
1.0
 40
1.0
 10
14.0023183383
 20
3.9560212602
 30
0.0
 10
14.0023183383
 20
3.9257843853
 30
0.0
 10
14.0004578176
 20
3.8652360841
 30
0.0
 10
13.9920952703
 20
3.7746285516
 30
0.0
 10
13.9781747564
 20
3.6843624072
 30
0.0
 10
13.9587248596
 20
3.5946150222
 30
0.0
 10
13.9337825178
 20
3.5055546586
 30
0.0
 10
13.903396596
 20
3.4173507281
 30
0.0
 10
13.8676259829
 20
3.3301699067
 30
0.0
 10
13.8265393565
 20
3.2441768798
 30
0.0
 10
13.7802157209
 20
3.159533682
 30
0.0
 10
13.7287440039
 20
3.0763994707
 30
0.0
 10
13.6722222592
 20
2.9949302487
 30
0.0
 10
13.6107584769
 20
2.9152795486
 30
0.0
 10
13.5444672347
 20
2.8375944527
 30
0.0
 10
13.4491002038
 20
2.7360719568
 30
0.0
 10
13.3451646423
 20
2.6398807233
 30
0.0
 10
13.2336944026
 20
2.5493822163
 30
0.0
 10
13.1150373076
 20
2.4610924988
 30
0.0
 10
12.9892408306
 20
2.3790769609
 30
0.0
 10
12.8572600082
 20
2.3035052602
 30
0.0
 10
12.7189994096
 20
2.2311269013
 30
0.0
 10
12.5751161955
 20
2.1657074491
 30
0.0
 10
12.4264795998
 20
2.1073161413
 30
0.0
 10
12.2728699106
 20
2.0529969959
 30
0.0
 10
12.1152066697
 20
2.0061128836
 30
0.0
 10
11.9542883809
 20
1.9666856895
 30
0.0
 10
11.7900196651
 20
1.9320018279
 30
0.0
 10
11.6652507565
 20
1.9118309563
 30
0.0
 10
11.5815430829
 20
1.9009508989
 30
0.0
  0
SPLINE
  5
273
100
AcDbEntity
  8
0
100
AcDbSpline
 62
9
  6
CONTINUOUS
 70
0
 71
3
 72
34
 73
30
 74
0
 42
0.0000001
 43
0.0000001
 44
0.0000000001
 40
0.0
 40
0.0
 40
0.0
 40
0.0
 40
0.07329632
 40
0.1096504106
 40
0.1457634233
 40
0.2171376171
 40
0.2523528564
 40
0.2872158488
 40
0.3557823124
 40
0.3894564593
 40
0.4226979324
 40
0.4878171226
 40
0.5196887227
 40
0.5510899124
 40
0.612463668
 40
0.6424598276
 40
0.6720021185
 40
0.7011042669
 40
0.7297840198
 40
0.7580631908
 40
0.7859676025
 40
0.8135269978
 40
0.8407749065
 40
0.8677483824
 40
0.8944877886
 40
0.9210362666
 40
0.9474390207
 40
0.9737447617
 40
1.0
 40
1.0
 40
1.0
 40
1.0
 10
10.5130935936
 20
1.9009508989
 30
0.0
 10
10.4293859201
 20
1.9118309563
 30
0.0
 10
10.3046170115
 20
1.9320018279
 30
0.0
 10
10.1403482956
 20
1.9666856895
 30
0.0
 10
9.9794300068
 20
2.0061128836
 30
0.0
 10
9.821766766
 20
2.0529969959
 30
0.0
 10
9.6681570768
 20
2.1073161413
 30
0.0
 10
9.5195204811
 20
2.1657074491
 30
0.0
 10
9.3756372669
 20
2.2311269013
 30
0.0
 10
9.2373766684
 20
2.3035052602
 30
0.0
 10
9.105395846
 20
2.3790769609
 30
0.0
 10
8.979599369
 20
2.4610924988
 30
0.0
 10
8.860942274
 20
2.5493822163
 30
0.0
 10
8.7494720343
 20
2.6398807233
 30
0.0
 10
8.6455364728
 20
2.7360719568
 30
0.0
 10
8.5501694418
 20
2.8375944527
 30
0.0
 10
8.4838781997
 20
2.9152795486
 30
0.0
 10
8.4224144174
 20
2.9949302487
 30
0.0
 10
8.3658926727
 20
3.0763994707
 30
0.0
 10
8.3144209557
 20
3.159533682
 30
0.0
 10
8.2680973201
 20
3.2441768798
 30
0.0
 10
8.2270106937
 20
3.3301699067
 30
0.0
 10
8.1912400805
 20
3.4173507281
 30
0.0
 10
8.1608541588
 20
3.5055546586
 30
0.0
 10
8.135911817
 20
3.5946150222
 30
0.0
 10
8.1164619202
 20
3.6843624072
 30
0.0
 10
8.1025414062
 20
3.7746285516
 30
0.0
 10
8.0941788589
 20
3.8652360841
 30
0.0
 10
8.0923183383
 20
3.9257843853
 30
0.0
 10
8.0923183383
 20
3.9560212602
 30
0.0
  0
SPLINE
  5
274
100
AcDbEntity
  8
0
100
AcDbSpline
 62
7
  6
CONTINUOUS
 70
0
 71
3
 72
22
 73
18
 74
0
 42
0.0000001
 43
0.0000001
 44
0.0000000001
 40
0.0
 40
0.0
 40
0.0
 40
0.0
 40
0.1377150049
 40
0.274698188
 40
0.4100588359
 40
0.4767842907
 40
0.5425978641
 40
0.6072414969
 40
0.6704024496
 40
0.7316932421
 40
0.7906799415
 40
0.8469469785
 40
0.90026319
 40
0.9259036587
 40
0.9509629663
 40
0.9756009113
 40
1.0
 40
1.0
 40
1.0
 40
1.0
 10
11.0473183383
 20
4.6604779627
 30
0.0
 10
11.0405624487
 20
4.6604779627
 30
0.0
 10
11.0270812543
 20
4.660953334
 30
0.0
 10
11.0070653316
 20
4.6631263955
 30
0.0
 10
10.990702793
 20
4.6662490791
 30
0.0
 10
10.9779998472
 20
4.6696387479
 30
0.0
 10
10.9687970816
 20
4.6726363552
 30
0.0
 10
10.9599585528
 20
4.6761336504
 30
0.0
 10
10.9515937876
 20
4.680166316
 30
0.0
 10
10.9438459181
 20
4.6847702146
 30
0.0
 10
10.9368981615
 20
4.6899759529
 30
0.0
 10
10.930981751
 20
4.6957953954
 30
0.0
 10
10.9270897096
 20
4.7012258494
 30
0.0
 10
10.9248339678
 20
4.7058144149
 30
0.0
 10
10.92360962
 20
4.709312181
 30
0.0
 10
10.9228624406
 20
4.7128800151
 30
0.0
 10
10.9226939025
 20
4.7152888277
 30
0.0
 10
10.9226939025
 20
4.7164857746
 30
0.0
  0
SPLINE
  5
275
100
AcDbEntity
  8
0
100
AcDbSpline
 62
7
  6
CONTINUOUS
 70
0
 71
3
 72
22
 73
18
 74
0
 42
0.0000001
 43
0.0000001
 44
0.0000000001
 40
0.0
 40
0.0
 40
0.0
 40
0.0
 40
0.0243992183
 40
0.0490374655
 40
0.0740969764
 40
0.0997376259
 40
0.1530542279
 40
0.2093214508
 40
0.2683082468
 40
0.3295988277
 40
0.3927594385
 40
0.4574029314
 40
0.5232164969
 40
0.5899417318
 40
0.7253022457
 40
0.8622850602
 40
1.0
 40
1.0
 40
1.0
 40
1.0
 10
11.1719427741
 20
4.7164857746
 30
0.0
 10
11.1719427741
 20
4.7152888214
 30
0.0
 10
11.1717742184
 20
4.7128799892
 30
0.0
 10
11.1710270514
 20
4.7093121207
 30
0.0
 10
11.1698026679
 20
4.7058143302
 30
0.0
 10
11.1675469
 20
4.7012257362
 30
0.0
 10
11.1636548194
 20
4.6957952627
 30
0.0
 10
11.1577383621
 20
4.6899758215
 30
0.0
 10
11.1507905901
 20
4.6847700979
 30
0.0
 10
11.1430427231
 20
4.6801662394
 30
0.0
 10
11.1346779873
 20
4.6761335933
 30
0.0
 10
11.1258394804
 20
4.6726363067
 30
0.0
 10
11.1166367249
 20
4.6696387274
 30
0.0
 10
11.1039337998
 20
4.6662490515
 30
0.0
 10
11.0875712919
 20
4.6631263929
 30
0.0
 10
11.067555398
 20
4.6609533317
 30
0.0
 10
11.0540742247
 20
4.6604779627
 30
0.0
 10
11.0473183383
 20
4.6604779627
 30
0.0
  0
SPLINE
  5
276
100
AcDbEntity
  8
0
100
AcDbSpline
 62
9
  6
CONTINUOUS
 70
0
 71
3
 72
19
 73
15
 74
0
 42
0.0000001
 43
0.0000001
 44
0.0000000001
 40
0.0
 40
0.0
 40
0.0
 40
0.0
 40
0.0525835218
 40
0.1064724164
 40
0.1617839153
 40
0.2185950912
 40
0.3367502859
 40
0.3981429862
 40
0.4609768419
 40
0.5905141761
 40
0.724419505
 40
0.7926393894
 40
0.8614437506
 40
1.0
 40
1.0
 40
1.0
 40
1.0
 10
11.3712774036
 20
4.7282448379
 30
0.0
 10
11.3681951072
 20
4.7223818826
 30
0.0
 10
11.3613747249
 20
4.7108063516
 30
0.0
 10
11.3494546529
 20
4.694245447
 30
0.0
 10
11.3357952472
 20
4.6783761835
 30
0.0
 10
11.3151098392
 20
4.6580034003
 30
0.0
 10
11.2914752034
 20
4.6396821198
 30
0.0
 10
11.2655204159
 20
4.6235724398
 30
0.0
 10
11.2372740442
 20
4.6085592062
 30
0.0
 10
11.199182708
 20
4.5928273468
 30
0.0
 10
11.1588634877
 20
4.5815221455
 30
0.0
 10
11.1253333573
 20
4.5750782961
 30
0.0
 10
11.0909218549
 20
4.5704095124
 30
0.0
 10
11.0647718976
 20
4.5690114007
 30
0.0
 10
11.0473183383
 20
4.5690114007
 30
0.0
  0
SPLINE
  5
277
100
AcDbEntity
  8
0
100
AcDbSpline
 62
7
  6
CONTINUOUS
 70
0
 71
3
 72
26
 73
22
 74
0
 42
0.0000001
 43
0.0000001
 44
0.0000000001
 40
0.0
 40
0.0
 40
0.0
 40
0.0
 40
0.1440075404
 40
0.2152495842
 40
0.2855492729
 40
0.3546268903
 40
0.4222332149
 40
0.4881568926
 40
0.5522330452
 40
0.6143516522
 40
0.6744656047
 40
0.7037848901
 40
0.7326185215
 40
0.7609814329
 40
0.7888940865
 40
0.843451498
 40
0.8965760688
 40
0.9227177284
 40
0.9486339412
 40
0.9743765189
 40
1.0
 40
1.0
 40
1.0
 40
1.0
 10
11.0473183383
 20
4.4454867709
 30
0.0
 10
11.020725406
 20
4.4454867709
 30
0.0
 10
10.9809050523
 20
4.4481422924
 30
0.0
 10
10.9288976183
 20
4.4570172433
 30
0.0
 10
10.891073108
 20
4.4662232881
 30
0.0
 10
10.8546488084
 20
4.4779186737
 30
0.0
 10
10.8199461874
 20
4.4920005843
 30
0.0
 10
10.7872766045
 20
4.5083446475
 30
0.0
 10
10.7569315078
 20
4.5268078014
 30
0.0
 10
10.7291848649
 20
4.5472264636
 30
0.0
 10
10.7082585144
 20
4.5658819189
 30
0.0
 10
10.6930976515
 20
4.5816131886
 30
0.0
 10
10.6826166929
 20
4.5936810214
 30
0.0
 10
10.6729567318
 20
4.6060887628
 30
0.0
 10
10.6612908388
 20
4.6229157848
 30
0.0
 10
10.648794058
 20
4.6446835765
 30
0.0
 10
10.6391470715
 20
4.6675100354
 30
0.0
 10
10.6333298469
 20
4.6860537883
 30
0.0
 10
10.629922254
 20
4.7000217494
 30
0.0
 10
10.6274572437
 20
4.7140884221
 30
0.0
 10
10.6264435643
 20
4.7235279462
 30
0.0
 10
10.6260964443
 20
4.7282469176
 30
0.0
  0
SPLINE
  5
278
100
AcDbEntity
  8
0
100
AcDbSpline
 62
7
  6
CONTINUOUS
 70
0
 71
3
 72
15
 73
11
 74
0
 42
0.0000001
 43
0.0000001
 44
0.0000000001
 40
0.0
 40
0.0
 40
0.0
 40
0.0
 40
0.1294271704
 40
0.2571654936
 40
0.3833852904
 40
0.5083131731
 40
0.6321826985
 40
0.7552426612
 40
0.8777657693
 40
1.0
 40
1.0
 40
1.0
 40
1.0
 10
10.3973183383
 20
4.3125391103
 30
0.0
 10
10.3932315697
 20
4.3197689143
 30
0.0
 10
10.3855309294
 20
4.334376552
 30
0.0
 10
10.3753948831
 20
4.3568082275
 30
0.0
 10
10.3667775836
 20
4.3795591112
 30
0.0
 10
10.3596998073
 20
4.4025756731
 30
0.0
 10
10.3541770817
 20
4.4258060985
 30
0.0
 10
10.3502229854
 20
4.4491984765
 30
0.0
 10
10.3478472134
 20
4.4726970916
 30
0.0
 10
10.3473183383
 20
4.4884074659
 30
0.0
 10
10.3473183383
 20
4.496250841
 30
0.0
  0
SPLINE
  5
279
100
AcDbEntity
  8
0
100
AcDbSpline
 62
7
  6
CONTINUOUS
 70
0
 71
3
 72
15
 73
11
 74
0
 42
0.0000001
 43
0.0000001
 44
0.0000000001
 40
0.0
 40
0.0
 40
0.0
 40
0.0
 40
0.1222342307
 40
0.2447573388
 40
0.3678173015
 40
0.4916868269
 40
0.6166147096
 40
0.7428345064
 40
0.8705728296
 40
1.0
 40
1.0
 40
1.0
 40
1.0
 10
11.7473183383
 20
4.496250841
 30
0.0
 10
11.7473183383
 20
4.4884074659
 30
0.0
 10
11.7467894632
 20
4.4726970916
 30
0.0
 10
11.7444136911
 20
4.4491984765
 30
0.0
 10
11.7404595949
 20
4.4258060985
 30
0.0
 10
11.7349368692
 20
4.4025756731
 30
0.0
 10
11.7278590929
 20
4.3795591112
 30
0.0
 10
11.7192417935
 20
4.3568082275
 30
0.0
 10
11.7091057471
 20
4.334376552
 30
0.0
 10
11.7014051069
 20
4.3197689143
 30
0.0
 10
11.6973183383
 20
4.3125391103
 30
0.0
  0
SPLINE
  5
27A
100
AcDbEntity
  8
0
100
AcDbSpline
 62
7
  6
CONTINUOUS
 70
0
 71
3
 72
37
 73
33
 74
0
 42
0.0000001
 43
0.0000001
 44
0.0000000001
 40
0.0
 40
0.0
 40
0.0
 40
0.0
 40
0.0263927631
 40
0.0534430965
 40
0.0811997639
 40
0.1096956722
 40
0.1689030975
 40
0.1996302993
 40
0.2310540149
 40
0.2631281275
 40
0.2957952703
 40
0.3289883885
 40
0.3626321997
 40
0.39664461
 40
0.430938148
 40
0.4654213348
 40
0.5
 40
0.5345786652
 40
0.569061852
 40
0.60335539
 40
0.6373678003
 40
0.6710116115
 40
0.7042047297
 40
0.7368718725
 40
0.7689459851
 40
0.8003697007
 40
0.8310969025
 40
0.8903043278
 40
0.9188002361
 40
0.9465569035
 40
0.9736072369
 40
1.0
 40
1.0
 40
1.0
 40
1.0
 10
10.3973183383
 20
4.5600264837
 30
0.0
 10
10.4038357215
 20
4.548496738
 30
0.0
 10
10.4181334828
 20
4.5257558381
 30
0.0
 10
10.4428059048
 20
4.493268265
 30
0.0
 10
10.4708204893
 20
4.4621756368
 30
0.0
 10
10.5129361228
 20
4.4223153068
 30
0.0
 10
10.5606792962
 20
4.3865132779
 30
0.0
 10
10.6128582039
 20
4.3550558819
 30
0.0
 10
10.6548851635
 20
4.3333114054
 30
0.0
 10
10.6990707372
 20
4.3138386518
 30
0.0
 10
10.7451761268
 20
4.2967406093
 30
0.0
 10
10.7929460504
 20
4.2821116222
 30
0.0
 10
10.8421177115
 20
4.2700314848
 30
0.0
 10
10.8924201199
 20
4.2605664267
 30
0.0
 10
10.9435761527
 20
4.2537683215
 30
0.0
 10
10.9953039129
 20
4.2496744653
 30
0.0
 10
11.0473183383
 20
4.248307339
 30
0.0
 10
11.0993327636
 20
4.2496744653
 30
0.0
 10
11.1510605239
 20
4.2537683215
 30
0.0
 10
11.2022165566
 20
4.2605664267
 30
0.0
 10
11.2525189651
 20
4.2700314848
 30
0.0
 10
11.3016906261
 20
4.2821116222
 30
0.0
 10
11.3494605498
 20
4.2967406093
 30
0.0
 10
11.3955659393
 20
4.3138386518
 30
0.0
 10
11.4397515131
 20
4.3333114054
 30
0.0
 10
11.4817784727
 20
4.3550558819
 30
0.0
 10
11.5339573803
 20
4.3865132779
 30
0.0
 10
11.5817005538
 20
4.4223153068
 30
0.0
 10
11.6238161873
 20
4.4621756368
 30
0.0
 10
11.6518307717
 20
4.493268265
 30
0.0
 10
11.6765031937
 20
4.5257558381
 30
0.0
 10
11.6908009551
 20
4.548496738
 30
0.0
 10
11.6973183383
 20
4.5600264837
 30
0.0
  0
ENDSEC
  0
SECTION
  2
OBJECTS
  0
DICTIONARY
  5
C
100
AcDbDictionary
280
0
281
1
  3
ACAD_GROUP
350
D
  3
ACAD_MLINESTYLE
350
17
  3
ACAD_LAYOUT
350
1A
  3
ACAD_PLOTSETTINGS
350
19
  3
ACAD_PLOTSTYLENAME
350
E
  0
DICTIONARY
  5
D
102
{ACAD_REACTORS
330
C
102
}
100
AcDbDictionary
280
0
281
1
  0
ACDBDICTIONARYWDFLT
  5
E
102
{ACAD_REACTORS
330
C
102
}
100
AcDbDictionary
281
1
  3
Normal
350
F
100
AcDbDictionaryWithDefault
340
F
  0
DICTIONARY
  5
17
102
{ACAD_REACTORS
330
C
102
}
100
AcDbDictionary
280
0
281
1
  3
Standard
350
18
  0
DICTIONARY
  5
19
102
{ACAD_REACTORS
330
C
102
}
100
AcDbDictionary
281
1
  0
DICTIONARY
  5
1A
102
{ACAD_REACTORS
330
C
102
}
100
AcDbDictionary
281
1
  3
Model
350
27B
  3
Layout1
350
27C
  0
ACDBPLACEHOLDER
  5
F
102
{ACAD_REACTORS
330
E
102
}
  0
MLINESTYLE
  5
18
102
{ACAD_REACTORS
330
17
102
}
100
AcDbMlineStyle
  2
STANDARD
 70
0
  3

 62
256
 51
90.0
 52
90.0
 71
2
 49
0.5
 62
256
  6
BYLAYER
 49
-0.5
 62
256
  6
BYLAYER
  0
LAYOUT
  5
27B
102
{ACAD_REACTORS
330
1A
102
}
100
AcDbPlotSettings
  1

  2
none_device
  4
ANSI_C_(22.00_x_17.00_Inches)
  6

 40
0.0
 41
0.0
 42
0.0
 43
0.0
 44
558.8
 45
431.8
 46
0.0
 47
0.0
 48
0.0
 49
0.0
140
0.0
141
0.0
142
1.0
143
1.0
 70
1024
 72
0
 73
0
 74
0
  7

 75
0
147
1.0
148
0.0
149
0.0
100
AcDbLayout
  1
Model
 70
0
 71
0
 10
0.0
 20
0.0
 11
22.0
 21
17.0
 12
0.0
 22
0.0
 32
0.0
 14
0.0
 24
0.0
 34
0.0
 15
0.0
 25
0.0
 35
0.0
146
0.0
 13
0.0
 23
0.0
 33
0.0
 16
1.0
 26
0.0
 36
0.0
 17
0.0
 27
1.0
 37
0.0
 76
0
330
205
345
0
346
0
  0
LAYOUT
  5
27C
102
{ACAD_REACTORS
330
1A
102
}
100
AcDbPlotSettings
  1

  2
none_device
  4
ANSI_C_(22.00_x_17.00_Inches)
  6

 40
0.0
 41
0.0
 42
0.0
 43
0.0
 44
558.8
 45
431.8
 46
0.0
 47
0.0
 48
0.0
 49
0.0
140
0.0
141
0.0
142
1.0
143
1.0
 70
0
 72
0
 73
0
 74
0
  7

 75
0
147
1.0
148
0.0
149
0.0
100
AcDbLayout
  1
Layout1
 70
0
 71
1
 10
0.0
 20
0.0
 11
22.0
 21
17.0
 12
0.0
 22
0.0
 32
0.0
 14
0.0
 24
0.0
 34
0.0
 15
0.0
 25
0.0
 35
0.0
146
0.0
 13
0.0
 23
0.0
 33
0.0
 16
1.0
 26
0.0
 36
0.0
 17
0.0
 27
1.0
 37
0.0
 76
0
330
206
345
0
346
0
  0
ENDSEC
  0
EOF
