999
DXF file: E:\BT Custom\CADOUTPUT\_RIGHT.dxf
999
Pro/ENGINEER 2018400 by Parametric Technology Corporation
  0
SECTION
  2
HEADER
  9
$ACADVER
  1
AC1018
  9
$DWGCODEPAGE
  3
ANSI_1252
  9
$EXTMAX
 10
22.0
 20
17.0
 30
0.0
  9
$EXTMIN
 10
0.0
 20
0.0
 30
0.0
  9
$LIMMIN
 10
0.0
 20
0.0
  9
$LIMMAX
 10
22.0
 20
17.0
  9
$VIEWCTR
 10
11.0
 20
8.5
  9
$VIEWSIZE
 40
17.0
  9
$CLAYER
  8
0
  9
$LTSCALE
 40
1.21
  9
$CELTYPE
  6
BYLAYER
  9
$DIMSCALE
 40
1.0
  9
$DIMASZ
 40
0.1
  9
$DIMEXO
 40
0.0625
  9
$DIMDLI
 40
0.836
  9
$DIMEXE
 40
0.125
  9
$DIMCEN
 40
0.198
  9
$DIMLFAC
 40
1.0
  9
$DIMBLK
  1
_FILLED
  9
$DIMALT
 70
1
  9
$DIMALTD
 70
2
  9
$DIMALTTD
 70
2
  9
$DIMALTF
 40
25.4
  9
$DIMTXT
 40
0.08
  9
$DIMTOL
 70
1
  9
$DIMLIM
 70
0
  9
$DIMTFAC
 40
1.0
  9
$DIMTP
 40
0.001
  9
$DIMTM
 40
0.001
  9
$DIMGAP
 40
0.09
  9
$DIMDSEP
 70
46
  9
$AUNITS
 70
0
  9
$PDMODE
 70
3
  9
$PDSIZE
 40
0.06
  9
$HANDSEED
  5
4A8
  9
$TILEMODE
 70
1
  9
$MEASUREMENT
 70
0
  9
$INSUNITS
 70
1
  0
ENDSEC
  0
SECTION
  2
CLASSES
  0
CLASS
  1
ACDBDICTIONARYWDFLT
  2
AcDbDictionaryWithDefault
  3
AutoCAD 2000
 90
0
 91
1
280
0
281
0
  0
CLASS
  1
ACDBPLACEHOLDER
  2
AcDbPlaceHolder
  3
AutoCAD 2000
 90
0
 91
1
280
0
281
0
  0
CLASS
  1
LAYOUT
  2
AcDbLayout
  3
AutoCAD 2000
 90
0
 91
0
280
0
281
0
  0
ENDSEC
  0
SECTION
  2
TABLES
  0
TABLE
  2
VPORT
  5
8
100
AcDbSymbolTable
 70
2
  0
VPORT
  5
1F4
100
AcDbSymbolTableRecord
100
AcDbViewportTableRecord
  2
*ACTIVE
 70
0
 10
0.0
 20
0.0
 11
1.0
 21
1.0
 12
11.0
 22
8.5
 13
0.0
 23
0.0
 14
1.0
 24
1.0
 15
0.0
 25
0.0
 16
0.0
 26
0.0
 36
1.0
 17
0.0
 27
0.0
 37
0.0
 40
17.0
 41
1.2941176471
 42
50.0
 43
0.0
 44
0.0
 50
0.0
 51
0.0
 71
0
 72
100
 73
1
 74
1
 75
0
 76
0
 77
0
 78
0
  0
ENDTAB
  0
TABLE
  2
LTYPE
  5
5
100
AcDbSymbolTable
 70
6
  0
LTYPE
  5
14
100
AcDbSymbolTableRecord
100
AcDbLinetypeTableRecord
  2
BYBLOCK
 70
0
  3

 72
65
 73
0
 40
0.0
  0
LTYPE
  5
15
100
AcDbSymbolTableRecord
100
AcDbLinetypeTableRecord
  2
BYLAYER
 70
0
  3

 72
65
 73
0
 40
0.0
  0
LTYPE
  5
16
100
AcDbSymbolTableRecord
100
AcDbLinetypeTableRecord
  2
CONTINUOUS
 70
64
  3
Solid line
 72
65
 73
0
 40
0.0
  0
LTYPE
  5
1F5
100
AcDbSymbolTableRecord
100
AcDbLinetypeTableRecord
  2
CENTER
 70
64
  3
____ _ ____ _ ____ _ ____ _ ____ _ ____ _ ____
 72
65
 73
4
 40
0.6
 49
0.375
 74
0
 49
-0.075
 74
0
 49
0.075
 74
0
 49
-0.075
 74
0
  0
LTYPE
  5
1F6
100
AcDbSymbolTableRecord
100
AcDbLinetypeTableRecord
  2
HIDDEN
 70
64
  3
- - - - - - - - - - - - - - - - - - - -
 72
65
 73
2
 40
0.2
 49
0.1
 74
0
 49
-0.1
 74
0
  0
LTYPE
  5
1F7
100
AcDbSymbolTableRecord
100
AcDbLinetypeTableRecord
  2
PHANTOM
 70
64
  3
_____ _ _ _____ _ _ _____ _ _ _____
 72
65
 73
6
 40
0.8
 49
0.45
 74
0
 49
-0.05
 74
0
 49
0.1
 74
0
 49
-0.05
 74
0
 49
0.1
 74
0
 49
-0.05
 74
0
  0
LTYPE
  5
1F8
100
AcDbSymbolTableRecord
100
AcDbLinetypeTableRecord
  2
DOT
 70
64
  3
. . . . . . . . . . . . . . . . . . . .
 72
65
 73
2
 40
0.2
 49
0.1
 74
0
 49
-0.1
 74
0
  0
LTYPE
  5
1F9
100
AcDbSymbolTableRecord
100
AcDbLinetypeTableRecord
  2
DASHED
 70
64
  3
- - - - - - - - - - - - - - - - - - - -
 72
65
 73
2
 40
0.2
 49
0.1
 74
0
 49
-0.1
 74
0
  0
ENDTAB
  0
TABLE
  2
LAYER
  5
2
100
AcDbSymbolTable
 70
36
  0
LAYER
  5
10
100
AcDbSymbolTableRecord
100
AcDbLayerTableRecord
  2
0
 70
0
 62
7
  6
CONTINUOUS
370
-3
390
F
  0
LAYER
  5
1FA
100
AcDbSymbolTableRecord
100
AcDbLayerTableRecord
  2
DEFAULT_1
 70
0
 62
7
  6
CENTER
370
-3
390
F
  0
LAYER
  5
1FB
100
AcDbSymbolTableRecord
100
AcDbLayerTableRecord
  2
DEFAULT_2
 70
0
 62
8
  6
HIDDEN
370
-3
390
F
  0
LAYER
  5
1FC
100
AcDbSymbolTableRecord
100
AcDbLayerTableRecord
  2
DEFAULT_3
 70
0
 62
7
  6
PHANTOM
370
-3
390
F
  0
LAYER
  5
1FD
100
AcDbSymbolTableRecord
100
AcDbLayerTableRecord
  2
ALL_FEATURES
 70
0
 62
7
  6
CONTINUOUS
370
-3
390
F
  0
LAYER
  5
1FE
100
AcDbSymbolTableRecord
100
AcDbLayerTableRecord
  2
AXES_FEATURES
 70
0
 62
7
  6
CONTINUOUS
370
-3
390
F
  0
LAYER
  5
1FF
100
AcDbSymbolTableRecord
100
AcDbLayerTableRecord
  2
DEFAULT_COORDINATE_SYSTEM
 70
0
 62
7
  6
CONTINUOUS
370
-3
390
F
  0
LAYER
  5
200
100
AcDbSymbolTableRecord
100
AcDbLayerTableRecord
  2
DEFAULT_DATUM_AXES
 70
0
 62
7
  6
CONTINUOUS
370
-3
390
F
  0
LAYER
  5
201
100
AcDbSymbolTableRecord
100
AcDbLayerTableRecord
  2
DEFAULT_DATUM_PLANES
 70
0
 62
7
  6
CONTINUOUS
370
-3
390
F
  0
LAYER
  5
202
100
AcDbSymbolTableRecord
100
AcDbLayerTableRecord
  2
DIMENSIONS
 70
0
 62
7
  6
CONTINUOUS
370
-3
390
F
  0
ENDTAB
  0
TABLE
  2
STYLE
  5
3
100
AcDbSymbolTable
 70
1
  0
STYLE
  5
11
100
AcDbSymbolTableRecord
100
AcDbTextStyleTableRecord
  2
STANDARD
 70
0
 40
0.0
 41
0.8
 50
0.0
 71
0
 42
0.2
  3
txt
  4

  0
STYLE
  5
203
100
AcDbSymbolTableRecord
100
AcDbTextStyleTableRecord
  2
TEXTSTYLE_1
 70
0
 40
0.0
 41
0.8
 50
0.0
 71
0
 42
0.2
  3
gdt
  4

  0
ENDTAB
  0
TABLE
  2
VIEW
  5
6
100
AcDbSymbolTable
 70
0
  0
ENDTAB
  0
TABLE
  2
UCS
  5
7
100
AcDbSymbolTable
 70
0
  0
ENDTAB
  0
TABLE
  2
APPID
  5
9
100
AcDbSymbolTable
 70
1
  0
APPID
  5
204
100
AcDbSymbolTableRecord
100
AcDbRegAppTableRecord
  2
ACAD
 70
0
  0
ENDTAB
  0
TABLE
  2
BLOCK_RECORD
  5
1
100
AcDbSymbolTable
 70
0
  0
BLOCK_RECORD
  5
205
100
AcDbSymbolTableRecord
100
AcDbBlockTableRecord
  2
*Model_Space
  0
BLOCK_RECORD
  5
206
100
AcDbSymbolTableRecord
100
AcDbBlockTableRecord
  2
*Paper_Space
  0
BLOCK_RECORD
  5
207
100
AcDbSymbolTableRecord
100
AcDbBlockTableRecord
  2
_FILLED
  0
ENDTAB
  0
TABLE
  2
DIMSTYLE
  5
A
100
AcDbSymbolTable
 70
1
100
AcDbDimStyleTable
 71
0
  0
DIMSTYLE
105
208
100
AcDbSymbolTableRecord
100
AcDbDimStyleTableRecord
  2
STANDARD
 70
0
  3

  4

 40
1.0
 41
0.1
 42
0.0625
 43
0.38
 44
0.125
 45
0.0
 46
0.0
 47
0.001
 48
0.001
140
0.08
141
0.09
142
0.0
143
25.4
144
1.0
145
0.0
146
1.0
147
0.09
 71
1.0
 72
0.0
 73
1
 74
1
 75
0
 76
0
 77
0
 78
4
 79
1
170
1
171
2
172
0
173
0
174
0
175
0
176
0
177
0
178
0
270
2
179
3
271
3
272
3
273
2
274
2
275
0
280
0
281
0
282
0
283
1
284
4
285
0
286
0
287
3
288
0
340
11
278
46
341
207
342
207
343
207
344
207
  0
ENDTAB
  0
ENDSEC
  0
SECTION
  2
BLOCKS
  0
BLOCK
  5
20
100
AcDbEntity
  8
0
100
AcDbBlockBegin
  2
*Model_Space
 70
0
 10
0.0
 20
0.0
 30
0.0
  3
*Model_Space
  1

  0
ENDBLK
  5
21
100
AcDbEntity
  8
0
100
AcDbBlockEnd
  0
BLOCK
  5
1C
100
AcDbEntity
  8
0
100
AcDbBlockBegin
  2
*Paper_Space
 70
0
 10
0.0
 20
0.0
 30
0.0
  3
*Paper_Space
  1

  0
ENDBLK
  5
1D
100
AcDbEntity
  8
0
100
AcDbBlockEnd
  0
BLOCK
  5
209
100
AcDbEntity
  8
0
100
AcDbBlockBegin
  2
_FILLED
 70
64
 10
0.0
 20
0.0
  3
_FILLED
  1

  0
SOLID
  5
20A
100
AcDbEntity
  8
0
  6
BYBLOCK
 62
0
100
AcDbTrace
 10
0.0
 20
0.0
 11
-1.0
 21
0.2
 12
-1.0
 22
-0.2
 13
-1.0
 23
-0.2
  0
ENDBLK
  5
20B
100
AcDbEntity
  8
0
  6
BYBLOCK
 62
0
100
AcDbBlockEnd
  0
ENDSEC
  0
SECTION
  2
ENTITIES
  0
LINE
  5
20C
100
AcDbEntity
  8
0
100
AcDbLine
 62
7
  6
CONTINUOUS
 10
5.5844834891
 20
8.3440390679
 11
5.5844834891
 21
7.1640390679
  0
LINE
  5
20D
100
AcDbEntity
  8
0
100
AcDbLine
 62
9
  6
CONTINUOUS
 10
5.6644834891
 20
7.1240390679
 11
5.6644834891
 21
8.3840390679
  0
LINE
  5
20E
100
AcDbEntity
  8
0
100
AcDbLine
 62
9
  6
CONTINUOUS
 10
6.2144834891
 20
7.1240390679
 11
6.2144834891
 21
7.5540390679
  0
LINE
  5
20F
100
AcDbEntity
  8
0
100
AcDbLine
 62
7
  6
CONTINUOUS
 10
6.2544834891
 20
7.1640390679
 11
6.2544834891
 21
7.5540390679
  0
LINE
  5
210
100
AcDbEntity
  8
0
100
AcDbLine
 62
7
  6
CONTINUOUS
 10
7.842598421
 20
12.7945953194
 11
8.537400731
 21
13.3776036813
  0
LINE
  5
211
100
AcDbEntity
  8
0
100
AcDbLine
 62
7
  6
CONTINUOUS
 10
7.821065675
 20
12.7634731272
 11
8.5717892292
 21
13.3934049847
  0
LINE
  5
212
100
AcDbEntity
  8
0
100
AcDbLine
 62
9
  6
CONTINUOUS
 10
7.8198331066
 20
12.7493848066
 11
8.5858775497
 21
13.3921724163
  0
LINE
  5
213
100
AcDbEntity
  8
0
100
AcDbLine
 62
9
  6
CONTINUOUS
 10
6.4144834891
 20
7.7540390679
 11
6.4144834891
 21
7.7140390679
  0
LINE
  5
214
100
AcDbEntity
  8
0
100
AcDbLine
 62
7
  6
CONTINUOUS
 10
8.1118177021
 20
12.3547394012
 11
8.1323885818
 21
12.3768956962
  0
LINE
  5
215
100
AcDbEntity
  8
0
100
AcDbLine
 62
9
  6
CONTINUOUS
 10
8.1071422714
 20
12.2855458846
 11
8.1077565162
 21
12.2860612972
  0
LINE
  5
216
100
AcDbEntity
  8
0
100
AcDbLine
 62
9
  6
CONTINUOUS
 10
8.1163474638
 20
12.2932699581
 11
8.1308927014
 21
12.3054748617
  0
LINE
  5
217
100
AcDbEntity
  8
0
100
AcDbLine
 62
7
  6
CONTINUOUS
 10
8.1760964631
 20
12.2781349569
 11
8.2014882499
 21
12.2945459185
  0
LINE
  5
218
100
AcDbEntity
  8
0
100
AcDbLine
 62
7
  6
CONTINUOUS
 10
13.0154834891
 20
4.6240390679
 11
15.5154834891
 21
4.6240390679
  0
LINE
  5
219
100
AcDbEntity
  8
0
100
AcDbLine
 62
9
  6
CONTINUOUS
 10
13.0154834891
 20
4.8940390679
 11
15.5154834891
 21
4.8940390679
  0
LINE
  5
21A
100
AcDbEntity
  8
0
100
AcDbLine
 62
7
  6
CONTINUOUS
 10
13.0554834891
 20
4.9340390679
 11
15.4754834891
 21
4.9340390679
  0
LINE
  5
21B
100
AcDbEntity
  8
0
100
AcDbLine
 62
9
  6
CONTINUOUS
 10
13.2504834891
 20
4.9440390679
 11
13.7179834891
 21
4.9440390679
  0
LINE
  5
21C
100
AcDbEntity
  8
0
100
AcDbLine
 62
9
  6
CONTINUOUS
 10
14.8129834891
 20
4.9440390679
 11
15.2804834891
 21
4.9440390679
  0
LINE
  5
21D
100
AcDbEntity
  8
0
100
AcDbLine
 62
7
  6
CONTINUOUS
 10
13.2804834891
 20
4.9740390679
 11
13.7179834891
 21
4.9740390679
  0
LINE
  5
21E
100
AcDbEntity
  8
0
100
AcDbLine
 62
7
  6
CONTINUOUS
 10
14.8129834891
 20
4.9740390679
 11
15.2504834891
 21
4.9740390679
  0
LWPOLYLINE
  5
21F
100
AcDbEntity
  8
0
100
AcDbPolyline
 62
7
  6
CONTINUOUS
 90
7
 70
0
 10
8.0975594724
 20
12.3281463482
 10
8.0964424118
 20
12.3257186194
 10
8.0953328978
 20
12.3219489791
 10
8.0948297756
 20
12.3179624852
 10
8.0949138955
 20
12.3138211327
 10
8.0955519464
 20
12.3095950027
 10
8.0966942996
 20
12.3053575521
  0
LWPOLYLINE
  5
220
100
AcDbEntity
  8
0
100
AcDbPolyline
 62
7
  6
CONTINUOUS
 90
8
 70
0
 10
8.0908242533
 20
12.315584443
 10
8.0904427459
 20
12.3147660851
 10
8.0899882286
 20
12.313197264
 10
8.0898363822
 20
12.3116039545
 10
8.0899418241
 20
12.3100745348
 10
8.0902406753
 20
12.3086228486
 10
8.0906944022
 20
12.3071994769
 10
8.0912897774
 20
12.3057510359
  0
LINE
  5
221
100
AcDbEntity
  8
0
100
AcDbLine
 62
7
  6
CONTINUOUS
 10
8.0908238611
 20
12.3155837404
 11
8.1118177021
 21
12.3547394012
  0
LINE
  5
222
100
AcDbEntity
  8
0
100
AcDbLine
 62
7
  6
CONTINUOUS
 10
8.2772322679
 20
12.0934308519
 11
8.2982261089
 21
12.1325865127
  0
LINE
  5
223
100
AcDbEntity
  8
0
100
AcDbLine
 62
7
  6
CONTINUOUS
 10
8.2982261089
 20
12.1325865127
 11
8.3187969887
 21
12.1547428077
  0
LINE
  5
224
100
AcDbEntity
  8
0
100
AcDbLine
 62
7
  6
CONTINUOUS
 10
8.4846345157
 20
11.9104336242
 11
8.5052053955
 21
11.9325899192
  0
LINE
  5
225
100
AcDbEntity
  8
0
100
AcDbLine
 62
9
  6
CONTINUOUS
 10
8.2935506782
 20
12.0633929961
 11
8.294164923
 21
12.0639084087
  0
LINE
  5
226
100
AcDbEntity
  8
0
100
AcDbLine
 62
9
  6
CONTINUOUS
 10
8.3027558706
 20
12.0711170696
 11
8.3173011083
 21
12.0833219732
  0
LINE
  5
227
100
AcDbEntity
  8
0
100
AcDbLine
 62
9
  6
CONTINUOUS
 10
8.479959085
 20
11.8412401076
 11
8.4805733298
 21
11.8417555202
  0
LINE
  5
228
100
AcDbEntity
  8
0
100
AcDbLine
 62
9
  6
CONTINUOUS
 10
8.4891642774
 20
11.8489641811
 11
8.5037095151
 21
11.8611690847
  0
LINE
  5
229
100
AcDbEntity
  8
0
100
AcDbLine
 62
7
  6
CONTINUOUS
 10
8.3625048699
 20
12.0559820684
 11
8.3878966567
 21
12.07239303
  0
LINE
  5
22A
100
AcDbEntity
  8
0
100
AcDbLine
 62
7
  6
CONTINUOUS
 10
8.5489132767
 20
11.8338291799
 11
8.5743050635
 21
11.8502401415
  0
LINE
  5
22B
100
AcDbEntity
  8
0
100
AcDbLine
 62
7
  6
CONTINUOUS
 10
8.1338900074
 20
12.2642593309
 11
8.1760964631
 21
12.2781349569
  0
LINE
  5
22C
100
AcDbEntity
  8
0
100
AcDbLine
 62
7
  6
CONTINUOUS
 10
8.3202984142
 20
12.0421064424
 11
8.3625048699
 21
12.0559820684
  0
LINE
  5
22D
100
AcDbEntity
  8
0
100
AcDbLine
 62
9
  6
CONTINUOUS
 10
13.0254834891
 20
5.1940390679
 11
13.6854834891
 21
5.1940390679
  0
LINE
  5
22E
100
AcDbEntity
  8
0
100
AcDbLine
 62
9
  6
CONTINUOUS
 10
14.8454834891
 20
5.1940390679
 11
15.5054834891
 21
5.1940390679
  0
LINE
  5
22F
100
AcDbEntity
  8
0
100
AcDbLine
 62
7
  6
CONTINUOUS
 10
13.0654834891
 20
5.2340390679
 11
13.6854834891
 21
5.2340390679
  0
LINE
  5
230
100
AcDbEntity
  8
0
100
AcDbLine
 62
7
  6
CONTINUOUS
 10
14.8454834891
 20
5.2340390679
 11
15.4654834891
 21
5.2340390679
  0
LINE
  5
231
100
AcDbEntity
  8
0
100
AcDbLine
 62
9
  6
CONTINUOUS
 10
14.032015441
 20
5.3433283897
 11
14.4989515373
 21
5.3433283898
  0
LINE
  5
232
100
AcDbEntity
  8
0
100
AcDbLine
 62
9
  6
CONTINUOUS
 10
14.1321118432
 20
5.3786837288
 11
14.398855135
 21
5.3786837288
  0
LINE
  5
233
100
AcDbEntity
  8
0
100
AcDbLine
 62
9
  6
CONTINUOUS
 10
13.7179834891
 20
5.4662104993
 11
14.8129834891
 21
5.4662104993
  0
LWPOLYLINE
  5
234
100
AcDbEntity
  8
0
100
AcDbPolyline
 62
7
  6
CONTINUOUS
 90
7
 70
0
 10
8.2839678792
 20
12.1059934597
 10
8.2828508186
 20
12.1035657309
 10
8.2817413047
 20
12.0997960906
 10
8.2812381824
 20
12.0958095967
 10
8.2813223024
 20
12.0916682442
 10
8.2819603532
 20
12.0874421142
 10
8.2831027064
 20
12.0832046636
  0
LWPOLYLINE
  5
235
100
AcDbEntity
  8
0
100
AcDbPolyline
 62
7
  6
CONTINUOUS
 90
7
 70
0
 10
8.470376286
 20
11.8838405712
 10
8.4692592254
 20
11.8814128424
 10
8.4681497115
 20
11.8776432021
 10
8.4676465892
 20
11.8736567081
 10
8.4677307092
 20
11.8695153557
 10
8.46836876
 20
11.8652892257
 10
8.4695111132
 20
11.8610517751
  0
LWPOLYLINE
  5
236
100
AcDbEntity
  8
0
100
AcDbPolyline
 62
7
  6
CONTINUOUS
 90
8
 70
0
 10
8.2772326601
 20
12.0934315545
 10
8.2768511527
 20
12.0926131966
 10
8.2763966355
 20
12.0910443755
 10
8.276244789
 20
12.089451066
 10
8.2763502309
 20
12.0879216462
 10
8.2766490821
 20
12.0864699601
 10
8.277102809
 20
12.0850465884
 10
8.2776981842
 20
12.0835981474
  0
LWPOLYLINE
  5
237
100
AcDbEntity
  8
0
100
AcDbPolyline
 62
7
  6
CONTINUOUS
 90
8
 70
0
 10
8.4636410669
 20
11.871278666
 10
8.4632595596
 20
11.8704603081
 10
8.4628050423
 20
11.868891487
 10
8.4626531958
 20
11.8672981775
 10
8.4627586377
 20
11.8657687577
 10
8.463057489
 20
11.8643170716
 10
8.4635112159
 20
11.8628936999
 10
8.464106591
 20
11.8614452589
  0
LINE
  5
238
100
AcDbEntity
  8
0
100
AcDbLine
 62
7
  6
CONTINUOUS
 10
8.4636406747
 20
11.8712779634
 11
8.4846345157
 21
11.9104336242
  0
LINE
  5
239
100
AcDbEntity
  8
0
100
AcDbLine
 62
7
  6
CONTINUOUS
 10
8.6710429225
 20
11.6882807357
 11
8.6916138023
 21
11.7104370307
  0
LINE
  5
23A
100
AcDbEntity
  8
0
100
AcDbLine
 62
9
  6
CONTINUOUS
 10
8.6663674918
 20
11.6190872191
 11
8.6669817366
 21
11.6196026316
  0
LINE
  5
23B
100
AcDbEntity
  8
0
100
AcDbLine
 62
9
  6
CONTINUOUS
 10
8.6755726842
 20
11.6268112926
 11
8.6901179219
 21
11.6390161962
  0
LINE
  5
23C
100
AcDbEntity
  8
0
100
AcDbLine
 62
7
  6
CONTINUOUS
 10
8.7353216835
 20
11.6116762914
 11
8.7607134703
 21
11.628087253
  0
LINE
  5
23D
100
AcDbEntity
  8
0
100
AcDbLine
 62
7
  6
CONTINUOUS
 10
8.506706821
 20
11.8199535539
 11
8.5489132767
 21
11.8338291799
  0
LINE
  5
23E
100
AcDbEntity
  8
0
100
AcDbLine
 62
7
  6
CONTINUOUS
 10
8.6931152278
 20
11.5978006654
 11
8.7353216835
 21
11.6116762914
  0
LINE
  5
23F
100
AcDbEntity
  8
0
100
AcDbLine
 62
9
  6
CONTINUOUS
 10
13.7479834891
 20
5.5376247836
 11
14.7829834891
 21
5.5376247836
  0
LINE
  5
240
100
AcDbEntity
  8
0
100
AcDbLine
 62
7
  6
CONTINUOUS
 10
14.7529834891
 20
5.6090390679
 11
13.7779834891
 21
5.6090390679
  0
LWPOLYLINE
  5
241
100
AcDbEntity
  8
0
100
AcDbPolyline
 62
7
  6
CONTINUOUS
 90
7
 70
0
 10
8.6567846929
 20
11.6616876827
 10
8.6556676322
 20
11.6592599539
 10
8.6545581183
 20
11.6554903136
 10
8.654054996
 20
11.6515038196
 10
8.654139116
 20
11.6473624672
 10
8.6547771668
 20
11.6431363372
 10
8.6559195201
 20
11.6388988866
  0
LWPOLYLINE
  5
242
100
AcDbEntity
  8
0
100
AcDbPolyline
 62
7
  6
CONTINUOUS
 90
7
 70
0
 10
8.8431930997
 20
11.4395347942
 10
8.842076039
 20
11.4371070654
 10
8.8409665251
 20
11.4333374251
 10
8.8404634028
 20
11.4293509311
 10
8.8405475228
 20
11.4252095787
 10
8.8411855736
 20
11.4209834487
 10
8.8423279269
 20
11.4167459981
  0
LWPOLYLINE
  5
243
100
AcDbEntity
  8
0
100
AcDbPolyline
 62
7
  6
CONTINUOUS
 90
8
 70
0
 10
8.6500494737
 20
11.6491257774
 10
8.6496679664
 20
11.6483074196
 10
8.6492134491
 20
11.6467385985
 10
8.6490616026
 20
11.645145289
 10
8.6491670445
 20
11.6436158692
 10
8.6494658958
 20
11.6421641831
 10
8.6499196227
 20
11.6407408114
 10
8.6505149978
 20
11.6392923704
  0
LWPOLYLINE
  5
244
100
AcDbEntity
  8
0
100
AcDbPolyline
 62
7
  6
CONTINUOUS
 90
8
 70
0
 10
8.8364578805
 20
11.4269728889
 10
8.8360763732
 20
11.4261545311
 10
8.8356218559
 20
11.42458571
 10
8.8354700094
 20
11.4229924005
 10
8.8355754513
 20
11.4214629807
 10
8.8358743026
 20
11.4200112946
 10
8.8363280295
 20
11.4185879229
 10
8.8369234046
 20
11.4171394819
  0
LINE
  5
245
100
AcDbEntity
  8
0
100
AcDbLine
 62
7
  6
CONTINUOUS
 10
8.6500490816
 20
11.6491250749
 11
8.6710429225
 21
11.6882807357
  0
LINE
  5
246
100
AcDbEntity
  8
0
100
AcDbLine
 62
7
  6
CONTINUOUS
 10
8.8364574884
 20
11.4269721864
 11
8.8574513293
 21
11.4661278472
  0
LINE
  5
247
100
AcDbEntity
  8
0
100
AcDbLine
 62
7
  6
CONTINUOUS
 10
8.8574513293
 20
11.4661278472
 11
8.8780222091
 21
11.4882841422
  0
LINE
  5
248
100
AcDbEntity
  8
0
100
AcDbLine
 62
7
  6
CONTINUOUS
 10
9.0438597361
 20
11.2439749587
 11
9.0644306159
 21
11.2661312537
  0
LINE
  5
249
100
AcDbEntity
  8
0
100
AcDbLine
 62
9
  6
CONTINUOUS
 10
8.8527758986
 20
11.3969343306
 11
8.8533901434
 21
11.3974497431
  0
LINE
  5
24A
100
AcDbEntity
  8
0
100
AcDbLine
 62
9
  6
CONTINUOUS
 10
8.861981091
 20
11.4046584041
 11
8.8765263287
 21
11.4168633077
  0
LINE
  5
24B
100
AcDbEntity
  8
0
100
AcDbLine
 62
9
  6
CONTINUOUS
 10
9.0391843054
 20
11.1747814421
 11
9.0397985502
 21
11.1752968546
  0
LINE
  5
24C
100
AcDbEntity
  8
0
100
AcDbLine
 62
9
  6
CONTINUOUS
 10
9.0483894978
 20
11.1825055156
 11
9.0629347355
 21
11.1947104192
  0
LINE
  5
24D
100
AcDbEntity
  8
0
100
AcDbLine
 62
7
  6
CONTINUOUS
 10
8.9217300903
 20
11.3895234029
 11
8.9471218771
 21
11.4059343645
  0
LINE
  5
24E
100
AcDbEntity
  8
0
100
AcDbLine
 62
7
  6
CONTINUOUS
 10
9.1081384971
 20
11.1673705144
 11
9.1335302839
 21
11.183781476
  0
LINE
  5
24F
100
AcDbEntity
  8
0
100
AcDbLine
 62
7
  6
CONTINUOUS
 10
8.8795236346
 20
11.3756477769
 11
8.9217300903
 21
11.3895234029
  0
LWPOLYLINE
  5
250
100
AcDbEntity
  8
0
100
AcDbPolyline
 62
7
  6
CONTINUOUS
 90
7
 70
0
 10
9.0296015065
 20
11.2173819057
 10
9.0284844458
 20
11.2149541769
 10
9.0273749319
 20
11.2111845366
 10
9.0268718096
 20
11.2071980426
 10
9.0269559296
 20
11.2030566902
 10
9.0275939804
 20
11.1988305602
 10
9.0287363337
 20
11.1945931096
  0
LWPOLYLINE
  5
251
100
AcDbEntity
  8
0
100
AcDbPolyline
 62
7
  6
CONTINUOUS
 90
8
 70
0
 10
9.0228662873
 20
11.2048200004
 10
9.02248478
 20
11.2040016426
 10
9.0220302627
 20
11.2024328215
 10
9.0218784162
 20
11.200839512
 10
9.0219838581
 20
11.1993100922
 10
9.0222827094
 20
11.1978584061
 10
9.0227364363
 20
11.1964350344
 10
9.0233318114
 20
11.1949865934
  0
LWPOLYLINE
  5
252
100
AcDbEntity
  8
0
100
AcDbPolyline
 62
7
  6
CONTINUOUS
 90
8
 70
0
 10
9.2092746941
 20
10.9826671119
 10
9.2088931868
 20
10.9818487541
 10
9.2084386695
 20
10.980279933
 10
9.208286823
 20
10.9786866235
 10
9.2083922649
 20
10.9771572037
 10
9.2086911162
 20
10.9757055176
 10
9.2091448431
 20
10.9742821459
 10
9.2097402182
 20
10.9728337049
  0
LINE
  5
253
100
AcDbEntity
  8
0
100
AcDbLine
 62
7
  6
CONTINUOUS
 10
9.0228658952
 20
11.2048192979
 11
9.0438597361
 21
11.2439749587
  0
LINE
  5
254
100
AcDbEntity
  8
0
100
AcDbLine
 62
7
  6
CONTINUOUS
 10
9.209274302
 20
10.9826664094
 11
9.2302681429
 21
11.0218220702
  0
LINE
  5
255
100
AcDbEntity
  8
0
100
AcDbLine
 62
7
  6
CONTINUOUS
 10
9.2302681429
 20
11.0218220702
 11
9.2508390227
 21
11.0439783652
  0
LINE
  5
256
100
AcDbEntity
  8
0
100
AcDbLine
 62
9
  6
CONTINUOUS
 10
9.2255927122
 20
10.9526285536
 11
9.226206957
 21
10.9531439661
  0
LINE
  5
257
100
AcDbEntity
  8
0
100
AcDbLine
 62
9
  6
CONTINUOUS
 10
9.2347979046
 20
10.9603526271
 11
9.2493431423
 21
10.9725575307
  0
LINE
  5
258
100
AcDbEntity
  8
0
100
AcDbLine
 62
7
  6
CONTINUOUS
 10
9.2945469039
 20
10.9452176259
 11
9.3199386907
 21
10.9616285875
  0
LINE
  5
259
100
AcDbEntity
  8
0
100
AcDbLine
 62
7
  6
CONTINUOUS
 10
9.0659320414
 20
11.1534948884
 11
9.1081384971
 21
11.1673705144
  0
LINE
  5
25A
100
AcDbEntity
  8
0
100
AcDbLine
 62
7
  6
CONTINUOUS
 10
9.2523404483
 20
10.9313419999
 11
9.2945469039
 21
10.9452176259
  0
LINE
  5
25B
100
AcDbEntity
  8
0
100
AcDbLine
 62
9
  6
CONTINUOUS
 10
14.2603526696
 20
6.6140390679
 11
14.8454834891
 21
6.6140390679
  0
LINE
  5
25C
100
AcDbEntity
  8
0
100
AcDbLine
 62
7
  6
CONTINUOUS
 10
14.2351796807
 20
6.6440390679
 11
14.8154834891
 21
6.6440390679
  0
LINE
  5
25D
100
AcDbEntity
  8
0
100
AcDbLine
 62
7
  6
CONTINUOUS
 10
14.2133630903
 20
6.6700390679
 11
14.5904834891
 21
6.6700390679
  0
LWPOLYLINE
  5
25E
100
AcDbEntity
  8
0
100
AcDbPolyline
 62
7
  6
CONTINUOUS
 90
7
 70
0
 10
9.2160099133
 20
10.9952290172
 10
9.2148928526
 20
10.9928012884
 10
9.2137833387
 20
10.9890316481
 10
9.2132802164
 20
10.9850451541
 10
9.2133643364
 20
10.9809038017
 10
9.2140023872
 20
10.9766776717
 10
9.2151447405
 20
10.9724402211
  0
LWPOLYLINE
  5
25F
100
AcDbEntity
  8
0
100
AcDbPolyline
 62
7
  6
CONTINUOUS
 90
7
 70
0
 10
9.4024183201
 20
10.7730761287
 10
9.4013012594
 20
10.7706483999
 10
9.4001917455
 20
10.7668787596
 10
9.3996886232
 20
10.7628922656
 10
9.3997727432
 20
10.7587509132
 10
9.4004107941
 20
10.7545247832
 10
9.4015531473
 20
10.7502873326
  0
LWPOLYLINE
  5
260
100
AcDbEntity
  8
0
100
AcDbPolyline
 62
7
  6
CONTINUOUS
 90
8
 70
0
 10
9.3956831009
 20
10.7605142234
 10
9.3953015936
 20
10.7596958656
 10
9.3948470763
 20
10.7581270445
 10
9.3946952298
 20
10.756533735
 10
9.3948006717
 20
10.7550043152
 10
9.395099523
 20
10.7535526291
 10
9.3955532499
 20
10.7521292574
 10
9.396148625
 20
10.7506808163
  0
LINE
  5
261
100
AcDbEntity
  8
0
100
AcDbLine
 62
7
  6
CONTINUOUS
 10
9.3956827088
 20
10.7605135209
 11
9.4166765497
 21
10.7996691817
  0
LINE
  5
262
100
AcDbEntity
  8
0
100
AcDbLine
 62
7
  6
CONTINUOUS
 10
9.4166765497
 20
10.7996691817
 11
9.4372474295
 21
10.8218254767
  0
LINE
  5
263
100
AcDbEntity
  8
0
100
AcDbLine
 62
7
  6
CONTINUOUS
 10
9.6030849566
 20
10.5775162932
 11
9.6236558363
 21
10.5996725881
  0
LINE
  5
264
100
AcDbEntity
  8
0
100
AcDbLine
 62
9
  6
CONTINUOUS
 10
9.412001119
 20
10.7304756651
 11
9.4126153638
 21
10.7309910776
  0
LINE
  5
265
100
AcDbEntity
  8
0
100
AcDbLine
 62
9
  6
CONTINUOUS
 10
9.4212063114
 20
10.7381997386
 11
9.4357515491
 21
10.7504046422
  0
LINE
  5
266
100
AcDbEntity
  8
0
100
AcDbLine
 62
9
  6
CONTINUOUS
 10
9.5984095259
 20
10.5083227766
 11
9.5990237706
 21
10.5088381891
  0
LINE
  5
267
100
AcDbEntity
  8
0
100
AcDbLine
 62
9
  6
CONTINUOUS
 10
9.6076147182
 20
10.5160468501
 11
9.6221599559
 21
10.5282517537
  0
LINE
  5
268
100
AcDbEntity
  8
0
100
AcDbLine
 62
7
  6
CONTINUOUS
 10
9.4809553107
 20
10.7230647374
 11
9.5063470975
 21
10.739475699
  0
LINE
  5
269
100
AcDbEntity
  8
0
100
AcDbLine
 62
7
  6
CONTINUOUS
 10
9.6673637175
 20
10.5009118489
 11
9.6927555044
 21
10.5173228105
  0
LINE
  5
26A
100
AcDbEntity
  8
0
100
AcDbLine
 62
7
  6
CONTINUOUS
 10
9.4387488551
 20
10.7091891114
 11
9.4809553107
 21
10.7230647374
  0
LINE
  5
26B
100
AcDbEntity
  8
0
100
AcDbLine
 62
7
  6
CONTINUOUS
 10
9.6251572619
 20
10.4870362228
 11
9.6673637175
 21
10.5009118489
  0
LINE
  5
26C
100
AcDbEntity
  8
0
100
AcDbLine
 62
7
  6
CONTINUOUS
 10
5.6244834891
 20
7.1240390679
 11
6.2144834891
 21
7.1240390679
  0
LINE
  5
26D
100
AcDbEntity
  8
0
100
AcDbLine
 62
9
  6
CONTINUOUS
 10
5.5844834891
 20
7.1640390679
 11
6.2544834891
 21
7.1640390679
  0
LINE
  5
26E
100
AcDbEntity
  8
0
100
AcDbLine
 62
9
  6
CONTINUOUS
 10
13.9404834891
 20
7.1900390679
 11
14.5904834891
 21
7.1900390679
  0
LINE
  5
26F
100
AcDbEntity
  8
0
100
AcDbLine
 62
7
  6
CONTINUOUS
 10
15.8054834891
 20
7.2200390679
 11
13.764912366
 21
7.2200390679
  0
LINE
  5
270
100
AcDbEntity
  8
0
100
AcDbLine
 62
9
  6
CONTINUOUS
 10
15.8354834891
 20
7.2500390679
 11
13.7397393771
 21
7.2500390679
  0
LWPOLYLINE
  5
271
100
AcDbEntity
  8
0
100
AcDbPolyline
 62
7
  6
CONTINUOUS
 90
7
 70
0
 10
9.5888267269
 20
10.5509232402
 10
9.5877096662
 20
10.5484955114
 10
9.5866001523
 20
10.5447258711
 10
9.58609703
 20
10.5407393771
 10
9.58618115
 20
10.5365980247
 10
9.5868192009
 20
10.5323718947
 10
9.5879615541
 20
10.5281344441
  0
LWPOLYLINE
  5
272
100
AcDbEntity
  8
0
100
AcDbPolyline
 62
7
  6
CONTINUOUS
 90
7
 70
0
 10
9.7752351337
 20
10.3287703517
 10
9.7741180731
 20
10.3263426229
 10
9.7730085591
 20
10.3225729826
 10
9.7725054369
 20
10.3185864886
 10
9.7725895568
 20
10.3144451362
 10
9.7732276077
 20
10.3102190062
 10
9.7743699609
 20
10.3059815556
  0
LWPOLYLINE
  5
273
100
AcDbEntity
  8
0
100
AcDbPolyline
 62
7
  6
CONTINUOUS
 90
8
 70
0
 10
9.5820915077
 20
10.5383613349
 10
9.5817100004
 20
10.5375429771
 10
9.5812554831
 20
10.535974156
 10
9.5811036366
 20
10.5343808465
 10
9.5812090785
 20
10.5328514267
 10
9.5815079298
 20
10.5313997406
 10
9.5819616567
 20
10.5299763689
 10
9.5825570318
 20
10.5285279278
  0
LWPOLYLINE
  5
274
100
AcDbEntity
  8
0
100
AcDbPolyline
 62
7
  6
CONTINUOUS
 90
8
 70
0
 10
9.7684999145
 20
10.3162084464
 10
9.7681184072
 20
10.3153900886
 10
9.7676638899
 20
10.3138212675
 10
9.7675120435
 20
10.312227958
 10
9.7676174853
 20
10.3106985382
 10
9.7679163366
 20
10.3092468521
 10
9.7683700635
 20
10.3078234804
 10
9.7689654386
 20
10.3063750393
  0
LINE
  5
275
100
AcDbEntity
  8
0
100
AcDbLine
 62
7
  6
CONTINUOUS
 10
9.5820911156
 20
10.5383606324
 11
9.6030849566
 21
10.5775162932
  0
LINE
  5
276
100
AcDbEntity
  8
0
100
AcDbLine
 62
7
  6
CONTINUOUS
 10
9.7684995224
 20
10.3162077439
 11
9.7894933634
 21
10.3553634047
  0
LINE
  5
277
100
AcDbEntity
  8
0
100
AcDbLine
 62
7
  6
CONTINUOUS
 10
9.7894933634
 20
10.3553634047
 11
9.8100642431
 21
10.3775196996
  0
LINE
  5
278
100
AcDbEntity
  8
0
100
AcDbLine
 62
7
  6
CONTINUOUS
 10
9.9759017702
 20
10.1332105162
 11
9.9964726499
 21
10.1553668111
  0
LINE
  5
279
100
AcDbEntity
  8
0
100
AcDbLine
 62
9
  6
CONTINUOUS
 10
9.7848179327
 20
10.286169888
 11
9.7854321775
 21
10.2866853006
  0
LINE
  5
27A
100
AcDbEntity
  8
0
100
AcDbLine
 62
9
  6
CONTINUOUS
 10
9.794023125
 20
10.2938939616
 11
9.8085683627
 21
10.3060988652
  0
LINE
  5
27B
100
AcDbEntity
  8
0
100
AcDbLine
 62
7
  6
CONTINUOUS
 10
9.8537721243
 20
10.2787589604
 11
9.8791639112
 21
10.295169922
  0
LINE
  5
27C
100
AcDbEntity
  8
0
100
AcDbLine
 62
7
  6
CONTINUOUS
 10
9.8115656687
 20
10.2648833343
 11
9.8537721243
 21
10.2787589604
  0
LINE
  5
27D
100
AcDbEntity
  8
0
100
AcDbLine
 62
9
  6
CONTINUOUS
 10
6.2144834891
 20
7.5540390679
 11
6.2544834891
 21
7.5540390679
  0
LINE
  5
27E
100
AcDbEntity
  8
0
100
AcDbLine
 62
9
  6
CONTINUOUS
 10
13.4124905209
 20
7.6400390679
 11
15.8354834891
 21
7.6400390679
  0
LINE
  5
27F
100
AcDbEntity
  8
0
100
AcDbLine
 62
7
  6
CONTINUOUS
 10
13.387317532
 20
7.6700390679
 11
15.8054834891
 21
7.6700390679
  0
LINE
  5
280
100
AcDbEntity
  8
0
100
AcDbLine
 62
7
  6
CONTINUOUS
 10
6.4144834891
 20
7.7140390679
 11
12.0449898589
 21
7.7140390679
  0
LINE
  5
281
100
AcDbEntity
  8
0
100
AcDbLine
 62
7
  6
CONTINUOUS
 10
13.3503971482
 20
7.7140390679
 11
13.4554834891
 21
7.7140390679
  0
LINE
  5
282
100
AcDbEntity
  8
0
100
AcDbLine
 62
7
  6
CONTINUOUS
 10
15.0754834891
 20
7.7140390679
 11
15.5444834891
 21
7.7140390679
  0
LWPOLYLINE
  5
283
100
AcDbEntity
  8
0
100
AcDbPolyline
 62
7
  6
CONTINUOUS
 90
7
 70
0
 10
9.9616435405
 20
10.1066174632
 10
9.9605264799
 20
10.1041897344
 10
9.9594169659
 20
10.1004200941
 10
9.9589138437
 20
10.0964336001
 10
9.9589979636
 20
10.0922922477
 10
9.9596360145
 20
10.0880661177
 10
9.9607783677
 20
10.0838286671
  0
LWPOLYLINE
  5
284
100
AcDbEntity
  8
0
100
AcDbPolyline
 62
7
  6
CONTINUOUS
 90
8
 70
0
 10
9.9549083213
 20
10.0940555579
 10
9.954526814
 20
10.0932372001
 10
9.9540722967
 20
10.091668379
 10
9.9539204503
 20
10.0900750695
 10
9.9540258921
 20
10.0885456497
 10
9.9543247434
 20
10.0870939636
 10
9.9547784703
 20
10.0856705919
 10
9.9553738455
 20
10.0842221508
  0
LINE
  5
285
100
AcDbEntity
  8
0
100
AcDbLine
 62
7
  6
CONTINUOUS
 10
9.9549079292
 20
10.0940548554
 11
9.9759017702
 21
10.1332105162
  0
LINE
  5
286
100
AcDbEntity
  8
0
100
AcDbLine
 62
9
  6
CONTINUOUS
 10
9.9712263395
 20
10.0640169995
 11
9.9718405843
 21
10.0645324121
  0
LINE
  5
287
100
AcDbEntity
  8
0
100
AcDbLine
 62
9
  6
CONTINUOUS
 10
9.9804315319
 20
10.0717410731
 11
9.9949767695
 21
10.0839459767
  0
LINE
  5
288
100
AcDbEntity
  8
0
100
AcDbLine
 62
7
  6
CONTINUOUS
 10
10.0401805311
 20
10.0566060719
 11
10.065572318
 21
10.0730170335
  0
LINE
  5
289
100
AcDbEntity
  8
0
100
AcDbLine
 62
7
  6
CONTINUOUS
 10
9.9979740755
 20
10.0427304458
 11
10.0401805311
 21
10.0566060719
  0
LINE
  5
28A
100
AcDbEntity
  8
0
100
AcDbLine
 62
9
  6
CONTINUOUS
 10
6.4144834891
 20
7.7540390679
 11
12.0114258737
 21
7.7540390679
  0
LINE
  5
28B
100
AcDbEntity
  8
0
100
AcDbLine
 62
9
  6
CONTINUOUS
 10
13.316833163
 20
7.7540390679
 11
13.4554834891
 21
7.7540390679
  0
LINE
  5
28C
100
AcDbEntity
  8
0
100
AcDbLine
 62
9
  6
CONTINUOUS
 10
15.0754834891
 20
7.7540390679
 11
15.5844834891
 21
7.7540390679
  0
LINE
  5
28D
100
AcDbEntity
  8
0
100
AcDbLine
 62
7
  6
CONTINUOUS
 10
8.09126992
 20
12.3057947372
 11
8.0920290751
 21
12.3042307951
  0
LINE
  5
28E
100
AcDbEntity
  8
0
100
AcDbLine
 62
7
  6
CONTINUOUS
 10
8.2776783268
 20
12.0836418487
 11
8.2784374819
 21
12.0820779066
  0
LWPOLYLINE
  5
28F
100
AcDbEntity
  8
0
100
AcDbPolyline
 62
7
  6
CONTINUOUS
 90
16
 70
0
 10
8.0982783016
 20
12.301183556
 10
8.1002263464
 20
12.2971437199
 10
8.1024897679
 20
12.2932559459
 10
8.1050272855
 20
12.2895340146
 10
8.1078099161
 20
12.2859933502
 10
8.1108185667
 20
12.2826499757
 10
8.1140367129
 20
12.2795250499
 10
8.1174557221
 20
12.2766492985
 10
8.1210722915
 20
12.2740548188
 10
8.1248744188
 20
12.2717977265
 10
8.1288162953
 20
12.2699542179
 10
8.1328403627
 20
12.2685997434
 10
8.1368886023
 20
12.2677964689
 10
8.1409038085
 20
12.2675934658
 10
8.1448203448
 20
12.268027467
 10
8.1474312415
 20
12.2687110554
  0
LWPOLYLINE
  5
290
100
AcDbEntity
  8
0
100
AcDbPolyline
 62
7
  6
CONTINUOUS
 90
16
 70
0
 10
8.2846867084
 20
12.0790306675
 10
8.2866347532
 20
12.0749908314
 10
8.2888981747
 20
12.0711030574
 10
8.2914356923
 20
12.0673811261
 10
8.2942183229
 20
12.0638404617
 10
8.2972269735
 20
12.0604970872
 10
8.3004451197
 20
12.0573721614
 10
8.3038641289
 20
12.05449641
 10
8.3074806983
 20
12.0519019303
 10
8.3112828256
 20
12.049644838
 10
8.3152247021
 20
12.0478013294
 10
8.3192487695
 20
12.0464468549
 10
8.3232970091
 20
12.0456435804
 10
8.3273122153
 20
12.0454405773
 10
8.3312287516
 20
12.0458745785
 10
8.3338396483
 20
12.0465581669
  0
LINE
  5
291
100
AcDbEntity
  8
0
100
AcDbLine
 62
7
  6
CONTINUOUS
 10
8.0966942996
 20
12.3053575521
 11
8.0982783016
 21
12.301183556
  0
LINE
  5
292
100
AcDbEntity
  8
0
100
AcDbLine
 62
7
  6
CONTINUOUS
 10
8.2831027064
 20
12.0832046636
 11
8.2846867084
 21
12.0790306675
  0
LINE
  5
293
100
AcDbEntity
  8
0
100
AcDbLine
 62
7
  6
CONTINUOUS
 10
8.4695111132
 20
11.8610517751
 11
8.4710951153
 21
11.856877779
  0
LINE
  5
294
100
AcDbEntity
  8
0
100
AcDbLine
 62
7
  6
CONTINUOUS
 10
8.6559195201
 20
11.6388988866
 11
8.6575035221
 21
11.6347248905
  0
LINE
  5
295
100
AcDbEntity
  8
0
100
AcDbLine
 62
7
  6
CONTINUOUS
 10
8.8423279269
 20
11.4167459981
 11
8.8439119289
 21
11.412572002
  0
LINE
  5
296
100
AcDbEntity
  8
0
100
AcDbLine
 62
9
  6
CONTINUOUS
 10
11.5163570913
 20
8.3440390679
 11
5.5844834891
 21
8.3440390679
  0
LINE
  5
297
100
AcDbEntity
  8
0
100
AcDbLine
 62
9
  6
CONTINUOUS
 10
12.8217643806
 20
8.3440390679
 11
15.5844834891
 21
8.3440390679
  0
LINE
  5
298
100
AcDbEntity
  8
0
100
AcDbLine
 62
7
  6
CONTINUOUS
 10
15.5444834891
 20
8.3840390679
 11
12.7882003953
 21
8.3840390679
  0
LINE
  5
299
100
AcDbEntity
  8
0
100
AcDbLine
 62
7
  6
CONTINUOUS
 10
11.482793106
 20
8.3840390679
 11
5.6244834891
 21
8.3840390679
  0
LINE
  5
29A
100
AcDbEntity
  8
0
100
AcDbLine
 62
7
  6
CONTINUOUS
 10
8.0939700497
 20
12.3008588499
 11
8.0952854268
 21
12.2988241015
  0
LINE
  5
29B
100
AcDbEntity
  8
0
100
AcDbLine
 62
7
  6
CONTINUOUS
 10
8.0928976713
 20
12.302645839
 11
8.0940070544
 21
12.3007998567
  0
LINE
  5
29C
100
AcDbEntity
  8
0
100
AcDbLine
 62
7
  6
CONTINUOUS
 10
8.2793060781
 20
12.0804929505
 11
8.2804154612
 21
12.0786469682
  0
LINE
  5
29D
100
AcDbEntity
  8
0
100
AcDbLine
 62
7
  6
CONTINUOUS
 10
8.4657144849
 20
11.8583400619
 11
8.466823868
 21
11.8564940796
  0
LINE
  5
29E
100
AcDbEntity
  8
0
100
AcDbLine
 62
7
  6
CONTINUOUS
 10
8.6521228917
 20
11.6361871734
 11
8.6532322748
 21
11.6343411911
  0
LINE
  5
29F
100
AcDbEntity
  8
0
100
AcDbLine
 62
7
  6
CONTINUOUS
 10
8.0920047561
 20
12.3042775421
 11
8.0929279625
 21
12.3025929554
  0
LINE
  5
2A0
100
AcDbEntity
  8
0
100
AcDbLine
 62
7
  6
CONTINUOUS
 10
8.2784131629
 20
12.0821246536
 11
8.2793363693
 21
12.0804400669
  0
LINE
  5
2A1
100
AcDbEntity
  8
0
100
AcDbLine
 62
7
  6
CONTINUOUS
 10
8.4648215697
 20
11.8599717651
 11
8.4657447762
 21
11.8582871783
  0
LINE
  5
2A2
100
AcDbEntity
  8
0
100
AcDbLine
 62
7
  6
CONTINUOUS
 10
8.6512299765
 20
11.6378188766
 11
8.652153183
 21
11.6361342898
  0
LINE
  5
2A3
100
AcDbEntity
  8
0
100
AcDbLine
 62
7
  6
CONTINUOUS
 10
8.8376383833
 20
11.4156659881
 11
8.8385615898
 21
11.4139814013
  0
LINE
  5
2A4
100
AcDbEntity
  8
0
100
AcDbLine
 62
7
  6
CONTINUOUS
 10
9.0240467902
 20
11.1935130996
 11
9.0249699966
 21
11.1918285128
  0
LINE
  5
2A5
100
AcDbEntity
  8
0
100
AcDbLine
 62
7
  6
CONTINUOUS
 10
8.4640867336
 20
11.8614889602
 11
8.4648458887
 21
11.8599250181
  0
LINE
  5
2A6
100
AcDbEntity
  8
0
100
AcDbLine
 62
7
  6
CONTINUOUS
 10
8.6504951404
 20
11.6393360717
 11
8.6512542955
 21
11.6377721296
  0
LINE
  5
2A7
100
AcDbEntity
  8
0
100
AcDbLine
 62
7
  6
CONTINUOUS
 10
8.8369035472
 20
11.4171831832
 11
8.8376627024
 21
11.4156192411
  0
LINE
  5
2A8
100
AcDbEntity
  8
0
100
AcDbLine
 62
7
  6
CONTINUOUS
 10
9.023311954
 20
11.1950302947
 11
9.0240711092
 21
11.1934663526
  0
LINE
  5
2A9
100
AcDbEntity
  8
0
100
AcDbLine
 62
7
  6
CONTINUOUS
 10
9.2097203608
 20
10.9728774062
 11
9.210479516
 21
10.9713134641
  0
LINE
  5
2AA
100
AcDbEntity
  8
0
100
AcDbLine
 62
7
  6
CONTINUOUS
 10
9.3961287676
 20
10.7507245177
 11
9.3968879228
 21
10.7491605756
  0
LWPOLYLINE
  5
2AB
100
AcDbEntity
  8
0
100
AcDbPolyline
 62
7
  6
CONTINUOUS
 90
16
 70
0
 10
8.4710951153
 20
11.856877779
 10
8.4730431601
 20
11.8528379429
 10
8.4753065815
 20
11.8489501689
 10
8.4778440991
 20
11.8452282376
 10
8.4806267297
 20
11.8416875732
 10
8.4836353803
 20
11.8383441987
 10
8.4868535266
 20
11.8352192729
 10
8.4902725357
 20
11.8323435215
 10
8.4938891051
 20
11.8297490418
 10
8.4976912324
 20
11.8274919495
 10
8.5016331089
 20
11.8256484409
 10
8.5056571763
 20
11.8242939664
 10
8.5097054159
 20
11.8234906919
 10
8.5137206222
 20
11.8232876888
 10
8.5176371584
 20
11.82372169
 10
8.5202480551
 20
11.8244052784
  0
LWPOLYLINE
  5
2AC
100
AcDbEntity
  8
0
100
AcDbPolyline
 62
7
  6
CONTINUOUS
 90
16
 70
0
 10
8.6575035221
 20
11.6347248905
 10
8.6594515669
 20
11.6306850543
 10
8.6617149883
 20
11.6267972804
 10
8.6642525059
 20
11.6230753491
 10
8.6670351365
 20
11.6195346847
 10
8.6700437871
 20
11.6161913102
 10
8.6732619334
 20
11.6130663844
 10
8.6766809425
 20
11.610190633
 10
8.680297512
 20
11.6075961533
 10
8.6840996392
 20
11.605339061
 10
8.6880415158
 20
11.6034955524
 10
8.6920655831
 20
11.6021410779
 10
8.6961138227
 20
11.6013378034
 10
8.700129029
 20
11.6011348003
 10
8.7040455652
 20
11.6015688015
 10
8.7066564619
 20
11.6022523899
  0
LWPOLYLINE
  5
2AD
100
AcDbEntity
  8
0
100
AcDbPolyline
 62
7
  6
CONTINUOUS
 90
16
 70
0
 10
8.8439119289
 20
11.412572002
 10
8.8458599737
 20
11.4085321658
 10
8.8481233951
 20
11.4046443919
 10
8.8506609127
 20
11.4009224606
 10
8.8534435433
 20
11.3973817962
 10
8.8564521939
 20
11.3940384217
 10
8.8596703402
 20
11.3909134959
 10
8.8630893493
 20
11.3880377445
 10
8.8667059188
 20
11.3854432648
 10
8.870508046
 20
11.3831861725
 10
8.8744499226
 20
11.3813426639
 10
8.8784739899
 20
11.3799881894
 10
8.8825222295
 20
11.3791849149
 10
8.8865374358
 20
11.3789819118
 10
8.890453972
 20
11.379415913
 10
8.8930648687
 20
11.3800995014
  0
LWPOLYLINE
  5
2AE
100
AcDbEntity
  8
0
100
AcDbPolyline
 62
7
  6
CONTINUOUS
 90
16
 70
0
 10
9.0303203357
 20
11.1904191134
 10
9.0322683805
 20
11.1863792773
 10
9.0345318019
 20
11.1824915034
 10
9.0370693196
 20
11.178769572
 10
9.0398519501
 20
11.1752289077
 10
9.0428606007
 20
11.1718855332
 10
9.046078747
 20
11.1687606074
 10
9.0494977561
 20
11.165884856
 10
9.0531143256
 20
11.1632903763
 10
9.0569164528
 20
11.161033284
 10
9.0608583294
 20
11.1591897754
 10
9.0648823968
 20
11.1578353009
 10
9.0689306363
 20
11.1570320264
 10
9.0729458426
 20
11.1568290233
 10
9.0768623788
 20
11.1572630245
 10
9.0794732755
 20
11.1579466129
  0
LWPOLYLINE
  5
2AF
100
AcDbEntity
  8
0
100
AcDbPolyline
 62
7
  6
CONTINUOUS
 90
16
 70
0
 10
9.2167287425
 20
10.9682662249
 10
9.2186767873
 20
10.9642263888
 10
9.2209402087
 20
10.9603386149
 10
9.2234777264
 20
10.9566166835
 10
9.226260357
 20
10.9530760192
 10
9.2292690075
 20
10.9497326447
 10
9.2324871538
 20
10.9466077189
 10
9.2359061629
 20
10.9437319675
 10
9.2395227324
 20
10.9411374877
 10
9.2433248597
 20
10.9388803955
 10
9.2472667362
 20
10.9370368869
 10
9.2512908036
 20
10.9356824123
 10
9.2553390431
 20
10.9348791379
 10
9.2593542494
 20
10.9346761348
 10
9.2632707856
 20
10.935110136
 10
9.2658816824
 20
10.9357937244
  0
LWPOLYLINE
  5
2B0
100
AcDbEntity
  8
0
100
AcDbPolyline
 62
7
  6
CONTINUOUS
 90
16
 70
0
 10
9.4031371493
 20
10.7461133364
 10
9.4050851941
 20
10.7420735003
 10
9.4073486155
 20
10.7381857264
 10
9.4098861332
 20
10.734463795
 10
9.4126687638
 20
10.7309231307
 10
9.4156774143
 20
10.7275797562
 10
9.4188955606
 20
10.7244548304
 10
9.4223145697
 20
10.721579079
 10
9.4259311392
 20
10.7189845992
 10
9.4297332665
 20
10.716727507
 10
9.433675143
 20
10.7148839984
 10
9.4376992104
 20
10.7135295238
 10
9.4417474499
 20
10.7127262493
 10
9.4457626562
 20
10.7125232463
 10
9.4496791924
 20
10.7129572475
 10
9.4522900892
 20
10.7136408359
  0
LINE
  5
2B1
100
AcDbEntity
  8
0
100
AcDbLine
 62
7
  6
CONTINUOUS
 10
9.0287363337
 20
11.1945931096
 11
9.0303203357
 21
11.1904191134
  0
LINE
  5
2B2
100
AcDbEntity
  8
0
100
AcDbLine
 62
7
  6
CONTINUOUS
 10
9.2151447405
 20
10.9724402211
 11
9.2167287425
 21
10.9682662249
  0
LINE
  5
2B3
100
AcDbEntity
  8
0
100
AcDbLine
 62
7
  6
CONTINUOUS
 10
9.4015531473
 20
10.7502873326
 11
9.4031371493
 21
10.7461133364
  0
LINE
  5
2B4
100
AcDbEntity
  8
0
100
AcDbLine
 62
7
  6
CONTINUOUS
 10
9.5879615541
 20
10.5281344441
 11
9.5895455561
 21
10.5239604479
  0
LINE
  5
2B5
100
AcDbEntity
  8
0
100
AcDbLine
 62
7
  6
CONTINUOUS
 10
9.7743699609
 20
10.3059815556
 11
9.7759539629
 21
10.3018075594
  0
LWPOLYLINE
  5
2B6
100
AcDbEntity
  8
0
100
AcDbPolyline
 62
7
  6
CONTINUOUS
 90
6
 70
0
 10
8.0952854268
 20
12.2988241015
 10
8.0967801516
 20
12.2966470339
 10
8.09849814
 20
12.2942669064
 10
8.1004360471
 20
12.2916953449
 10
8.1025817572
 20
12.2889552125
 10
8.1049117121
 20
12.2860832458
  0
LWPOLYLINE
  5
2B7
100
AcDbEntity
  8
0
100
AcDbPolyline
 62
7
  6
CONTINUOUS
 90
6
 70
0
 10
8.2816938337
 20
12.076671213
 10
8.2831885585
 20
12.0744941454
 10
8.2849065468
 20
12.0721140179
 10
8.2868444539
 20
12.0695424564
 10
8.2889901641
 20
12.066802324
 10
8.2913201189
 20
12.0639303573
  0
LWPOLYLINE
  5
2B8
100
AcDbEntity
  8
0
100
AcDbPolyline
 62
7
  6
CONTINUOUS
 90
6
 70
0
 10
8.4681022405
 20
11.8545183245
 10
8.4695969653
 20
11.8523412568
 10
8.4713149536
 20
11.8499611294
 10
8.4732528607
 20
11.8473895679
 10
8.4753985709
 20
11.8446494355
 10
8.4777285257
 20
11.8417774688
  0
LWPOLYLINE
  5
2B9
100
AcDbEntity
  8
0
100
AcDbPolyline
 62
7
  6
CONTINUOUS
 90
6
 70
0
 10
8.6545106473
 20
11.632365436
 10
8.6560053721
 20
11.6301883683
 10
8.6577233604
 20
11.6278082409
 10
8.6596612675
 20
11.6252366794
 10
8.6618069777
 20
11.622496547
 10
8.6641369325
 20
11.6196245803
  0
LWPOLYLINE
  5
2BA
100
AcDbEntity
  8
0
100
AcDbPolyline
 62
7
  6
CONTINUOUS
 90
6
 70
0
 10
8.8409190541
 20
11.4102125475
 10
8.8424137789
 20
11.4080354798
 10
8.8441317672
 20
11.4056553524
 10
8.8460696743
 20
11.4030837909
 10
8.8482153845
 20
11.4003436585
 10
8.8505453393
 20
11.3974716918
  0
LWPOLYLINE
  5
2BB
100
AcDbEntity
  8
0
100
AcDbPolyline
 62
7
  6
CONTINUOUS
 90
6
 70
0
 10
9.0273274609
 20
11.188059659
 10
9.0288221857
 20
11.1858825913
 10
9.030540174
 20
11.1835024639
 10
9.0324780811
 20
11.1809309024
 10
9.0346237913
 20
11.17819077
 10
9.0369537461
 20
11.1753188033
  0
LWPOLYLINE
  5
2BC
100
AcDbEntity
  8
0
100
AcDbPolyline
 62
7
  6
CONTINUOUS
 90
6
 70
0
 10
9.2137358677
 20
10.9659067705
 10
9.2152305925
 20
10.9637297028
 10
9.2169485808
 20
10.9613495754
 10
9.2188864879
 20
10.9587780139
 10
9.2210321981
 20
10.9560378815
 10
9.223362153
 20
10.9531659148
  0
LWPOLYLINE
  5
2BD
100
AcDbEntity
  8
0
100
AcDbPolyline
 62
7
  6
CONTINUOUS
 90
6
 70
0
 10
9.4001442745
 20
10.743753882
 10
9.4016389993
 20
10.7415768143
 10
9.4033569876
 20
10.7391966869
 10
9.4052948948
 20
10.7366251254
 10
9.4074406049
 20
10.733884993
 10
9.4097705598
 20
10.7310130263
  0
LWPOLYLINE
  5
2BE
100
AcDbEntity
  8
0
100
AcDbPolyline
 62
7
  6
CONTINUOUS
 90
6
 70
0
 10
9.5865526813
 20
10.5216009935
 10
9.5880474061
 20
10.5194239258
 10
9.5897653944
 20
10.5170437984
 10
9.5917033016
 20
10.5144722369
 10
9.5938490117
 20
10.5117321045
 10
9.5961789666
 20
10.5088601378
  0
LWPOLYLINE
  5
2BF
100
AcDbEntity
  8
0
100
AcDbPolyline
 62
7
  6
CONTINUOUS
 90
6
 70
0
 10
9.7729610881
 20
10.299448105
 10
9.7744558129
 20
10.2972710373
 10
9.7761738012
 20
10.2948909099
 10
9.7781117084
 20
10.2923193484
 10
9.7802574185
 20
10.289579216
 10
9.7825873734
 20
10.2867072493
  0
LWPOLYLINE
  5
2C0
100
AcDbEntity
  8
0
100
AcDbPolyline
 62
7
  6
CONTINUOUS
 90
6
 70
0
 10
9.9593694949
 20
10.0772952164
 10
9.9608642197
 20
10.0751181488
 10
9.9625822081
 20
10.0727380214
 10
9.9645201152
 20
10.0701664598
 10
9.9666658253
 20
10.0674263275
 10
9.9689957802
 20
10.0645543608
  0
LINE
  5
2C1
100
AcDbEntity
  8
0
100
AcDbLine
 62
7
  6
CONTINUOUS
 10
8.2803784565
 20
12.0787059614
 11
8.2816938337
 21
12.076671213
  0
LINE
  5
2C2
100
AcDbEntity
  8
0
100
AcDbLine
 62
7
  6
CONTINUOUS
 10
8.4667868633
 20
11.8565530729
 11
8.4681022405
 21
11.8545183245
  0
LINE
  5
2C3
100
AcDbEntity
  8
0
100
AcDbLine
 62
7
  6
CONTINUOUS
 10
8.6531952701
 20
11.6344001844
 11
8.6545106473
 21
11.632365436
  0
LINE
  5
2C4
100
AcDbEntity
  8
0
100
AcDbLine
 62
7
  6
CONTINUOUS
 10
8.8396036769
 20
11.4122472959
 11
8.8409190541
 21
11.4102125475
  0
LINE
  5
2C5
100
AcDbEntity
  8
0
100
AcDbLine
 62
7
  6
CONTINUOUS
 10
9.0260120837
 20
11.1900944074
 11
9.0273274609
 21
11.188059659
  0
LINE
  5
2C6
100
AcDbEntity
  8
0
100
AcDbLine
 62
7
  6
CONTINUOUS
 10
9.2124204906
 20
10.9679415189
 11
9.2137358677
 21
10.9659067705
  0
LINE
  5
2C7
100
AcDbEntity
  8
0
100
AcDbLine
 62
7
  6
CONTINUOUS
 10
9.3988288974
 20
10.7457886304
 11
9.4001442745
 21
10.743753882
  0
LINE
  5
2C8
100
AcDbEntity
  8
0
100
AcDbLine
 62
7
  6
CONTINUOUS
 10
9.5852373042
 20
10.5236357419
 11
9.5865526813
 21
10.5216009935
  0
LINE
  5
2C9
100
AcDbEntity
  8
0
100
AcDbLine
 62
7
  6
CONTINUOUS
 10
9.771645711
 20
10.3014828534
 11
9.7729610881
 21
10.299448105
  0
LINE
  5
2CA
100
AcDbEntity
  8
0
100
AcDbLine
 62
7
  6
CONTINUOUS
 10
9.9580541178
 20
10.0793299649
 11
9.9593694949
 21
10.0772952164
  0
LINE
  5
2CB
100
AcDbEntity
  8
0
100
AcDbLine
 62
7
  6
CONTINUOUS
 10
8.8385312985
 20
11.4140342849
 11
8.8396406816
 21
11.4121883026
  0
LINE
  5
2CC
100
AcDbEntity
  8
0
100
AcDbLine
 62
7
  6
CONTINUOUS
 10
9.0249397053
 20
11.1918813964
 11
9.0260490884
 21
11.1900354141
  0
LINE
  5
2CD
100
AcDbEntity
  8
0
100
AcDbLine
 62
7
  6
CONTINUOUS
 10
9.2113481121
 20
10.9697285079
 11
9.2124574952
 21
10.9678825256
  0
LINE
  5
2CE
100
AcDbEntity
  8
0
100
AcDbLine
 62
7
  6
CONTINUOUS
 10
9.3977565189
 20
10.7475756194
 11
9.3988659021
 21
10.7457296371
  0
LINE
  5
2CF
100
AcDbEntity
  8
0
100
AcDbLine
 62
7
  6
CONTINUOUS
 10
9.5841649257
 20
10.5254227309
 11
9.5852743089
 21
10.5235767486
  0
LINE
  5
2D0
100
AcDbEntity
  8
0
100
AcDbLine
 62
7
  6
CONTINUOUS
 10
9.7705733325
 20
10.3032698424
 11
9.7716827157
 21
10.3014238601
  0
LINE
  5
2D1
100
AcDbEntity
  8
0
100
AcDbLine
 62
7
  6
CONTINUOUS
 10
9.9569817394
 20
10.0811169539
 11
9.9580911225
 21
10.0792709716
  0
LINE
  5
2D2
100
AcDbEntity
  8
0
100
AcDbLine
 62
7
  6
CONTINUOUS
 10
9.210455197
 20
10.9713602111
 11
9.2113784034
 21
10.9696756243
  0
LINE
  5
2D3
100
AcDbEntity
  8
0
100
AcDbLine
 62
7
  6
CONTINUOUS
 10
9.3968636038
 20
10.7492073226
 11
9.3977868102
 21
10.7475227358
  0
LINE
  5
2D4
100
AcDbEntity
  8
0
100
AcDbLine
 62
7
  6
CONTINUOUS
 10
9.5832720106
 20
10.5270544341
 11
9.584195217
 21
10.5253698473
  0
LINE
  5
2D5
100
AcDbEntity
  8
0
100
AcDbLine
 62
7
  6
CONTINUOUS
 10
9.7696804174
 20
10.3049015456
 11
9.7706036238
 21
10.3032169588
  0
LINE
  5
2D6
100
AcDbEntity
  8
0
100
AcDbLine
 62
7
  6
CONTINUOUS
 10
9.9560888242
 20
10.0827486571
 11
9.9570120306
 21
10.0810640703
  0
LINE
  5
2D7
100
AcDbEntity
  8
0
100
AcDbLine
 62
7
  6
CONTINUOUS
 10
9.5825371744
 20
10.5285716292
 11
9.5832963296
 21
10.5270076871
  0
LINE
  5
2D8
100
AcDbEntity
  8
0
100
AcDbLine
 62
7
  6
CONTINUOUS
 10
9.7689455813
 20
10.3064187407
 11
9.7697047364
 21
10.3048547986
  0
LINE
  5
2D9
100
AcDbEntity
  8
0
100
AcDbLine
 62
7
  6
CONTINUOUS
 10
9.9553539881
 20
10.0842658522
 11
9.9561131432
 21
10.0827019101
  0
LWPOLYLINE
  5
2DA
100
AcDbEntity
  8
0
100
AcDbPolyline
 62
7
  6
CONTINUOUS
 90
16
 70
0
 10
9.5895455561
 20
10.5239604479
 10
9.5914936009
 20
10.5199206118
 10
9.5937570223
 20
10.5160328379
 10
9.59629454
 20
10.5123109065
 10
9.5990771706
 20
10.5087702422
 10
9.6020858211
 20
10.5054268677
 10
9.6053039674
 20
10.5023019419
 10
9.6087229766
 20
10.4994261905
 10
9.612339546
 20
10.4968317107
 10
9.6161416733
 20
10.4945746185
 10
9.6200835498
 20
10.4927311099
 10
9.6241076172
 20
10.4913766353
 10
9.6281558567
 20
10.4905733608
 10
9.632171063
 20
10.4903703578
 10
9.6360875993
 20
10.490804359
 10
9.638698496
 20
10.4914879474
  0
LWPOLYLINE
  5
2DB
100
AcDbEntity
  8
0
100
AcDbPolyline
 62
7
  6
CONTINUOUS
 90
16
 70
0
 10
9.7759539629
 20
10.3018075594
 10
9.7779020077
 20
10.2977677233
 10
9.7801654291
 20
10.2938799494
 10
9.7827029468
 20
10.290158018
 10
9.7854855774
 20
10.2866173537
 10
9.7884942279
 20
10.2832739792
 10
9.7917123742
 20
10.2801490534
 10
9.7951313834
 20
10.277273302
 10
9.7987479528
 20
10.2746788222
 10
9.8025500801
 20
10.27242173
 10
9.8064919566
 20
10.2705782214
 10
9.810516024
 20
10.2692237468
 10
9.8145642635
 20
10.2684204723
 10
9.8185794698
 20
10.2682174693
 10
9.8224960061
 20
10.2686514705
 10
9.8251069028
 20
10.2693350589
  0
LWPOLYLINE
  5
2DC
100
AcDbEntity
  8
0
100
AcDbPolyline
 62
7
  6
CONTINUOUS
 90
16
 70
0
 10
9.9623623697
 20
10.0796546709
 10
9.9643104145
 20
10.0756148348
 10
9.9665738359
 20
10.0717270609
 10
9.9691113536
 20
10.0680051295
 10
9.9718939842
 20
10.0644644652
 10
9.9749026348
 20
10.0611210907
 10
9.978120781
 20
10.0579961649
 10
9.9815397902
 20
10.0551204135
 10
9.9851563596
 20
10.0525259337
 10
9.9889584869
 20
10.0502688415
 10
9.9929003634
 20
10.0484253329
 10
9.9969244308
 20
10.0470708583
 10
10.0009726703
 20
10.0462675838
 10
10.0049878766
 20
10.0460645808
 10
10.0089044129
 20
10.046498582
 10
10.0115153096
 20
10.0471821704
  0
LINE
  5
2DD
100
AcDbEntity
  8
0
100
AcDbLine
 62
7
  6
CONTINUOUS
 10
9.9607783677
 20
10.0838286671
 11
9.9623623697
 21
10.0796546709
  0
LWPOLYLINE
  5
2DE
100
AcDbEntity
  8
0
100
AcDbPolyline
 62
7
  6
CONTINUOUS
 90
12
 70
0
 10
9.9817457924
 20
10.0505143014
 10
9.9834833332
 20
10.0488726299
 10
9.9850973111
 20
10.0474389729
 10
9.9866009116
 20
10.0462009402
 10
9.988020304
 20
10.0451400545
 10
9.9893912822
 20
10.0442394541
 10
9.9907521986
 20
10.0434918591
 10
9.9921645142
 20
10.0428965517
 10
9.9936930891
 20
10.0424826397
 10
9.9953347526
 20
10.0423215334
 10
9.9970094537
 20
10.0424785461
 10
9.9979741702
 20
10.0427309695
  0
LWPOLYLINE
  5
2DF
100
AcDbEntity
  8
0
100
AcDbPolyline
 62
7
  6
CONTINUOUS
 90
12
 70
0
 10
9.7953373855
 20
10.2726671899
 10
9.7970749264
 20
10.2710255184
 10
9.7986889043
 20
10.2695918614
 10
9.8001925048
 20
10.2683538287
 10
9.8016118972
 20
10.267292943
 10
9.8029828753
 20
10.2663923426
 10
9.8043437918
 20
10.2656447476
 10
9.8057561074
 20
10.2650494402
 10
9.8072846823
 20
10.2646355282
 10
9.8089263458
 20
10.264474422
 10
9.8106010469
 20
10.2646314346
 10
9.8115657634
 20
10.264883858
  0
LWPOLYLINE
  5
2E0
100
AcDbEntity
  8
0
100
AcDbPolyline
 62
7
  6
CONTINUOUS
 90
12
 70
0
 10
9.6089289787
 20
10.4948200784
 10
9.6106665196
 20
10.4931784069
 10
9.6122804974
 20
10.4917447499
 10
9.613784098
 20
10.4905067172
 10
9.6152034904
 20
10.4894458315
 10
9.6165744685
 20
10.4885452311
 10
9.617935385
 20
10.4877976361
 10
9.6193477006
 20
10.4872023287
 10
9.6208762755
 20
10.4867884167
 10
9.622517939
 20
10.4866273105
 10
9.6241926401
 20
10.4867843231
 10
9.6251573566
 20
10.4870367465
  0
LWPOLYLINE
  5
2E1
100
AcDbEntity
  8
0
100
AcDbPolyline
 62
7
  6
CONTINUOUS
 90
12
 70
0
 10
9.4225205719
 20
10.7169729669
 10
9.4242581128
 20
10.7153312954
 10
9.4258720906
 20
10.7138976384
 10
9.4273756912
 20
10.7126596057
 10
9.4287950836
 20
10.71159872
 10
9.4301660617
 20
10.7106981196
 10
9.4315269782
 20
10.7099505246
 10
9.4329392938
 20
10.7093552172
 10
9.4344678687
 20
10.7089413052
 10
9.4361095322
 20
10.708780199
 10
9.4377842333
 20
10.7089372117
 10
9.4387489498
 20
10.709189635
  0
LWPOLYLINE
  5
2E2
100
AcDbEntity
  8
0
100
AcDbPolyline
 62
7
  6
CONTINUOUS
 90
12
 70
0
 10
9.2361121651
 20
10.9391258554
 10
9.237849706
 20
10.9374841839
 10
9.2394636838
 20
10.9360505269
 10
9.2409672844
 20
10.9348124942
 10
9.2423866767
 20
10.9337516085
 10
9.2437576549
 20
10.9328510081
 10
9.2451185714
 20
10.9321034131
 10
9.246530887
 20
10.9315081057
 10
9.2480594618
 20
10.9310941937
 10
9.2497011254
 20
10.9309330875
 10
9.2513758265
 20
10.9310901002
 10
9.252340543
 20
10.9313425235
  0
LWPOLYLINE
  5
2E3
100
AcDbEntity
  8
0
100
AcDbPolyline
 62
7
  6
CONTINUOUS
 90
12
 70
0
 10
9.0497037583
 20
11.1612787439
 10
9.0514412992
 20
11.1596370724
 10
9.053055277
 20
11.1582034154
 10
9.0545588776
 20
11.1569653827
 10
9.0559782699
 20
11.155904497
 10
9.0573492481
 20
11.1550038966
 10
9.0587101646
 20
11.1542563016
 10
9.0601224802
 20
11.1536609942
 10
9.061651055
 20
11.1532470822
 10
9.0632927186
 20
11.153085976
 10
9.0649674197
 20
11.1532429887
 10
9.0659321362
 20
11.1534954121
  0
LWPOLYLINE
  5
2E4
100
AcDbEntity
  8
0
100
AcDbPolyline
 62
7
  6
CONTINUOUS
 90
12
 70
0
 10
8.8632953515
 20
11.3834316324
 10
8.8650328924
 20
11.3817899609
 10
8.8666468702
 20
11.3803563039
 10
8.8681504708
 20
11.3791182712
 10
8.8695698631
 20
11.3780573855
 10
8.8709408413
 20
11.3771567851
 10
8.8723017578
 20
11.3764091901
 10
8.8737140733
 20
11.3758138827
 10
8.8752426482
 20
11.3753999707
 10
8.8768843118
 20
11.3752388645
 10
8.8785590129
 20
11.3753958772
 10
8.8795237294
 20
11.3756483006
  0
LWPOLYLINE
  5
2E5
100
AcDbEntity
  8
0
100
AcDbPolyline
 62
7
  6
CONTINUOUS
 90
12
 70
0
 10
8.6768869447
 20
11.6055845209
 10
8.6786244856
 20
11.6039428494
 10
8.6802384634
 20
11.6025091924
 10
8.681742064
 20
11.6012711597
 10
8.6831614563
 20
11.600210274
 10
8.6845324345
 20
11.5993096736
 10
8.685893351
 20
11.5985620786
 10
8.6873056665
 20
11.5979667712
 10
8.6888342414
 20
11.5975528592
 10
8.6904759049
 20
11.597391753
 10
8.6921506061
 20
11.5975487657
 10
8.6931153226
 20
11.5978011891
  0
LWPOLYLINE
  5
2E6
100
AcDbEntity
  8
0
100
AcDbPolyline
 62
7
  6
CONTINUOUS
 90
6
 70
0
 10
9.9713147974
 20
10.0617896216
 10
9.9735926299
 20
10.0591598022
 10
9.975793684
 20
10.0567000091
 10
9.9778939879
 20
10.054432873
 10
9.9798813115
 20
10.0523683741
 10
9.9817457924
 20
10.0505143014
  0
LWPOLYLINE
  5
2E7
100
AcDbEntity
  8
0
100
AcDbPolyline
 62
7
  6
CONTINUOUS
 90
6
 70
0
 10
9.7849063906
 20
10.2839425101
 10
9.7871842231
 20
10.2813126907
 10
9.7893852772
 20
10.2788528976
 10
9.7914855811
 20
10.2765857615
 10
9.7934729047
 20
10.2745212626
 10
9.7953373855
 20
10.2726671899
  0
LWPOLYLINE
  5
2E8
100
AcDbEntity
  8
0
100
AcDbPolyline
 62
7
  6
CONTINUOUS
 90
6
 70
0
 10
9.5984979838
 20
10.5060953986
 10
9.6007758163
 20
10.5034655792
 10
9.6029768704
 20
10.5010057861
 10
9.6050771743
 20
10.49873865
 10
9.6070644979
 20
10.4966741511
 10
9.6089289787
 20
10.4948200784
  0
LWPOLYLINE
  5
2E9
100
AcDbEntity
  8
0
100
AcDbPolyline
 62
7
  6
CONTINUOUS
 90
6
 70
0
 10
9.412089577
 20
10.7282482871
 10
9.4143674095
 20
10.7256184677
 10
9.4165684636
 20
10.7231586746
 10
9.4186687675
 20
10.7208915385
 10
9.4206560911
 20
10.7188270396
 10
9.4225205719
 20
10.7169729669
  0
LWPOLYLINE
  5
2EA
100
AcDbEntity
  8
0
100
AcDbPolyline
 62
7
  6
CONTINUOUS
 90
6
 70
0
 10
9.2256811701
 20
10.9504011756
 10
9.2279590027
 20
10.9477713562
 10
9.2301600568
 20
10.9453115631
 10
9.2322603607
 20
10.943044427
 10
9.2342476843
 20
10.9409799281
 10
9.2361121651
 20
10.9391258554
  0
LWPOLYLINE
  5
2EB
100
AcDbEntity
  8
0
100
AcDbPolyline
 62
7
  6
CONTINUOUS
 90
6
 70
0
 10
9.0392727633
 20
11.1725540641
 10
9.0415505959
 20
11.1699242447
 10
9.04375165
 20
11.1674644516
 10
9.0458519539
 20
11.1651973155
 10
9.0478392775
 20
11.1631328166
 10
9.0497037583
 20
11.1612787439
  0
LWPOLYLINE
  5
2EC
100
AcDbEntity
  8
0
100
AcDbPolyline
 62
7
  6
CONTINUOUS
 90
6
 70
0
 10
8.8528643565
 20
11.3947069526
 10
8.8551421891
 20
11.3920771332
 10
8.8573432432
 20
11.3896173401
 10
8.8594435471
 20
11.3873502041
 10
8.8614308707
 20
11.3852857051
 10
8.8632953515
 20
11.3834316324
  0
LWPOLYLINE
  5
2ED
100
AcDbEntity
  8
0
100
AcDbPolyline
 62
7
  6
CONTINUOUS
 90
6
 70
0
 10
8.6664559497
 20
11.6168598412
 10
8.6687337823
 20
11.6142300217
 10
8.6709348363
 20
11.6117702286
 10
8.6730351403
 20
11.6095030926
 10
8.6750224638
 20
11.6074385936
 10
8.6768869447
 20
11.6055845209
  0
LWPOLYLINE
  5
2EE
100
AcDbEntity
  8
0
100
AcDbPolyline
 62
7
  6
CONTINUOUS
 90
6
 70
0
 10
8.4800475429
 20
11.8390127297
 10
8.4823253754
 20
11.8363829102
 10
8.4845264295
 20
11.8339231171
 10
8.4866267335
 20
11.8316559811
 10
8.488614057
 20
11.8295914821
 10
8.4904785379
 20
11.8277374094
  0
LWPOLYLINE
  5
2EF
100
AcDbEntity
  8
0
100
AcDbPolyline
 62
7
  6
CONTINUOUS
 90
6
 70
0
 10
8.2936391361
 20
12.0611656182
 10
8.2959169686
 20
12.0585357987
 10
8.2981180227
 20
12.0560760056
 10
8.3002183266
 20
12.0538088696
 10
8.3022056502
 20
12.0517443706
 10
8.3040701311
 20
12.0498902979
  0
LWPOLYLINE
  5
2F0
100
AcDbEntity
  8
0
100
AcDbPolyline
 62
7
  6
CONTINUOUS
 90
6
 70
0
 10
8.1072307293
 20
12.2833185067
 10
8.1095085618
 20
12.2806886872
 10
8.1117096159
 20
12.2782288941
 10
8.1138099198
 20
12.2759617581
 10
8.1157972434
 20
12.2738972591
 10
8.1176617243
 20
12.2720431864
  0
LINE
  5
2F1
100
AcDbEntity
  8
0
100
AcDbLine
 62
7
  6
CONTINUOUS
 10
9.9701761927
 20
10.063135822
 11
9.9713147974
 21
10.0617896216
  0
LINE
  5
2F2
100
AcDbEntity
  8
0
100
AcDbLine
 62
7
  6
CONTINUOUS
 10
9.7837677859
 20
10.2852887105
 11
9.7849063906
 21
10.2839425101
  0
LINE
  5
2F3
100
AcDbEntity
  8
0
100
AcDbLine
 62
7
  6
CONTINUOUS
 10
9.5973593791
 20
10.507441599
 11
9.5984979838
 21
10.5060953986
  0
LINE
  5
2F4
100
AcDbEntity
  8
0
100
AcDbLine
 62
7
  6
CONTINUOUS
 10
9.4109509723
 20
10.7295944876
 11
9.412089577
 21
10.7282482871
  0
LINE
  5
2F5
100
AcDbEntity
  8
0
100
AcDbLine
 62
7
  6
CONTINUOUS
 10
9.2245425655
 20
10.9517473761
 11
9.2256811701
 21
10.9504011756
  0
LINE
  5
2F6
100
AcDbEntity
  8
0
100
AcDbLine
 62
7
  6
CONTINUOUS
 10
9.0381341586
 20
11.1739002646
 11
9.0392727633
 21
11.1725540641
  0
LINE
  5
2F7
100
AcDbEntity
  8
0
100
AcDbLine
 62
7
  6
CONTINUOUS
 10
8.8517257518
 20
11.3960531531
 11
8.8528643565
 21
11.3947069526
  0
LINE
  5
2F8
100
AcDbEntity
  8
0
100
AcDbLine
 62
7
  6
CONTINUOUS
 10
8.665317345
 20
11.6182060416
 11
8.6664559497
 21
11.6168598412
  0
LINE
  5
2F9
100
AcDbEntity
  8
0
100
AcDbLine
 62
7
  6
CONTINUOUS
 10
8.4789089382
 20
11.8403589301
 11
8.4800475429
 21
11.8390127297
  0
LINE
  5
2FA
100
AcDbEntity
  8
0
100
AcDbLine
 62
7
  6
CONTINUOUS
 10
8.2925005314
 20
12.0625118186
 11
8.2936391361
 21
12.0611656182
  0
LINE
  5
2FB
100
AcDbEntity
  8
0
100
AcDbLine
 62
7
  6
CONTINUOUS
 10
8.1060921246
 20
12.2846647071
 11
8.1072307293
 21
12.2833185067
  0
LINE
  5
2FC
100
AcDbEntity
  8
0
100
AcDbLine
 62
7
  6
CONTINUOUS
 10
8.1760964631
 20
12.2781349569
 11
8.1537174705
 21
12.3048052091
  0
LINE
  5
2FD
100
AcDbEntity
  8
0
100
AcDbLine
 62
7
  6
CONTINUOUS
 10
10.0401805311
 20
10.0566060719
 11
10.0178015386
 21
10.083276324
  0
LINE
  5
2FE
100
AcDbEntity
  8
0
100
AcDbLine
 62
7
  6
CONTINUOUS
 10
8.7353216835
 20
11.6116762914
 11
8.7129426958
 21
11.6383465316
  0
LINE
  5
2FF
100
AcDbEntity
  8
0
100
AcDbLine
 62
7
  6
CONTINUOUS
 10
9.6673637175
 20
10.5009118489
 11
9.6449847299
 21
10.5275820891
  0
LINE
  5
300
100
AcDbEntity
  8
0
100
AcDbLine
 62
7
  6
CONTINUOUS
 10
8.9217300903
 20
11.3895234029
 11
8.8993511034
 21
11.4161936414
  0
LINE
  5
301
100
AcDbEntity
  8
0
100
AcDbLine
 62
7
  6
CONTINUOUS
 10
8.5489132767
 20
11.8338291799
 11
8.5265342897
 21
11.8604994184
  0
LINE
  5
302
100
AcDbEntity
  8
0
100
AcDbLine
 62
7
  6
CONTINUOUS
 10
9.4809553107
 20
10.7230647374
 11
9.4585763238
 21
10.7497349758
  0
LINE
  5
303
100
AcDbEntity
  8
0
100
AcDbLine
 62
7
  6
CONTINUOUS
 10
9.2945469039
 20
10.9452176259
 11
9.272167917
 21
10.9718878643
  0
LINE
  5
304
100
AcDbEntity
  8
0
100
AcDbLine
 62
7
  6
CONTINUOUS
 10
9.1081384971
 20
11.1673705144
 11
9.0857595102
 21
11.1940407529
  0
LINE
  5
305
100
AcDbEntity
  8
0
100
AcDbLine
 62
7
  6
CONTINUOUS
 10
9.8118723501
 20
10.3286931669
 11
9.7894933634
 21
10.3553634047
  0
LINE
  5
306
100
AcDbEntity
  8
0
100
AcDbLine
 62
7
  6
CONTINUOUS
 10
9.4390555364
 20
10.772998944
 11
9.4166765497
 21
10.7996691817
  0
LINE
  5
307
100
AcDbEntity
  8
0
100
AcDbLine
 62
7
  6
CONTINUOUS
 10
9.2526471296
 20
10.9951518325
 11
9.2302681429
 21
11.0218220702
  0
LINE
  5
308
100
AcDbEntity
  8
0
100
AcDbLine
 62
7
  6
CONTINUOUS
 10
9.0662387228
 20
11.217304721
 11
9.0438597361
 21
11.2439749587
  0
LINE
  5
309
100
AcDbEntity
  8
0
100
AcDbLine
 62
7
  6
CONTINUOUS
 10
8.879830316
 20
11.4394576095
 11
8.8574513293
 21
11.4661278472
  0
LINE
  5
30A
100
AcDbEntity
  8
0
100
AcDbLine
 62
7
  6
CONTINUOUS
 10
8.5070135023
 20
11.8837633865
 11
8.4846345157
 21
11.9104336242
  0
LINE
  5
30B
100
AcDbEntity
  8
0
100
AcDbLine
 62
7
  6
CONTINUOUS
 10
8.3206050956
 20
12.105916275
 11
8.2982261089
 21
12.1325865127
  0
LINE
  5
30C
100
AcDbEntity
  8
0
100
AcDbLine
 62
7
  6
CONTINUOUS
 10
9.8537721243
 20
10.2787589604
 11
9.8313931381
 21
10.3054291972
  0
LINE
  5
30D
100
AcDbEntity
  8
0
100
AcDbLine
 62
7
  6
CONTINUOUS
 10
8.3625048699
 20
12.0559820684
 11
8.3401258836
 21
12.0826523052
  0
LINE
  5
30E
100
AcDbEntity
  8
0
100
AcDbLine
 62
7
  6
CONTINUOUS
 10
9.6254639471
 20
10.550846053
 11
9.6030849566
 21
10.5775162932
  0
LINE
  5
30F
100
AcDbEntity
  8
0
100
AcDbLine
 62
7
  6
CONTINUOUS
 10
8.6934219131
 20
11.6616104955
 11
8.6710429225
 21
11.6882807357
  0
LINE
  5
310
100
AcDbEntity
  8
0
100
AcDbLine
 62
7
  6
CONTINUOUS
 10
9.998280769
 20
10.1065402708
 11
9.9759017702
 21
10.1332105162
  0
LINE
  5
311
100
AcDbEntity
  8
0
100
AcDbLine
 62
7
  6
CONTINUOUS
 10
8.1341967009
 20
12.3280691558
 11
8.1118177021
 21
12.3547394012
  0
LINE
  5
312
100
AcDbEntity
  8
0
100
AcDbLine
 62
7
  6
CONTINUOUS
 10
7.8198331066
 20
12.7493848066
 11
13.2706720368
 21
6.253327929
  0
LINE
  5
313
100
AcDbEntity
  8
0
100
AcDbLine
 62
7
  6
CONTINUOUS
 10
13.59329841
 20
5.884394028
 11
13.3040439856
 21
6.2291140274
  0
LINE
  5
314
100
AcDbEntity
  8
0
100
AcDbLine
 62
7
  6
CONTINUOUS
 10
13.7399657111
 20
5.7134920544
 11
13.6080692733
 21
5.8706801081
  0
LINE
  5
315
100
AcDbEntity
  8
0
100
AcDbLine
 62
9
  6
CONTINUOUS
 10
7.8631981193
 20
12.7988264457
 11
13.3268928017
 21
6.2874486792
  0
LINE
  5
316
100
AcDbEntity
  8
0
100
AcDbLine
 62
9
  6
CONTINUOUS
 10
13.3716228999
 20
6.3119276153
 11
13.3651950238
 21
6.3195880597
  0
LINE
  5
317
100
AcDbEntity
  8
0
100
AcDbLine
 62
9
  6
CONTINUOUS
 10
7.8962215321
 20
12.839590452
 11
7.9026494082
 21
12.8319300076
  0
LINE
  5
318
100
AcDbEntity
  8
0
100
AcDbLine
 62
7
  6
CONTINUOUS
 10
8.1049117121
 20
12.2860832458
 11
8.1060921246
 21
12.2846647071
  0
LINE
  5
319
100
AcDbEntity
  8
0
100
AcDbLine
 62
7
  6
CONTINUOUS
 10
8.2913201189
 20
12.0639303573
 11
8.2925005314
 21
12.0625118186
  0
LINE
  5
31A
100
AcDbEntity
  8
0
100
AcDbLine
 62
7
  6
CONTINUOUS
 10
8.4777285257
 20
11.8417774688
 11
8.4789089382
 21
11.8403589301
  0
LINE
  5
31B
100
AcDbEntity
  8
0
100
AcDbLine
 62
7
  6
CONTINUOUS
 10
8.6641369325
 20
11.6196245803
 11
8.665317345
 21
11.6182060416
  0
LINE
  5
31C
100
AcDbEntity
  8
0
100
AcDbLine
 62
7
  6
CONTINUOUS
 10
8.8505453393
 20
11.3974716918
 11
8.8517257518
 21
11.3960531531
  0
LINE
  5
31D
100
AcDbEntity
  8
0
100
AcDbLine
 62
7
  6
CONTINUOUS
 10
9.0369537461
 20
11.1753188033
 11
9.0381341586
 21
11.1739002646
  0
LINE
  5
31E
100
AcDbEntity
  8
0
100
AcDbLine
 62
7
  6
CONTINUOUS
 10
9.223362153
 20
10.9531659148
 11
9.2245425655
 21
10.9517473761
  0
LINE
  5
31F
100
AcDbEntity
  8
0
100
AcDbLine
 62
7
  6
CONTINUOUS
 10
9.4097705598
 20
10.7310130263
 11
9.4109509723
 21
10.7295944876
  0
LINE
  5
320
100
AcDbEntity
  8
0
100
AcDbLine
 62
7
  6
CONTINUOUS
 10
9.5961789666
 20
10.5088601378
 11
9.5973593791
 21
10.507441599
  0
LINE
  5
321
100
AcDbEntity
  8
0
100
AcDbLine
 62
7
  6
CONTINUOUS
 10
9.7825873734
 20
10.2867072493
 11
9.7837677859
 21
10.2852887105
  0
LINE
  5
322
100
AcDbEntity
  8
0
100
AcDbLine
 62
7
  6
CONTINUOUS
 10
9.9689957802
 20
10.0645543608
 11
9.9701761927
 21
10.063135822
  0
LWPOLYLINE
  5
323
100
AcDbEntity
  8
0
100
AcDbPolyline
 62
7
  6
CONTINUOUS
 90
12
 70
0
 10
8.4904785379
 20
11.8277374094
 10
8.4922160788
 20
11.8260957379
 10
8.4938300566
 20
11.8246620809
 10
8.4953336572
 20
11.8234240482
 10
8.4967530495
 20
11.8223631625
 10
8.4981240277
 20
11.8214625621
 10
8.4994849442
 20
11.8207149671
 10
8.5008972597
 20
11.8201196597
 10
8.5024258346
 20
11.8197057477
 10
8.5040674981
 20
11.8195446415
 10
8.5057421993
 20
11.8197016542
 10
8.5067069158
 20
11.8199540776
  0
LWPOLYLINE
  5
324
100
AcDbEntity
  8
0
100
AcDbPolyline
 62
7
  6
CONTINUOUS
 90
12
 70
0
 10
8.3040701311
 20
12.0498902979
 10
8.305807672
 20
12.0482486264
 10
8.3074216498
 20
12.0468149694
 10
8.3089252503
 20
12.0455769368
 10
8.3103446427
 20
12.044516051
 10
8.3117156209
 20
12.0436154506
 10
8.3130765373
 20
12.0428678556
 10
8.3144888529
 20
12.0422725482
 10
8.3160174278
 20
12.0418586362
 10
8.3176590913
 20
12.04169753
 10
8.3193337924
 20
12.0418545427
 10
8.3202985089
 20
12.0421069661
  0
LWPOLYLINE
  5
325
100
AcDbEntity
  8
0
100
AcDbPolyline
 62
7
  6
CONTINUOUS
 90
12
 70
0
 10
8.1176617243
 20
12.2720431864
 10
8.1193992652
 20
12.2704015149
 10
8.121013243
 20
12.2689678579
 10
8.1225168435
 20
12.2677298253
 10
8.1239362359
 20
12.2666689395
 10
8.1253072141
 20
12.2657683391
 10
8.1266681305
 20
12.2650207441
 10
8.1280804461
 20
12.2644254367
 10
8.129609021
 20
12.2640115247
 10
8.1312506845
 20
12.2638504185
 10
8.1329253856
 20
12.2640074312
 10
8.1338901021
 20
12.2642598546
  0
LINE
  5
326
100
AcDbEntity
  8
0
100
AcDbLine
 62
7
  6
CONTINUOUS
 10
13.7789515661
 20
6.2098784704
 11
13.573259531
 21
6.4550126922
  0
LINE
  5
327
100
AcDbEntity
  8
0
100
AcDbLine
 62
7
  6
CONTINUOUS
 10
13.9912440295
 20
6.3880129982
 11
13.7855519944
 21
6.63314722
  0
LINE
  5
328
100
AcDbEntity
  8
0
100
AcDbLine
 62
9
  6
CONTINUOUS
 10
8.4837776199
 20
13.3326085487
 11
8.490205496
 21
13.3249481042
  0
LINE
  5
329
100
AcDbEntity
  8
0
100
AcDbLine
 62
9
  6
CONTINUOUS
 10
13.9614771211
 20
6.8068740747
 11
13.955049245
 21
6.8145345191
  0
LINE
  5
32A
100
AcDbEntity
  8
0
100
AcDbLine
 62
9
  6
CONTINUOUS
 10
8.5296567849
 20
13.3580516661
 11
13.9933514672
 21
6.8466738996
  0
LINE
  5
32B
100
AcDbEntity
  8
0
100
AcDbLine
 62
7
  6
CONTINUOUS
 10
14.4868590432
 20
6.3402099739
 11
14.3549626053
 21
6.4973980276
  0
LINE
  5
32C
100
AcDbEntity
  8
0
100
AcDbLine
 62
7
  6
CONTINUOUS
 10
14.3440219642
 20
6.5143258855
 11
14.0547675398
 21
6.8590458849
  0
LINE
  5
32D
100
AcDbEntity
  8
0
100
AcDbLine
 62
7
  6
CONTINUOUS
 10
8.5858775497
 20
13.3921724163
 11
14.0367164799
 21
6.8961155387
  0
LINE
  5
32E
100
AcDbEntity
  8
0
100
AcDbLine
 62
7
  6
CONTINUOUS
 10
13.0154834891
 20
4.8940390679
 11
13.0154834891
 21
4.6240390679
  0
LINE
  5
32F
100
AcDbEntity
  8
0
100
AcDbLine
 62
7
  6
CONTINUOUS
 10
13.0254834891
 20
5.1940390679
 11
13.0254834891
 21
4.9204879386
  0
LINE
  5
330
100
AcDbEntity
  8
0
100
AcDbLine
 62
9
  6
CONTINUOUS
 10
13.0554834891
 20
4.9340390679
 11
13.0554834891
 21
4.6240390679
  0
LINE
  5
331
100
AcDbEntity
  8
0
100
AcDbLine
 62
9
  6
CONTINUOUS
 10
13.0654834891
 20
5.2340390679
 11
13.0654834891
 21
4.9340390679
  0
LINE
  5
332
100
AcDbEntity
  8
0
100
AcDbLine
 62
7
  6
CONTINUOUS
 10
13.2504834891
 20
4.9440390679
 11
13.2504834891
 21
4.9340390679
  0
LINE
  5
333
100
AcDbEntity
  8
0
100
AcDbLine
 62
7
  6
CONTINUOUS
 10
13.2654834891
 20
4.9440390679
 11
13.2654834891
 21
4.9340390679
  0
LINE
  5
334
100
AcDbEntity
  8
0
100
AcDbLine
 62
9
  6
CONTINUOUS
 10
13.2804834891
 20
4.9740390679
 11
13.2804834891
 21
4.9699404757
  0
LINE
  5
335
100
AcDbEntity
  8
0
100
AcDbLine
 62
9
  6
CONTINUOUS
 10
13.2954834891
 20
4.9740390679
 11
13.2954834891
 21
4.9340390679
  0
LINE
  5
336
100
AcDbEntity
  8
0
100
AcDbLine
 62
9
  6
CONTINUOUS
 10
13.4554834891
 20
7.7540390679
 11
13.4554834891
 21
7.7140390679
  0
LINE
  5
337
100
AcDbEntity
  8
0
100
AcDbLine
 62
7
  6
CONTINUOUS
 10
13.6154834891
 20
5.8785177783
 11
13.6154834891
 21
5.8769013739
  0
LINE
  5
338
100
AcDbEntity
  8
0
100
AcDbLine
 62
7
  6
CONTINUOUS
 10
13.6154834891
 20
5.8618441897
 11
13.6154834891
 21
5.2340390679
  0
LINE
  5
339
100
AcDbEntity
  8
0
100
AcDbLine
 62
9
  6
CONTINUOUS
 10
13.6554834891
 20
5.814174046
 11
13.6554834891
 21
5.2340390679
  0
LINE
  5
33A
100
AcDbEntity
  8
0
100
AcDbLine
 62
7
  6
CONTINUOUS
 10
13.6854834891
 20
5.7784214382
 11
13.6854834891
 21
4.9740390679
  0
LINE
  5
33B
100
AcDbEntity
  8
0
100
AcDbLine
 62
9
  6
CONTINUOUS
 10
13.7154834891
 20
7.6700390679
 11
13.7154834891
 21
7.2789461095
  0
LINE
  5
33C
100
AcDbEntity
  8
0
100
AcDbLine
 62
9
  6
CONTINUOUS
 10
13.7154834891
 20
5.7426688305
 11
13.7154834891
 21
4.9740390679
  0
LINE
  5
33D
100
AcDbEntity
  8
0
100
AcDbLine
 62
7
  6
CONTINUOUS
 10
13.7179834891
 20
5.4662104993
 11
13.7179834891
 21
4.9340390679
  0
LINE
  5
33E
100
AcDbEntity
  8
0
100
AcDbLine
 62
7
  6
CONTINUOUS
 10
13.9404834891
 20
7.1900390679
 11
13.9404834891
 21
7.0108015511
  0
LINE
  5
33F
100
AcDbEntity
  8
0
100
AcDbLine
 62
7
  6
CONTINUOUS
 10
13.9654834891
 20
7.6400390679
 11
13.9654834891
 21
7.2500390679
  0
LINE
  5
340
100
AcDbEntity
  8
0
100
AcDbLine
 62
9
  6
CONTINUOUS
 10
13.9954834891
 20
7.2200390679
 11
13.9954834891
 21
7.6700390679
  0
LINE
  5
341
100
AcDbEntity
  8
0
100
AcDbLine
 62
9
  6
CONTINUOUS
 10
14.032015441
 20
5.3433283897
 11
14.032015441
 21
4.9340390679
  0
LINE
  5
342
100
AcDbEntity
  8
0
100
AcDbLine
 62
9
  6
CONTINUOUS
 10
14.0533367239
 20
5.3433283897
 11
14.0533367239
 21
4.9340390679
  0
LINE
  5
343
100
AcDbEntity
  8
0
100
AcDbLine
 62
9
  6
CONTINUOUS
 10
14.4776302544
 20
4.9340390679
 11
14.4776302544
 21
5.3433283897
  0
LINE
  5
344
100
AcDbEntity
  8
0
100
AcDbLine
 62
9
  6
CONTINUOUS
 10
14.4989515373
 20
4.9340390679
 11
14.4989515373
 21
5.3433283898
  0
LINE
  5
345
100
AcDbEntity
  8
0
100
AcDbLine
 62
7
  6
CONTINUOUS
 10
14.5269834891
 20
6.6700390679
 11
14.5269834891
 21
6.6440390679
  0
LINE
  5
346
100
AcDbEntity
  8
0
100
AcDbLine
 62
9
  6
CONTINUOUS
 10
14.5354834891
 20
7.6700390679
 11
14.5354834891
 21
7.2200390679
  0
LINE
  5
347
100
AcDbEntity
  8
0
100
AcDbLine
 62
7
  6
CONTINUOUS
 10
14.5654834891
 20
7.6400390679
 11
14.5654834891
 21
7.2500390679
  0
LINE
  5
348
100
AcDbEntity
  8
0
100
AcDbLine
 62
7
  6
CONTINUOUS
 10
14.5904834891
 20
7.1900390679
 11
14.5904834891
 21
6.6700390679
  0
LINE
  5
349
100
AcDbEntity
  8
0
100
AcDbLine
 62
7
  6
CONTINUOUS
 10
14.8129834891
 20
5.4662104993
 11
14.8129834891
 21
4.9340390679
  0
LINE
  5
34A
100
AcDbEntity
  8
0
100
AcDbLine
 62
9
  6
CONTINUOUS
 10
14.8154834891
 20
4.9740390679
 11
14.8154834891
 21
6.6440390679
  0
LINE
  5
34B
100
AcDbEntity
  8
0
100
AcDbLine
 62
9
  6
CONTINUOUS
 10
14.8154834891
 20
7.2200390679
 11
14.8154834891
 21
7.6700390679
  0
LINE
  5
34C
100
AcDbEntity
  8
0
100
AcDbLine
 62
9
  6
CONTINUOUS
 10
14.0367164799
 20
6.8961155387
 11
13.2706720368
 21
6.253327929
  0
LINE
  5
34D
100
AcDbEntity
  8
0
100
AcDbLine
 62
7
  6
CONTINUOUS
 10
14.0354839116
 20
6.8820272182
 11
13.2847603573
 21
6.2520953607
  0
LINE
  5
34E
100
AcDbEntity
  8
0
100
AcDbLine
 62
7
  6
CONTINUOUS
 10
14.0265908988
 20
6.8615110215
 11
13.3065091223
 21
6.2572906684
  0
LINE
  5
34F
100
AcDbEntity
  8
0
100
AcDbLine
 62
9
  6
CONTINUOUS
 10
14.0547675398
 20
6.8590458849
 11
13.7855519944
 21
6.63314722
  0
LINE
  5
350
100
AcDbEntity
  8
0
100
AcDbLine
 62
9
  6
CONTINUOUS
 10
13.573259531
 20
6.4550126922
 11
13.3040439856
 21
6.2291140274
  0
LINE
  5
351
100
AcDbEntity
  8
0
100
AcDbLine
 62
7
  6
CONTINUOUS
 10
14.8454834891
 20
6.6140390679
 11
14.8454834891
 21
4.9740390679
  0
LINE
  5
352
100
AcDbEntity
  8
0
100
AcDbLine
 62
9
  6
CONTINUOUS
 10
14.8754834891
 20
5.2340390679
 11
14.8754834891
 21
7.2200390679
  0
LINE
  5
353
100
AcDbEntity
  8
0
100
AcDbLine
 62
7
  6
CONTINUOUS
 10
14.9154834891
 20
5.2340390679
 11
14.9154834891
 21
7.2200390679
  0
LINE
  5
354
100
AcDbEntity
  8
0
100
AcDbLine
 62
9
  6
CONTINUOUS
 10
15.0754834891
 20
7.7540390679
 11
15.0754834891
 21
7.7140390679
  0
LINE
  5
355
100
AcDbEntity
  8
0
100
AcDbLine
 62
9
  6
CONTINUOUS
 10
15.2354834891
 20
4.9740390679
 11
15.2354834891
 21
4.9340390679
  0
LINE
  5
356
100
AcDbEntity
  8
0
100
AcDbLine
 62
9
  6
CONTINUOUS
 10
15.2504834891
 20
4.9740390679
 11
15.2504834891
 21
4.9699404757
  0
LINE
  5
357
100
AcDbEntity
  8
0
100
AcDbLine
 62
7
  6
CONTINUOUS
 10
15.2654834891
 20
4.9440390679
 11
15.2654834891
 21
4.9340390679
  0
LINE
  5
358
100
AcDbEntity
  8
0
100
AcDbLine
 62
7
  6
CONTINUOUS
 10
13.7789515661
 20
6.2098784704
 11
13.9912440295
 21
6.3880129982
  0
LINE
  5
359
100
AcDbEntity
  8
0
100
AcDbLine
 62
9
  6
CONTINUOUS
 10
14.3440219642
 20
6.5143258855
 11
13.59329841
 21
5.884394028
  0
LINE
  5
35A
100
AcDbEntity
  8
0
100
AcDbLine
 62
7
  6
CONTINUOUS
 10
13.6080692733
 20
5.8706801081
 11
14.3549626053
 21
6.4973980276
  0
LINE
  5
35B
100
AcDbEntity
  8
0
100
AcDbLine
 62
9
  6
CONTINUOUS
 10
13.7399657111
 20
5.7134920544
 11
14.4868590432
 21
6.3402099739
  0
LINE
  5
35C
100
AcDbEntity
  8
0
100
AcDbLine
 62
7
  6
CONTINUOUS
 10
15.2804834891
 20
4.9440390679
 11
15.2804834891
 21
4.9340390679
  0
LINE
  5
35D
100
AcDbEntity
  8
0
100
AcDbLine
 62
9
  6
CONTINUOUS
 10
15.4654834891
 20
5.2340390679
 11
15.4654834891
 21
4.9340390679
  0
LINE
  5
35E
100
AcDbEntity
  8
0
100
AcDbLine
 62
9
  6
CONTINUOUS
 10
15.4754834891
 20
4.6240390679
 11
15.4754834891
 21
4.9340390679
  0
LINE
  5
35F
100
AcDbEntity
  8
0
100
AcDbLine
 62
7
  6
CONTINUOUS
 10
15.5054834891
 20
5.1940390679
 11
15.5054834891
 21
4.9204960462
  0
LINE
  5
360
100
AcDbEntity
  8
0
100
AcDbLine
 62
7
  6
CONTINUOUS
 10
15.5154834891
 20
4.8940390679
 11
15.5154834891
 21
4.6240390679
  0
LINE
  5
361
100
AcDbEntity
  8
0
100
AcDbLine
 62
9
  6
CONTINUOUS
 10
15.5444834891
 20
7.7140390679
 11
15.5444834891
 21
8.3840390679
  0
LINE
  5
362
100
AcDbEntity
  8
0
100
AcDbLine
 62
7
  6
CONTINUOUS
 10
15.5844834891
 20
7.7540390679
 11
15.5844834891
 21
8.3440390679
  0
LINE
  5
363
100
AcDbEntity
  8
0
100
AcDbLine
 62
9
  6
CONTINUOUS
 10
15.8054834891
 20
7.6700390679
 11
15.8054834891
 21
7.2200390679
  0
LINE
  5
364
100
AcDbEntity
  8
0
100
AcDbLine
 62
7
  6
CONTINUOUS
 10
15.8354834891
 20
7.6400390679
 11
15.8354834891
 21
7.2500390679
  0
ARC
  5
365
100
AcDbEntity
  8
0
100
AcDbCircle
 62
9
  6
CONTINUOUS
 10
6.4144834891
 20
7.5540390679
 40
0.2
100
AcDbArc
 50
90.0
 51
180.0
  0
ARC
  5
366
100
AcDbEntity
  8
0
100
AcDbCircle
 62
7
  6
CONTINUOUS
 10
6.4144834891
 20
7.5540390679
 40
0.16
100
AcDbArc
 50
90.0
 51
180.0
  0
ARC
  5
367
100
AcDbEntity
  8
0
100
AcDbCircle
 62
7
  6
CONTINUOUS
 10
5.6244834891
 20
8.3440390679
 40
0.04
100
AcDbArc
 50
90.0
 51
180.0
  0
ARC
  5
368
100
AcDbEntity
  8
0
100
AcDbCircle
 62
7
  6
CONTINUOUS
 10
5.6244834891
 20
7.1640390679
 40
0.04
100
AcDbArc
 50
180.0
 51
270.0
  0
ARC
  5
369
100
AcDbEntity
  8
0
100
AcDbCircle
 62
7
  6
CONTINUOUS
 10
6.2144834891
 20
7.1640390679
 40
0.04
100
AcDbArc
 50
270.0
 51
360.0
  0
ARC
  5
36A
100
AcDbEntity
  8
0
100
AcDbCircle
 62
7
  6
CONTINUOUS
 10
8.9478129758
 20
11.4766837258
 40
0.124064548
100
AcDbArc
 50
220.0013510245
 51
221.2322727399
  0
ARC
  5
36B
100
AcDbEntity
  8
0
100
AcDbCircle
 62
7
  6
CONTINUOUS
 10
8.3885877553
 20
12.1431423913
 40
0.124064548
100
AcDbArc
 50
220.0013510244
 51
221.23227274
  0
ARC
  5
36C
100
AcDbEntity
  8
0
100
AcDbCircle
 62
7
  6
CONTINUOUS
 10
9.1342213826
 20
11.2545308373
 40
0.124064548
100
AcDbArc
 50
220.0013510244
 51
221.23227274
  0
ARC
  5
36D
100
AcDbEntity
  8
0
100
AcDbCircle
 62
7
  6
CONTINUOUS
 10
9.3206297894
 20
11.0323779488
 40
0.124064548
100
AcDbArc
 50
220.0013510243
 51
221.2322727401
  0
ARC
  5
36E
100
AcDbEntity
  8
0
100
AcDbCircle
 62
7
  6
CONTINUOUS
 10
9.5070381962
 20
10.8102250603
 40
0.124064548
100
AcDbArc
 50
220.0013510244
 51
221.23227274
  0
ARC
  5
36F
100
AcDbEntity
  8
0
100
AcDbCircle
 62
7
  6
CONTINUOUS
 10
10.0662634166
 20
10.1437663948
 40
0.124064548
100
AcDbArc
 50
220.0013510244
 51
221.23227274
  0
ARC
  5
370
100
AcDbEntity
  8
0
100
AcDbCircle
 62
7
  6
CONTINUOUS
 10
9.693446603
 20
10.5880721718
 40
0.124064548
100
AcDbArc
 50
220.0013510243
 51
221.2322727401
  0
ARC
  5
371
100
AcDbEntity
  8
0
100
AcDbCircle
 62
7
  6
CONTINUOUS
 10
9.8798550098
 20
10.3659192833
 40
0.124064548
100
AcDbArc
 50
220.0013510243
 51
221.2322727401
  0
ARC
  5
372
100
AcDbEntity
  8
0
100
AcDbCircle
 62
7
  6
CONTINUOUS
 10
8.2021793485
 20
12.3652952798
 40
0.124064548
100
AcDbArc
 50
220.0013510241
 51
221.2322727403
  0
ARC
  5
373
100
AcDbEntity
  8
0
100
AcDbCircle
 62
7
  6
CONTINUOUS
 10
8.5749961621
 20
11.9209895028
 40
0.124064548
100
AcDbArc
 50
220.0013510242
 51
221.2322727402
  0
ARC
  5
374
100
AcDbEntity
  8
0
100
AcDbCircle
 62
7
  6
CONTINUOUS
 10
8.7614045689
 20
11.6988366143
 40
0.124064548
100
AcDbArc
 50
220.0013510243
 51
221.2322727401
  0
ARC
  5
375
100
AcDbEntity
  8
0
100
AcDbCircle
 62
9
  6
CONTINUOUS
 10
8.4858774135
 20
11.8462062099
 40
0.0396078282
100
AcDbArc
 50
20.5146741576
 51
59.4839111868
  0
ARC
  5
376
100
AcDbEntity
  8
0
100
AcDbCircle
 62
9
  6
CONTINUOUS
 10
9.4179197644
 20
10.7354420533
 40
0.0396074078
100
AcDbArc
 50
20.5125880243
 51
59.4840960851
  0
ARC
  5
377
100
AcDbEntity
  8
0
100
AcDbCircle
 62
9
  6
CONTINUOUS
 10
9.0451029836
 20
11.1797478642
 40
0.0396073665
100
AcDbArc
 50
20.513655748
 51
59.4841120287
  0
ARC
  5
378
100
AcDbEntity
  8
0
100
AcDbCircle
 62
9
  6
CONTINUOUS
 10
9.2315113904
 20
10.9575949757
 40
0.0396073665
100
AcDbArc
 50
20.5136557265
 51
59.4841120502
  0
ARC
  5
379
100
AcDbEntity
  8
0
100
AcDbCircle
 62
9
  6
CONTINUOUS
 10
8.8586945768
 20
11.4019007527
 40
0.0396073665
100
AcDbArc
 50
20.5136557291
 51
59.4841120476
  0
ARC
  5
37A
100
AcDbEntity
  8
0
100
AcDbCircle
 62
7
  6
CONTINUOUS
 10
8.5782171053
 20
13.3857445402
 40
0.01
100
AcDbArc
 50
40.0
 51
130.0
  0
ARC
  5
37B
100
AcDbEntity
  8
0
100
AcDbCircle
 62
7
  6
CONTINUOUS
 10
7.8274935511
 20
12.7558126827
 40
0.01
100
AcDbArc
 50
130.0
 51
220.0
  0
ARC
  5
37C
100
AcDbEntity
  8
0
100
AcDbCircle
 62
7
  6
CONTINUOUS
 10
7.8490262971
 20
12.7869348749
 40
0.01
100
AcDbArc
 50
130.0
 51
220.0
  0
ARC
  5
37D
100
AcDbEntity
  8
0
100
AcDbCircle
 62
7
  6
CONTINUOUS
 10
8.543828607
 20
13.3699432369
 40
0.01
100
AcDbArc
 50
40.0
 51
130.0
  0
ARC
  5
37E
100
AcDbEntity
  8
0
100
AcDbCircle
 62
7
  6
CONTINUOUS
 10
13.6154834891
 20
5.6090390679
 40
1.1375
100
AcDbArc
 50
0.0
 51
40.0
  0
ARC
  5
37F
100
AcDbEntity
  8
0
100
AcDbCircle
 62
9
  6
CONTINUOUS
 10
14.2656349079
 20
4.8326331755
 40
0.5996147766
100
AcDbArc
 50
75.8457522473
 51
90.0144686695
  0
ARC
  5
380
100
AcDbEntity
  8
0
100
AcDbCircle
 62
9
  6
CONTINUOUS
 10
14.2652853884
 20
4.8330176497
 40
0.5992286534
100
AcDbArc
 50
89.9810585348
 51
104.1589092384
  0
ARC
  5
381
100
AcDbEntity
  8
0
100
AcDbCircle
 62
9
  6
CONTINUOUS
 10
14.2654845408
 20
4.8993939053
 40
0.4975001246
100
AcDbArc
 50
74.4498639587
 51
105.5497021285
  0
ARC
  5
382
100
AcDbEntity
  8
0
100
AcDbCircle
 62
7
  6
CONTINUOUS
 10
13.6154834891
 20
5.6090390679
 40
0.1625
100
AcDbArc
 50
0.0
 51
40.0
  0
ARC
  5
383
100
AcDbEntity
  8
0
100
AcDbCircle
 62
7
  6
CONTINUOUS
 10
13.6779834891
 20
5.6090390679
 40
0.1
100
AcDbArc
 50
314.4270040008
 51
360.0
  0
ARC
  5
384
100
AcDbEntity
  8
0
100
AcDbCircle
 62
7
  6
CONTINUOUS
 10
13.8179834891
 20
5.4662104993
 40
0.1
100
AcDbArc
 50
134.4270040008
 51
180.0
  0
ARC
  5
385
100
AcDbEntity
  8
0
100
AcDbCircle
 62
7
  6
CONTINUOUS
 10
13.0554834891
 20
4.8940390679
 40
0.04
100
AcDbArc
 50
90.0
 51
180.0
  0
ARC
  5
386
100
AcDbEntity
  8
0
100
AcDbCircle
 62
7
  6
CONTINUOUS
 10
13.0654834891
 20
5.1940390679
 40
0.04
100
AcDbArc
 50
90.0
 51
180.0
  0
ARC
  5
387
100
AcDbEntity
  8
0
100
AcDbCircle
 62
7
  6
CONTINUOUS
 10
13.2804834891
 20
4.9440390679
 40
0.03
100
AcDbArc
 50
90.0
 51
180.0
  0
ARC
  5
388
100
AcDbEntity
  8
0
100
AcDbCircle
 62
7
  6
CONTINUOUS
 10
13.2954834891
 20
4.9440390679
 40
0.03
100
AcDbArc
 50
90.0
 51
180.0
  0
ARC
  5
389
100
AcDbEntity
  8
0
100
AcDbCircle
 62
7
  6
CONTINUOUS
 10
14.3287010753
 20
6.5014701333
 40
0.02
100
AcDbArc
 50
310.0
 51
40.0
  0
ARC
  5
38A
100
AcDbEntity
  8
0
100
AcDbCircle
 62
7
  6
CONTINUOUS
 10
13.6086192988
 20
5.8972497802
 40
0.02
100
AcDbArc
 50
220.0
 51
310.0
  0
ARC
  5
38B
100
AcDbEntity
  8
0
100
AcDbCircle
 62
7
  6
CONTINUOUS
 10
13.3193648745
 20
6.2419697796
 40
0.02
100
AcDbArc
 50
130.0
 51
220.0
  0
ARC
  5
38C
100
AcDbEntity
  8
0
100
AcDbCircle
 62
7
  6
CONTINUOUS
 10
13.2783324812
 20
6.2597558051
 40
0.01
100
AcDbArc
 50
220.0
 51
310.0
  0
ARC
  5
38D
100
AcDbEntity
  8
0
100
AcDbCircle
 62
7
  6
CONTINUOUS
 10
13.3127209795
 20
6.2755571084
 40
0.01
100
AcDbArc
 50
220.0
 51
310.0
  0
ARC
  5
38E
100
AcDbEntity
  8
0
100
AcDbCircle
 62
9
  6
CONTINUOUS
 10
13.4554834891
 20
7.5540390679
 40
0.2
100
AcDbArc
 50
35.4926718143
 51
90.0
  0
ARC
  5
38F
100
AcDbEntity
  8
0
100
AcDbCircle
 62
7
  6
CONTINUOUS
 10
13.4554834891
 20
7.5540390679
 40
0.16
100
AcDbArc
 50
46.5290819758
 51
90.0
  0
ARC
  5
390
100
AcDbEntity
  8
0
100
AcDbCircle
 62
7
  6
CONTINUOUS
 10
13.9104834891
 20
7.1900390679
 40
0.03
100
AcDbArc
 50
0.0
 51
90.0
  0
ARC
  5
391
100
AcDbEntity
  8
0
100
AcDbCircle
 62
7
  6
CONTINUOUS
 10
13.9954834891
 20
7.2500390679
 40
0.03
100
AcDbArc
 50
180.0
 51
270.0
  0
ARC
  5
392
100
AcDbEntity
  8
0
100
AcDbCircle
 62
7
  6
CONTINUOUS
 10
13.9954834891
 20
7.6400390679
 40
0.03
100
AcDbArc
 50
90.0
 51
180.0
  0
ARC
  5
393
100
AcDbEntity
  8
0
100
AcDbCircle
 62
7
  6
CONTINUOUS
 10
14.039446651
 20
6.8461901327
 40
0.02
100
AcDbArc
 50
40.0
 51
130.0
  0
ARC
  5
394
100
AcDbEntity
  8
0
100
AcDbCircle
 62
7
  6
CONTINUOUS
 10
14.0290560355
 20
6.8896876626
 40
0.01
100
AcDbArc
 50
310.0
 51
40.0
  0
ARC
  5
395
100
AcDbEntity
  8
0
100
AcDbCircle
 62
7
  6
CONTINUOUS
 10
14.0075232894
 20
6.8585654704
 40
0.01
100
AcDbArc
 50
310.0
 51
40.0
  0
ARC
  5
396
100
AcDbEntity
  8
0
100
AcDbCircle
 62
7
  6
CONTINUOUS
 10
14.8529834891
 20
5.6090390679
 40
0.1
100
AcDbArc
 50
180.0
 51
225.5729959992
  0
ARC
  5
397
100
AcDbEntity
  8
0
100
AcDbCircle
 62
7
  6
CONTINUOUS
 10
14.7129834891
 20
5.4662104993
 40
0.1
100
AcDbArc
 50
0.0
 51
45.5729959992
  0
ARC
  5
398
100
AcDbEntity
  8
0
100
AcDbCircle
 62
7
  6
CONTINUOUS
 10
15.4754834891
 20
4.8940390679
 40
0.04
100
AcDbArc
 50
0.0
 51
90.0
  0
ARC
  5
399
100
AcDbEntity
  8
0
100
AcDbCircle
 62
7
  6
CONTINUOUS
 10
15.4654834891
 20
5.1940390679
 40
0.04
100
AcDbArc
 50
0.0
 51
90.0
  0
ARC
  5
39A
100
AcDbEntity
  8
0
100
AcDbCircle
 62
7
  6
CONTINUOUS
 10
15.2504834891
 20
4.9440390679
 40
0.03
100
AcDbArc
 50
0.0
 51
90.0
  0
ARC
  5
39B
100
AcDbEntity
  8
0
100
AcDbCircle
 62
7
  6
CONTINUOUS
 10
15.2354834891
 20
4.9440390679
 40
0.03
100
AcDbArc
 50
0.0
 51
90.0
  0
ARC
  5
39C
100
AcDbEntity
  8
0
100
AcDbCircle
 62
7
  6
CONTINUOUS
 10
14.6204834891
 20
7.1900390679
 40
0.03
100
AcDbArc
 50
90.0
 51
180.0
  0
ARC
  5
39D
100
AcDbEntity
  8
0
100
AcDbCircle
 62
7
  6
CONTINUOUS
 10
14.5354834891
 20
7.2500390679
 40
0.03
100
AcDbArc
 50
270.0
 51
360.0
  0
ARC
  5
39E
100
AcDbEntity
  8
0
100
AcDbCircle
 62
7
  6
CONTINUOUS
 10
14.8154834891
 20
6.6140390679
 40
0.03
100
AcDbArc
 50
0.0
 51
90.0
  0
ARC
  5
39F
100
AcDbEntity
  8
0
100
AcDbCircle
 62
9
  6
CONTINUOUS
 10
15.0754834891
 20
7.5540390679
 40
0.2
100
AcDbArc
 50
90.0
 51
144.5072530955
  0
ARC
  5
3A0
100
AcDbEntity
  8
0
100
AcDbCircle
 62
7
  6
CONTINUOUS
 10
15.0754834891
 20
7.5540390679
 40
0.16
100
AcDbArc
 50
90.0
 51
133.4709205611
  0
ARC
  5
3A1
100
AcDbEntity
  8
0
100
AcDbCircle
 62
7
  6
CONTINUOUS
 10
14.5354834891
 20
7.6400390679
 40
0.03
100
AcDbArc
 50
0.0
 51
90.0
  0
ARC
  5
3A2
100
AcDbEntity
  8
0
100
AcDbCircle
 62
7
  6
CONTINUOUS
 10
15.8054834891
 20
7.2500390679
 40
0.03
100
AcDbArc
 50
270.0
 51
360.0
  0
ARC
  5
3A3
100
AcDbEntity
  8
0
100
AcDbCircle
 62
7
  6
CONTINUOUS
 10
15.5444834891
 20
8.3440390679
 40
0.04
100
AcDbArc
 50
0.0
 51
90.0
  0
ARC
  5
3A4
100
AcDbEntity
  8
0
100
AcDbCircle
 62
7
  6
CONTINUOUS
 10
15.5444834891
 20
7.7540390679
 40
0.04
100
AcDbArc
 50
270.0
 51
360.0
  0
ARC
  5
3A5
100
AcDbEntity
  8
0
100
AcDbCircle
 62
7
  6
CONTINUOUS
 10
15.8054834891
 20
7.6400390679
 40
0.03
100
AcDbArc
 50
0.0
 51
90.0
  0
LINE
  5
3A6
100
AcDbEntity
  8
0
100
AcDbLine
 62
7
  6
CONTINUOUS
 10
9.9850921521
 20
10.0518279216
 11
9.985392227
 21
10.0523672284
  0
LINE
  5
3A7
100
AcDbEntity
  8
0
100
AcDbLine
 62
7
  6
CONTINUOUS
 10
9.7986837453
 20
10.2739808101
 11
9.7989838202
 21
10.2745201169
  0
LINE
  5
3A8
100
AcDbEntity
  8
0
100
AcDbLine
 62
7
  6
CONTINUOUS
 10
9.6122753385
 20
10.4961336986
 11
9.6125754134
 21
10.4966730054
  0
LINE
  5
3A9
100
AcDbEntity
  8
0
100
AcDbLine
 62
7
  6
CONTINUOUS
 10
9.4258669317
 20
10.7182865871
 11
9.4261670066
 21
10.7188258939
  0
LINE
  5
3AA
100
AcDbEntity
  8
0
100
AcDbLine
 62
7
  6
CONTINUOUS
 10
9.2394585248
 20
10.9404394757
 11
9.2397585998
 21
10.9409787824
  0
LINE
  5
3AB
100
AcDbEntity
  8
0
100
AcDbLine
 62
7
  6
CONTINUOUS
 10
9.053050118
 20
11.1625923642
 11
9.053350193
 21
11.1631316709
  0
LINE
  5
3AC
100
AcDbEntity
  8
0
100
AcDbLine
 62
7
  6
CONTINUOUS
 10
8.8666417112
 20
11.3847452527
 11
8.8669417862
 21
11.3852845594
  0
LINE
  5
3AD
100
AcDbEntity
  8
0
100
AcDbLine
 62
7
  6
CONTINUOUS
 10
8.6802333044
 20
11.6068981412
 11
8.6805333794
 21
11.6074374479
  0
LINE
  5
3AE
100
AcDbEntity
  8
0
100
AcDbLine
 62
7
  6
CONTINUOUS
 10
8.4938248976
 20
11.8290510297
 11
8.4941249726
 21
11.8295903364
  0
LINE
  5
3AF
100
AcDbEntity
  8
0
100
AcDbLine
 62
7
  6
CONTINUOUS
 10
8.3074164908
 20
12.0512039182
 11
8.3077165658
 21
12.0517432249
  0
LINE
  5
3B0
100
AcDbEntity
  8
0
100
AcDbLine
 62
7
  6
CONTINUOUS
 10
8.121008084
 20
12.2733568067
 11
8.1213081589
 21
12.2738961134
  0
SPLINE
  5
3B1
100
AcDbEntity
  8
0
100
AcDbSpline
 62
7
  6
CONTINUOUS
 70
0
 71
3
 72
20
 73
16
 74
0
 42
0.0000001
 43
0.0000001
 44
0.0000000001
 40
0.0
 40
0.0
 40
0.0
 40
0.0
 40
0.0428745183
 40
0.0858710348
 40
0.1303908998
 40
0.1774989473
 40
0.2279016255
 40
0.2820166052
 40
0.3400456122
 40
0.4020509599
 40
0.5371951769
 40
0.6096045543
 40
0.6845344431
 40
0.8400341602
 40
1.0
 40
1.0
 40
1.0
 40
1.0
 10
9.9985118726
 20
10.0627215905
 30
0.0
 10
9.9988188547
 20
10.0628728658
 30
0.0
 10
9.9994034442
 20
10.0632433401
 30
0.0
 10
10.0001412066
 20
10.0639890164
 30
0.0
 10
10.0007235118
 20
10.0649005976
 30
0.0
 10
10.0011517491
 20
10.0659560921
 30
0.0
 10
10.0014270181
 20
10.0671390194
 30
0.0
 10
10.0015498217
 20
10.0684339936
 30
0.0
 10
10.0015199767
 20
10.0698265529
 30
0.0
 10
10.0012663974
 20
10.0718505967
 30
0.0
 10
10.0006961747
 20
10.0739374405
 30
0.0
 10
9.9998806929
 20
10.0760403607
 30
0.0
 10
9.9988632539
 20
10.0782349482
 30
0.0
 10
9.9972999007
 20
10.0809387249
 30
0.0
 10
9.9957975463
 20
10.0829678508
 30
0.0
 10
9.9949767695
 20
10.0839459767
 30
0.0
  0
SPLINE
  5
3B2
100
AcDbEntity
  8
0
100
AcDbSpline
 62
7
  6
CONTINUOUS
 70
0
 71
3
 72
20
 73
16
 74
0
 42
0.0000001
 43
0.0000001
 44
0.0000000001
 40
0.0
 40
0.0
 40
0.0
 40
0.0
 40
0.0428745183
 40
0.0858710348
 40
0.1303908998
 40
0.1774989473
 40
0.2279016255
 40
0.2820166052
 40
0.3400456122
 40
0.4020509599
 40
0.5371951769
 40
0.6096045543
 40
0.6845344431
 40
0.8400341602
 40
1.0
 40
1.0
 40
1.0
 40
1.0
 10
9.8121034658
 20
10.284874479
 30
0.0
 10
9.8124104479
 20
10.2850257543
 30
0.0
 10
9.8129950374
 20
10.2853962286
 30
0.0
 10
9.8137327998
 20
10.2861419049
 30
0.0
 10
9.814315105
 20
10.2870534861
 30
0.0
 10
9.8147433423
 20
10.2881089806
 30
0.0
 10
9.8150186113
 20
10.2892919079
 30
0.0
 10
9.8151414149
 20
10.2905868821
 30
0.0
 10
9.8151115698
 20
10.2919794414
 30
0.0
 10
9.8148579906
 20
10.2940034852
 30
0.0
 10
9.8142877679
 20
10.296090329
 30
0.0
 10
9.8134722861
 20
10.2981932492
 30
0.0
 10
9.8124548471
 20
10.3003878367
 30
0.0
 10
9.8108914939
 20
10.3030916134
 30
0.0
 10
9.8093891395
 20
10.3051207393
 30
0.0
 10
9.8085683627
 20
10.3060988652
 30
0.0
  0
SPLINE
  5
3B3
100
AcDbEntity
  8
0
100
AcDbSpline
 62
7
  6
CONTINUOUS
 70
0
 71
3
 72
20
 73
16
 74
0
 42
0.0000001
 43
0.0000001
 44
0.0000000001
 40
0.0
 40
0.0
 40
0.0
 40
0.0
 40
0.0428745183
 40
0.0858710348
 40
0.1303908998
 40
0.1774989473
 40
0.2279016255
 40
0.2820166052
 40
0.3400456122
 40
0.4020509599
 40
0.5371951769
 40
0.6096045543
 40
0.6845344431
 40
0.8400341602
 40
1.0
 40
1.0
 40
1.0
 40
1.0
 10
9.625695059
 20
10.5070273675
 30
0.0
 10
9.6260020411
 20
10.5071786428
 30
0.0
 10
9.6265866306
 20
10.5075491171
 30
0.0
 10
9.627324393
 20
10.5082947934
 30
0.0
 10
9.6279066982
 20
10.5092063746
 30
0.0
 10
9.6283349355
 20
10.5102618692
 30
0.0
 10
9.6286102045
 20
10.5114447964
 30
0.0
 10
9.6287330081
 20
10.5127397706
 30
0.0
 10
9.628703163
 20
10.5141323299
 30
0.0
 10
9.6284495838
 20
10.5161563737
 30
0.0
 10
9.6278793611
 20
10.5182432175
 30
0.0
 10
9.6270638793
 20
10.5203461377
 30
0.0
 10
9.6260464403
 20
10.5225407252
 30
0.0
 10
9.6244830871
 20
10.5252445019
 30
0.0
 10
9.6229807327
 20
10.5272736278
 30
0.0
 10
9.6221599559
 20
10.5282517537
 30
0.0
  0
SPLINE
  5
3B4
100
AcDbEntity
  8
0
100
AcDbSpline
 62
7
  6
CONTINUOUS
 70
0
 71
3
 72
20
 73
16
 74
0
 42
0.0000001
 43
0.0000001
 44
0.0000000001
 40
0.0
 40
0.0
 40
0.0
 40
0.0
 40
0.1599658398
 40
0.3154655569
 40
0.3903954457
 40
0.4628048231
 40
0.5979490401
 40
0.6599543878
 40
0.7179833948
 40
0.7720983745
 40
0.8225010527
 40
0.8696091002
 40
0.9141289652
 40
0.9571254817
 40
1.0
 40
1.0
 40
1.0
 40
1.0
 10
8.1308927014
 20
12.3054748617
 30
0.0
 10
8.1300719619
 20
12.3064530188
 30
0.0
 10
8.1283345441
 20
12.308284903
 30
0.0
 10
8.1259433173
 20
12.3102940113
 30
0.0
 10
8.1239587469
 20
12.3116770793
 30
0.0
 10
8.1220293817
 20
12.3128453403
 30
0.0
 10
8.1200732599
 20
12.3137692766
 30
0.0
 10
8.1181239995
 20
12.314370475
 30
0.0
 10
8.1167577788
 20
12.314641682
 30
0.0
 10
8.1154611536
 20
12.314745614
 30
0.0
 10
8.1142483977
 20
12.3146799401
 30
0.0
 10
8.1131345758
 20
12.3144414934
 30
0.0
 10
8.1121357274
 20
12.3140263292
 30
0.0
 10
8.1112732684
 20
12.3134292604
 30
0.0
 10
8.1108069096
 20
12.3129178843
 30
0.0
 10
8.1106046256
 20
12.3126418346
 30
0.0
  0
SPLINE
  5
3B5
100
AcDbEntity
  8
0
100
AcDbSpline
 62
7
  6
CONTINUOUS
 70
0
 71
3
 72
20
 73
16
 74
0
 42
0.0000001
 43
0.0000001
 44
0.0000000001
 40
0.0
 40
0.0
 40
0.0
 40
0.0
 40
0.0428745183
 40
0.0858710348
 40
0.1303908998
 40
0.1774989473
 40
0.2279016255
 40
0.2820166052
 40
0.3400456122
 40
0.4020509599
 40
0.5371951769
 40
0.6096045543
 40
0.6845344431
 40
0.8400341602
 40
1.0
 40
1.0
 40
1.0
 40
1.0
 10
9.4392866522
 20
10.729180256
 30
0.0
 10
9.4395936343
 20
10.7293315313
 30
0.0
 10
9.4401782238
 20
10.7297020056
 30
0.0
 10
9.4409159862
 20
10.7304476819
 30
0.0
 10
9.4414982914
 20
10.7313592631
 30
0.0
 10
9.4419265287
 20
10.7324147577
 30
0.0
 10
9.4422017977
 20
10.7335976849
 30
0.0
 10
9.4423246013
 20
10.7348926591
 30
0.0
 10
9.4422947562
 20
10.7362852184
 30
0.0
 10
9.442041177
 20
10.7383092622
 30
0.0
 10
9.4414709543
 20
10.740396106
 30
0.0
 10
9.4406554725
 20
10.7424990262
 30
0.0
 10
9.4396380335
 20
10.7446936137
 30
0.0
 10
9.4380746802
 20
10.7473973904
 30
0.0
 10
9.4365723259
 20
10.7494265163
 30
0.0
 10
9.4357515491
 20
10.7504046422
 30
0.0
  0
SPLINE
  5
3B6
100
AcDbEntity
  8
0
100
AcDbSpline
 62
7
  6
CONTINUOUS
 70
0
 71
3
 72
20
 73
16
 74
0
 42
0.0000001
 43
0.0000001
 44
0.0000000001
 40
0.0
 40
0.0
 40
0.0
 40
0.0
 40
0.0428745183
 40
0.0858710348
 40
0.1303908998
 40
0.1774989473
 40
0.2279016255
 40
0.2820166052
 40
0.3400456122
 40
0.4020509599
 40
0.5371951769
 40
0.6096045543
 40
0.6845344431
 40
0.8400341602
 40
1.0
 40
1.0
 40
1.0
 40
1.0
 10
9.2528782454
 20
10.9513331445
 30
0.0
 10
9.2531852275
 20
10.9514844198
 30
0.0
 10
9.253769817
 20
10.9518548941
 30
0.0
 10
9.2545075794
 20
10.9526005704
 30
0.0
 10
9.2550898846
 20
10.9535121516
 30
0.0
 10
9.2555181219
 20
10.9545676462
 30
0.0
 10
9.2557933909
 20
10.9557505734
 30
0.0
 10
9.2559161945
 20
10.9570455476
 30
0.0
 10
9.2558863494
 20
10.9584381069
 30
0.0
 10
9.2556327701
 20
10.9604621507
 30
0.0
 10
9.2550625475
 20
10.9625489945
 30
0.0
 10
9.2542470657
 20
10.9646519147
 30
0.0
 10
9.2532296267
 20
10.9668465022
 30
0.0
 10
9.2516662734
 20
10.9695502789
 30
0.0
 10
9.2501639191
 20
10.9715794048
 30
0.0
 10
9.2493431423
 20
10.9725575307
 30
0.0
  0
SPLINE
  5
3B7
100
AcDbEntity
  8
0
100
AcDbSpline
 62
7
  6
CONTINUOUS
 70
0
 71
3
 72
20
 73
16
 74
0
 42
0.0000001
 43
0.0000001
 44
0.0000000001
 40
0.0
 40
0.0
 40
0.0
 40
0.0
 40
0.0428745183
 40
0.0858710348
 40
0.1303908998
 40
0.1774989473
 40
0.2279016255
 40
0.2820166052
 40
0.3400456122
 40
0.4020509599
 40
0.5371951769
 40
0.6096045543
 40
0.6845344431
 40
0.8400341602
 40
1.0
 40
1.0
 40
1.0
 40
1.0
 10
9.0664698386
 20
11.173486033
 30
0.0
 10
9.0667768207
 20
11.1736373084
 30
0.0
 10
9.0673614102
 20
11.1740077826
 30
0.0
 10
9.0680991726
 20
11.1747534589
 30
0.0
 10
9.0686814778
 20
11.1756650401
 30
0.0
 10
9.0691097151
 20
11.1767205347
 30
0.0
 10
9.0693849841
 20
11.1779034619
 30
0.0
 10
9.0695077877
 20
11.1791984361
 30
0.0
 10
9.0694779426
 20
11.1805909954
 30
0.0
 10
9.0692243633
 20
11.1826150392
 30
0.0
 10
9.0686541407
 20
11.184701883
 30
0.0
 10
9.0678386589
 20
11.1868048032
 30
0.0
 10
9.0668212199
 20
11.1889993907
 30
0.0
 10
9.0652578666
 20
11.1917031674
 30
0.0
 10
9.0637555123
 20
11.1937322933
 30
0.0
 10
9.0629347355
 20
11.1947104192
 30
0.0
  0
SPLINE
  5
3B8
100
AcDbEntity
  8
0
100
AcDbSpline
 62
7
  6
CONTINUOUS
 70
0
 71
3
 72
20
 73
16
 74
0
 42
0.0000001
 43
0.0000001
 44
0.0000000001
 40
0.0
 40
0.0
 40
0.0
 40
0.0
 40
0.1599658398
 40
0.3154655569
 40
0.3903954457
 40
0.4628048231
 40
0.5979490401
 40
0.6599543878
 40
0.7179833948
 40
0.7720983745
 40
0.8225010527
 40
0.8696091002
 40
0.9141289652
 40
0.9571254817
 40
1.0
 40
1.0
 40
1.0
 40
1.0
 10
8.3173011083
 20
12.0833219732
 30
0.0
 10
8.3164803687
 20
12.0843001303
 30
0.0
 10
8.3147429509
 20
12.0861320145
 30
0.0
 10
8.3123517241
 20
12.0881411228
 30
0.0
 10
8.3103671537
 20
12.0895241908
 30
0.0
 10
8.3084377885
 20
12.0906924518
 30
0.0
 10
8.3064816667
 20
12.0916163881
 30
0.0
 10
8.3045324063
 20
12.0922175865
 30
0.0
 10
8.3031661856
 20
12.0924887935
 30
0.0
 10
8.3018695604
 20
12.0925927255
 30
0.0
 10
8.3006568045
 20
12.0925270516
 30
0.0
 10
8.2995429826
 20
12.0922886049
 30
0.0
 10
8.2985441342
 20
12.0918734407
 30
0.0
 10
8.2976816753
 20
12.0912763719
 30
0.0
 10
8.2972153164
 20
12.0907649958
 30
0.0
 10
8.2970130324
 20
12.0904889461
 30
0.0
  0
SPLINE
  5
3B9
100
AcDbEntity
  8
0
100
AcDbSpline
 62
7
  6
CONTINUOUS
 70
0
 71
3
 72
20
 73
16
 74
0
 42
0.0000001
 43
0.0000001
 44
0.0000000001
 40
0.0
 40
0.0
 40
0.0
 40
0.0
 40
0.0428745183
 40
0.0858710348
 40
0.1303908998
 40
0.1774989473
 40
0.2279016255
 40
0.2820166052
 40
0.3400456122
 40
0.4020509599
 40
0.5371951769
 40
0.6096045543
 40
0.6845344431
 40
0.8400341602
 40
1.0
 40
1.0
 40
1.0
 40
1.0
 10
8.8800614318
 20
11.3956389215
 30
0.0
 10
8.8803684139
 20
11.3957901969
 30
0.0
 10
8.8809530034
 20
11.3961606711
 30
0.0
 10
8.8816907658
 20
11.3969063474
 30
0.0
 10
8.882273071
 20
11.3978179286
 30
0.0
 10
8.8827013082
 20
11.3988734232
 30
0.0
 10
8.8829765773
 20
11.4000563504
 30
0.0
 10
8.8830993809
 20
11.4013513246
 30
0.0
 10
8.8830695358
 20
11.4027438839
 30
0.0
 10
8.8828159565
 20
11.4047679277
 30
0.0
 10
8.8822457338
 20
11.4068547715
 30
0.0
 10
8.8814302521
 20
11.4089576917
 30
0.0
 10
8.880412813
 20
11.4111522792
 30
0.0
 10
8.8788494598
 20
11.4138560559
 30
0.0
 10
8.8773471055
 20
11.4158851818
 30
0.0
 10
8.8765263287
 20
11.4168633077
 30
0.0
  0
SPLINE
  5
3BA
100
AcDbEntity
  8
0
100
AcDbSpline
 62
7
  6
CONTINUOUS
 70
0
 71
3
 72
20
 73
16
 74
0
 42
0.0000001
 43
0.0000001
 44
0.0000000001
 40
0.0
 40
0.0
 40
0.0
 40
0.0
 40
0.0428745183
 40
0.0858710348
 40
0.1303908998
 40
0.1774989473
 40
0.2279016255
 40
0.2820166052
 40
0.3400456122
 40
0.4020509599
 40
0.5371951769
 40
0.6096045543
 40
0.6845344431
 40
0.8400341602
 40
1.0
 40
1.0
 40
1.0
 40
1.0
 10
8.6936530249
 20
11.61779181
 30
0.0
 10
8.6939600071
 20
11.6179430854
 30
0.0
 10
8.6945445966
 20
11.6183135596
 30
0.0
 10
8.695282359
 20
11.6190592359
 30
0.0
 10
8.6958646642
 20
11.6199708171
 30
0.0
 10
8.6962929014
 20
11.6210263117
 30
0.0
 10
8.6965681705
 20
11.6222092389
 30
0.0
 10
8.6966909741
 20
11.6235042131
 30
0.0
 10
8.696661129
 20
11.6248967724
 30
0.0
 10
8.6964075497
 20
11.6269208162
 30
0.0
 10
8.695837327
 20
11.62900766
 30
0.0
 10
8.6950218453
 20
11.6311105802
 30
0.0
 10
8.6940044062
 20
11.6333051677
 30
0.0
 10
8.692441053
 20
11.6360089444
 30
0.0
 10
8.6909386987
 20
11.6380380703
 30
0.0
 10
8.6901179219
 20
11.6390161962
 30
0.0
  0
SPLINE
  5
3BB
100
AcDbEntity
  8
0
100
AcDbSpline
 62
7
  6
CONTINUOUS
 70
0
 71
3
 72
20
 73
16
 74
0
 42
0.0000001
 43
0.0000001
 44
0.0000000001
 40
0.0
 40
0.0
 40
0.0
 40
0.0
 40
0.1599658398
 40
0.3154655569
 40
0.3903954457
 40
0.4628048231
 40
0.5979490401
 40
0.6599543878
 40
0.7179833948
 40
0.7720983745
 40
0.8225010527
 40
0.8696091002
 40
0.9141289652
 40
0.9571254817
 40
1.0
 40
1.0
 40
1.0
 40
1.0
 10
8.5037095151
 20
11.8611690847
 30
0.0
 10
8.5028887755
 20
11.8621472418
 30
0.0
 10
8.5011513577
 20
11.863979126
 30
0.0
 10
8.4987601309
 20
11.8659882343
 30
0.0
 10
8.4967755605
 20
11.8673713023
 30
0.0
 10
8.4948461953
 20
11.8685395633
 30
0.0
 10
8.4928900735
 20
11.8694634996
 30
0.0
 10
8.4909408131
 20
11.870064698
 30
0.0
 10
8.4895745924
 20
11.870335905
 30
0.0
 10
8.4882779672
 20
11.870439837
 30
0.0
 10
8.4870652113
 20
11.8703741631
 30
0.0
 10
8.4859513894
 20
11.8701357164
 30
0.0
 10
8.484952541
 20
11.8697205522
 30
0.0
 10
8.4840900821
 20
11.8691234834
 30
0.0
 10
8.4836237232
 20
11.8686121073
 30
0.0
 10
8.4834214392
 20
11.8683360576
 30
0.0
  0
SPLINE
  5
3BC
100
AcDbEntity
  8
0
100
AcDbSpline
 62
7
  6
CONTINUOUS
 70
0
 71
3
 72
20
 73
16
 74
0
 42
0.0000001
 43
0.0000001
 44
0.0000000001
 40
0.0
 40
0.0
 40
0.0
 40
0.0
 40
0.0428745183
 40
0.0858710348
 40
0.1303908998
 40
0.1774989473
 40
0.2279016255
 40
0.2820166052
 40
0.3400456122
 40
0.4020509599
 40
0.5371951769
 40
0.6096045543
 40
0.6845344431
 40
0.8400341602
 40
1.0
 40
1.0
 40
1.0
 40
1.0
 10
8.5072446181
 20
11.8399446985
 30
0.0
 10
8.5075516003
 20
11.8400959739
 30
0.0
 10
8.5081361898
 20
11.8404664481
 30
0.0
 10
8.5088739522
 20
11.8412121244
 30
0.0
 10
8.5094562574
 20
11.8421237056
 30
0.0
 10
8.5098844946
 20
11.8431792002
 30
0.0
 10
8.5101597637
 20
11.8443621274
 30
0.0
 10
8.5102825672
 20
11.8456571016
 30
0.0
 10
8.5102527222
 20
11.8470496609
 30
0.0
 10
8.5099991429
 20
11.8490737048
 30
0.0
 10
8.5094289202
 20
11.8511605485
 30
0.0
 10
8.5086134384
 20
11.8532634687
 30
0.0
 10
8.5075959994
 20
11.8554580562
 30
0.0
 10
8.5060326462
 20
11.858161833
 30
0.0
 10
8.5045302919
 20
11.8601909588
 30
0.0
 10
8.5037095151
 20
11.8611690847
 30
0.0
  0
SPLINE
  5
3BD
100
AcDbEntity
  8
0
100
AcDbSpline
 62
7
  6
CONTINUOUS
 70
0
 71
3
 72
20
 73
16
 74
0
 42
0.0000001
 43
0.0000001
 44
0.0000000001
 40
0.0
 40
0.0
 40
0.0
 40
0.0
 40
0.0428745183
 40
0.0858710348
 40
0.1303908998
 40
0.1774989473
 40
0.2279016255
 40
0.2820166052
 40
0.3400456122
 40
0.4020509599
 40
0.5371951769
 40
0.6096045543
 40
0.6845344431
 40
0.8400341602
 40
1.0
 40
1.0
 40
1.0
 40
1.0
 10
8.3208362113
 20
12.062097587
 30
0.0
 10
8.3211431935
 20
12.0622488624
 30
0.0
 10
8.321727783
 20
12.0626193366
 30
0.0
 10
8.3224655453
 20
12.0633650129
 30
0.0
 10
8.3230478506
 20
12.0642765941
 30
0.0
 10
8.3234760878
 20
12.0653320887
 30
0.0
 10
8.3237513568
 20
12.0665150159
 30
0.0
 10
8.3238741604
 20
12.0678099901
 30
0.0
 10
8.3238443154
 20
12.0692025494
 30
0.0
 10
8.3235907361
 20
12.0712265933
 30
0.0
 10
8.3230205134
 20
12.073313437
 30
0.0
 10
8.3222050316
 20
12.0754163572
 30
0.0
 10
8.3211875926
 20
12.0776109447
 30
0.0
 10
8.3196242394
 20
12.0803147215
 30
0.0
 10
8.3181218851
 20
12.0823438473
 30
0.0
 10
8.3173011083
 20
12.0833219732
 30
0.0
  0
SPLINE
  5
3BE
100
AcDbEntity
  8
0
100
AcDbSpline
 62
7
  6
CONTINUOUS
 70
0
 71
3
 72
20
 73
16
 74
0
 42
0.0000001
 43
0.0000001
 44
0.0000000001
 40
0.0
 40
0.0
 40
0.0
 40
0.0
 40
0.0428745183
 40
0.0858710348
 40
0.1303908998
 40
0.1774989473
 40
0.2279016255
 40
0.2820166052
 40
0.3400456122
 40
0.4020509599
 40
0.5371951769
 40
0.6096045543
 40
0.6845344431
 40
0.8400341602
 40
1.0
 40
1.0
 40
1.0
 40
1.0
 10
8.1344278045
 20
12.2842504755
 30
0.0
 10
8.1347347866
 20
12.2844017509
 30
0.0
 10
8.1353193761
 20
12.2847722251
 30
0.0
 10
8.1360571385
 20
12.2855179014
 30
0.0
 10
8.1366394438
 20
12.2864294826
 30
0.0
 10
8.137067681
 20
12.2874849772
 30
0.0
 10
8.13734295
 20
12.2886679044
 30
0.0
 10
8.1374657536
 20
12.2899628786
 30
0.0
 10
8.1374359086
 20
12.2913554379
 30
0.0
 10
8.1371823293
 20
12.2933794818
 30
0.0
 10
8.1366121066
 20
12.2954663255
 30
0.0
 10
8.1357966248
 20
12.2975692457
 30
0.0
 10
8.1347791858
 20
12.2997638332
 30
0.0
 10
8.1332158326
 20
12.30246761
 30
0.0
 10
8.1317134782
 20
12.3044967359
 30
0.0
 10
8.1308927014
 20
12.3054748617
 30
0.0
  0
SPLINE
  5
3BF
100
AcDbEntity
  8
0
100
AcDbSpline
 62
7
  6
CONTINUOUS
 70
0
 71
3
 72
20
 73
16
 74
0
 42
0.0000001
 43
0.0000001
 44
0.0000000001
 40
0.0
 40
0.0
 40
0.0
 40
0.0
 40
0.1599658398
 40
0.3154655569
 40
0.3903954457
 40
0.4628048231
 40
0.5979490401
 40
0.6599543878
 40
0.7179833948
 40
0.7720983745
 40
0.8225010527
 40
0.8696091002
 40
0.9141289652
 40
0.9571254817
 40
1.0
 40
1.0
 40
1.0
 40
1.0
 10
8.6901179219
 20
11.6390161962
 30
0.0
 10
8.6892971824
 20
11.6399943533
 30
0.0
 10
8.6875597645
 20
11.6418262375
 30
0.0
 10
8.6851685377
 20
11.6438353458
 30
0.0
 10
8.6831839674
 20
11.6452184137
 30
0.0
 10
8.6812546021
 20
11.6463866748
 30
0.0
 10
8.6792984804
 20
11.6473106111
 30
0.0
 10
8.6773492199
 20
11.6479118095
 30
0.0
 10
8.6759829992
 20
11.6481830165
 30
0.0
 10
8.674686374
 20
11.6482869485
 30
0.0
 10
8.6734736181
 20
11.6482212746
 30
0.0
 10
8.6723597962
 20
11.6479828279
 30
0.0
 10
8.6713609478
 20
11.6475676636
 30
0.0
 10
8.6704984889
 20
11.6469705949
 30
0.0
 10
8.6700321301
 20
11.6464592188
 30
0.0
 10
8.669829846
 20
11.6461831691
 30
0.0
  0
SPLINE
  5
3C0
100
AcDbEntity
  8
0
100
AcDbSpline
 62
7
  6
CONTINUOUS
 70
0
 71
3
 72
20
 73
16
 74
0
 42
0.0000001
 43
0.0000001
 44
0.0000000001
 40
0.0
 40
0.0
 40
0.0
 40
0.0
 40
0.1599658398
 40
0.3154655569
 40
0.3903954457
 40
0.4628048231
 40
0.5979490401
 40
0.6599543878
 40
0.7179833948
 40
0.7720983745
 40
0.8225010527
 40
0.8696091002
 40
0.9141289652
 40
0.9571254817
 40
1.0
 40
1.0
 40
1.0
 40
1.0
 10
8.8765263287
 20
11.4168633077
 30
0.0
 10
8.8757055892
 20
11.4178414648
 30
0.0
 10
8.8739681713
 20
11.419673349
 30
0.0
 10
8.8715769445
 20
11.4216824573
 30
0.0
 10
8.8695923742
 20
11.4230655252
 30
0.0
 10
8.8676630089
 20
11.4242337863
 30
0.0
 10
8.8657068872
 20
11.4251577226
 30
0.0
 10
8.8637576267
 20
11.425758921
 30
0.0
 10
8.862391406
 20
11.426030128
 30
0.0
 10
8.8610947808
 20
11.42613406
 30
0.0
 10
8.8598820249
 20
11.4260683861
 30
0.0
 10
8.858768203
 20
11.4258299394
 30
0.0
 10
8.8577693546
 20
11.4254147751
 30
0.0
 10
8.8569068957
 20
11.4248177064
 30
0.0
 10
8.8564405369
 20
11.4243063303
 30
0.0
 10
8.8562382528
 20
11.4240302806
 30
0.0
  0
SPLINE
  5
3C1
100
AcDbEntity
  8
0
100
AcDbSpline
 62
7
  6
CONTINUOUS
 70
0
 71
3
 72
20
 73
16
 74
0
 42
0.0000001
 43
0.0000001
 44
0.0000000001
 40
0.0
 40
0.0
 40
0.0
 40
0.0
 40
0.1599658398
 40
0.3154655569
 40
0.3903954457
 40
0.4628048231
 40
0.5979490401
 40
0.6599543878
 40
0.7179833948
 40
0.7720983745
 40
0.8225010527
 40
0.8696091002
 40
0.9141289652
 40
0.9571254817
 40
1.0
 40
1.0
 40
1.0
 40
1.0
 10
9.0629347355
 20
11.1947104192
 30
0.0
 10
9.062113996
 20
11.1956885763
 30
0.0
 10
9.0603765782
 20
11.1975204605
 30
0.0
 10
9.0579853513
 20
11.1995295688
 30
0.0
 10
9.056000781
 20
11.2009126367
 30
0.0
 10
9.0540714158
 20
11.2020808978
 30
0.0
 10
9.052115294
 20
11.2030048341
 30
0.0
 10
9.0501660335
 20
11.2036060325
 30
0.0
 10
9.0487998128
 20
11.2038772395
 30
0.0
 10
9.0475031876
 20
11.2039811715
 30
0.0
 10
9.0462904317
 20
11.2039154976
 30
0.0
 10
9.0451766098
 20
11.2036770509
 30
0.0
 10
9.0441777614
 20
11.2032618866
 30
0.0
 10
9.0433153025
 20
11.2026648179
 30
0.0
 10
9.0428489437
 20
11.2021534418
 30
0.0
 10
9.0426466596
 20
11.2018773921
 30
0.0
  0
SPLINE
  5
3C2
100
AcDbEntity
  8
0
100
AcDbSpline
 62
7
  6
CONTINUOUS
 70
0
 71
3
 72
20
 73
16
 74
0
 42
0.0000001
 43
0.0000001
 44
0.0000000001
 40
0.0
 40
0.0
 40
0.0
 40
0.0
 40
0.1599658398
 40
0.3154655569
 40
0.3903954457
 40
0.4628048231
 40
0.5979490401
 40
0.6599543878
 40
0.7179833948
 40
0.7720983745
 40
0.8225010527
 40
0.8696091002
 40
0.9141289652
 40
0.9571254817
 40
1.0
 40
1.0
 40
1.0
 40
1.0
 10
9.2493431423
 20
10.9725575307
 30
0.0
 10
9.2485224028
 20
10.9735356878
 30
0.0
 10
9.246784985
 20
10.975367572
 30
0.0
 10
9.2443937581
 20
10.9773766803
 30
0.0
 10
9.2424091878
 20
10.9787597482
 30
0.0
 10
9.2404798226
 20
10.9799280093
 30
0.0
 10
9.2385237008
 20
10.9808519456
 30
0.0
 10
9.2365744403
 20
10.981453144
 30
0.0
 10
9.2352082196
 20
10.981724351
 30
0.0
 10
9.2339115944
 20
10.981828283
 30
0.0
 10
9.2326988385
 20
10.9817626091
 30
0.0
 10
9.2315850166
 20
10.9815241624
 30
0.0
 10
9.2305861682
 20
10.9811089981
 30
0.0
 10
9.2297237093
 20
10.9805119293
 30
0.0
 10
9.2292573505
 20
10.9800005532
 30
0.0
 10
9.2290550664
 20
10.9797245036
 30
0.0
  0
SPLINE
  5
3C3
100
AcDbEntity
  8
0
100
AcDbSpline
 62
7
  6
CONTINUOUS
 70
0
 71
3
 72
20
 73
16
 74
0
 42
0.0000001
 43
0.0000001
 44
0.0000000001
 40
0.0
 40
0.0
 40
0.0
 40
0.0
 40
0.1599658398
 40
0.3154655569
 40
0.3903954457
 40
0.4628048231
 40
0.5979490401
 40
0.6599543878
 40
0.7179833948
 40
0.7720983745
 40
0.8225010527
 40
0.8696091002
 40
0.9141289652
 40
0.9571254817
 40
1.0
 40
1.0
 40
1.0
 40
1.0
 10
9.4357515491
 20
10.7504046422
 30
0.0
 10
9.4349308096
 20
10.7513827993
 30
0.0
 10
9.4331933918
 20
10.7532146835
 30
0.0
 10
9.4308021649
 20
10.7552237918
 30
0.0
 10
9.4288175946
 20
10.7566068597
 30
0.0
 10
9.4268882294
 20
10.7577751208
 30
0.0
 10
9.4249321076
 20
10.7586990571
 30
0.0
 10
9.4229828471
 20
10.7593002555
 30
0.0
 10
9.4216166265
 20
10.7595714625
 30
0.0
 10
9.4203200012
 20
10.7596753945
 30
0.0
 10
9.4191072453
 20
10.7596097206
 30
0.0
 10
9.4179934235
 20
10.7593712739
 30
0.0
 10
9.416994575
 20
10.7589561096
 30
0.0
 10
9.4161321161
 20
10.7583590408
 30
0.0
 10
9.4156657573
 20
10.7578476647
 30
0.0
 10
9.4154634733
 20
10.7575716151
 30
0.0
  0
SPLINE
  5
3C4
100
AcDbEntity
  8
0
100
AcDbSpline
 62
7
  6
CONTINUOUS
 70
0
 71
3
 72
20
 73
16
 74
0
 42
0.0000001
 43
0.0000001
 44
0.0000000001
 40
0.0
 40
0.0
 40
0.0
 40
0.0
 40
0.1599658398
 40
0.3154655569
 40
0.3903954457
 40
0.4628048231
 40
0.5979490401
 40
0.6599543878
 40
0.7179833948
 40
0.7720983745
 40
0.8225010527
 40
0.8696091002
 40
0.9141289652
 40
0.9571254817
 40
1.0
 40
1.0
 40
1.0
 40
1.0
 10
9.6221599559
 20
10.5282517537
 30
0.0
 10
9.6213392164
 20
10.5292299108
 30
0.0
 10
9.6196017986
 20
10.531061795
 30
0.0
 10
9.6172105717
 20
10.5330709033
 30
0.0
 10
9.6152260014
 20
10.5344539712
 30
0.0
 10
9.6132966362
 20
10.5356222323
 30
0.0
 10
9.6113405144
 20
10.5365461686
 30
0.0
 10
9.6093912539
 20
10.537147367
 30
0.0
 10
9.6080250333
 20
10.537418574
 30
0.0
 10
9.606728408
 20
10.537522506
 30
0.0
 10
9.6055156521
 20
10.5374568321
 30
0.0
 10
9.6044018303
 20
10.5372183854
 30
0.0
 10
9.6034029818
 20
10.5368032211
 30
0.0
 10
9.6025405229
 20
10.5362061523
 30
0.0
 10
9.6020741641
 20
10.5356947762
 30
0.0
 10
9.6018718801
 20
10.5354187266
 30
0.0
  0
SPLINE
  5
3C5
100
AcDbEntity
  8
0
100
AcDbSpline
 62
7
  6
CONTINUOUS
 70
0
 71
3
 72
20
 73
16
 74
0
 42
0.0000001
 43
0.0000001
 44
0.0000000001
 40
0.0
 40
0.0
 40
0.0
 40
0.0
 40
0.1599658398
 40
0.3154655569
 40
0.3903954457
 40
0.4628048231
 40
0.5979490401
 40
0.6599543878
 40
0.7179833948
 40
0.7720983745
 40
0.8225010527
 40
0.8696091002
 40
0.9141289652
 40
0.9571254817
 40
1.0
 40
1.0
 40
1.0
 40
1.0
 10
9.8085683627
 20
10.3060988652
 30
0.0
 10
9.8077476232
 20
10.3070770223
 30
0.0
 10
9.8060102054
 20
10.3089089065
 30
0.0
 10
9.8036189785
 20
10.3109180148
 30
0.0
 10
9.8016344082
 20
10.3123010827
 30
0.0
 10
9.799705043
 20
10.3134693438
 30
0.0
 10
9.7977489212
 20
10.3143932801
 30
0.0
 10
9.7957996607
 20
10.3149944785
 30
0.0
 10
9.7944334401
 20
10.3152656855
 30
0.0
 10
9.7931368148
 20
10.3153696175
 30
0.0
 10
9.7919240589
 20
10.3153039436
 30
0.0
 10
9.7908102371
 20
10.3150654969
 30
0.0
 10
9.7898113886
 20
10.3146503326
 30
0.0
 10
9.7889489297
 20
10.3140532638
 30
0.0
 10
9.7884825709
 20
10.3135418877
 30
0.0
 10
9.7882802869
 20
10.3132658381
 30
0.0
  0
SPLINE
  5
3C6
100
AcDbEntity
  8
0
100
AcDbSpline
 62
7
  6
CONTINUOUS
 70
0
 71
3
 72
20
 73
16
 74
0
 42
0.0000001
 43
0.0000001
 44
0.0000000001
 40
0.0
 40
0.0
 40
0.0
 40
0.0
 40
0.1599658398
 40
0.3154655569
 40
0.3903954457
 40
0.4628048231
 40
0.5979490401
 40
0.6599543878
 40
0.7179833948
 40
0.7720983745
 40
0.8225010527
 40
0.8696091002
 40
0.9141289652
 40
0.9571254817
 40
1.0
 40
1.0
 40
1.0
 40
1.0
 10
9.9949767695
 20
10.0839459767
 30
0.0
 10
9.99415603
 20
10.0849241338
 30
0.0
 10
9.9924186122
 20
10.086756018
 30
0.0
 10
9.9900273853
 20
10.0887651263
 30
0.0
 10
9.988042815
 20
10.0901481942
 30
0.0
 10
9.9861134498
 20
10.0913164553
 30
0.0
 10
9.984157328
 20
10.0922403916
 30
0.0
 10
9.9822080675
 20
10.09284159
 30
0.0
 10
9.9808418469
 20
10.093112797
 30
0.0
 10
9.9795452216
 20
10.093216729
 30
0.0
 10
9.9783324657
 20
10.0931510551
 30
0.0
 10
9.9772186439
 20
10.0929126084
 30
0.0
 10
9.9762197954
 20
10.0924974441
 30
0.0
 10
9.9753573365
 20
10.0919003753
 30
0.0
 10
9.9748909777
 20
10.0913889992
 30
0.0
 10
9.9746886937
 20
10.0911129495
 30
0.0
  0
LINE
  5
3C7
100
AcDbEntity
  8
0
100
AcDbLine
 62
7
  6
CONTINUOUS
 10
8.0981338485
 20
12.3015193431
 11
8.0975461458
 21
12.3013176557
  0
LINE
  5
3C8
100
AcDbEntity
  8
0
100
AcDbLine
 62
7
  6
CONTINUOUS
 10
8.2845422553
 20
12.0793664546
 11
8.2839545527
 21
12.0791647672
  0
LINE
  5
3C9
100
AcDbEntity
  8
0
100
AcDbLine
 62
7
  6
CONTINUOUS
 10
8.4709506621
 20
11.8572135661
 11
8.4703629595
 21
11.8570118787
  0
LINE
  5
3CA
100
AcDbEntity
  8
0
100
AcDbLine
 62
7
  6
CONTINUOUS
 10
8.6573590689
 20
11.6350606776
 11
8.6567713663
 21
11.6348589902
  0
LINE
  5
3CB
100
AcDbEntity
  8
0
100
AcDbLine
 62
7
  6
CONTINUOUS
 10
8.8437674757
 20
11.4129077891
 11
8.8431797731
 21
11.4127061017
  0
LINE
  5
3CC
100
AcDbEntity
  8
0
100
AcDbLine
 62
7
  6
CONTINUOUS
 10
9.0301758825
 20
11.1907549006
 11
9.0295881799
 21
11.1905532132
  0
LINE
  5
3CD
100
AcDbEntity
  8
0
100
AcDbLine
 62
7
  6
CONTINUOUS
 10
9.2165842893
 20
10.9686020121
 11
9.2159965867
 21
10.9684003247
  0
LINE
  5
3CE
100
AcDbEntity
  8
0
100
AcDbLine
 62
7
  6
CONTINUOUS
 10
9.4029926961
 20
10.7464491236
 11
9.4024049935
 21
10.7462474362
  0
LINE
  5
3CF
100
AcDbEntity
  8
0
100
AcDbLine
 62
7
  6
CONTINUOUS
 10
9.5894011029
 20
10.5242962351
 11
9.5888134003
 21
10.5240945477
  0
LINE
  5
3D0
100
AcDbEntity
  8
0
100
AcDbLine
 62
7
  6
CONTINUOUS
 10
9.7758095097
 20
10.3021433466
 11
9.7752218071
 21
10.3019416592
  0
LINE
  5
3D1
100
AcDbEntity
  8
0
100
AcDbLine
 62
7
  6
CONTINUOUS
 10
9.9622179165
 20
10.0799904581
 11
9.9616302139
 21
10.0797887707
  0
SPLINE
  5
3D2
100
AcDbEntity
  8
0
100
AcDbSpline
 62
9
  6
CONTINUOUS
 70
0
 71
3
 72
18
 73
14
 74
0
 42
0.0000001
 43
0.0000001
 44
0.0000000001
 40
0.0
 40
0.0
 40
0.0
 40
0.0
 40
0.0354247367
 40
0.0699518837
 40
0.1051544522
 40
0.1425102458
 40
0.1832515351
 40
0.2283233338
 40
0.3338858205
 40
0.4627002858
 40
0.6163331441
 40
0.7953953481
 40
1.0
 40
1.0
 40
1.0
 40
1.0
 10
9.582091273
 20
10.5383608774
 30
0.0
 10
9.5821161322
 20
10.538407191
 30
0.0
 10
9.582174179
 20
10.5384942881
 30
0.0
 10
9.5822875738
 20
10.5386032369
 30
0.0
 10
9.5824243488
 20
10.5386864325
 30
0.0
 10
9.5825833781
 20
10.5387438368
 30
0.0
 10
9.5827640245
 20
10.5387759976
 30
0.0
 10
9.5830485443
 20
10.5387861953
 30
0.0
 10
9.5834618903
 20
10.538728188
 30
0.0
 10
9.5840156338
 20
10.5385668349
 30
0.0
 10
9.5846513959
 20
10.5383099422
 30
0.0
 10
9.5853672481
 20
10.537957917
 30
0.0
 10
9.5858635896
 20
10.5376785457
 30
0.0
 10
9.5861250112
 20
10.5375241815
 30
0.0
  0
SPLINE
  5
3D3
100
AcDbEntity
  8
0
100
AcDbSpline
 62
7
  6
CONTINUOUS
 70
0
 71
3
 72
19
 73
15
 74
0
 42
0.0000001
 43
0.0000001
 44
0.0000000001
 40
0.0
 40
0.0
 40
0.0
 40
0.0
 40
0.1541594623
 40
0.3051156599
 40
0.4497200537
 40
0.5186840044
 40
0.5848889376
 40
0.7075444869
 40
0.763827871
 40
0.8167622318
 40
0.8665023666
 40
0.9133124985
 40
0.9576099798
 40
1.0
 40
1.0
 40
1.0
 40
1.0
 10
9.2347979046
 20
10.9603526271
 30
0.0
 10
9.2355050964
 20
10.9595098287
 30
0.0
 10
9.2369742257
 20
10.9578984563
 30
0.0
 10
9.2393329421
 20
10.9557163545
 30
0.0
 10
9.2414012595
 20
10.9541304045
 30
0.0
 10
9.2430819142
 20
10.9530502101
 30
0.0
 10
9.2446880531
 20
10.9521512037
 30
0.0
 10
9.246301888
 20
10.9514533757
 30
0.0
 10
9.2478965823
 20
10.9510036646
 30
0.0
 10
9.2490150924
 20
10.950802399
 30
0.0
 10
9.250081812
 20
10.9507291519
 30
0.0
 10
9.251088456
 20
10.9507865793
 30
0.0
 10
9.2520254668
 20
10.9509773239
 30
0.0
 10
9.2526068787
 20
10.9511994198
 30
0.0
 10
9.2528782454
 20
10.9513331445
 30
0.0
  0
SPLINE
  5
3D4
100
AcDbEntity
  8
0
100
AcDbSpline
 62
7
  6
CONTINUOUS
 70
0
 71
3
 72
9
 73
5
 74
0
 42
0.0000001
 43
0.0000001
 44
0.0000000001
 40
0.0
 40
0.0
 40
0.0
 40
0.0
 40
0.5142238131
 40
1.0
 40
1.0
 40
1.0
 40
1.0
 10
9.2470866346
 20
10.9706640959
 30
0.0
 10
9.2482377057
 20
10.9692923027
 30
0.0
 10
9.2506307951
 20
10.9667506648
 30
0.0
 10
9.2533017949
 20
10.9645010675
 30
0.0
 10
9.2546647154
 20
10.9634989519
 30
0.0
  0
SPLINE
  5
3D5
100
AcDbEntity
  8
0
100
AcDbSpline
 62
7
  6
CONTINUOUS
 70
0
 71
3
 72
9
 73
5
 74
0
 42
0.0000001
 43
0.0000001
 44
0.0000000001
 40
0.0
 40
0.0
 40
0.0
 40
0.0
 40
0.5142238131
 40
1.0
 40
1.0
 40
1.0
 40
1.0
 10
9.2470866346
 20
10.9706640959
 30
0.0
 10
9.2459355634
 20
10.972035889
 30
0.0
 10
9.2438480944
 20
10.9748339728
 30
0.0
 10
9.2420964877
 20
10.9778550326
 30
0.0
 10
9.2413462652
 20
10.9793712628
 30
0.0
  0
SPLINE
  5
3D6
100
AcDbEntity
  8
0
100
AcDbSpline
 62
9
  6
CONTINUOUS
 70
0
 71
3
 72
18
 73
14
 74
0
 42
0.0000001
 43
0.0000001
 44
0.0000000001
 40
0.0
 40
0.0
 40
0.0
 40
0.0
 40
0.0354247367
 40
0.0699518837
 40
0.1051544522
 40
0.1425102458
 40
0.1832515351
 40
0.2283233338
 40
0.3338858205
 40
0.4627002858
 40
0.6163331441
 40
0.7953953481
 40
1.0
 40
1.0
 40
1.0
 40
1.0
 10
9.3956828662
 20
10.7605137659
 30
0.0
 10
9.3957077254
 20
10.7605600795
 30
0.0
 10
9.3957657722
 20
10.7606471766
 30
0.0
 10
9.395879167
 20
10.7607561254
 30
0.0
 10
9.396015942
 20
10.760839321
 30
0.0
 10
9.3961749713
 20
10.7608967253
 30
0.0
 10
9.3963556176
 20
10.7609288862
 30
0.0
 10
9.3966401374
 20
10.7609390838
 30
0.0
 10
9.3970534835
 20
10.7608810765
 30
0.0
 10
9.397607227
 20
10.7607197234
 30
0.0
 10
9.3982429891
 20
10.7604628307
 30
0.0
 10
9.3989588413
 20
10.7601108055
 30
0.0
 10
9.3994551828
 20
10.7598314342
 30
0.0
 10
9.3997166044
 20
10.75967707
 30
0.0
  0
SPLINE
  5
3D7
100
AcDbEntity
  8
0
100
AcDbSpline
 62
7
  6
CONTINUOUS
 70
0
 71
3
 72
19
 73
15
 74
0
 42
0.0000001
 43
0.0000001
 44
0.0000000001
 40
0.0
 40
0.0
 40
0.0
 40
0.0
 40
0.1541594623
 40
0.3051156599
 40
0.4497200537
 40
0.5186840044
 40
0.5848889376
 40
0.7075444869
 40
0.763827871
 40
0.8167622318
 40
0.8665023666
 40
0.9133124985
 40
0.9576099798
 40
1.0
 40
1.0
 40
1.0
 40
1.0
 10
9.4212063114
 20
10.7381997386
 30
0.0
 10
9.4219135032
 20
10.7373569402
 30
0.0
 10
9.4233826325
 20
10.7357455678
 30
0.0
 10
9.4257413489
 20
10.733563466
 30
0.0
 10
9.4278096663
 20
10.731977516
 30
0.0
 10
9.429490321
 20
10.7308973216
 30
0.0
 10
9.4310964599
 20
10.7299983152
 30
0.0
 10
9.4327102949
 20
10.7293004872
 30
0.0
 10
9.4343049891
 20
10.7288507761
 30
0.0
 10
9.4354234992
 20
10.7286495105
 30
0.0
 10
9.4364902188
 20
10.7285762634
 30
0.0
 10
9.4374968628
 20
10.7286336908
 30
0.0
 10
9.4384338736
 20
10.7288244354
 30
0.0
 10
9.4390152855
 20
10.7290465313
 30
0.0
 10
9.4392866522
 20
10.729180256
 30
0.0
  0
SPLINE
  5
3D8
100
AcDbEntity
  8
0
100
AcDbSpline
 62
7
  6
CONTINUOUS
 70
0
 71
3
 72
9
 73
5
 74
0
 42
0.0000001
 43
0.0000001
 44
0.0000000001
 40
0.0
 40
0.0
 40
0.0
 40
0.0
 40
0.5142238131
 40
1.0
 40
1.0
 40
1.0
 40
1.0
 10
9.4334950414
 20
10.7485112073
 30
0.0
 10
9.4346461125
 20
10.7471394142
 30
0.0
 10
9.4370392019
 20
10.7445977763
 30
0.0
 10
9.4397102017
 20
10.742348179
 30
0.0
 10
9.4410731222
 20
10.7413460634
 30
0.0
  0
SPLINE
  5
3D9
100
AcDbEntity
  8
0
100
AcDbSpline
 62
7
  6
CONTINUOUS
 70
0
 71
3
 72
9
 73
5
 74
0
 42
0.0000001
 43
0.0000001
 44
0.0000000001
 40
0.0
 40
0.0
 40
0.0
 40
0.0
 40
0.5142238131
 40
1.0
 40
1.0
 40
1.0
 40
1.0
 10
9.4334950414
 20
10.7485112073
 30
0.0
 10
9.4323439702
 20
10.7498830005
 30
0.0
 10
9.4302565012
 20
10.7526810843
 30
0.0
 10
9.4285048945
 20
10.7557021441
 30
0.0
 10
9.427754672
 20
10.7572183743
 30
0.0
  0
SPLINE
  5
3DA
100
AcDbEntity
  8
0
100
AcDbSpline
 62
9
  6
CONTINUOUS
 70
0
 71
3
 72
19
 73
15
 74
0
 42
0.0000001
 43
0.0000001
 44
0.0000000001
 40
0.0
 40
0.0
 40
0.0
 40
0.0
 40
0.0463215015
 40
0.0921786737
 40
0.1384766779
 40
0.1860191467
 40
0.2872164488
 40
0.3420283548
 40
0.4000569826
 40
0.4615564614
 40
0.526726232
 40
0.6685510195
 40
0.8263843709
 40
1.0
 40
1.0
 40
1.0
 40
1.0
 10
9.7752360589
 20
10.3287720679
 30
0.0
 10
9.7755321305
 20
10.3293242631
 30
0.0
 10
9.776207356
 20
10.3303796918
 30
0.0
 10
9.7774582699
 20
10.3317836918
 30
0.0
 10
9.7789233305
 20
10.3329887554
 30
0.0
 10
9.7811892439
 20
10.3343549251
 30
0.0
 10
9.7838187342
 20
10.3352762763
 30
0.0
 10
9.7866717893
 20
10.335783349
 30
0.0
 10
9.7890272512
 20
10.3359632111
 30
0.0
 10
9.7915283604
 20
10.3359251018
 30
0.0
 10
9.7951456766
 20
10.335562907
 30
0.0
 10
9.799980402
 20
10.3344734292
 30
0.0
 10
9.8059743531
 20
10.3321697543
 30
0.0
 10
9.8099055576
 20
10.3299763801
 30
0.0
 10
9.8118723501
 20
10.3286931669
 30
0.0
  0
SPLINE
  5
3DB
100
AcDbEntity
  8
0
100
AcDbSpline
 62
7
  6
CONTINUOUS
 70
0
 71
3
 72
19
 73
15
 74
0
 42
0.0000001
 43
0.0000001
 44
0.0000000001
 40
0.0
 40
0.0
 40
0.0
 40
0.0
 40
0.1541594623
 40
0.3051156599
 40
0.4497200537
 40
0.5186840044
 40
0.5848889376
 40
0.7075444869
 40
0.763827871
 40
0.8167622318
 40
0.8665023666
 40
0.9133124985
 40
0.9576099798
 40
1.0
 40
1.0
 40
1.0
 40
1.0
 10
9.6076147182
 20
10.5160468501
 30
0.0
 10
9.6083219101
 20
10.5152040517
 30
0.0
 10
9.6097910393
 20
10.5135926793
 30
0.0
 10
9.6121497557
 20
10.5114105775
 30
0.0
 10
9.6142180732
 20
10.5098246275
 30
0.0
 10
9.6158987278
 20
10.5087444331
 30
0.0
 10
9.6175048667
 20
10.5078454267
 30
0.0
 10
9.6191187017
 20
10.5071475987
 30
0.0
 10
9.620713396
 20
10.5066978876
 30
0.0
 10
9.621831906
 20
10.5064966219
 30
0.0
 10
9.6228986256
 20
10.5064233749
 30
0.0
 10
9.6239052697
 20
10.5064808023
 30
0.0
 10
9.6248422804
 20
10.5066715469
 30
0.0
 10
9.6254236923
 20
10.5068936428
 30
0.0
 10
9.625695059
 20
10.5070273675
 30
0.0
  0
SPLINE
  5
3DC
100
AcDbEntity
  8
0
100
AcDbSpline
 62
7
  6
CONTINUOUS
 70
0
 71
3
 72
9
 73
5
 74
0
 42
0.0000001
 43
0.0000001
 44
0.0000000001
 40
0.0
 40
0.0
 40
0.0
 40
0.0
 40
0.5142238131
 40
1.0
 40
1.0
 40
1.0
 40
1.0
 10
9.6199034482
 20
10.5263583188
 30
0.0
 10
9.6210545193
 20
10.5249865257
 30
0.0
 10
9.6234476087
 20
10.5224448878
 30
0.0
 10
9.6261186086
 20
10.5201952904
 30
0.0
 10
9.627481529
 20
10.5191931749
 30
0.0
  0
SPLINE
  5
3DD
100
AcDbEntity
  8
0
100
AcDbSpline
 62
7
  6
CONTINUOUS
 70
0
 71
3
 72
9
 73
5
 74
0
 42
0.0000001
 43
0.0000001
 44
0.0000000001
 40
0.0
 40
0.0
 40
0.0
 40
0.0
 40
0.5142238131
 40
1.0
 40
1.0
 40
1.0
 40
1.0
 10
9.6199034482
 20
10.5263583188
 30
0.0
 10
9.6187523771
 20
10.527730112
 30
0.0
 10
9.616664908
 20
10.5305281958
 30
0.0
 10
9.6149133013
 20
10.5335492556
 30
0.0
 10
9.6141630788
 20
10.5350654858
 30
0.0
  0
SPLINE
  5
3DE
100
AcDbEntity
  8
0
100
AcDbSpline
 62
7
  6
CONTINUOUS
 70
0
 71
3
 72
19
 73
15
 74
0
 42
0.0000001
 43
0.0000001
 44
0.0000000001
 40
0.0
 40
0.0
 40
0.0
 40
0.0
 40
0.1541594623
 40
0.3051156599
 40
0.4497200537
 40
0.5186840044
 40
0.5848889376
 40
0.7075444869
 40
0.763827871
 40
0.8167622318
 40
0.8665023666
 40
0.9133124985
 40
0.9576099798
 40
1.0
 40
1.0
 40
1.0
 40
1.0
 10
9.794023125
 20
10.2938939616
 30
0.0
 10
9.7947303169
 20
10.2930511632
 30
0.0
 10
9.7961994461
 20
10.2914397908
 30
0.0
 10
9.7985581625
 20
10.289257689
 30
0.0
 10
9.80062648
 20
10.287671739
 30
0.0
 10
9.8023071346
 20
10.2865915446
 30
0.0
 10
9.8039132735
 20
10.2856925382
 30
0.0
 10
9.8055271085
 20
10.2849947102
 30
0.0
 10
9.8071218028
 20
10.2845449991
 30
0.0
 10
9.8082403128
 20
10.2843437334
 30
0.0
 10
9.8093070324
 20
10.2842704864
 30
0.0
 10
9.8103136765
 20
10.2843279137
 30
0.0
 10
9.8112506872
 20
10.2845186584
 30
0.0
 10
9.8118320991
 20
10.2847407543
 30
0.0
 10
9.8121034658
 20
10.284874479
 30
0.0
  0
SPLINE
  5
3DF
100
AcDbEntity
  8
0
100
AcDbSpline
 62
7
  6
CONTINUOUS
 70
0
 71
3
 72
9
 73
5
 74
0
 42
0.0000001
 43
0.0000001
 44
0.0000000001
 40
0.0
 40
0.0
 40
0.0
 40
0.0
 40
0.5142238131
 40
1.0
 40
1.0
 40
1.0
 40
1.0
 10
9.806311855
 20
10.3042054303
 30
0.0
 10
9.8074629261
 20
10.3028336372
 30
0.0
 10
9.8098560155
 20
10.3002919993
 30
0.0
 10
9.8125270154
 20
10.2980424019
 30
0.0
 10
9.8138899358
 20
10.2970402864
 30
0.0
  0
SPLINE
  5
3E0
100
AcDbEntity
  8
0
100
AcDbSpline
 62
7
  6
CONTINUOUS
 70
0
 71
3
 72
9
 73
5
 74
0
 42
0.0000001
 43
0.0000001
 44
0.0000000001
 40
0.0
 40
0.0
 40
0.0
 40
0.0
 40
0.5142238131
 40
1.0
 40
1.0
 40
1.0
 40
1.0
 10
9.806311855
 20
10.3042054303
 30
0.0
 10
9.8051607839
 20
10.3055772235
 30
0.0
 10
9.8030733148
 20
10.3083753073
 30
0.0
 10
9.8013217081
 20
10.3113963671
 30
0.0
 10
9.8005714856
 20
10.3129125973
 30
0.0
  0
SPLINE
  5
3E1
100
AcDbEntity
  8
0
100
AcDbSpline
 62
9
  6
CONTINUOUS
 70
0
 71
3
 72
18
 73
14
 74
0
 42
0.0000001
 43
0.0000001
 44
0.0000000001
 40
0.0
 40
0.0
 40
0.0
 40
0.0
 40
0.0354247367
 40
0.0699518837
 40
0.1051544522
 40
0.1425102458
 40
0.1832515351
 40
0.2283233338
 40
0.3338858205
 40
0.4627002858
 40
0.6163331441
 40
0.7953953481
 40
1.0
 40
1.0
 40
1.0
 40
1.0
 10
9.2092744594
 20
10.9826666544
 30
0.0
 10
9.2092993186
 20
10.982712968
 30
0.0
 10
9.2093573654
 20
10.9828000651
 30
0.0
 10
9.2094707602
 20
10.9829090139
 30
0.0
 10
9.2096075352
 20
10.9829922095
 30
0.0
 10
9.2097665645
 20
10.9830496138
 30
0.0
 10
9.2099472108
 20
10.9830817747
 30
0.0
 10
9.2102317306
 20
10.9830919723
 30
0.0
 10
9.2106450767
 20
10.983033965
 30
0.0
 10
9.2111988202
 20
10.9828726119
 30
0.0
 10
9.2118345823
 20
10.9826157192
 30
0.0
 10
9.2125504345
 20
10.982263694
 30
0.0
 10
9.213046776
 20
10.9819843227
 30
0.0
 10
9.2133081976
 20
10.9818299585
 30
0.0
  0
SPLINE
  5
3E2
100
AcDbEntity
  8
0
100
AcDbSpline
 62
9
  6
CONTINUOUS
 70
0
 71
3
 72
19
 73
15
 74
0
 42
0.0000001
 43
0.0000001
 44
0.0000000001
 40
0.0
 40
0.0
 40
0.0
 40
0.0
 40
0.0463214999
 40
0.0921786705
 40
0.1384766732
 40
0.1860191409
 40
0.2872164413
 40
0.342028347
 40
0.4000569747
 40
0.4615564537
 40
0.5267262248
 40
0.6685510141
 40
0.826384368
 40
1.0
 40
1.0
 40
1.0
 40
1.0
 10
9.5888276521
 20
10.5509249564
 30
0.0
 10
9.5891237237
 20
10.5514771517
 30
0.0
 10
9.5897989493
 20
10.5525325804
 30
0.0
 10
9.5910498633
 20
10.5539365805
 30
0.0
 10
9.592514924
 20
10.5551416441
 30
0.0
 10
9.5947808377
 20
10.556507814
 30
0.0
 10
9.5974103283
 20
10.557429165
 30
0.0
 10
9.6002633838
 20
10.5579362376
 30
0.0
 10
9.6026188459
 20
10.5581160997
 30
0.0
 10
9.6051199554
 20
10.5580779902
 30
0.0
 10
9.608737272
 20
10.5577157951
 30
0.0
 10
9.6135719979
 20
10.5566263169
 30
0.0
 10
9.6195659497
 20
10.5543226414
 30
0.0
 10
9.6234971544
 20
10.5521292663
 30
0.0
 10
9.6254639471
 20
10.550846053
 30
0.0
  0
SPLINE
  5
3E3
100
AcDbEntity
  8
0
100
AcDbSpline
 62
7
  6
CONTINUOUS
 70
0
 71
3
 72
19
 73
15
 74
0
 42
0.0000001
 43
0.0000001
 44
0.0000000001
 40
0.0
 40
0.0
 40
0.0
 40
0.0
 40
0.1541594623
 40
0.3051156599
 40
0.4497200537
 40
0.5186840044
 40
0.5848889376
 40
0.7075444869
 40
0.763827871
 40
0.8167622318
 40
0.8665023666
 40
0.9133124985
 40
0.9576099798
 40
1.0
 40
1.0
 40
1.0
 40
1.0
 10
9.9804315319
 20
10.0717410731
 30
0.0
 10
9.9811387237
 20
10.0708982747
 30
0.0
 10
9.9826078529
 20
10.0692869023
 30
0.0
 10
9.9849665693
 20
10.0671048005
 30
0.0
 10
9.9870348868
 20
10.0655188505
 30
0.0
 10
9.9887155414
 20
10.0644386561
 30
0.0
 10
9.9903216803
 20
10.0635396497
 30
0.0
 10
9.9919355153
 20
10.0628418217
 30
0.0
 10
9.9935302096
 20
10.0623921106
 30
0.0
 10
9.9946487196
 20
10.0621908449
 30
0.0
 10
9.9957154392
 20
10.0621175979
 30
0.0
 10
9.9967220833
 20
10.0621750252
 30
0.0
 10
9.997659094
 20
10.0623657699
 30
0.0
 10
9.9982405059
 20
10.0625878658
 30
0.0
 10
9.9985118726
 20
10.0627215905
 30
0.0
  0
SPLINE
  5
3E4
100
AcDbEntity
  8
0
100
AcDbSpline
 62
7
  6
CONTINUOUS
 70
0
 71
3
 72
9
 73
5
 74
0
 42
0.0000001
 43
0.0000001
 44
0.0000000001
 40
0.0
 40
0.0
 40
0.0
 40
0.0
 40
0.5142238131
 40
1.0
 40
1.0
 40
1.0
 40
1.0
 10
9.9927202618
 20
10.0820525418
 30
0.0
 10
9.9938713329
 20
10.0806807487
 30
0.0
 10
9.9962644223
 20
10.0781391108
 30
0.0
 10
9.9989354222
 20
10.0758895134
 30
0.0
 10
10.0002983426
 20
10.0748873979
 30
0.0
  0
SPLINE
  5
3E5
100
AcDbEntity
  8
0
100
AcDbSpline
 62
7
  6
CONTINUOUS
 70
0
 71
3
 72
9
 73
5
 74
0
 42
0.0000001
 43
0.0000001
 44
0.0000000001
 40
0.0
 40
0.0
 40
0.0
 40
0.0
 40
0.5142238131
 40
1.0
 40
1.0
 40
1.0
 40
1.0
 10
9.9927202618
 20
10.0820525418
 30
0.0
 10
9.9915691907
 20
10.083424335
 30
0.0
 10
9.9894817216
 20
10.0862224188
 30
0.0
 10
9.9877301149
 20
10.0892434786
 30
0.0
 10
9.9869798924
 20
10.0907597088
 30
0.0
  0
SPLINE
  5
3E6
100
AcDbEntity
  8
0
100
AcDbSpline
 62
7
  6
CONTINUOUS
 70
0
 71
3
 72
23
 73
19
 74
0
 42
0.0000001
 43
0.0000001
 44
0.0000000001
 40
0.0
 40
0.0
 40
0.0
 40
0.0
 40
0.1904276749
 40
0.3705665337
 40
0.4552185358
 40
0.5354148918
 40
0.6104482876
 40
0.6796780496
 40
0.7427128443
 40
0.7992790911
 40
0.8492045985
 40
0.8923382843
 40
0.9286002663
 40
0.9580854914
 40
0.9704412476
 40
0.9813603194
 40
0.9910833725
 40
1.0
 40
1.0
 40
1.0
 40
1.0
 10
8.1088773778
 20
12.2835227029
 30
0.0
 10
8.1095536519
 20
12.2827510779
 30
0.0
 10
8.1108883092
 20
12.2812657451
 30
0.0
 10
8.1125763008
 20
12.2794856971
 30
0.0
 10
8.113888518
 20
12.2781690341
 30
0.0
 10
8.1148179249
 20
12.2772707116
 30
0.0
 10
8.1157059127
 20
12.276449481
 30
0.0
 10
8.1165460834
 20
12.2757132668
 30
0.0
 10
8.1173323621
 20
12.2750672432
 30
0.0
 10
8.1180602976
 20
12.2745149944
 30
0.0
 10
8.1187256998
 20
12.2740591772
 30
0.0
 10
8.1193249139
 20
12.2737021498
 30
0.0
 10
8.1198538898
 20
12.2734467801
 30
0.0
 10
8.1202552795
 20
12.2733126629
 30
0.0
 10
8.1205367431
 20
12.2732681461
 30
0.0
 10
8.1207152864
 20
12.2732652861
 30
0.0
 10
8.1208733961
 20
12.2732920415
 30
0.0
 10
8.1209669015
 20
12.2733320647
 30
0.0
 10
8.121008084
 20
12.2733568067
 30
0.0
  0
SPLINE
  5
3E7
100
AcDbEntity
  8
0
100
AcDbSpline
 62
9
  6
CONTINUOUS
 70
0
 71
3
 72
18
 73
14
 74
0
 42
0.0000001
 43
0.0000001
 44
0.0000000001
 40
0.0
 40
0.0
 40
0.0
 40
0.0
 40
0.0354247367
 40
0.0699518837
 40
0.1051544522
 40
0.1425102458
 40
0.1832515351
 40
0.2283233338
 40
0.3338858205
 40
0.4627002858
 40
0.6163331441
 40
0.7953953481
 40
1.0
 40
1.0
 40
1.0
 40
1.0
 10
9.0228660526
 20
11.2048195429
 30
0.0
 10
9.0228909118
 20
11.2048658565
 30
0.0
 10
9.0229489586
 20
11.2049529536
 30
0.0
 10
9.0230623533
 20
11.2050619024
 30
0.0
 10
9.0231991284
 20
11.205145098
 30
0.0
 10
9.0233581576
 20
11.2052025023
 30
0.0
 10
9.023538804
 20
11.2052346632
 30
0.0
 10
9.0238233238
 20
11.2052448608
 30
0.0
 10
9.0242366699
 20
11.2051868535
 30
0.0
 10
9.0247904133
 20
11.2050255004
 30
0.0
 10
9.0254261755
 20
11.2047686077
 30
0.0
 10
9.0261420277
 20
11.2044165825
 30
0.0
 10
9.0266383692
 20
11.2041372112
 30
0.0
 10
9.0268997908
 20
11.203982847
 30
0.0
  0
SPLINE
  5
3E8
100
AcDbEntity
  8
0
100
AcDbSpline
 62
9
  6
CONTINUOUS
 70
0
 71
3
 72
18
 73
14
 74
0
 42
0.0000001
 43
0.0000001
 44
0.0000000001
 40
0.0
 40
0.0
 40
0.0
 40
0.0
 40
0.2046214801
 40
0.3836951187
 40
0.5373343221
 40
0.666148748
 40
0.7717029822
 40
0.8167681691
 40
0.8575023765
 40
0.8948513947
 40
0.9300488172
 40
0.9645740378
 40
1.0
 40
1.0
 40
1.0
 40
1.0
 10
8.1337663266
 20
12.2683786824
 30
0.0
 10
8.1338730548
 20
12.268094304
 30
0.0
 10
8.1340621832
 20
12.2675567588
 30
0.0
 10
8.1342846649
 20
12.2667902817
 30
0.0
 10
8.1344272865
 20
12.2661192558
 30
0.0
 10
8.1344900812
 20
12.2655456741
 30
0.0
 10
8.1344754617
 20
12.2651283804
 30
0.0
 10
8.1344160031
 20
12.2648498668
 30
0.0
 10
8.1343529417
 20
12.2646775068
 30
0.0
 10
8.1342687557
 20
12.2645308337
 30
0.0
 10
8.1341630125
 20
12.264410573
 30
0.0
 10
8.1340359485
 20
12.2643178306
 30
0.0
 10
8.1339400403
 20
12.2642758082
 30
0.0
 10
8.1338900848
 20
12.2642593799
 30
0.0
  0
SPLINE
  5
3E9
100
AcDbEntity
  8
0
100
AcDbSpline
 62
7
  6
CONTINUOUS
 70
0
 71
3
 72
23
 73
19
 74
0
 42
0.0000001
 43
0.0000001
 44
0.0000000001
 40
0.0
 40
0.0
 40
0.0
 40
0.0
 40
0.1904276749
 40
0.3705665337
 40
0.4552185358
 40
0.5354148918
 40
0.6104482876
 40
0.6796780496
 40
0.7427128443
 40
0.7992790911
 40
0.8492045985
 40
0.8923382843
 40
0.9286002663
 40
0.9580854914
 40
0.9704412476
 40
0.9813603194
 40
0.9910833725
 40
1.0
 40
1.0
 40
1.0
 40
1.0
 10
8.2952857846
 20
12.0613698144
 30
0.0
 10
8.2959620587
 20
12.0605981894
 30
0.0
 10
8.297296716
 20
12.0591128566
 30
0.0
 10
8.2989847076
 20
12.0573328086
 30
0.0
 10
8.3002969248
 20
12.0560161456
 30
0.0
 10
8.3012263318
 20
12.0551178231
 30
0.0
 10
8.3021143195
 20
12.0542965925
 30
0.0
 10
8.3029544902
 20
12.0535603783
 30
0.0
 10
8.3037407689
 20
12.0529143547
 30
0.0
 10
8.3044687044
 20
12.0523621059
 30
0.0
 10
8.3051341067
 20
12.0519062887
 30
0.0
 10
8.3057333207
 20
12.0515492613
 30
0.0
 10
8.3062622966
 20
12.0512938916
 30
0.0
 10
8.3066636863
 20
12.0511597743
 30
0.0
 10
8.3069451499
 20
12.0511152576
 30
0.0
 10
8.3071236932
 20
12.0511123976
 30
0.0
 10
8.3072818029
 20
12.051139153
 30
0.0
 10
8.3073753083
 20
12.0511791762
 30
0.0
 10
8.3074164908
 20
12.0512039182
 30
0.0
  0
SPLINE
  5
3EA
100
AcDbEntity
  8
0
100
AcDbSpline
 62
9
  6
CONTINUOUS
 70
0
 71
3
 72
19
 73
15
 74
0
 42
0.0000001
 43
0.0000001
 44
0.0000000001
 40
0.0
 40
0.0
 40
0.0
 40
0.0
 40
0.1736155984
 40
0.3314488577
 40
0.4732735633
 40
0.5384433466
 40
0.5999427365
 40
0.657971286
 40
0.7127832217
 40
0.8139806243
 40
0.8615232562
 40
0.9078216764
 40
0.9536790675
 40
1.0
 40
1.0
 40
1.0
 40
1.0
 10
8.1537174705
 20
12.3048052091
 30
0.0
 10
8.1546396555
 20
12.3026454669
 30
0.0
 10
8.1561170752
 20
12.2983931147
 30
0.0
 10
8.1573448924
 20
12.2920901933
 30
0.0
 10
8.1575782995
 20
12.2871397322
 30
0.0
 10
8.157306826
 20
12.2835144795
 30
0.0
 10
8.156910065
 20
12.2810447484
 30
0.0
 10
8.1563239227
 20
12.2787563018
 30
0.0
 10
8.1553291186
 20
12.2760346436
 30
0.0
 10
8.1539651569
 20
12.2736050875
 30
0.0
 10
8.1522262603
 20
12.2716108259
 30
0.0
 10
8.1507850848
 20
12.270377279
 30
0.0
 10
8.1491851955
 20
12.2693891702
 30
0.0
 10
8.148028556
 20
12.2689074712
 30
0.0
 10
8.1474333448
 20
12.2687117869
 30
0.0
  0
SPLINE
  5
3EB
100
AcDbEntity
  8
0
100
AcDbSpline
 62
7
  6
CONTINUOUS
 70
0
 71
3
 72
23
 73
19
 74
0
 42
0.0000001
 43
0.0000001
 44
0.0000000001
 40
0.0
 40
0.0
 40
0.0
 40
0.0
 40
0.1904276749
 40
0.3705665337
 40
0.4552185358
 40
0.5354148918
 40
0.6104482876
 40
0.6796780496
 40
0.7427128443
 40
0.7992790911
 40
0.8492045985
 40
0.8923382843
 40
0.9286002663
 40
0.9580854914
 40
0.9704412476
 40
0.9813603194
 40
0.9910833725
 40
1.0
 40
1.0
 40
1.0
 40
1.0
 10
8.4816941914
 20
11.8392169259
 30
0.0
 10
8.4823704655
 20
11.8384453009
 30
0.0
 10
8.4837051228
 20
11.8369599681
 30
0.0
 10
8.4853931144
 20
11.8351799201
 30
0.0
 10
8.4867053316
 20
11.8338632571
 30
0.0
 10
8.4876347386
 20
11.8329649346
 30
0.0
 10
8.4885227264
 20
11.832143704
 30
0.0
 10
8.489362897
 20
11.8314074898
 30
0.0
 10
8.4901491757
 20
11.8307614662
 30
0.0
 10
8.4908771112
 20
11.8302092173
 30
0.0
 10
8.4915425135
 20
11.8297534002
 30
0.0
 10
8.4921417275
 20
11.8293963728
 30
0.0
 10
8.4926707034
 20
11.8291410031
 30
0.0
 10
8.4930720932
 20
11.8290068858
 30
0.0
 10
8.4933535567
 20
11.8289623691
 30
0.0
 10
8.4935321
 20
11.8289595091
 30
0.0
 10
8.4936902097
 20
11.8289862645
 30
0.0
 10
8.4937837151
 20
11.8290262877
 30
0.0
 10
8.4938248976
 20
11.8290510297
 30
0.0
  0
SPLINE
  5
3EC
100
AcDbEntity
  8
0
100
AcDbSpline
 62
9
  6
CONTINUOUS
 70
0
 71
3
 72
19
 73
15
 74
0
 42
0.0000001
 43
0.0000001
 44
0.0000000001
 40
0.0
 40
0.0
 40
0.0
 40
0.0
 40
0.0463215016
 40
0.0921786738
 40
0.138476678
 40
0.1860191469
 40
0.287216449
 40
0.342028355
 40
0.4000569828
 40
0.4615564616
 40
0.5267262322
 40
0.6685510197
 40
0.8263843709
 40
1.0
 40
1.0
 40
1.0
 40
1.0
 10
9.4024192452
 20
10.7730778449
 30
0.0
 10
9.4027153169
 20
10.7736300401
 30
0.0
 10
9.4033905424
 20
10.7746854688
 30
0.0
 10
9.4046414562
 20
10.7760894688
 30
0.0
 10
9.4061065168
 20
10.7772945324
 30
0.0
 10
9.4083724303
 20
10.7786607021
 30
0.0
 10
9.4110019205
 20
10.7795820533
 30
0.0
 10
9.4138549757
 20
10.780089126
 30
0.0
 10
9.4162104375
 20
10.7802689881
 30
0.0
 10
9.4187115468
 20
10.7802308788
 30
0.0
 10
9.422328863
 20
10.779868684
 30
0.0
 10
9.4271635883
 20
10.7787792062
 30
0.0
 10
9.4331575394
 20
10.7764755314
 30
0.0
 10
9.4370887439
 20
10.7742821572
 30
0.0
 10
9.4390555364
 20
10.772998944
 30
0.0
  0
SPLINE
  5
3ED
100
AcDbEntity
  8
0
100
AcDbSpline
 62
7
  6
CONTINUOUS
 70
0
 71
3
 72
23
 73
19
 74
0
 42
0.0000001
 43
0.0000001
 44
0.0000000001
 40
0.0
 40
0.0
 40
0.0
 40
0.0
 40
0.1904276749
 40
0.3705665337
 40
0.4552185358
 40
0.5354148918
 40
0.6104482876
 40
0.6796780496
 40
0.7427128443
 40
0.7992790911
 40
0.8492045985
 40
0.8923382843
 40
0.9286002663
 40
0.9580854914
 40
0.9704412476
 40
0.9813603194
 40
0.9910833725
 40
1.0
 40
1.0
 40
1.0
 40
1.0
 10
8.6681025982
 20
11.6170640374
 30
0.0
 10
8.6687788723
 20
11.6162924124
 30
0.0
 10
8.6701135296
 20
11.6148070796
 30
0.0
 10
8.6718015212
 20
11.6130270316
 30
0.0
 10
8.6731137384
 20
11.6117103686
 30
0.0
 10
8.6740431454
 20
11.6108120461
 30
0.0
 10
8.6749311332
 20
11.6099908155
 30
0.0
 10
8.6757713038
 20
11.6092546013
 30
0.0
 10
8.6765575826
 20
11.6086085777
 30
0.0
 10
8.677285518
 20
11.6080563288
 30
0.0
 10
8.6779509203
 20
11.6076005117
 30
0.0
 10
8.6785501343
 20
11.6072434842
 30
0.0
 10
8.6790791102
 20
11.6069881146
 30
0.0
 10
8.6794805
 20
11.6068539973
 30
0.0
 10
8.6797619635
 20
11.6068094806
 30
0.0
 10
8.6799405068
 20
11.6068066206
 30
0.0
 10
8.6800986165
 20
11.606833376
 30
0.0
 10
8.6801921219
 20
11.6068733992
 30
0.0
 10
8.6802333044
 20
11.6068981412
 30
0.0
  0
SPLINE
  5
3EE
100
AcDbEntity
  8
0
100
AcDbSpline
 62
7
  6
CONTINUOUS
 70
0
 71
3
 72
15
 73
11
 74
0
 42
0.0000001
 43
0.0000001
 44
0.0000000001
 40
0.0
 40
0.0
 40
0.0
 40
0.0
 40
0.2540153664
 40
0.3804890028
 40
0.5063283639
 40
0.6313518209
 40
0.7553796249
 40
0.8169821206
 40
0.8783010288
 40
1.0
 40
1.0
 40
1.0
 40
1.0
 10
8.1445511639
 20
12.3169356725
 30
0.0
 10
8.1437234674
 20
12.3179220894
 30
0.0
 10
8.142452121
 20
12.3193735048
 30
0.0
 10
8.1407067852
 20
12.321255572
 30
0.0
 10
8.1393843544
 20
12.3226377164
 30
0.0
 10
8.1380555245
 20
12.3239963456
 30
0.0
 10
8.1369499757
 20
12.3251178125
 30
0.0
 10
8.1360770597
 20
12.3260151628
 30
0.0
 10
8.1352193362
 20
12.3269105982
 30
0.0
 10
8.1345934106
 20
12.3275963523
 30
0.0
 10
8.1341968708
 20
12.328068954
 30
0.0
  0
SPLINE
  5
3EF
100
AcDbEntity
  8
0
100
AcDbSpline
 62
7
  6
CONTINUOUS
 70
0
 71
3
 72
23
 73
19
 74
0
 42
0.0000001
 43
0.0000001
 44
0.0000000001
 40
0.0
 40
0.0
 40
0.0
 40
0.0
 40
0.1904276749
 40
0.3705665337
 40
0.4552185358
 40
0.5354148918
 40
0.6104482876
 40
0.6796780496
 40
0.7427128443
 40
0.7992790911
 40
0.8492045985
 40
0.8923382843
 40
0.9286002663
 40
0.9580854914
 40
0.9704412476
 40
0.9813603194
 40
0.9910833725
 40
1.0
 40
1.0
 40
1.0
 40
1.0
 10
8.854511005
 20
11.3949111489
 30
0.0
 10
8.8551872792
 20
11.3941395239
 30
0.0
 10
8.8565219364
 20
11.3926541911
 30
0.0
 10
8.8582099281
 20
11.3908741431
 30
0.0
 10
8.8595221452
 20
11.3895574801
 30
0.0
 10
8.8604515522
 20
11.3886591576
 30
0.0
 10
8.86133954
 20
11.387837927
 30
0.0
 10
8.8621797106
 20
11.3871017128
 30
0.0
 10
8.8629659894
 20
11.3864556892
 30
0.0
 10
8.8636939248
 20
11.3859034403
 30
0.0
 10
8.8643593271
 20
11.3854476232
 30
0.0
 10
8.8649585411
 20
11.3850905957
 30
0.0
 10
8.865487517
 20
11.3848352261
 30
0.0
 10
8.8658889068
 20
11.3847011088
 30
0.0
 10
8.8661703703
 20
11.3846565921
 30
0.0
 10
8.8663489136
 20
11.3846537321
 30
0.0
 10
8.8665070233
 20
11.3846804875
 30
0.0
 10
8.8666005287
 20
11.3847205106
 30
0.0
 10
8.8666417112
 20
11.3847452527
 30
0.0
  0
SPLINE
  5
3F0
100
AcDbEntity
  8
0
100
AcDbSpline
 62
7
  6
CONTINUOUS
 70
0
 71
3
 72
15
 73
11
 74
0
 42
0.0000001
 43
0.0000001
 44
0.0000000001
 40
0.0
 40
0.0
 40
0.0
 40
0.0
 40
0.1216989615
 40
0.1830178309
 40
0.2446203001
 40
0.3686481026
 40
0.4936715528
 40
0.6195109167
 40
0.7459845775
 40
1.0
 40
1.0
 40
1.0
 40
1.0
 10
8.1537173255
 20
12.3048053827
 30
0.0
 10
8.1533207666
 20
12.3052779702
 30
0.0
 10
8.152754115
 20
12.3060134635
 30
0.0
 10
8.1520212149
 20
12.3070136426
 30
0.0
 10
8.1512890792
 20
12.3080291247
 30
0.0
 10
8.1503766313
 20
12.3093126263
 30
0.0
 10
8.1492693875
 20
12.3108571945
 30
0.0
 10
8.1481378733
 20
12.3123995432
 30
0.0
 10
8.1465874673
 20
12.3144451848
 30
0.0
 10
8.1453788634
 20
12.3159492537
 30
0.0
 10
8.1445511647
 20
12.3169356732
 30
0.0
  0
SPLINE
  5
3F1
100
AcDbEntity
  8
0
100
AcDbSpline
 62
7
  6
CONTINUOUS
 70
0
 71
3
 72
23
 73
19
 74
0
 42
0.0000001
 43
0.0000001
 44
0.0000000001
 40
0.0
 40
0.0
 40
0.0
 40
0.0
 40
0.1904276749
 40
0.3705665337
 40
0.4552185358
 40
0.5354148918
 40
0.6104482876
 40
0.6796780496
 40
0.7427128443
 40
0.7992790911
 40
0.8492045985
 40
0.8923382843
 40
0.9286002663
 40
0.9580854914
 40
0.9704412476
 40
0.9813603194
 40
0.9910833725
 40
1.0
 40
1.0
 40
1.0
 40
1.0
 10
9.0409194119
 20
11.1727582604
 30
0.0
 10
9.041595686
 20
11.1719866354
 30
0.0
 10
9.0429303432
 20
11.1705013026
 30
0.0
 10
9.0446183349
 20
11.1687212546
 30
0.0
 10
9.045930552
 20
11.1674045916
 30
0.0
 10
9.046859959
 20
11.1665062691
 30
0.0
 10
9.0477479468
 20
11.1656850385
 30
0.0
 10
9.0485881174
 20
11.1649488243
 30
0.0
 10
9.0493743962
 20
11.1643028007
 30
0.0
 10
9.0501023316
 20
11.1637505518
 30
0.0
 10
9.0507677339
 20
11.1632947347
 30
0.0
 10
9.0513669479
 20
11.1629377072
 30
0.0
 10
9.0518959238
 20
11.1626823376
 30
0.0
 10
9.0522973136
 20
11.1625482203
 30
0.0
 10
9.0525787772
 20
11.1625037036
 30
0.0
 10
9.0527573204
 20
11.1625008436
 30
0.0
 10
9.0529154301
 20
11.162527599
 30
0.0
 10
9.0530089355
 20
11.1625676221
 30
0.0
 10
9.053050118
 20
11.1625923642
 30
0.0
  0
SPLINE
  5
3F2
100
AcDbEntity
  8
0
100
AcDbSpline
 62
7
  6
CONTINUOUS
 70
0
 71
3
 72
23
 73
19
 74
0
 42
0.0000001
 43
0.0000001
 44
0.0000000001
 40
0.0
 40
0.0
 40
0.0
 40
0.0
 40
0.1904276749
 40
0.3705665337
 40
0.4552185358
 40
0.5354148918
 40
0.6104482876
 40
0.6796780496
 40
0.7427128443
 40
0.7992790911
 40
0.8492045985
 40
0.8923382843
 40
0.9286002663
 40
0.9580854914
 40
0.9704412476
 40
0.9813603194
 40
0.9910833725
 40
1.0
 40
1.0
 40
1.0
 40
1.0
 10
9.2273278187
 20
10.9506053719
 30
0.0
 10
9.2280040928
 20
10.9498337469
 30
0.0
 10
9.2293387501
 20
10.9483484141
 30
0.0
 10
9.2310267417
 20
10.9465683661
 30
0.0
 10
9.2323389588
 20
10.9452517031
 30
0.0
 10
9.2332683658
 20
10.9443533805
 30
0.0
 10
9.2341563536
 20
10.94353215
 30
0.0
 10
9.2349965242
 20
10.9427959358
 30
0.0
 10
9.235782803
 20
10.9421499122
 30
0.0
 10
9.2365107384
 20
10.9415976633
 30
0.0
 10
9.2371761407
 20
10.9411418462
 30
0.0
 10
9.2377753547
 20
10.9407848187
 30
0.0
 10
9.2383043306
 20
10.9405294491
 30
0.0
 10
9.2387057204
 20
10.9403953318
 30
0.0
 10
9.238987184
 20
10.9403508151
 30
0.0
 10
9.2391657272
 20
10.9403479551
 30
0.0
 10
9.2393238369
 20
10.9403747105
 30
0.0
 10
9.2394173423
 20
10.9404147336
 30
0.0
 10
9.2394585248
 20
10.9404394757
 30
0.0
  0
SPLINE
  5
3F3
100
AcDbEntity
  8
0
100
AcDbSpline
 62
9
  6
CONTINUOUS
 70
0
 71
3
 72
18
 73
14
 74
0
 42
0.0000001
 43
0.0000001
 44
0.0000000001
 40
0.0
 40
0.0
 40
0.0
 40
0.0
 40
0.2046214801
 40
0.3836951187
 40
0.5373343221
 40
0.666148748
 40
0.7717029822
 40
0.8167681691
 40
0.8575023765
 40
0.8948513947
 40
0.9300488172
 40
0.9645740378
 40
1.0
 40
1.0
 40
1.0
 40
1.0
 10
8.3201747334
 20
12.0462257939
 30
0.0
 10
8.3202814616
 20
12.0459414155
 30
0.0
 10
8.32047059
 20
12.0454038703
 30
0.0
 10
8.3206930718
 20
12.0446373932
 30
0.0
 10
8.3208356933
 20
12.0439663673
 30
0.0
 10
8.320898488
 20
12.0433927856
 30
0.0
 10
8.3208838685
 20
12.0429754919
 30
0.0
 10
8.3208244099
 20
12.0426969783
 30
0.0
 10
8.3207613485
 20
12.0425246183
 30
0.0
 10
8.3206771625
 20
12.0423779452
 30
0.0
 10
8.3205714194
 20
12.0422576845
 30
0.0
 10
8.3204443554
 20
12.0421649421
 30
0.0
 10
8.3203484471
 20
12.0421229197
 30
0.0
 10
8.3202984916
 20
12.0421064914
 30
0.0
  0
SPLINE
  5
3F4
100
AcDbEntity
  8
0
100
AcDbSpline
 62
9
  6
CONTINUOUS
 70
0
 71
3
 72
19
 73
15
 74
0
 42
0.0000001
 43
0.0000001
 44
0.0000000001
 40
0.0
 40
0.0
 40
0.0
 40
0.0
 40
0.173615588
 40
0.3314488379
 40
0.473273537
 40
0.5384433185
 40
0.5999427075
 40
0.6579712574
 40
0.7127831943
 40
0.8139806028
 40
0.8615232391
 40
0.9078216646
 40
0.9536790615
 40
1.0
 40
1.0
 40
1.0
 40
1.0
 10
8.3401258836
 20
12.0826523052
 30
0.0
 10
8.3410480683
 20
12.0804925641
 30
0.0
 10
8.3425254851
 20
12.0762402131
 30
0.0
 10
8.3437533004
 20
12.0699372944
 30
0.0
 10
8.3439867062
 20
12.0649868355
 30
0.0
 10
8.343715232
 20
12.0613615844
 30
0.0
 10
8.3433184706
 20
12.0588918545
 30
0.0
 10
8.3427323282
 20
12.0566034089
 30
0.0
 10
8.3417375238
 20
12.053881752
 30
0.0
 10
8.3403735623
 20
12.051452197
 30
0.0
 10
8.338634666
 20
12.0494579363
 30
0.0
 10
8.3371934908
 20
12.0482243899
 30
0.0
 10
8.3355936018
 20
12.0472362814
 30
0.0
 10
8.3344369626
 20
12.0467545827
 30
0.0
 10
8.3338417516
 20
12.0465588984
 30
0.0
  0
SPLINE
  5
3F5
100
AcDbEntity
  8
0
100
AcDbSpline
 62
7
  6
CONTINUOUS
 70
0
 71
3
 72
23
 73
19
 74
0
 42
0.0000001
 43
0.0000001
 44
0.0000000001
 40
0.0
 40
0.0
 40
0.0
 40
0.0
 40
0.1904276749
 40
0.3705665337
 40
0.4552185358
 40
0.5354148918
 40
0.6104482876
 40
0.6796780496
 40
0.7427128443
 40
0.7992790911
 40
0.8492045985
 40
0.8923382843
 40
0.9286002663
 40
0.9580854914
 40
0.9704412476
 40
0.9813603194
 40
0.9910833725
 40
1.0
 40
1.0
 40
1.0
 40
1.0
 10
9.4137362255
 20
10.7284524834
 30
0.0
 10
9.4144124996
 20
10.7276808584
 30
0.0
 10
9.4157471569
 20
10.7261955256
 30
0.0
 10
9.4174351485
 20
10.7244154776
 30
0.0
 10
9.4187473656
 20
10.7230988146
 30
0.0
 10
9.4196767726
 20
10.722200492
 30
0.0
 10
9.4205647604
 20
10.7213792615
 30
0.0
 10
9.421404931
 20
10.7206430473
 30
0.0
 10
9.4221912098
 20
10.7199970237
 30
0.0
 10
9.4229191453
 20
10.7194447748
 30
0.0
 10
9.4235845475
 20
10.7189889577
 30
0.0
 10
9.4241837615
 20
10.7186319302
 30
0.0
 10
9.4247127374
 20
10.7183765606
 30
0.0
 10
9.4251141272
 20
10.7182424433
 30
0.0
 10
9.4253955908
 20
10.7181979266
 30
0.0
 10
9.425574134
 20
10.7181950666
 30
0.0
 10
9.4257322437
 20
10.7182218219
 30
0.0
 10
9.4258257491
 20
10.7182618451
 30
0.0
 10
9.4258669317
 20
10.7182865871
 30
0.0
  0
SPLINE
  5
3F6
100
AcDbEntity
  8
0
100
AcDbSpline
 62
9
  6
CONTINUOUS
 70
0
 71
3
 72
19
 73
15
 74
0
 42
0.0000001
 43
0.0000001
 44
0.0000000001
 40
0.0
 40
0.0
 40
0.0
 40
0.0
 40
0.0463215016
 40
0.0921786738
 40
0.138476678
 40
0.1860191469
 40
0.287216449
 40
0.342028355
 40
0.4000569828
 40
0.4615564616
 40
0.5267262322
 40
0.6685510197
 40
0.8263843709
 40
1.0
 40
1.0
 40
1.0
 40
1.0
 10
9.2160108384
 20
10.9952307334
 30
0.0
 10
9.2163069101
 20
10.9957829286
 30
0.0
 10
9.2169821356
 20
10.9968383573
 30
0.0
 10
9.2182330494
 20
10.9982423573
 30
0.0
 10
9.21969811
 20
10.9994474209
 30
0.0
 10
9.2219640235
 20
11.0008135907
 30
0.0
 10
9.2245935137
 20
11.0017349418
 30
0.0
 10
9.2274465689
 20
11.0022420145
 30
0.0
 10
9.2298020307
 20
11.0024218766
 30
0.0
 10
9.23230314
 20
11.0023837673
 30
0.0
 10
9.2359204562
 20
11.0020215725
 30
0.0
 10
9.2407551815
 20
11.0009320948
 30
0.0
 10
9.2467491326
 20
10.9986284199
 30
0.0
 10
9.2506803371
 20
10.9964350457
 30
0.0
 10
9.2526471296
 20
10.9951518325
 30
0.0
  0
SPLINE
  5
3F7
100
AcDbEntity
  8
0
100
AcDbSpline
 62
9
  6
CONTINUOUS
 70
0
 71
3
 72
18
 73
14
 74
0
 42
0.0000001
 43
0.0000001
 44
0.0000000001
 40
0.0
 40
0.0
 40
0.0
 40
0.0
 40
0.0354247367
 40
0.0699518837
 40
0.1051544522
 40
0.1425102458
 40
0.1832515351
 40
0.2283233338
 40
0.3338858205
 40
0.4627002858
 40
0.6163331441
 40
0.7953953481
 40
1.0
 40
1.0
 40
1.0
 40
1.0
 10
8.8364576458
 20
11.4269724314
 30
0.0
 10
8.836482505
 20
11.427018745
 30
0.0
 10
8.8365405518
 20
11.4271058421
 30
0.0
 10
8.8366539465
 20
11.4272147909
 30
0.0
 10
8.8367907216
 20
11.4272979865
 30
0.0
 10
8.8369497508
 20
11.4273553908
 30
0.0
 10
8.8371303972
 20
11.4273875517
 30
0.0
 10
8.837414917
 20
11.4273977493
 30
0.0
 10
8.8378282631
 20
11.427339742
 30
0.0
 10
8.8383820065
 20
11.4271783889
 30
0.0
 10
8.8390177687
 20
11.4269214962
 30
0.0
 10
8.8397336209
 20
11.426569471
 30
0.0
 10
8.8402299624
 20
11.4262900997
 30
0.0
 10
8.840491384
 20
11.4261357355
 30
0.0
  0
SPLINE
  5
3F8
100
AcDbEntity
  8
0
100
AcDbSpline
 62
7
  6
CONTINUOUS
 70
0
 71
3
 72
23
 73
19
 74
0
 42
0.0000001
 43
0.0000001
 44
0.0000000001
 40
0.0
 40
0.0
 40
0.0
 40
0.0
 40
0.1904276749
 40
0.3705665337
 40
0.4552185358
 40
0.5354148918
 40
0.6104482876
 40
0.6796780496
 40
0.7427128443
 40
0.7992790911
 40
0.8492045985
 40
0.8923382843
 40
0.9286002663
 40
0.9580854914
 40
0.9704412476
 40
0.9813603194
 40
0.9910833725
 40
1.0
 40
1.0
 40
1.0
 40
1.0
 10
9.6001446323
 20
10.5062995949
 30
0.0
 10
9.6008209064
 20
10.5055279699
 30
0.0
 10
9.6021555637
 20
10.5040426371
 30
0.0
 10
9.6038435553
 20
10.5022625891
 30
0.0
 10
9.6051557725
 20
10.5009459261
 30
0.0
 10
9.6060851794
 20
10.5000476035
 30
0.0
 10
9.6069731672
 20
10.499226373
 30
0.0
 10
9.6078133379
 20
10.4984901588
 30
0.0
 10
9.6085996166
 20
10.4978441352
 30
0.0
 10
9.6093275521
 20
10.4972918863
 30
0.0
 10
9.6099929543
 20
10.4968360692
 30
0.0
 10
9.6105921684
 20
10.4964790417
 30
0.0
 10
9.6111211443
 20
10.4962236721
 30
0.0
 10
9.611522534
 20
10.4960895548
 30
0.0
 10
9.6118039976
 20
10.496045038
 30
0.0
 10
9.6119825408
 20
10.4960421781
 30
0.0
 10
9.6121406505
 20
10.4960689334
 30
0.0
 10
9.612234156
 20
10.4961089566
 30
0.0
 10
9.6122753385
 20
10.4961336986
 30
0.0
  0
SPLINE
  5
3F9
100
AcDbEntity
  8
0
100
AcDbSpline
 62
7
  6
CONTINUOUS
 70
0
 71
3
 72
23
 73
19
 74
0
 42
0.0000001
 43
0.0000001
 44
0.0000000001
 40
0.0
 40
0.0
 40
0.0
 40
0.0
 40
0.1904276749
 40
0.3705665337
 40
0.4552185358
 40
0.5354148918
 40
0.6104482876
 40
0.6796780496
 40
0.7427128443
 40
0.7992790911
 40
0.8492045985
 40
0.8923382843
 40
0.9286002663
 40
0.9580854914
 40
0.9704412476
 40
0.9813603194
 40
0.9910833725
 40
1.0
 40
1.0
 40
1.0
 40
1.0
 10
9.7865530391
 20
10.2841467064
 30
0.0
 10
9.7872293132
 20
10.2833750814
 30
0.0
 10
9.7885639705
 20
10.2818897486
 30
0.0
 10
9.7902519621
 20
10.2801097006
 30
0.0
 10
9.7915641793
 20
10.2787930376
 30
0.0
 10
9.7924935862
 20
10.277894715
 30
0.0
 10
9.793381574
 20
10.2770734845
 30
0.0
 10
9.7942217447
 20
10.2763372703
 30
0.0
 10
9.7950080234
 20
10.2756912467
 30
0.0
 10
9.7957359589
 20
10.2751389978
 30
0.0
 10
9.7964013611
 20
10.2746831807
 30
0.0
 10
9.7970005752
 20
10.2743261532
 30
0.0
 10
9.7975295511
 20
10.2740707836
 30
0.0
 10
9.7979309408
 20
10.2739366663
 30
0.0
 10
9.7982124044
 20
10.2738921495
 30
0.0
 10
9.7983909476
 20
10.2738892896
 30
0.0
 10
9.7985490574
 20
10.2739160449
 30
0.0
 10
9.7986425628
 20
10.2739560681
 30
0.0
 10
9.7986837453
 20
10.2739808101
 30
0.0
  0
SPLINE
  5
3FA
100
AcDbEntity
  8
0
100
AcDbSpline
 62
7
  6
CONTINUOUS
 70
0
 71
3
 72
15
 73
11
 74
0
 42
0.0000001
 43
0.0000001
 44
0.0000000001
 40
0.0
 40
0.0
 40
0.0
 40
0.0
 40
0.2540155498
 40
0.3804892535
 40
0.506328656
 40
0.6313521114
 40
0.7553798979
 40
0.8169823362
 40
0.8783011505
 40
1.0
 40
1.0
 40
1.0
 40
1.0
 10
8.3309595624
 20
12.094782777
 30
0.0
 10
8.3301318394
 20
12.0957692036
 30
0.0
 10
8.3288604923
 20
12.0972206662
 30
0.0
 10
8.3271151255
 20
12.0991027711
 30
0.0
 10
8.3257926715
 20
12.1004849423
 30
0.0
 10
8.3244638229
 20
12.1018436019
 30
0.0
 10
8.3233582425
 20
12.1029650777
 30
0.0
 10
8.3224853068
 20
12.1038624394
 30
0.0
 10
8.3216275846
 20
12.104757906
 30
0.0
 10
8.3210016614
 20
12.1054436818
 30
0.0
 10
8.3206050953
 20
12.1059162754
 30
0.0
  0
SPLINE
  5
3FB
100
AcDbEntity
  8
0
100
AcDbSpline
 62
7
  6
CONTINUOUS
 70
0
 71
3
 72
15
 73
11
 74
0
 42
0.0000001
 43
0.0000001
 44
0.0000000001
 40
0.0
 40
0.0
 40
0.0
 40
0.0
 40
0.1216988014
 40
0.1830176064
 40
0.2446200354
 40
0.3686478098
 40
0.4936712618
 40
0.6195106603
 40
0.7459843881
 40
1.0
 40
1.0
 40
1.0
 40
1.0
 10
8.3401259384
 20
12.0826522399
 30
0.0
 10
8.3397293797
 20
12.083124844
 30
0.0
 10
8.3391627155
 20
12.0838603505
 30
0.0
 10
8.3384297944
 20
12.0848605458
 30
0.0
 10
8.3376976412
 20
12.0858760475
 30
0.0
 10
8.3367851725
 20
12.0871595755
 30
0.0
 10
8.3356779029
 20
12.0887041755
 30
0.0
 10
8.3345463658
 20
12.0902465591
 30
0.0
 10
8.3329959283
 20
12.0922922479
 30
0.0
 10
8.331787291
 20
12.0937963453
 30
0.0
 10
8.3309595632
 20
12.0947827777
 30
0.0
  0
SPLINE
  5
3FC
100
AcDbEntity
  8
0
100
AcDbSpline
 62
7
  6
CONTINUOUS
 70
0
 71
3
 72
23
 73
19
 74
0
 42
0.0000001
 43
0.0000001
 44
0.0000000001
 40
0.0
 40
0.0
 40
0.0
 40
0.0
 40
0.1904276749
 40
0.3705665337
 40
0.4552185358
 40
0.5354148918
 40
0.6104482876
 40
0.6796780496
 40
0.7427128443
 40
0.7992790911
 40
0.8492045985
 40
0.8923382843
 40
0.9286002663
 40
0.9580854914
 40
0.9704412476
 40
0.9813603194
 40
0.9910833725
 40
1.0
 40
1.0
 40
1.0
 40
1.0
 10
9.9729614459
 20
10.0619938179
 30
0.0
 10
9.97363772
 20
10.0612221929
 30
0.0
 10
9.9749723773
 20
10.0597368601
 30
0.0
 10
9.9766603689
 20
10.0579568121
 30
0.0
 10
9.9779725861
 20
10.0566401491
 30
0.0
 10
9.978901993
 20
10.0557418265
 30
0.0
 10
9.9797899808
 20
10.054920596
 30
0.0
 10
9.9806301515
 20
10.0541843818
 30
0.0
 10
9.9814164302
 20
10.0535383582
 30
0.0
 10
9.9821443657
 20
10.0529861093
 30
0.0
 10
9.9828097679
 20
10.0525302922
 30
0.0
 10
9.983408982
 20
10.0521732647
 30
0.0
 10
9.9839379579
 20
10.051917895
 30
0.0
 10
9.9843393476
 20
10.0517837778
 30
0.0
 10
9.9846208112
 20
10.051739261
 30
0.0
 10
9.9847993545
 20
10.051736401
 30
0.0
 10
9.9849574642
 20
10.0517631564
 30
0.0
 10
9.9850509696
 20
10.0518031796
 30
0.0
 10
9.9850921521
 20
10.0518279216
 30
0.0
  0
SPLINE
  5
3FD
100
AcDbEntity
  8
0
100
AcDbSpline
 62
9
  6
CONTINUOUS
 70
0
 71
3
 72
34
 73
30
 74
0
 42
0.0000001
 43
0.0000001
 44
0.0000000001
 40
0.0
 40
0.0
 40
0.0
 40
0.0
 40
0.0725155893
 40
0.1061115298
 40
0.1379628994
 40
0.1967352862
 40
0.223946096
 40
0.249858221
 40
0.298324584
 40
0.3213276201
 40
0.3437856624
 40
0.3659716702
 40
0.3881958464
 40
0.4107993801
 40
0.4341405349
 40
0.4585785471
 40
0.4844548411
 40
0.51206894
 40
0.541666672
 40
0.573415574
 40
0.6073792835
 40
0.6435139263
 40
0.6816330993
 40
0.7623193263
 40
0.8454053553
 40
0.8863084291
 40
0.9259939564
 40
0.963992681
 40
1.0
 40
1.0
 40
1.0
 40
1.0
 10
10.0142397355
 20
10.0828642992
 30
0.0
 10
10.0150334767
 20
10.0807325308
 30
0.0
 10
10.0159225822
 20
10.0774996838
 30
0.0
 10
10.0164893787
 20
10.0732047418
 30
0.0
 10
10.0166548114
 20
10.0693078306
 30
0.0
 10
10.0163267199
 20
10.0656012705
 30
0.0
 10
10.0155099826
 20
10.0621821209
 30
0.0
 10
10.014462863
 20
10.0591685974
 30
0.0
 10
10.0130093002
 20
10.0564460973
 30
0.0
 10
10.0111621426
 20
10.054141988
 30
0.0
 10
10.0096279474
 20
10.0526666562
 30
0.0
 10
10.0079267731
 20
10.0514280369
 30
0.0
 10
10.0060636562
 20
10.0504391141
 30
0.0
 10
10.0040441648
 20
10.0497141682
 30
0.0
 10
10.0018746965
 20
10.0492674642
 30
0.0
 10
9.9995625586
 20
10.0491130445
 30
0.0
 10
9.9971164796
 20
10.0492647379
 30
0.0
 10
9.9945469947
 20
10.0497341612
 30
0.0
 10
9.9918678308
 20
10.0505327389
 30
0.0
 10
9.9890971904
 20
10.0516680704
 30
0.0
 10
9.9862582013
 20
10.0531419418
 30
0.0
 10
9.9833817029
 20
10.0549514643
 30
0.0
 10
9.9794736542
 20
10.0578476958
 30
0.0
 10
9.9748059279
 20
10.062158815
 30
0.0
 10
9.9706754833
 20
10.0670989938
 30
0.0
 10
9.9677839251
 20
10.0713455216
 30
0.0
 10
9.9659003558
 20
10.0745570775
 30
0.0
 10
9.9643217248
 20
10.0777584242
 30
0.0
 10
9.963454529
 20
10.0799150108
 30
0.0
 10
9.9630784387
 20
10.0809800743
 30
0.0
  0
SPLINE
  5
3FE
100
AcDbEntity
  8
0
100
AcDbSpline
 62
9
  6
CONTINUOUS
 70
0
 71
3
 72
11
 73
7
 74
0
 42
0.0000001
 43
0.0000001
 44
0.0000000001
 40
0.0
 40
0.0
 40
0.0
 40
0.0
 40
0.2441854296
 40
0.4999998288
 40
0.7558142784
 40
1.0
 40
1.0
 40
1.0
 40
1.0
 10
9.9972564223
 20
10.1031041721
 30
0.0
 10
9.9991449011
 20
10.1019952219
 30
0.0
 10
10.0028255734
 20
10.0993906965
 30
0.0
 10
10.0076385563
 20
10.0945705443
 30
0.0
 10
10.0115497271
 20
10.0889936772
 30
0.0
 10
10.013475556
 20
10.084916655
 30
0.0
 10
10.0142397355
 20
10.0828642992
 30
0.0
  0
SPLINE
  5
3FF
100
AcDbEntity
  8
0
100
AcDbSpline
 62
9
  6
CONTINUOUS
 70
0
 71
3
 72
18
 73
14
 74
0
 42
0.0000001
 43
0.0000001
 44
0.0000000001
 40
0.0
 40
0.0
 40
0.0
 40
0.0
 40
0.2046214801
 40
0.3836951187
 40
0.5373343221
 40
0.666148748
 40
0.7717029822
 40
0.8167681691
 40
0.8575023765
 40
0.8948513947
 40
0.9300488172
 40
0.9645740378
 40
1.0
 40
1.0
 40
1.0
 40
1.0
 10
8.5065831402
 20
11.8240729053
 30
0.0
 10
8.5066898684
 20
11.823788527
 30
0.0
 10
8.5068789968
 20
11.8232509818
 30
0.0
 10
8.5071014786
 20
11.8224845047
 30
0.0
 10
8.5072441001
 20
11.8218134788
 30
0.0
 10
8.5073068948
 20
11.8212398971
 30
0.0
 10
8.5072922753
 20
11.8208226034
 30
0.0
 10
8.5072328167
 20
11.8205440898
 30
0.0
 10
8.5071697553
 20
11.8203717298
 30
0.0
 10
8.5070855693
 20
11.8202250567
 30
0.0
 10
8.5069798262
 20
11.820104796
 30
0.0
 10
8.5068527622
 20
11.8200120536
 30
0.0
 10
8.5067568539
 20
11.8199700312
 30
0.0
 10
8.5067068984
 20
11.8199536029
 30
0.0
  0
SPLINE
  5
400
100
AcDbEntity
  8
0
100
AcDbSpline
 62
9
  6
CONTINUOUS
 70
0
 71
3
 72
19
 73
15
 74
0
 42
0.0000001
 43
0.0000001
 44
0.0000000001
 40
0.0
 40
0.0
 40
0.0
 40
0.0
 40
0.0463215016
 40
0.0921786738
 40
0.138476678
 40
0.1860191469
 40
0.287216449
 40
0.342028355
 40
0.4000569828
 40
0.4615564616
 40
0.5267262322
 40
0.6685510197
 40
0.8263843709
 40
1.0
 40
1.0
 40
1.0
 40
1.0
 10
9.0296024316
 20
11.2173836219
 30
0.0
 10
9.0298985033
 20
11.2179358171
 30
0.0
 10
9.0305737288
 20
11.2189912458
 30
0.0
 10
9.0318246426
 20
11.2203952458
 30
0.0
 10
9.0332897032
 20
11.2216003094
 30
0.0
 10
9.0355556166
 20
11.2229664792
 30
0.0
 10
9.0381851069
 20
11.2238878303
 30
0.0
 10
9.0410381621
 20
11.224394903
 30
0.0
 10
9.0433936239
 20
11.2245747651
 30
0.0
 10
9.0458947332
 20
11.2245366558
 30
0.0
 10
9.0495120494
 20
11.224174461
 30
0.0
 10
9.0543467747
 20
11.2230849833
 30
0.0
 10
9.0603407258
 20
11.2207813084
 30
0.0
 10
9.0642719303
 20
11.2185879342
 30
0.0
 10
9.0662387228
 20
11.217304721
 30
0.0
  0
SPLINE
  5
401
100
AcDbEntity
  8
0
100
AcDbSpline
 62
9
  6
CONTINUOUS
 70
0
 71
3
 72
19
 73
15
 74
0
 42
0.0000001
 43
0.0000001
 44
0.0000000001
 40
0.0
 40
0.0
 40
0.0
 40
0.0
 40
0.1736155891
 40
0.33144884
 40
0.4732735398
 40
0.5384433215
 40
0.5999427106
 40
0.6579712604
 40
0.7127831973
 40
0.8139806051
 40
0.8615232409
 40
0.9078216659
 40
0.9536790622
 40
1.0
 40
1.0
 40
1.0
 40
1.0
 10
8.5265342897
 20
11.8604994184
 30
0.0
 10
8.5274564745
 20
11.8583396771
 30
0.0
 10
8.5289338915
 20
11.854087326
 30
0.0
 10
8.5301617071
 20
11.847784407
 30
0.0
 10
8.530395113
 20
11.8428339479
 30
0.0
 10
8.5301236389
 20
11.8392086966
 30
0.0
 10
8.5297268776
 20
11.8367389665
 30
0.0
 10
8.5291407351
 20
11.8344505209
 30
0.0
 10
8.5281459308
 20
11.8317288638
 30
0.0
 10
8.5267819692
 20
11.8292993087
 30
0.0
 10
8.5250430729
 20
11.8273050479
 30
0.0
 10
8.5236018977
 20
11.8260715014
 30
0.0
 10
8.5220020087
 20
11.8250833929
 30
0.0
 10
8.5208453694
 20
11.8246016942
 30
0.0
 10
8.5202501584
 20
11.8244060099
 30
0.0
  0
SPLINE
  5
402
100
AcDbEntity
  8
0
100
AcDbSpline
 62
7
  6
CONTINUOUS
 70
0
 71
3
 72
14
 73
10
 74
0
 42
0.0000001
 43
0.0000001
 44
0.0000000001
 40
0.0
 40
0.0
 40
0.0
 40
0.0
 40
0.2540177093
 40
0.5063267117
 40
0.6313533979
 40
0.7553835505
 40
0.8169863734
 40
0.8783045535
 40
1.0
 40
1.0
 40
1.0
 40
1.0
 10
8.5173697074
 20
11.872631347
 30
0.0
 10
8.5165420388
 20
11.8736178194
 30
0.0
 10
8.5148485291
 20
11.8755477725
 30
0.0
 10
8.5126495407
 20
11.8778738418
 30
0.0
 10
8.510873927
 20
11.879692321
 30
0.0
 10
8.5097687575
 20
11.8808142295
 30
0.0
 10
8.5088956519
 20
11.8817114231
 30
0.0
 10
8.5080374918
 20
11.8826064332
 30
0.0
 10
8.5074108721
 20
11.8832915012
 30
0.0
 10
8.5070135007
 20
11.8837633885
 30
0.0
  0
SPLINE
  5
403
100
AcDbEntity
  8
0
100
AcDbSpline
 62
7
  6
CONTINUOUS
 70
0
 71
3
 72
14
 73
10
 74
0
 42
0.0000001
 43
0.0000001
 44
0.0000000001
 40
0.0
 40
0.0
 40
0.0
 40
0.0
 40
0.1216961087
 40
0.1830143495
 40
0.2446169587
 40
0.3686465841
 40
0.4936731486
 40
0.745982353
 40
1.0
 40
1.0
 40
1.0
 40
1.0
 10
8.5265343042
 20
11.8604994012
 30
0.0
 10
8.5261385388
 20
11.8609726422
 30
0.0
 10
8.5255724969
 20
11.861708561
 30
0.0
 10
8.524840105
 20
11.8627091109
 30
0.0
 10
8.5241083246
 20
11.863724869
 30
0.0
 10
8.5231956391
 20
11.8650082549
 30
0.0
 10
8.5217131437
 20
11.8670726923
 30
0.0
 10
8.5198037552
 20
11.8696418188
 30
0.0
 10
8.5181973781
 20
11.8716448736
 30
0.0
 10
8.5173697082
 20
11.8726313477
 30
0.0
  0
SPLINE
  5
404
100
AcDbEntity
  8
0
100
AcDbSpline
 62
7
  6
CONTINUOUS
 70
0
 71
3
 72
23
 73
19
 74
0
 42
0.0000001
 43
0.0000001
 44
0.0000000001
 40
0.0
 40
0.0
 40
0.0
 40
0.0
 40
0.0084906217
 40
0.0178769539
 40
0.0285813346
 40
0.0408473195
 40
0.0548041666
 40
0.0705234047
 40
0.1073441825
 40
0.1513531547
 40
0.2024075237
 40
0.260320254
 40
0.3248186383
 40
0.395477849
 40
0.4715914991
 40
0.6369935843
 40
0.8151129113
 40
1.0
 40
1.0
 40
1.0
 40
1.0
 10
9.9616302139
 20
10.0797887707
 30
0.0
 10
9.9615952537
 20
10.0797485495
 30
0.0
 10
9.9615343987
 20
10.0796522376
 30
0.0
 10
9.9614798166
 20
10.0794798977
 30
0.0
 10
9.9614563048
 20
10.0792772563
 30
0.0
 10
9.9614623858
 20
10.0790450043
 30
0.0
 10
9.9614970908
 20
10.0787836757
 30
0.0
 10
9.9615858511
 20
10.078375494
 30
0.0
 10
9.9617731848
 20
10.0777978176
 30
0.0
 10
9.9620927155
 20
10.0770336469
 30
0.0
 10
9.9625159435
 20
10.0761712717
 30
0.0
 10
9.9630402907
 20
10.0752167727
 30
0.0
 10
9.9636625622
 20
10.074176677
 30
0.0
 10
9.9643776607
 20
10.0730597794
 30
0.0
 10
9.9654745873
 20
10.0714360659
 30
0.0
 10
9.9670163604
 20
10.0692998541
 30
0.0
 10
9.9690402397
 20
10.0666719195
 30
0.0
 10
9.9704804217
 20
10.0649059497
 30
0.0
 10
9.9712263395
 20
10.0640169995
 30
0.0
  0
SPLINE
  5
405
100
AcDbEntity
  8
0
100
AcDbSpline
 62
9
  6
CONTINUOUS
 70
0
 71
3
 72
19
 73
15
 74
0
 42
0.0000001
 43
0.0000001
 44
0.0000000001
 40
0.0
 40
0.0
 40
0.0
 40
0.0
 40
0.0463215016
 40
0.0921786738
 40
0.138476678
 40
0.1860191469
 40
0.287216449
 40
0.342028355
 40
0.4000569828
 40
0.4615564616
 40
0.5267262322
 40
0.6685510197
 40
0.8263843709
 40
1.0
 40
1.0
 40
1.0
 40
1.0
 10
8.8431940248
 20
11.4395365104
 30
0.0
 10
8.8434900964
 20
11.4400887056
 30
0.0
 10
8.844165322
 20
11.4411441343
 30
0.0
 10
8.8454162358
 20
11.4425481343
 30
0.0
 10
8.8468812964
 20
11.4437531979
 30
0.0
 10
8.8491472098
 20
11.4451193677
 30
0.0
 10
8.8517767001
 20
11.4460407188
 30
0.0
 10
8.8546297553
 20
11.4465477915
 30
0.0
 10
8.8569852171
 20
11.4467276536
 30
0.0
 10
8.8594863263
 20
11.4466895443
 30
0.0
 10
8.8631036425
 20
11.4463273495
 30
0.0
 10
8.8679383679
 20
11.4452378718
 30
0.0
 10
8.873932319
 20
11.4429341969
 30
0.0
 10
8.8778635235
 20
11.4407408227
 30
0.0
 10
8.879830316
 20
11.4394576095
 30
0.0
  0
SPLINE
  5
406
100
AcDbEntity
  8
0
100
AcDbSpline
 62
9
  6
CONTINUOUS
 70
0
 71
3
 72
18
 73
14
 74
0
 42
0.0000001
 43
0.0000001
 44
0.0000000001
 40
0.0
 40
0.0
 40
0.0
 40
0.0
 40
0.2046214801
 40
0.3836951187
 40
0.5373343221
 40
0.666148748
 40
0.7717029822
 40
0.8167681691
 40
0.8575023765
 40
0.8948513947
 40
0.9300488172
 40
0.9645740378
 40
1.0
 40
1.0
 40
1.0
 40
1.0
 10
8.692991547
 20
11.6019200168
 30
0.0
 10
8.6930982752
 20
11.6016356385
 30
0.0
 10
8.6932874036
 20
11.6010980933
 30
0.0
 10
8.6935098854
 20
11.6003316162
 30
0.0
 10
8.6936525069
 20
11.5996605903
 30
0.0
 10
8.6937153016
 20
11.5990870086
 30
0.0
 10
8.6937006821
 20
11.5986697149
 30
0.0
 10
8.6936412235
 20
11.5983912013
 30
0.0
 10
8.6935781621
 20
11.5982188413
 30
0.0
 10
8.6934939761
 20
11.5980721682
 30
0.0
 10
8.693388233
 20
11.5979519075
 30
0.0
 10
8.693261169
 20
11.5978591651
 30
0.0
 10
8.6931652607
 20
11.5978171427
 30
0.0
 10
8.6931153052
 20
11.5978007144
 30
0.0
  0
SPLINE
  5
407
100
AcDbEntity
  8
0
100
AcDbSpline
 62
9
  6
CONTINUOUS
 70
0
 71
3
 72
19
 73
15
 74
0
 42
0.0000001
 43
0.0000001
 44
0.0000000001
 40
0.0
 40
0.0
 40
0.0
 40
0.0
 40
0.1736155903
 40
0.3314488423
 40
0.4732735429
 40
0.5384433248
 40
0.599942714
 40
0.6579712637
 40
0.7127832004
 40
0.8139806076
 40
0.8615232429
 40
0.9078216672
 40
0.9536790629
 40
1.0
 40
1.0
 40
1.0
 40
1.0
 10
8.7129426958
 20
11.6383465316
 30
0.0
 10
8.7138648806
 20
11.6361867902
 30
0.0
 10
8.715342298
 20
11.631934439
 30
0.0
 10
8.7165701138
 20
11.6256315197
 30
0.0
 10
8.7168035198
 20
11.6206810604
 30
0.0
 10
8.7165320458
 20
11.6170558089
 30
0.0
 10
8.7161352845
 20
11.6145860787
 30
0.0
 10
8.7155491421
 20
11.6122976329
 30
0.0
 10
8.7145543378
 20
11.6095759757
 30
0.0
 10
8.7131903762
 20
11.6071464205
 30
0.0
 10
8.7114514799
 20
11.6051521595
 30
0.0
 10
8.7100103046
 20
11.603918613
 30
0.0
 10
8.7084104155
 20
11.6029305045
 30
0.0
 10
8.7072537763
 20
11.6024488057
 30
0.0
 10
8.7066585652
 20
11.6022531214
 30
0.0
  0
SPLINE
  5
408
100
AcDbEntity
  8
0
100
AcDbSpline
 62
9
  6
CONTINUOUS
 70
0
 71
3
 72
19
 73
15
 74
0
 42
0.0000001
 43
0.0000001
 44
0.0000000001
 40
0.0
 40
0.0
 40
0.0
 40
0.0
 40
0.0463214999
 40
0.0921786705
 40
0.1384766732
 40
0.1860191409
 40
0.2872164413
 40
0.342028347
 40
0.4000569747
 40
0.4615564537
 40
0.5267262248
 40
0.6685510141
 40
0.826384368
 40
1.0
 40
1.0
 40
1.0
 40
1.0
 10
8.656785618
 20
11.6616893989
 30
0.0
 10
8.6570816897
 20
11.6622415942
 30
0.0
 10
8.6577569153
 20
11.663297023
 30
0.0
 10
8.6590078292
 20
11.664701023
 30
0.0
 10
8.66047289
 20
11.6659060866
 30
0.0
 10
8.6627388037
 20
11.6672722565
 30
0.0
 10
8.6653682942
 20
11.6681936075
 30
0.0
 10
8.6682213497
 20
11.6687006802
 30
0.0
 10
8.6705768119
 20
11.6688805422
 30
0.0
 10
8.6730779214
 20
11.6688424327
 30
0.0
 10
8.676695238
 20
11.6684802377
 30
0.0
 10
8.6815299639
 20
11.6673907594
 30
0.0
 10
8.6875239156
 20
11.6650870839
 30
0.0
 10
8.6914551203
 20
11.6628937088
 30
0.0
 10
8.6934219131
 20
11.6616104955
 30
0.0
  0
SPLINE
  5
409
100
AcDbEntity
  8
0
100
AcDbSpline
 62
7
  6
CONTINUOUS
 70
0
 71
3
 72
23
 73
19
 74
0
 42
0.0000001
 43
0.0000001
 44
0.0000000001
 40
0.0
 40
0.0
 40
0.0
 40
0.0
 40
0.0084906217
 40
0.0178769539
 40
0.0285813346
 40
0.0408473195
 40
0.0548041666
 40
0.0705234047
 40
0.1073441825
 40
0.1513531547
 40
0.2024075237
 40
0.260320254
 40
0.3248186383
 40
0.395477849
 40
0.4715914991
 40
0.6369935843
 40
0.8151129113
 40
1.0
 40
1.0
 40
1.0
 40
1.0
 10
9.7752218071
 20
10.3019416592
 30
0.0
 10
9.7751868469
 20
10.301901438
 30
0.0
 10
9.7751259919
 20
10.3018051261
 30
0.0
 10
9.7750714098
 20
10.3016327862
 30
0.0
 10
9.775047898
 20
10.3014301448
 30
0.0
 10
9.775053979
 20
10.3011978928
 30
0.0
 10
9.7750886839
 20
10.3009365642
 30
0.0
 10
9.7751774443
 20
10.3005283825
 30
0.0
 10
9.775364778
 20
10.2999507061
 30
0.0
 10
9.7756843087
 20
10.2991865354
 30
0.0
 10
9.7761075367
 20
10.2983241602
 30
0.0
 10
9.7766318839
 20
10.2973696612
 30
0.0
 10
9.7772541554
 20
10.2963295655
 30
0.0
 10
9.7779692539
 20
10.2952126679
 30
0.0
 10
9.7790661805
 20
10.2935889544
 30
0.0
 10
9.7806079536
 20
10.2914527426
 30
0.0
 10
9.7826318329
 20
10.288824808
 30
0.0
 10
9.7840720149
 20
10.2870588383
 30
0.0
 10
9.7848179327
 20
10.286169888
 30
0.0
  0
SPLINE
  5
40A
100
AcDbEntity
  8
0
100
AcDbSpline
 62
7
  6
CONTINUOUS
 70
0
 71
3
 72
15
 73
11
 74
0
 42
0.0000001
 43
0.0000001
 44
0.0000000001
 40
0.0
 40
0.0
 40
0.0
 40
0.0
 40
0.2540154927
 40
0.3804891764
 40
0.5063285641
 40
0.631352016
 40
0.7553798084
 40
0.8169822582
 40
0.8783010931
 40
1.0
 40
1.0
 40
1.0
 40
1.0
 10
8.7037763754
 20
11.6504769995
 30
0.0
 10
8.7029486619
 20
11.6514634233
 30
0.0
 10
8.7016773175
 20
11.6529148724
 30
0.0
 10
8.6999319614
 20
11.6547969649
 30
0.0
 10
8.6986095151
 20
11.6561791271
 30
0.0
 10
8.6972806727
 20
11.6575377763
 30
0.0
 10
8.6961750968
 20
11.6586592431
 30
0.0
 10
8.6953021654
 20
11.6595565986
 30
0.0
 10
8.6944444485
 20
11.6604520603
 30
0.0
 10
8.6938185315
 20
11.6611378347
 30
0.0
 10
8.6934219701
 20
11.6616104278
 30
0.0
  0
SPLINE
  5
40B
100
AcDbEntity
  8
0
100
AcDbSpline
 62
7
  6
CONTINUOUS
 70
0
 71
3
 72
15
 73
11
 74
0
 42
0.0000001
 43
0.0000001
 44
0.0000000001
 40
0.0
 40
0.0
 40
0.0
 40
0.0
 40
0.1216988625
 40
0.1830176743
 40
0.2446201063
 40
0.368647884
 40
0.4936713308
 40
0.6195107218
 40
0.7459844336
 40
1.0
 40
1.0
 40
1.0
 40
1.0
 10
8.7129427061
 20
11.6383465195
 30
0.0
 10
8.7125461553
 20
11.6388191268
 30
0.0
 10
8.7119794816
 20
11.6395546202
 30
0.0
 10
8.7112465564
 20
11.6405548057
 30
0.0
 10
8.7105144114
 20
11.6415703061
 30
0.0
 10
8.7096019584
 20
11.6428538361
 30
0.0
 10
8.7084946935
 20
11.6443984282
 30
0.0
 10
8.7073631609
 20
11.6459408036
 30
0.0
 10
8.7058127294
 20
11.6479864812
 30
0.0
 10
8.7046040958
 20
11.6494905692
 30
0.0
 10
8.7037763762
 20
11.6504770002
 30
0.0
  0
SPLINE
  5
40C
100
AcDbEntity
  8
0
100
AcDbSpline
 62
9
  6
CONTINUOUS
 70
0
 71
3
 72
18
 73
14
 74
0
 42
0.0000001
 43
0.0000001
 44
0.0000000001
 40
0.0
 40
0.0
 40
0.0
 40
0.0
 40
0.0354247367
 40
0.0699518837
 40
0.1051544522
 40
0.1425102458
 40
0.1832515351
 40
0.2283233338
 40
0.3338858205
 40
0.4627002858
 40
0.6163331441
 40
0.7953953481
 40
1.0
 40
1.0
 40
1.0
 40
1.0
 10
8.650049239
 20
11.6491253199
 30
0.0
 10
8.6500740982
 20
11.6491716335
 30
0.0
 10
8.650132145
 20
11.6492587306
 30
0.0
 10
8.6502455397
 20
11.6493676794
 30
0.0
 10
8.6503823148
 20
11.649450875
 30
0.0
 10
8.650541344
 20
11.6495082793
 30
0.0
 10
8.6507219904
 20
11.6495404402
 30
0.0
 10
8.6510065102
 20
11.6495506378
 30
0.0
 10
8.6514198563
 20
11.6494926305
 30
0.0
 10
8.6519735997
 20
11.6493312774
 30
0.0
 10
8.6526093619
 20
11.6490743847
 30
0.0
 10
8.653325214
 20
11.6487223595
 30
0.0
 10
8.6538215555
 20
11.6484429882
 30
0.0
 10
8.6540829772
 20
11.648288624
 30
0.0
  0
SPLINE
  5
40D
100
AcDbEntity
  8
0
100
AcDbSpline
 62
9
  6
CONTINUOUS
 70
0
 71
3
 72
19
 73
15
 74
0
 42
0.0000001
 43
0.0000001
 44
0.0000000001
 40
0.0
 40
0.0
 40
0.0
 40
0.0
 40
0.0463215016
 40
0.0921786738
 40
0.138476678
 40
0.1860191469
 40
0.287216449
 40
0.342028355
 40
0.4000569828
 40
0.4615564616
 40
0.5267262322
 40
0.6685510197
 40
0.8263843709
 40
1.0
 40
1.0
 40
1.0
 40
1.0
 10
8.4703772112
 20
11.8838422874
 30
0.0
 10
8.4706732828
 20
11.8843944826
 30
0.0
 10
8.4713485084
 20
11.8854499113
 30
0.0
 10
8.4725994222
 20
11.8868539113
 30
0.0
 10
8.4740644828
 20
11.8880589749
 30
0.0
 10
8.4763303962
 20
11.8894251447
 30
0.0
 10
8.4789598865
 20
11.8903464958
 30
0.0
 10
8.4818129416
 20
11.8908535685
 30
0.0
 10
8.4841684035
 20
11.8910334306
 30
0.0
 10
8.4866695127
 20
11.8909953213
 30
0.0
 10
8.4902868289
 20
11.8906331265
 30
0.0
 10
8.4951215543
 20
11.8895436488
 30
0.0
 10
8.5011155054
 20
11.8872399739
 30
0.0
 10
8.5050467099
 20
11.8850465997
 30
0.0
 10
8.5070135023
 20
11.8837633865
 30
0.0
  0
SPLINE
  5
40E
100
AcDbEntity
  8
0
100
AcDbSpline
 62
9
  6
CONTINUOUS
 70
0
 71
3
 72
18
 73
14
 74
0
 42
0.0000001
 43
0.0000001
 44
0.0000000001
 40
0.0
 40
0.0
 40
0.0
 40
0.0
 40
0.2046214801
 40
0.3836951187
 40
0.5373343221
 40
0.666148748
 40
0.7717029822
 40
0.8167681691
 40
0.8575023765
 40
0.8948513947
 40
0.9300488172
 40
0.9645740378
 40
1.0
 40
1.0
 40
1.0
 40
1.0
 10
8.8793999538
 20
11.3797671283
 30
0.0
 10
8.879506682
 20
11.37948275
 30
0.0
 10
8.8796958104
 20
11.3789452048
 30
0.0
 10
8.8799182922
 20
11.3781787277
 30
0.0
 10
8.8800609137
 20
11.3775077018
 30
0.0
 10
8.8801237085
 20
11.37693412
 30
0.0
 10
8.8801090889
 20
11.3765168264
 30
0.0
 10
8.8800496303
 20
11.3762383127
 30
0.0
 10
8.879986569
 20
11.3760659528
 30
0.0
 10
8.8799023829
 20
11.3759192797
 30
0.0
 10
8.8797966398
 20
11.375799019
 30
0.0
 10
8.8796695758
 20
11.3757062766
 30
0.0
 10
8.8795736675
 20
11.3756642542
 30
0.0
 10
8.879523712
 20
11.3756478259
 30
0.0
  0
SPLINE
  5
40F
100
AcDbEntity
  8
0
100
AcDbSpline
 62
9
  6
CONTINUOUS
 70
0
 71
3
 72
19
 73
15
 74
0
 42
0.0000001
 43
0.0000001
 44
0.0000000001
 40
0.0
 40
0.0
 40
0.0
 40
0.0
 40
0.1736155891
 40
0.33144884
 40
0.4732735398
 40
0.5384433215
 40
0.5999427106
 40
0.6579712604
 40
0.7127831973
 40
0.8139806051
 40
0.8615232409
 40
0.9078216659
 40
0.9536790622
 40
1.0
 40
1.0
 40
1.0
 40
1.0
 10
8.8993511034
 20
11.4161936414
 30
0.0
 10
8.9002732881
 20
11.4140339001
 30
0.0
 10
8.9017507052
 20
11.409781549
 30
0.0
 10
8.9029785207
 20
11.40347863
 30
0.0
 10
8.9032119266
 20
11.3985281709
 30
0.0
 10
8.9029404525
 20
11.3949029196
 30
0.0
 10
8.9025436912
 20
11.3924331895
 30
0.0
 10
8.9019575487
 20
11.3901447439
 30
0.0
 10
8.9009627444
 20
11.3874230868
 30
0.0
 10
8.8995987829
 20
11.3849935317
 30
0.0
 10
8.8978598865
 20
11.3829992709
 30
0.0
 10
8.8964187113
 20
11.3817657244
 30
0.0
 10
8.8948188223
 20
11.3807776159
 30
0.0
 10
8.893662183
 20
11.3802959172
 30
0.0
 10
8.893066972
 20
11.3801002329
 30
0.0
  0
SPLINE
  5
410
100
AcDbEntity
  8
0
100
AcDbSpline
 62
7
  6
CONTINUOUS
 70
0
 71
3
 72
23
 73
19
 74
0
 42
0.0000001
 43
0.0000001
 44
0.0000000001
 40
0.0
 40
0.0
 40
0.0
 40
0.0
 40
0.0084906217
 40
0.0178769539
 40
0.0285813346
 40
0.0408473195
 40
0.0548041666
 40
0.0705234047
 40
0.1073441825
 40
0.1513531547
 40
0.2024075237
 40
0.260320254
 40
0.3248186383
 40
0.395477849
 40
0.4715914991
 40
0.6369935843
 40
0.8151129113
 40
1.0
 40
1.0
 40
1.0
 40
1.0
 10
9.5888134003
 20
10.5240945477
 30
0.0
 10
9.5887784401
 20
10.5240543265
 30
0.0
 10
9.5887175851
 20
10.5239580146
 30
0.0
 10
9.588663003
 20
10.5237856747
 30
0.0
 10
9.5886394912
 20
10.5235830334
 30
0.0
 10
9.5886455722
 20
10.5233507813
 30
0.0
 10
9.5886802771
 20
10.5230894527
 30
0.0
 10
9.5887690375
 20
10.522681271
 30
0.0
 10
9.5889563712
 20
10.5221035946
 30
0.0
 10
9.5892759019
 20
10.5213394239
 30
0.0
 10
9.5896991299
 20
10.5204770487
 30
0.0
 10
9.5902234771
 20
10.5195225497
 30
0.0
 10
9.5908457486
 20
10.518482454
 30
0.0
 10
9.5915608471
 20
10.5173655564
 30
0.0
 10
9.5926577737
 20
10.5157418429
 30
0.0
 10
9.5941995468
 20
10.5136056311
 30
0.0
 10
9.5962234261
 20
10.5109776965
 30
0.0
 10
9.5976636081
 20
10.5092117268
 30
0.0
 10
9.5984095259
 20
10.5083227766
 30
0.0
  0
SPLINE
  5
411
100
AcDbEntity
  8
0
100
AcDbSpline
 62
9
  6
CONTINUOUS
 70
0
 71
3
 72
27
 73
23
 74
0
 42
0.0000001
 43
0.0000001
 44
0.0000000001
 40
0.0
 40
0.0
 40
0.0
 40
0.0
 40
0.0787470634
 40
0.1466831518
 40
0.2038918205
 40
0.2509028976
 40
0.270948882
 40
0.2889815798
 40
0.3053600688
 40
0.320581565
 40
0.3352742952
 40
0.3501334221
 40
0.3828123249
 40
0.4017906221
 40
0.4229651623
 40
0.4726992859
 40
0.5331006038
 40
0.6045931581
 40
0.687292132
 40
0.7810134486
 40
0.8854038647
 40
1.0
 40
1.0
 40
1.0
 40
1.0
 10
9.9906061982
 20
10.0494885862
 30
0.0
 10
9.9907261439
 20
10.0491433856
 30
0.0
 10
9.9909328625
 20
10.0484943062
 30
0.0
 10
9.9911549689
 20
10.0475733386
 30
0.0
 10
9.9912663596
 20
10.0467808571
 30
0.0
 10
9.9912684218
 20
10.0462008151
 30
0.0
 10
9.9912052551
 20
10.0458101103
 30
0.0
 10
9.9911321401
 20
10.045567254
 30
0.0
 10
9.9910303078
 20
10.0453592804
 30
0.0
 10
9.99089906
 20
10.0451872079
 30
0.0
 10
9.9907385284
 20
10.0450524979
 30
0.0
 10
9.990479213
 20
10.0449202298
 30
0.0
 10
9.9901657394
 20
10.044874563
 30
0.0
 10
9.9898283917
 20
10.0448979838
 30
0.0
 10
9.9894176266
 20
10.0449763963
 30
0.0
 10
9.9888401053
 20
10.0451793749
 30
0.0
 10
9.9880838026
 20
10.0455541054
 30
0.0
 10
9.9872321328
 20
10.0460721402
 30
0.0
 10
9.9862886789
 20
10.0467315286
 30
0.0
 10
9.9852574036
 20
10.0475288794
 30
0.0
 10
9.9841435551
 20
10.048459519
 30
0.0
 10
9.983383889
 20
10.0491348007
 30
0.0
 10
9.9829907268
 20
10.0494929175
 30
0.0
  0
SPLINE
  5
412
100
AcDbEntity
  8
0
100
AcDbSpline
 62
9
  6
CONTINUOUS
 70
0
 71
3
 72
12
 73
8
 74
0
 42
0.0000001
 43
0.0000001
 44
0.0000000001
 40
0.0
 40
0.0
 40
0.0
 40
0.0
 40
0.1037017928
 40
0.2155340605
 40
0.4599067372
 40
0.7246774291
 40
1.0
 40
1.0
 40
1.0
 40
1.0
 10
9.9829907268
 20
10.0494929175
 30
0.0
 10
9.9825121697
 20
10.0499288175
 30
0.0
 10
9.9815308267
 20
10.0508494396
 30
0.0
 10
9.9794832816
 20
10.0528619354
 30
0.0
 10
9.9768007333
 20
10.0556611927
 30
0.0
 10
9.9735177058
 20
10.0592950193
 30
0.0
 10
9.9713201199
 20
10.0618522123
 30
0.0
 10
9.9702154042
 20
10.0631687242
 30
0.0
  0
SPLINE
  5
413
100
AcDbEntity
  8
0
100
AcDbSpline
 62
9
  6
CONTINUOUS
 70
0
 71
3
 72
11
 73
7
 74
0
 42
0.0000001
 43
0.0000001
 44
0.0000000001
 40
0.0
 40
0.0
 40
0.0
 40
0.0
 40
0.275310064
 40
0.540084652
 40
0.7844727218
 40
1.0
 40
1.0
 40
1.0
 40
1.0
 10
9.9702154042
 20
10.0631687242
 30
0.0
 10
9.9691111014
 20
10.0644848428
 30
0.0
 10
9.9669750981
 20
10.0670923487
 30
0.0
 10
9.9639670947
 20
10.0709553519
 30
0.0
 10
9.961294839
 20
10.0746045371
 30
0.0
 10
9.9596878854
 20
10.0769840868
 30
0.0
 10
9.9589685608
 20
10.0781205366
 30
0.0
  0
SPLINE
  5
414
100
AcDbEntity
  8
0
100
AcDbSpline
 62
9
  6
CONTINUOUS
 70
0
 71
3
 72
26
 73
22
 74
0
 42
0.0000001
 43
0.0000001
 44
0.0000000001
 40
0.0
 40
0.0
 40
0.0
 40
0.0
 40
0.1146373452
 40
0.2190856439
 40
0.3128140667
 40
0.3955275159
 40
0.4670850728
 40
0.5275045473
 40
0.5772209522
 40
0.5984069829
 40
0.6174091592
 40
0.6501160843
 40
0.6649737764
 40
0.6796656986
 40
0.7111137842
 40
0.7291294522
 40
0.7491546535
 40
0.7961553888
 40
0.8533786779
 40
0.9212844997
 40
1.0
 40
1.0
 40
1.0
 40
1.0
 10
9.9589685608
 20
10.0781205366
 30
0.0
 10
9.9586840045
 20
10.0785701025
 30
0.0
 10
9.9581505206
 20
10.0794359095
 30
0.0
 10
9.9574268192
 20
10.0806948143
 30
0.0
 10
9.9568203967
 20
10.0818493056
 30
0.0
 10
9.9563346855
 20
10.0828934075
 30
0.0
 10
9.9559717338
 20
10.083822403
 30
0.0
 10
9.9557336207
 20
10.0846326051
 30
0.0
 10
9.9556343373
 20
10.0852367564
 30
0.0
 10
9.9556282871
 20
10.0856550082
 30
0.0
 10
9.9556633368
 20
10.0859916387
 30
0.0
 10
9.9557620623
 20
10.0862930086
 30
0.0
 10
9.9559375556
 20
10.0865255035
 30
0.0
 10
9.956156291
 20
10.0867089287
 30
0.0
 10
9.9564437304
 20
10.086815764
 30
0.0
 10
9.95676432
 20
10.086853847
 30
0.0
 10
9.9571601313
 20
10.0868488877
 30
0.0
 10
9.9577308666
 20
10.0867459175
 30
0.0
 10
9.9584918695
 20
10.0864984029
 30
0.0
 10
9.9593603035
 20
10.0861201843
 30
0.0
 10
9.9599635089
 20
10.0858041236
 30
0.0
 10
9.9602825414
 20
10.0856261146
 30
0.0
  0
SPLINE
  5
415
100
AcDbEntity
  8
0
100
AcDbSpline
 62
9
  6
CONTINUOUS
 70
0
 71
3
 72
27
 73
23
 74
0
 42
0.0000001
 43
0.0000001
 44
0.0000000001
 40
0.0
 40
0.0
 40
0.0
 40
0.0
 40
0.0787470634
 40
0.1466831518
 40
0.2038918205
 40
0.2509028976
 40
0.270948882
 40
0.2889815798
 40
0.3053600688
 40
0.320581565
 40
0.3352742952
 40
0.3501334221
 40
0.3828123249
 40
0.4017906221
 40
0.4229651623
 40
0.4726992859
 40
0.5331006038
 40
0.6045931581
 40
0.687292132
 40
0.7810134486
 40
0.8854038647
 40
1.0
 40
1.0
 40
1.0
 40
1.0
 10
9.8041977914
 20
10.2716414747
 30
0.0
 10
9.804317737
 20
10.2712962741
 30
0.0
 10
9.8045244556
 20
10.2706471947
 30
0.0
 10
9.804746562
 20
10.2697262271
 30
0.0
 10
9.8048579528
 20
10.2689337456
 30
0.0
 10
9.804860015
 20
10.2683537036
 30
0.0
 10
9.8047968483
 20
10.2679629988
 30
0.0
 10
9.8047237333
 20
10.2677201425
 30
0.0
 10
9.804621901
 20
10.2675121689
 30
0.0
 10
9.8044906532
 20
10.2673400964
 30
0.0
 10
9.8043301216
 20
10.2672053865
 30
0.0
 10
9.8040708062
 20
10.2670731183
 30
0.0
 10
9.8037573326
 20
10.2670274516
 30
0.0
 10
9.8034199848
 20
10.2670508723
 30
0.0
 10
9.8030092198
 20
10.2671292848
 30
0.0
 10
9.8024316985
 20
10.2673322634
 30
0.0
 10
9.8016753958
 20
10.2677069939
 30
0.0
 10
9.800823726
 20
10.2682250287
 30
0.0
 10
9.7998802721
 20
10.2688844171
 30
0.0
 10
9.7988489968
 20
10.2696817679
 30
0.0
 10
9.7977351483
 20
10.2706124075
 30
0.0
 10
9.7969754822
 20
10.2712876892
 30
0.0
 10
9.79658232
 20
10.271645806
 30
0.0
  0
SPLINE
  5
416
100
AcDbEntity
  8
0
100
AcDbSpline
 62
9
  6
CONTINUOUS
 70
0
 71
3
 72
12
 73
8
 74
0
 42
0.0000001
 43
0.0000001
 44
0.0000000001
 40
0.0
 40
0.0
 40
0.0
 40
0.0
 40
0.1037017928
 40
0.2155340605
 40
0.4599067372
 40
0.7246774291
 40
1.0
 40
1.0
 40
1.0
 40
1.0
 10
9.79658232
 20
10.271645806
 30
0.0
 10
9.7961037629
 20
10.272081706
 30
0.0
 10
9.7951224199
 20
10.2730023281
 30
0.0
 10
9.7930748748
 20
10.2750148239
 30
0.0
 10
9.7903923265
 20
10.2778140812
 30
0.0
 10
9.787109299
 20
10.2814479078
 30
0.0
 10
9.7849117131
 20
10.2840051008
 30
0.0
 10
9.7838069974
 20
10.2853216127
 30
0.0
  0
SPLINE
  5
417
100
AcDbEntity
  8
0
100
AcDbSpline
 62
9
  6
CONTINUOUS
 70
0
 71
3
 72
11
 73
7
 74
0
 42
0.0000001
 43
0.0000001
 44
0.0000000001
 40
0.0
 40
0.0
 40
0.0
 40
0.0
 40
0.275310064
 40
0.540084652
 40
0.7844727218
 40
1.0
 40
1.0
 40
1.0
 40
1.0
 10
9.7838069974
 20
10.2853216127
 30
0.0
 10
9.7827026946
 20
10.2866377313
 30
0.0
 10
9.7805666913
 20
10.2892452372
 30
0.0
 10
9.7775586879
 20
10.2931082404
 30
0.0
 10
9.7748864322
 20
10.2967574256
 30
0.0
 10
9.7732794786
 20
10.2991369753
 30
0.0
 10
9.7725601539
 20
10.3002734251
 30
0.0
  0
SPLINE
  5
418
100
AcDbEntity
  8
0
100
AcDbSpline
 62
9
  6
CONTINUOUS
 70
0
 71
3
 72
26
 73
22
 74
0
 42
0.0000001
 43
0.0000001
 44
0.0000000001
 40
0.0
 40
0.0
 40
0.0
 40
0.0
 40
0.1146373452
 40
0.2190856439
 40
0.3128140667
 40
0.3955275159
 40
0.4670850728
 40
0.5275045473
 40
0.5772209522
 40
0.5984069829
 40
0.6174091592
 40
0.6501160843
 40
0.6649737764
 40
0.6796656986
 40
0.7111137842
 40
0.7291294522
 40
0.7491546535
 40
0.7961553888
 40
0.8533786779
 40
0.9212844997
 40
1.0
 40
1.0
 40
1.0
 40
1.0
 10
9.7725601539
 20
10.3002734251
 30
0.0
 10
9.7722755977
 20
10.300722991
 30
0.0
 10
9.7717421138
 20
10.301588798
 30
0.0
 10
9.7710184124
 20
10.3028477028
 30
0.0
 10
9.7704119899
 20
10.3040021941
 30
0.0
 10
9.7699262787
 20
10.305046296
 30
0.0
 10
9.769563327
 20
10.3059752915
 30
0.0
 10
9.7693252139
 20
10.3067854936
 30
0.0
 10
9.7692259305
 20
10.3073896449
 30
0.0
 10
9.7692198803
 20
10.3078078967
 30
0.0
 10
9.76925493
 20
10.3081445272
 30
0.0
 10
9.7693536555
 20
10.3084458971
 30
0.0
 10
9.7695291488
 20
10.308678392
 30
0.0
 10
9.7697478842
 20
10.3088618172
 30
0.0
 10
9.7700353236
 20
10.3089686525
 30
0.0
 10
9.7703559132
 20
10.3090067355
 30
0.0
 10
9.7707517245
 20
10.3090017762
 30
0.0
 10
9.7713224598
 20
10.308898806
 30
0.0
 10
9.7720834627
 20
10.3086512914
 30
0.0
 10
9.7729518967
 20
10.3082730728
 30
0.0
 10
9.7735551021
 20
10.3079570121
 30
0.0
 10
9.7738741346
 20
10.3077790031
 30
0.0
  0
SPLINE
  5
419
100
AcDbEntity
  8
0
100
AcDbSpline
 62
9
  6
CONTINUOUS
 70
0
 71
3
 72
27
 73
23
 74
0
 42
0.0000001
 43
0.0000001
 44
0.0000000001
 40
0.0
 40
0.0
 40
0.0
 40
0.0
 40
0.0787470634
 40
0.1466831518
 40
0.2038918205
 40
0.2509028976
 40
0.270948882
 40
0.2889815798
 40
0.3053600688
 40
0.320581565
 40
0.3352742952
 40
0.3501334221
 40
0.3828123249
 40
0.4017906221
 40
0.4229651623
 40
0.4726992859
 40
0.5331006038
 40
0.6045931581
 40
0.687292132
 40
0.7810134486
 40
0.8854038647
 40
1.0
 40
1.0
 40
1.0
 40
1.0
 10
9.6177893845
 20
10.4937943632
 30
0.0
 10
9.6179093302
 20
10.4934491626
 30
0.0
 10
9.6181160488
 20
10.4928000832
 30
0.0
 10
9.6183381552
 20
10.4918791156
 30
0.0
 10
9.618449546
 20
10.4910866341
 30
0.0
 10
9.6184516082
 20
10.4905065921
 30
0.0
 10
9.6183884415
 20
10.4901158873
 30
0.0
 10
9.6183153265
 20
10.489873031
 30
0.0
 10
9.6182134942
 20
10.4896650574
 30
0.0
 10
9.6180822464
 20
10.4894929849
 30
0.0
 10
9.6179217148
 20
10.489358275
 30
0.0
 10
9.6176623994
 20
10.4892260068
 30
0.0
 10
9.6173489258
 20
10.4891803401
 30
0.0
 10
9.617011578
 20
10.4892037608
 30
0.0
 10
9.616600813
 20
10.4892821733
 30
0.0
 10
9.6160232917
 20
10.489485152
 30
0.0
 10
9.615266989
 20
10.4898598824
 30
0.0
 10
9.6144153192
 20
10.4903779172
 30
0.0
 10
9.6134718653
 20
10.4910373056
 30
0.0
 10
9.6124405899
 20
10.4918346564
 30
0.0
 10
9.6113267415
 20
10.492765296
 30
0.0
 10
9.6105670754
 20
10.4934405777
 30
0.0
 10
9.6101739132
 20
10.4937986945
 30
0.0
  0
SPLINE
  5
41A
100
AcDbEntity
  8
0
100
AcDbSpline
 62
9
  6
CONTINUOUS
 70
0
 71
3
 72
12
 73
8
 74
0
 42
0.0000001
 43
0.0000001
 44
0.0000000001
 40
0.0
 40
0.0
 40
0.0
 40
0.0
 40
0.1037017928
 40
0.2155340605
 40
0.4599067372
 40
0.7246774291
 40
1.0
 40
1.0
 40
1.0
 40
1.0
 10
9.6101739132
 20
10.4937986945
 30
0.0
 10
9.6096953561
 20
10.4942345945
 30
0.0
 10
9.6087140131
 20
10.4951552166
 30
0.0
 10
9.606666468
 20
10.4971677124
 30
0.0
 10
9.6039839197
 20
10.4999669697
 30
0.0
 10
9.6007008922
 20
10.5036007963
 30
0.0
 10
9.5985033063
 20
10.5061579893
 30
0.0
 10
9.5973985906
 20
10.5074745012
 30
0.0
  0
SPLINE
  5
41B
100
AcDbEntity
  8
0
100
AcDbSpline
 62
9
  6
CONTINUOUS
 70
0
 71
3
 72
11
 73
7
 74
0
 42
0.0000001
 43
0.0000001
 44
0.0000000001
 40
0.0
 40
0.0
 40
0.0
 40
0.0
 40
0.275310064
 40
0.540084652
 40
0.7844727218
 40
1.0
 40
1.0
 40
1.0
 40
1.0
 10
9.5973985906
 20
10.5074745012
 30
0.0
 10
9.5962942878
 20
10.5087906198
 30
0.0
 10
9.5941582845
 20
10.5113981257
 30
0.0
 10
9.5911502811
 20
10.5152611289
 30
0.0
 10
9.5884780254
 20
10.5189103141
 30
0.0
 10
9.5868710718
 20
10.5212898638
 30
0.0
 10
9.5861517471
 20
10.5224263136
 30
0.0
  0
SPLINE
  5
41C
100
AcDbEntity
  8
0
100
AcDbSpline
 62
9
  6
CONTINUOUS
 70
0
 71
3
 72
26
 73
22
 74
0
 42
0.0000001
 43
0.0000001
 44
0.0000000001
 40
0.0
 40
0.0
 40
0.0
 40
0.0
 40
0.1146373452
 40
0.2190856439
 40
0.3128140667
 40
0.3955275159
 40
0.4670850728
 40
0.5275045473
 40
0.5772209522
 40
0.5984069829
 40
0.6174091592
 40
0.6501160843
 40
0.6649737764
 40
0.6796656986
 40
0.7111137842
 40
0.7291294522
 40
0.7491546535
 40
0.7961553888
 40
0.8533786779
 40
0.9212844997
 40
1.0
 40
1.0
 40
1.0
 40
1.0
 10
9.5861517471
 20
10.5224263136
 30
0.0
 10
9.5858671909
 20
10.5228758795
 30
0.0
 10
9.585333707
 20
10.5237416865
 30
0.0
 10
9.5846100056
 20
10.5250005913
 30
0.0
 10
9.5840035831
 20
10.5261550826
 30
0.0
 10
9.5835178719
 20
10.5271991845
 30
0.0
 10
9.5831549201
 20
10.52812818
 30
0.0
 10
9.5829168071
 20
10.5289383821
 30
0.0
 10
9.5828175237
 20
10.5295425334
 30
0.0
 10
9.5828114735
 20
10.5299607852
 30
0.0
 10
9.5828465232
 20
10.5302974157
 30
0.0
 10
9.5829452487
 20
10.5305987856
 30
0.0
 10
9.583120742
 20
10.5308312805
 30
0.0
 10
9.5833394774
 20
10.5310147057
 30
0.0
 10
9.5836269168
 20
10.531121541
 30
0.0
 10
9.5839475064
 20
10.531159624
 30
0.0
 10
9.5843433177
 20
10.5311546647
 30
0.0
 10
9.584914053
 20
10.5310516945
 30
0.0
 10
9.5856750559
 20
10.5308041799
 30
0.0
 10
9.5865434899
 20
10.5304259613
 30
0.0
 10
9.5871466953
 20
10.5301099006
 30
0.0
 10
9.5874657278
 20
10.5299318916
 30
0.0
  0
SPLINE
  5
41D
100
AcDbEntity
  8
0
100
AcDbSpline
 62
9
  6
CONTINUOUS
 70
0
 71
3
 72
27
 73
23
 74
0
 42
0.0000001
 43
0.0000001
 44
0.0000000001
 40
0.0
 40
0.0
 40
0.0
 40
0.0
 40
0.0787470634
 40
0.1466831518
 40
0.2038918205
 40
0.2509028976
 40
0.270948882
 40
0.2889815798
 40
0.3053600688
 40
0.320581565
 40
0.3352742952
 40
0.3501334221
 40
0.3828123249
 40
0.4017906221
 40
0.4229651623
 40
0.4726992859
 40
0.5331006038
 40
0.6045931581
 40
0.687292132
 40
0.7810134486
 40
0.8854038647
 40
1.0
 40
1.0
 40
1.0
 40
1.0
 10
9.4313809777
 20
10.7159472517
 30
0.0
 10
9.4315009234
 20
10.7156020511
 30
0.0
 10
9.431707642
 20
10.7149529718
 30
0.0
 10
9.4319297484
 20
10.7140320041
 30
0.0
 10
9.4320411392
 20
10.7132395226
 30
0.0
 10
9.4320432014
 20
10.7126594806
 30
0.0
 10
9.4319800347
 20
10.7122687758
 30
0.0
 10
9.4319069197
 20
10.7120259195
 30
0.0
 10
9.4318050873
 20
10.7118179459
 30
0.0
 10
9.4316738396
 20
10.7116458734
 30
0.0
 10
9.431513308
 20
10.7115111635
 30
0.0
 10
9.4312539926
 20
10.7113788953
 30
0.0
 10
9.430940519
 20
10.7113332286
 30
0.0
 10
9.4306031712
 20
10.7113566493
 30
0.0
 10
9.4301924062
 20
10.7114350618
 30
0.0
 10
9.4296148849
 20
10.7116380405
 30
0.0
 10
9.4288585822
 20
10.7120127709
 30
0.0
 10
9.4280069124
 20
10.7125308057
 30
0.0
 10
9.4270634585
 20
10.7131901941
 30
0.0
 10
9.4260321831
 20
10.7139875449
 30
0.0
 10
9.4249183347
 20
10.7149181845
 30
0.0
 10
9.4241586685
 20
10.7155934662
 30
0.0
 10
9.4237655064
 20
10.715951583
 30
0.0
  0
SPLINE
  5
41E
100
AcDbEntity
  8
0
100
AcDbSpline
 62
9
  6
CONTINUOUS
 70
0
 71
3
 72
12
 73
8
 74
0
 42
0.0000001
 43
0.0000001
 44
0.0000000001
 40
0.0
 40
0.0
 40
0.0
 40
0.0
 40
0.1037017928
 40
0.2155340605
 40
0.4599067372
 40
0.7246774291
 40
1.0
 40
1.0
 40
1.0
 40
1.0
 10
9.4237655064
 20
10.715951583
 30
0.0
 10
9.4232869492
 20
10.716387483
 30
0.0
 10
9.4223056063
 20
10.7173081051
 30
0.0
 10
9.4202580612
 20
10.7193206009
 30
0.0
 10
9.4175755129
 20
10.7221198582
 30
0.0
 10
9.4142924854
 20
10.7257536848
 30
0.0
 10
9.4120948995
 20
10.7283108778
 30
0.0
 10
9.4109901838
 20
10.7296273897
 30
0.0
  0
SPLINE
  5
41F
100
AcDbEntity
  8
0
100
AcDbSpline
 62
9
  6
CONTINUOUS
 70
0
 71
3
 72
11
 73
7
 74
0
 42
0.0000001
 43
0.0000001
 44
0.0000000001
 40
0.0
 40
0.0
 40
0.0
 40
0.0
 40
0.275310064
 40
0.540084652
 40
0.7844727218
 40
1.0
 40
1.0
 40
1.0
 40
1.0
 10
9.4109901838
 20
10.7296273897
 30
0.0
 10
9.409885881
 20
10.7309435084
 30
0.0
 10
9.4077498777
 20
10.7335510142
 30
0.0
 10
9.4047418743
 20
10.7374140174
 30
0.0
 10
9.4020696186
 20
10.7410632026
 30
0.0
 10
9.400462665
 20
10.7434427523
 30
0.0
 10
9.3997433403
 20
10.7445792021
 30
0.0
  0
SPLINE
  5
420
100
AcDbEntity
  8
0
100
AcDbSpline
 62
9
  6
CONTINUOUS
 70
0
 71
3
 72
26
 73
22
 74
0
 42
0.0000001
 43
0.0000001
 44
0.0000000001
 40
0.0
 40
0.0
 40
0.0
 40
0.0
 40
0.1146373452
 40
0.2190856439
 40
0.3128140667
 40
0.3955275159
 40
0.4670850728
 40
0.5275045473
 40
0.5772209522
 40
0.5984069829
 40
0.6174091592
 40
0.6501160843
 40
0.6649737764
 40
0.6796656986
 40
0.7111137842
 40
0.7291294522
 40
0.7491546535
 40
0.7961553888
 40
0.8533786779
 40
0.9212844997
 40
1.0
 40
1.0
 40
1.0
 40
1.0
 10
9.3997433403
 20
10.7445792021
 30
0.0
 10
9.3994587841
 20
10.745028768
 30
0.0
 10
9.3989253001
 20
10.745894575
 30
0.0
 10
9.3982015988
 20
10.7471534798
 30
0.0
 10
9.3975951763
 20
10.7483079711
 30
0.0
 10
9.3971094651
 20
10.749352073
 30
0.0
 10
9.3967465133
 20
10.7502810685
 30
0.0
 10
9.3965084003
 20
10.7510912707
 30
0.0
 10
9.3964091168
 20
10.7516954219
 30
0.0
 10
9.3964030667
 20
10.7521136737
 30
0.0
 10
9.3964381164
 20
10.7524503042
 30
0.0
 10
9.3965368419
 20
10.7527516741
 30
0.0
 10
9.3967123352
 20
10.752984169
 30
0.0
 10
9.3969310705
 20
10.7531675942
 30
0.0
 10
9.39721851
 20
10.7532744295
 30
0.0
 10
9.3975390996
 20
10.7533125125
 30
0.0
 10
9.3979349109
 20
10.7533075532
 30
0.0
 10
9.3985056462
 20
10.753204583
 30
0.0
 10
9.3992666491
 20
10.7529570684
 30
0.0
 10
9.400135083
 20
10.7525788498
 30
0.0
 10
9.4007382885
 20
10.7522627891
 30
0.0
 10
9.401057321
 20
10.7520847801
 30
0.0
  0
SPLINE
  5
421
100
AcDbEntity
  8
0
100
AcDbSpline
 62
9
  6
CONTINUOUS
 70
0
 71
3
 72
27
 73
23
 74
0
 42
0.0000001
 43
0.0000001
 44
0.0000000001
 40
0.0
 40
0.0
 40
0.0
 40
0.0
 40
0.0787470634
 40
0.1466831518
 40
0.2038918205
 40
0.2509028976
 40
0.270948882
 40
0.2889815798
 40
0.3053600688
 40
0.320581565
 40
0.3352742952
 40
0.3501334221
 40
0.3828123249
 40
0.4017906221
 40
0.4229651623
 40
0.4726992859
 40
0.5331006038
 40
0.6045931581
 40
0.687292132
 40
0.7810134486
 40
0.8854038647
 40
1.0
 40
1.0
 40
1.0
 40
1.0
 10
9.2449725709
 20
10.9381001402
 30
0.0
 10
9.2450925166
 20
10.9377549396
 30
0.0
 10
9.2452992352
 20
10.9371058603
 30
0.0
 10
9.2455213416
 20
10.9361848926
 30
0.0
 10
9.2456327324
 20
10.9353924111
 30
0.0
 10
9.2456347946
 20
10.9348123691
 30
0.0
 10
9.2455716279
 20
10.9344216643
 30
0.0
 10
9.2454985129
 20
10.9341788081
 30
0.0
 10
9.2453966805
 20
10.9339708344
 30
0.0
 10
9.2452654328
 20
10.9337987619
 30
0.0
 10
9.2451049012
 20
10.933664052
 30
0.0
 10
9.2448455858
 20
10.9335317838
 30
0.0
 10
9.2445321121
 20
10.9334861171
 30
0.0
 10
9.2441947644
 20
10.9335095378
 30
0.0
 10
9.2437839994
 20
10.9335879503
 30
0.0
 10
9.243206478
 20
10.933790929
 30
0.0
 10
9.2424501754
 20
10.9341656594
 30
0.0
 10
9.2415985056
 20
10.9346836942
 30
0.0
 10
9.2406550517
 20
10.9353430826
 30
0.0
 10
9.2396237763
 20
10.9361404334
 30
0.0
 10
9.2385099279
 20
10.937071073
 30
0.0
 10
9.2377502617
 20
10.9377463547
 30
0.0
 10
9.2373570996
 20
10.9381044715
 30
0.0
  0
SPLINE
  5
422
100
AcDbEntity
  8
0
100
AcDbSpline
 62
9
  6
CONTINUOUS
 70
0
 71
3
 72
12
 73
8
 74
0
 42
0.0000001
 43
0.0000001
 44
0.0000000001
 40
0.0
 40
0.0
 40
0.0
 40
0.0
 40
0.1037017928
 40
0.2155340605
 40
0.4599067372
 40
0.7246774291
 40
1.0
 40
1.0
 40
1.0
 40
1.0
 10
9.2373570996
 20
10.9381044715
 30
0.0
 10
9.2368785424
 20
10.9385403715
 30
0.0
 10
9.2358971994
 20
10.9394609936
 30
0.0
 10
9.2338496544
 20
10.9414734894
 30
0.0
 10
9.231167106
 20
10.9442727467
 30
0.0
 10
9.2278840786
 20
10.9479065733
 30
0.0
 10
9.2256864927
 20
10.9504637663
 30
0.0
 10
9.2245817769
 20
10.9517802782
 30
0.0
  0
SPLINE
  5
423
100
AcDbEntity
  8
0
100
AcDbSpline
 62
9
  6
CONTINUOUS
 70
0
 71
3
 72
11
 73
7
 74
0
 42
0.0000001
 43
0.0000001
 44
0.0000000001
 40
0.0
 40
0.0
 40
0.0
 40
0.0
 40
0.275310064
 40
0.540084652
 40
0.7844727218
 40
1.0
 40
1.0
 40
1.0
 40
1.0
 10
9.2245817769
 20
10.9517802782
 30
0.0
 10
9.2234774742
 20
10.9530963969
 30
0.0
 10
9.2213414709
 20
10.9557039027
 30
0.0
 10
9.2183334675
 20
10.9595669059
 30
0.0
 10
9.2156612118
 20
10.9632160911
 30
0.0
 10
9.2140542582
 20
10.9655956408
 30
0.0
 10
9.2133349335
 20
10.9667320906
 30
0.0
  0
SPLINE
  5
424
100
AcDbEntity
  8
0
100
AcDbSpline
 62
9
  6
CONTINUOUS
 70
0
 71
3
 72
26
 73
22
 74
0
 42
0.0000001
 43
0.0000001
 44
0.0000000001
 40
0.0
 40
0.0
 40
0.0
 40
0.0
 40
0.1146373452
 40
0.2190856439
 40
0.3128140667
 40
0.3955275159
 40
0.4670850728
 40
0.5275045473
 40
0.5772209522
 40
0.5984069829
 40
0.6174091592
 40
0.6501160843
 40
0.6649737764
 40
0.6796656986
 40
0.7111137842
 40
0.7291294522
 40
0.7491546535
 40
0.7961553888
 40
0.8533786779
 40
0.9212844997
 40
1.0
 40
1.0
 40
1.0
 40
1.0
 10
9.2133349335
 20
10.9667320906
 30
0.0
 10
9.2130503773
 20
10.9671816565
 30
0.0
 10
9.2125168933
 20
10.9680474635
 30
0.0
 10
9.211793192
 20
10.9693063683
 30
0.0
 10
9.2111867695
 20
10.9704608597
 30
0.0
 10
9.2107010583
 20
10.9715049615
 30
0.0
 10
9.2103381065
 20
10.972433957
 30
0.0
 10
9.2100999935
 20
10.9732441592
 30
0.0
 10
9.21000071
 20
10.9738483104
 30
0.0
 10
9.2099946599
 20
10.9742665623
 30
0.0
 10
9.2100297096
 20
10.9746031927
 30
0.0
 10
9.2101284351
 20
10.9749045626
 30
0.0
 10
9.2103039284
 20
10.9751370575
 30
0.0
 10
9.2105226637
 20
10.9753204827
 30
0.0
 10
9.2108101031
 20
10.975427318
 30
0.0
 10
9.2111306928
 20
10.975465401
 30
0.0
 10
9.2115265041
 20
10.9754604417
 30
0.0
 10
9.2120972393
 20
10.9753574715
 30
0.0
 10
9.2128582423
 20
10.9751099569
 30
0.0
 10
9.2137266762
 20
10.9747317383
 30
0.0
 10
9.2143298817
 20
10.9744156777
 30
0.0
 10
9.2146489142
 20
10.9742376686
 30
0.0
  0
SPLINE
  5
425
100
AcDbEntity
  8
0
100
AcDbSpline
 62
9
  6
CONTINUOUS
 70
0
 71
3
 72
27
 73
23
 74
0
 42
0.0000001
 43
0.0000001
 44
0.0000000001
 40
0.0
 40
0.0
 40
0.0
 40
0.0
 40
0.0787470634
 40
0.1466831518
 40
0.2038918205
 40
0.2509028976
 40
0.270948882
 40
0.2889815798
 40
0.3053600688
 40
0.320581565
 40
0.3352742952
 40
0.3501334221
 40
0.3828123249
 40
0.4017906221
 40
0.4229651623
 40
0.4726992859
 40
0.5331006038
 40
0.6045931581
 40
0.687292132
 40
0.7810134486
 40
0.8854038647
 40
1.0
 40
1.0
 40
1.0
 40
1.0
 10
9.0585641641
 20
11.1602530287
 30
0.0
 10
9.0586841098
 20
11.1599078281
 30
0.0
 10
9.0588908284
 20
11.1592587488
 30
0.0
 10
9.0591129348
 20
11.1583377811
 30
0.0
 10
9.0592243256
 20
11.1575452996
 30
0.0
 10
9.0592263877
 20
11.1569652576
 30
0.0
 10
9.059163221
 20
11.1565745528
 30
0.0
 10
9.0590901061
 20
11.1563316966
 30
0.0
 10
9.0589882737
 20
11.1561237229
 30
0.0
 10
9.058857026
 20
11.1559516504
 30
0.0
 10
9.0586964944
 20
11.1558169405
 30
0.0
 10
9.058437179
 20
11.1556846723
 30
0.0
 10
9.0581237053
 20
11.1556390056
 30
0.0
 10
9.0577863576
 20
11.1556624263
 30
0.0
 10
9.0573755926
 20
11.1557408388
 30
0.0
 10
9.0567980712
 20
11.1559438175
 30
0.0
 10
9.0560417686
 20
11.1563185479
 30
0.0
 10
9.0551900988
 20
11.1568365827
 30
0.0
 10
9.0542466449
 20
11.1574959711
 30
0.0
 10
9.0532153695
 20
11.1582933219
 30
0.0
 10
9.052101521
 20
11.1592239615
 30
0.0
 10
9.0513418549
 20
11.1598992432
 30
0.0
 10
9.0509486927
 20
11.16025736
 30
0.0
  0
SPLINE
  5
426
100
AcDbEntity
  8
0
100
AcDbSpline
 62
9
  6
CONTINUOUS
 70
0
 71
3
 72
12
 73
8
 74
0
 42
0.0000001
 43
0.0000001
 44
0.0000000001
 40
0.0
 40
0.0
 40
0.0
 40
0.0
 40
0.1037017928
 40
0.2155340605
 40
0.4599067372
 40
0.7246774291
 40
1.0
 40
1.0
 40
1.0
 40
1.0
 10
9.0509486927
 20
11.16025736
 30
0.0
 10
9.0504701356
 20
11.16069326
 30
0.0
 10
9.0494887926
 20
11.1616138821
 30
0.0
 10
9.0474412476
 20
11.1636263779
 30
0.0
 10
9.0447586992
 20
11.1664256352
 30
0.0
 10
9.0414756718
 20
11.1700594618
 30
0.0
 10
9.0392780859
 20
11.1726166548
 30
0.0
 10
9.0381733701
 20
11.1739331667
 30
0.0
  0
SPLINE
  5
427
100
AcDbEntity
  8
0
100
AcDbSpline
 62
9
  6
CONTINUOUS
 70
0
 71
3
 72
11
 73
7
 74
0
 42
0.0000001
 43
0.0000001
 44
0.0000000001
 40
0.0
 40
0.0
 40
0.0
 40
0.0
 40
0.275310064
 40
0.540084652
 40
0.7844727218
 40
1.0
 40
1.0
 40
1.0
 40
1.0
 10
9.0381733701
 20
11.1739331667
 30
0.0
 10
9.0370690674
 20
11.1752492854
 30
0.0
 10
9.0349330641
 20
11.1778567912
 30
0.0
 10
9.0319250607
 20
11.1817197944
 30
0.0
 10
9.029252805
 20
11.1853689797
 30
0.0
 10
9.0276458514
 20
11.1877485293
 30
0.0
 10
9.0269265267
 20
11.1888849791
 30
0.0
  0
SPLINE
  5
428
100
AcDbEntity
  8
0
100
AcDbSpline
 62
9
  6
CONTINUOUS
 70
0
 71
3
 72
26
 73
22
 74
0
 42
0.0000001
 43
0.0000001
 44
0.0000000001
 40
0.0
 40
0.0
 40
0.0
 40
0.0
 40
0.1146373452
 40
0.2190856439
 40
0.3128140667
 40
0.3955275159
 40
0.4670850728
 40
0.5275045473
 40
0.5772209522
 40
0.5984069829
 40
0.6174091592
 40
0.6501160843
 40
0.6649737764
 40
0.6796656986
 40
0.7111137842
 40
0.7291294522
 40
0.7491546535
 40
0.7961553888
 40
0.8533786779
 40
0.9212844997
 40
1.0
 40
1.0
 40
1.0
 40
1.0
 10
9.0269265267
 20
11.1888849791
 30
0.0
 10
9.0266419705
 20
11.1893345451
 30
0.0
 10
9.0261084865
 20
11.190200352
 30
0.0
 10
9.0253847852
 20
11.1914592568
 30
0.0
 10
9.0247783627
 20
11.1926137482
 30
0.0
 10
9.0242926515
 20
11.19365785
 30
0.0
 10
9.0239296997
 20
11.1945868455
 30
0.0
 10
9.0236915867
 20
11.1953970477
 30
0.0
 10
9.0235923032
 20
11.1960011989
 30
0.0
 10
9.0235862531
 20
11.1964194508
 30
0.0
 10
9.0236213028
 20
11.1967560812
 30
0.0
 10
9.0237200283
 20
11.1970574511
 30
0.0
 10
9.0238955216
 20
11.197289946
 30
0.0
 10
9.0241142569
 20
11.1974733712
 30
0.0
 10
9.0244016963
 20
11.1975802065
 30
0.0
 10
9.024722286
 20
11.1976182895
 30
0.0
 10
9.0251180973
 20
11.1976133302
 30
0.0
 10
9.0256888325
 20
11.19751036
 30
0.0
 10
9.0264498354
 20
11.1972628454
 30
0.0
 10
9.0273182694
 20
11.1968846268
 30
0.0
 10
9.0279214749
 20
11.1965685662
 30
0.0
 10
9.0282405074
 20
11.1963905571
 30
0.0
  0
SPLINE
  5
429
100
AcDbEntity
  8
0
100
AcDbSpline
 62
9
  6
CONTINUOUS
 70
0
 71
3
 72
27
 73
23
 74
0
 42
0.0000001
 43
0.0000001
 44
0.0000000001
 40
0.0
 40
0.0
 40
0.0
 40
0.0
 40
0.0787470634
 40
0.1466831518
 40
0.2038918205
 40
0.2509028976
 40
0.270948882
 40
0.2889815798
 40
0.3053600688
 40
0.320581565
 40
0.3352742952
 40
0.3501334221
 40
0.3828123249
 40
0.4017906221
 40
0.4229651623
 40
0.4726992859
 40
0.5331006038
 40
0.6045931581
 40
0.687292132
 40
0.7810134486
 40
0.8854038647
 40
1.0
 40
1.0
 40
1.0
 40
1.0
 10
8.8721557573
 20
11.3824059172
 30
0.0
 10
8.872275703
 20
11.3820607166
 30
0.0
 10
8.8724824216
 20
11.3814116373
 30
0.0
 10
8.872704528
 20
11.3804906696
 30
0.0
 10
8.8728159188
 20
11.3796981881
 30
0.0
 10
8.8728179809
 20
11.3791181461
 30
0.0
 10
8.8727548142
 20
11.3787274414
 30
0.0
 10
8.8726816992
 20
11.3784845851
 30
0.0
 10
8.8725798669
 20
11.3782766114
 30
0.0
 10
8.8724486192
 20
11.3781045389
 30
0.0
 10
8.8722880876
 20
11.377969829
 30
0.0
 10
8.8720287722
 20
11.3778375608
 30
0.0
 10
8.8717152985
 20
11.3777918941
 30
0.0
 10
8.8713779508
 20
11.3778153148
 30
0.0
 10
8.8709671858
 20
11.3778937273
 30
0.0
 10
8.8703896644
 20
11.378096706
 30
0.0
 10
8.8696333618
 20
11.3784714365
 30
0.0
 10
8.868781692
 20
11.3789894712
 30
0.0
 10
8.8678382381
 20
11.3796488596
 30
0.0
 10
8.8668069627
 20
11.3804462104
 30
0.0
 10
8.8656931142
 20
11.38137685
 30
0.0
 10
8.8649334481
 20
11.3820521317
 30
0.0
 10
8.8645402859
 20
11.3824102485
 30
0.0
  0
SPLINE
  5
42A
100
AcDbEntity
  8
0
100
AcDbSpline
 62
9
  6
CONTINUOUS
 70
0
 71
3
 72
12
 73
8
 74
0
 42
0.0000001
 43
0.0000001
 44
0.0000000001
 40
0.0
 40
0.0
 40
0.0
 40
0.0
 40
0.1037017928
 40
0.2155340605
 40
0.4599067372
 40
0.7246774291
 40
1.0
 40
1.0
 40
1.0
 40
1.0
 10
8.8645402859
 20
11.3824102485
 30
0.0
 10
8.8640617288
 20
11.3828461485
 30
0.0
 10
8.8630803858
 20
11.3837667706
 30
0.0
 10
8.8610328408
 20
11.3857792664
 30
0.0
 10
8.8583502924
 20
11.3885785237
 30
0.0
 10
8.855067265
 20
11.3922123503
 30
0.0
 10
8.852869679
 20
11.3947695433
 30
0.0
 10
8.8517649633
 20
11.3960860552
 30
0.0
  0
SPLINE
  5
42B
100
AcDbEntity
  8
0
100
AcDbSpline
 62
9
  6
CONTINUOUS
 70
0
 71
3
 72
11
 73
7
 74
0
 42
0.0000001
 43
0.0000001
 44
0.0000000001
 40
0.0
 40
0.0
 40
0.0
 40
0.0
 40
0.275310064
 40
0.540084652
 40
0.7844727218
 40
1.0
 40
1.0
 40
1.0
 40
1.0
 10
8.8517649633
 20
11.3960860552
 30
0.0
 10
8.8506606606
 20
11.3974021739
 30
0.0
 10
8.8485246573
 20
11.4000096797
 30
0.0
 10
8.8455166539
 20
11.403872683
 30
0.0
 10
8.8428443982
 20
11.4075218682
 30
0.0
 10
8.8412374446
 20
11.4099014178
 30
0.0
 10
8.8405181199
 20
11.4110378676
 30
0.0
  0
SPLINE
  5
42C
100
AcDbEntity
  8
0
100
AcDbSpline
 62
9
  6
CONTINUOUS
 70
0
 71
3
 72
26
 73
22
 74
0
 42
0.0000001
 43
0.0000001
 44
0.0000000001
 40
0.0
 40
0.0
 40
0.0
 40
0.0
 40
0.1146373452
 40
0.2190856439
 40
0.3128140667
 40
0.3955275159
 40
0.4670850728
 40
0.5275045473
 40
0.5772209522
 40
0.5984069829
 40
0.6174091592
 40
0.6501160843
 40
0.6649737764
 40
0.6796656986
 40
0.7111137842
 40
0.7291294522
 40
0.7491546535
 40
0.7961553888
 40
0.8533786779
 40
0.9212844997
 40
1.0
 40
1.0
 40
1.0
 40
1.0
 10
8.8405181199
 20
11.4110378676
 30
0.0
 10
8.8402335636
 20
11.4114874336
 30
0.0
 10
8.8397000797
 20
11.4123532405
 30
0.0
 10
8.8389763784
 20
11.4136121453
 30
0.0
 10
8.8383699559
 20
11.4147666367
 30
0.0
 10
8.8378842447
 20
11.4158107385
 30
0.0
 10
8.8375212929
 20
11.416739734
 30
0.0
 10
8.8372831799
 20
11.4175499362
 30
0.0
 10
8.8371838964
 20
11.4181540874
 30
0.0
 10
8.8371778463
 20
11.4185723393
 30
0.0
 10
8.8372128959
 20
11.4189089697
 30
0.0
 10
8.8373116215
 20
11.4192103396
 30
0.0
 10
8.8374871148
 20
11.4194428345
 30
0.0
 10
8.8377058501
 20
11.4196262597
 30
0.0
 10
8.8379932895
 20
11.419733095
 30
0.0
 10
8.8383138792
 20
11.419771178
 30
0.0
 10
8.8387096905
 20
11.4197662187
 30
0.0
 10
8.8392804257
 20
11.4196632485
 30
0.0
 10
8.8400414286
 20
11.4194157339
 30
0.0
 10
8.8409098626
 20
11.4190375153
 30
0.0
 10
8.8415130681
 20
11.4187214547
 30
0.0
 10
8.8418321005
 20
11.4185434456
 30
0.0
  0
SPLINE
  5
42D
100
AcDbEntity
  8
0
100
AcDbSpline
 62
9
  6
CONTINUOUS
 70
0
 71
3
 72
27
 73
23
 74
0
 42
0.0000001
 43
0.0000001
 44
0.0000000001
 40
0.0
 40
0.0
 40
0.0
 40
0.0
 40
0.0787470634
 40
0.1466831518
 40
0.2038918205
 40
0.2509028976
 40
0.270948882
 40
0.2889815798
 40
0.3053600688
 40
0.320581565
 40
0.3352742952
 40
0.3501334221
 40
0.3828123249
 40
0.4017906221
 40
0.4229651623
 40
0.4726992859
 40
0.5331006038
 40
0.6045931581
 40
0.687292132
 40
0.7810134486
 40
0.8854038647
 40
1.0
 40
1.0
 40
1.0
 40
1.0
 10
8.6857473505
 20
11.6045588057
 30
0.0
 10
8.6858672962
 20
11.6042136051
 30
0.0
 10
8.6860740148
 20
11.6035645258
 30
0.0
 10
8.6862961212
 20
11.6026435581
 30
0.0
 10
8.6864075119
 20
11.6018510766
 30
0.0
 10
8.6864095741
 20
11.6012710346
 30
0.0
 10
8.6863464074
 20
11.6008803299
 30
0.0
 10
8.6862732924
 20
11.6006374736
 30
0.0
 10
8.6861714601
 20
11.6004294999
 30
0.0
 10
8.6860402124
 20
11.6002574274
 30
0.0
 10
8.6858796808
 20
11.6001227175
 30
0.0
 10
8.6856203654
 20
11.5999904493
 30
0.0
 10
8.6853068917
 20
11.5999447826
 30
0.0
 10
8.684969544
 20
11.5999682033
 30
0.0
 10
8.6845587789
 20
11.6000466158
 30
0.0
 10
8.6839812576
 20
11.6002495945
 30
0.0
 10
8.683224955
 20
11.600624325
 30
0.0
 10
8.6823732852
 20
11.6011423597
 30
0.0
 10
8.6814298313
 20
11.6018017481
 30
0.0
 10
8.6803985559
 20
11.602599099
 30
0.0
 10
8.6792847074
 20
11.6035297385
 30
0.0
 10
8.6785250413
 20
11.6042050202
 30
0.0
 10
8.6781318791
 20
11.604563137
 30
0.0
  0
SPLINE
  5
42E
100
AcDbEntity
  8
0
100
AcDbSpline
 62
9
  6
CONTINUOUS
 70
0
 71
3
 72
12
 73
8
 74
0
 42
0.0000001
 43
0.0000001
 44
0.0000000001
 40
0.0
 40
0.0
 40
0.0
 40
0.0
 40
0.1037017928
 40
0.2155340605
 40
0.4599067372
 40
0.7246774291
 40
1.0
 40
1.0
 40
1.0
 40
1.0
 10
8.6781318791
 20
11.604563137
 30
0.0
 10
8.677653322
 20
11.604999037
 30
0.0
 10
8.676671979
 20
11.6059196591
 30
0.0
 10
8.6746244339
 20
11.6079321549
 30
0.0
 10
8.6719418856
 20
11.6107314123
 30
0.0
 10
8.6686588582
 20
11.6143652388
 30
0.0
 10
8.6664612722
 20
11.6169224318
 30
0.0
 10
8.6653565565
 20
11.6182389437
 30
0.0
  0
SPLINE
  5
42F
100
AcDbEntity
  8
0
100
AcDbSpline
 62
9
  6
CONTINUOUS
 70
0
 71
3
 72
11
 73
7
 74
0
 42
0.0000001
 43
0.0000001
 44
0.0000000001
 40
0.0
 40
0.0
 40
0.0
 40
0.0
 40
0.275310064
 40
0.540084652
 40
0.7844727218
 40
1.0
 40
1.0
 40
1.0
 40
1.0
 10
8.6653565565
 20
11.6182389437
 30
0.0
 10
8.6642522537
 20
11.6195550624
 30
0.0
 10
8.6621162505
 20
11.6221625682
 30
0.0
 10
8.659108247
 20
11.6260255715
 30
0.0
 10
8.6564359914
 20
11.6296747567
 30
0.0
 10
8.6548290378
 20
11.6320543063
 30
0.0
 10
8.6541097131
 20
11.6331907561
 30
0.0
  0
SPLINE
  5
430
100
AcDbEntity
  8
0
100
AcDbSpline
 62
9
  6
CONTINUOUS
 70
0
 71
3
 72
26
 73
22
 74
0
 42
0.0000001
 43
0.0000001
 44
0.0000000001
 40
0.0
 40
0.0
 40
0.0
 40
0.0
 40
0.1146373452
 40
0.2190856439
 40
0.3128140667
 40
0.3955275159
 40
0.4670850728
 40
0.5275045473
 40
0.5772209522
 40
0.5984069829
 40
0.6174091592
 40
0.6501160843
 40
0.6649737764
 40
0.6796656986
 40
0.7111137842
 40
0.7291294522
 40
0.7491546535
 40
0.7961553888
 40
0.8533786779
 40
0.9212844997
 40
1.0
 40
1.0
 40
1.0
 40
1.0
 10
8.6541097131
 20
11.6331907561
 30
0.0
 10
8.6538251568
 20
11.6336403221
 30
0.0
 10
8.6532916729
 20
11.634506129
 30
0.0
 10
8.6525679716
 20
11.6357650338
 30
0.0
 10
8.651961549
 20
11.6369195252
 30
0.0
 10
8.6514758379
 20
11.637963627
 30
0.0
 10
8.6511128861
 20
11.6388926225
 30
0.0
 10
8.6508747731
 20
11.6397028247
 30
0.0
 10
8.6507754896
 20
11.640306976
 30
0.0
 10
8.6507694395
 20
11.6407252278
 30
0.0
 10
8.6508044891
 20
11.6410618583
 30
0.0
 10
8.6509032147
 20
11.6413632281
 30
0.0
 10
8.651078708
 20
11.641595723
 30
0.0
 10
8.6512974433
 20
11.6417791482
 30
0.0
 10
8.6515848827
 20
11.6418859836
 30
0.0
 10
8.6519054724
 20
11.6419240665
 30
0.0
 10
8.6523012836
 20
11.6419191072
 30
0.0
 10
8.6528720189
 20
11.641816137
 30
0.0
 10
8.6536330218
 20
11.6415686224
 30
0.0
 10
8.6545014558
 20
11.6411904038
 30
0.0
 10
8.6551046612
 20
11.6408743432
 30
0.0
 10
8.6554236937
 20
11.6406963341
 30
0.0
  0
SPLINE
  5
431
100
AcDbEntity
  8
0
100
AcDbSpline
 62
9
  6
CONTINUOUS
 70
0
 71
3
 72
27
 73
23
 74
0
 42
0.0000001
 43
0.0000001
 44
0.0000000001
 40
0.0
 40
0.0
 40
0.0
 40
0.0
 40
0.0787470634
 40
0.1466831518
 40
0.2038918205
 40
0.2509028976
 40
0.270948882
 40
0.2889815798
 40
0.3053600688
 40
0.320581565
 40
0.3352742952
 40
0.3501334221
 40
0.3828123249
 40
0.4017906221
 40
0.4229651623
 40
0.4726992859
 40
0.5331006038
 40
0.6045931581
 40
0.687292132
 40
0.7810134486
 40
0.8854038647
 40
1.0
 40
1.0
 40
1.0
 40
1.0
 10
8.4993389437
 20
11.8267116943
 30
0.0
 10
8.4994588894
 20
11.8263664936
 30
0.0
 10
8.499665608
 20
11.8257174143
 30
0.0
 10
8.4998877144
 20
11.8247964466
 30
0.0
 10
8.4999991051
 20
11.8240039651
 30
0.0
 10
8.5000011673
 20
11.8234239231
 30
0.0
 10
8.4999380006
 20
11.8230332184
 30
0.0
 10
8.4998648856
 20
11.8227903621
 30
0.0
 10
8.4997630533
 20
11.8225823884
 30
0.0
 10
8.4996318056
 20
11.8224103159
 30
0.0
 10
8.499471274
 20
11.822275606
 30
0.0
 10
8.4992119586
 20
11.8221433379
 30
0.0
 10
8.4988984849
 20
11.8220976711
 30
0.0
 10
8.4985611372
 20
11.8221210918
 30
0.0
 10
8.4981503721
 20
11.8221995043
 30
0.0
 10
8.4975728508
 20
11.822402483
 30
0.0
 10
8.4968165481
 20
11.8227772135
 30
0.0
 10
8.4959648784
 20
11.8232952482
 30
0.0
 10
8.4950214244
 20
11.8239546366
 30
0.0
 10
8.4939901491
 20
11.8247519875
 30
0.0
 10
8.4928763006
 20
11.825682627
 30
0.0
 10
8.4921166345
 20
11.8263579087
 30
0.0
 10
8.4917234723
 20
11.8267160256
 30
0.0
  0
SPLINE
  5
432
100
AcDbEntity
  8
0
100
AcDbSpline
 62
9
  6
CONTINUOUS
 70
0
 71
3
 72
12
 73
8
 74
0
 42
0.0000001
 43
0.0000001
 44
0.0000000001
 40
0.0
 40
0.0
 40
0.0
 40
0.0
 40
0.1037017928
 40
0.2155340605
 40
0.4599067372
 40
0.7246774291
 40
1.0
 40
1.0
 40
1.0
 40
1.0
 10
8.4917234723
 20
11.8267160256
 30
0.0
 10
8.4912449152
 20
11.8271519255
 30
0.0
 10
8.4902635722
 20
11.8280725476
 30
0.0
 10
8.4882160271
 20
11.8300850434
 30
0.0
 10
8.4855334788
 20
11.8328843008
 30
0.0
 10
8.4822504513
 20
11.8365181274
 30
0.0
 10
8.4800528654
 20
11.8390753203
 30
0.0
 10
8.4789481497
 20
11.8403918322
 30
0.0
  0
SPLINE
  5
433
100
AcDbEntity
  8
0
100
AcDbSpline
 62
9
  6
CONTINUOUS
 70
0
 71
3
 72
11
 73
7
 74
0
 42
0.0000001
 43
0.0000001
 44
0.0000000001
 40
0.0
 40
0.0
 40
0.0
 40
0.0
 40
0.275310064
 40
0.540084652
 40
0.7844727218
 40
1.0
 40
1.0
 40
1.0
 40
1.0
 10
8.4789481497
 20
11.8403918322
 30
0.0
 10
8.4778438469
 20
11.8417079509
 30
0.0
 10
8.4757078436
 20
11.8443154567
 30
0.0
 10
8.4726998402
 20
11.84817846
 30
0.0
 10
8.4700275846
 20
11.8518276452
 30
0.0
 10
8.4684206309
 20
11.8542071948
 30
0.0
 10
8.4677013063
 20
11.8553436446
 30
0.0
  0
SPLINE
  5
434
100
AcDbEntity
  8
0
100
AcDbSpline
 62
9
  6
CONTINUOUS
 70
0
 71
3
 72
26
 73
22
 74
0
 42
0.0000001
 43
0.0000001
 44
0.0000000001
 40
0.0
 40
0.0
 40
0.0
 40
0.0
 40
0.1146373452
 40
0.2190856439
 40
0.3128140667
 40
0.3955275159
 40
0.4670850728
 40
0.5275045473
 40
0.5772209522
 40
0.5984069829
 40
0.6174091592
 40
0.6501160843
 40
0.6649737764
 40
0.6796656986
 40
0.7111137842
 40
0.7291294522
 40
0.7491546535
 40
0.7961553888
 40
0.8533786779
 40
0.9212844997
 40
1.0
 40
1.0
 40
1.0
 40
1.0
 10
8.4677013063
 20
11.8553436446
 30
0.0
 10
8.46741675
 20
11.8557932106
 30
0.0
 10
8.4668832661
 20
11.8566590175
 30
0.0
 10
8.4661595648
 20
11.8579179223
 30
0.0
 10
8.4655531422
 20
11.8590724137
 30
0.0
 10
8.4650674311
 20
11.8601165155
 30
0.0
 10
8.4647044793
 20
11.861045511
 30
0.0
 10
8.4644663662
 20
11.8618557132
 30
0.0
 10
8.4643670828
 20
11.8624598645
 30
0.0
 10
8.4643610327
 20
11.8628781163
 30
0.0
 10
8.4643960823
 20
11.8632147468
 30
0.0
 10
8.4644948079
 20
11.8635161166
 30
0.0
 10
8.4646703011
 20
11.8637486115
 30
0.0
 10
8.4648890365
 20
11.8639320367
 30
0.0
 10
8.4651764759
 20
11.8640388721
 30
0.0
 10
8.4654970655
 20
11.864076955
 30
0.0
 10
8.4658928768
 20
11.8640719957
 30
0.0
 10
8.4664636121
 20
11.8639690255
 30
0.0
 10
8.467224615
 20
11.863721511
 30
0.0
 10
8.468093049
 20
11.8633432924
 30
0.0
 10
8.4686962544
 20
11.8630272317
 30
0.0
 10
8.4690152869
 20
11.8628492226
 30
0.0
  0
SPLINE
  5
435
100
AcDbEntity
  8
0
100
AcDbSpline
 62
9
  6
CONTINUOUS
 70
0
 71
3
 72
27
 73
23
 74
0
 42
0.0000001
 43
0.0000001
 44
0.0000000001
 40
0.0
 40
0.0
 40
0.0
 40
0.0
 40
0.0787470634
 40
0.1466831518
 40
0.2038918205
 40
0.2509028976
 40
0.270948882
 40
0.2889815798
 40
0.3053600688
 40
0.320581565
 40
0.3352742952
 40
0.3501334221
 40
0.3828123249
 40
0.4017906221
 40
0.4229651623
 40
0.4726992859
 40
0.5331006038
 40
0.6045931581
 40
0.687292132
 40
0.7810134486
 40
0.8854038647
 40
1.0
 40
1.0
 40
1.0
 40
1.0
 10
8.3129305369
 20
12.0488645828
 30
0.0
 10
8.3130504826
 20
12.0485193821
 30
0.0
 10
8.3132572012
 20
12.0478703028
 30
0.0
 10
8.3134793076
 20
12.0469493351
 30
0.0
 10
8.3135906983
 20
12.0461568536
 30
0.0
 10
8.3135927605
 20
12.0455768116
 30
0.0
 10
8.3135295938
 20
12.0451861069
 30
0.0
 10
8.3134564788
 20
12.0449432506
 30
0.0
 10
8.3133546465
 20
12.0447352769
 30
0.0
 10
8.3132233988
 20
12.0445632044
 30
0.0
 10
8.3130628672
 20
12.0444284945
 30
0.0
 10
8.3128035518
 20
12.0442962264
 30
0.0
 10
8.3124900781
 20
12.0442505596
 30
0.0
 10
8.3121527304
 20
12.0442739804
 30
0.0
 10
8.3117419653
 20
12.0443523928
 30
0.0
 10
8.311164444
 20
12.0445553715
 30
0.0
 10
8.3104081413
 20
12.044930102
 30
0.0
 10
8.3095564716
 20
12.0454481367
 30
0.0
 10
8.3086130176
 20
12.0461075251
 30
0.0
 10
8.3075817423
 20
12.046904876
 30
0.0
 10
8.3064678938
 20
12.0478355155
 30
0.0
 10
8.3057082277
 20
12.0485107972
 30
0.0
 10
8.3053150655
 20
12.0488689141
 30
0.0
  0
SPLINE
  5
436
100
AcDbEntity
  8
0
100
AcDbSpline
 62
9
  6
CONTINUOUS
 70
0
 71
3
 72
12
 73
8
 74
0
 42
0.0000001
 43
0.0000001
 44
0.0000000001
 40
0.0
 40
0.0
 40
0.0
 40
0.0
 40
0.1037017928
 40
0.2155340605
 40
0.4599067372
 40
0.7246774291
 40
1.0
 40
1.0
 40
1.0
 40
1.0
 10
8.3053150655
 20
12.0488689141
 30
0.0
 10
8.3048365084
 20
12.049304814
 30
0.0
 10
8.3038551654
 20
12.0502254361
 30
0.0
 10
8.3018076203
 20
12.0522379319
 30
0.0
 10
8.299125072
 20
12.0550371893
 30
0.0
 10
8.2958420445
 20
12.0586710159
 30
0.0
 10
8.2936444586
 20
12.0612282088
 30
0.0
 10
8.2925397429
 20
12.0625447207
 30
0.0
  0
SPLINE
  5
437
100
AcDbEntity
  8
0
100
AcDbSpline
 62
9
  6
CONTINUOUS
 70
0
 71
3
 72
11
 73
7
 74
0
 42
0.0000001
 43
0.0000001
 44
0.0000000001
 40
0.0
 40
0.0
 40
0.0
 40
0.0
 40
0.275310064
 40
0.540084652
 40
0.7844727218
 40
1.0
 40
1.0
 40
1.0
 40
1.0
 10
8.2925397429
 20
12.0625447207
 30
0.0
 10
8.2914354401
 20
12.0638608394
 30
0.0
 10
8.2892994368
 20
12.0664683452
 30
0.0
 10
8.2862914334
 20
12.0703313485
 30
0.0
 10
8.2836191778
 20
12.0739805337
 30
0.0
 10
8.2820122241
 20
12.0763600833
 30
0.0
 10
8.2812928995
 20
12.0774965331
 30
0.0
  0
SPLINE
  5
438
100
AcDbEntity
  8
0
100
AcDbSpline
 62
9
  6
CONTINUOUS
 70
0
 71
3
 72
26
 73
22
 74
0
 42
0.0000001
 43
0.0000001
 44
0.0000000001
 40
0.0
 40
0.0
 40
0.0
 40
0.0
 40
0.1146373452
 40
0.2190856439
 40
0.3128140667
 40
0.3955275159
 40
0.4670850728
 40
0.5275045473
 40
0.5772209522
 40
0.5984069829
 40
0.6174091592
 40
0.6501160843
 40
0.6649737764
 40
0.6796656986
 40
0.7111137842
 40
0.7291294522
 40
0.7491546535
 40
0.7961553888
 40
0.8533786779
 40
0.9212844997
 40
1.0
 40
1.0
 40
1.0
 40
1.0
 10
8.2812928995
 20
12.0774965331
 30
0.0
 10
8.2810083432
 20
12.0779460991
 30
0.0
 10
8.2804748593
 20
12.078811906
 30
0.0
 10
8.2797511579
 20
12.0800708108
 30
0.0
 10
8.2791447354
 20
12.0812253022
 30
0.0
 10
8.2786590243
 20
12.082269404
 30
0.0
 10
8.2782960725
 20
12.0831983995
 30
0.0
 10
8.2780579594
 20
12.0840086017
 30
0.0
 10
8.277958676
 20
12.084612753
 30
0.0
 10
8.2779526259
 20
12.0850310048
 30
0.0
 10
8.2779876755
 20
12.0853676353
 30
0.0
 10
8.2780864011
 20
12.0856690051
 30
0.0
 10
8.2782618943
 20
12.0859015
 30
0.0
 10
8.2784806297
 20
12.0860849252
 30
0.0
 10
8.2787680691
 20
12.0861917606
 30
0.0
 10
8.2790886587
 20
12.0862298435
 30
0.0
 10
8.27948447
 20
12.0862248842
 30
0.0
 10
8.2800552053
 20
12.086121914
 30
0.0
 10
8.2808162082
 20
12.0858743995
 30
0.0
 10
8.2816846422
 20
12.0854961809
 30
0.0
 10
8.2822878476
 20
12.0851801202
 30
0.0
 10
8.2826068801
 20
12.0850021111
 30
0.0
  0
SPLINE
  5
439
100
AcDbEntity
  8
0
100
AcDbSpline
 62
9
  6
CONTINUOUS
 70
0
 71
3
 72
27
 73
23
 74
0
 42
0.0000001
 43
0.0000001
 44
0.0000000001
 40
0.0
 40
0.0
 40
0.0
 40
0.0
 40
0.0787470634
 40
0.1466831518
 40
0.2038918205
 40
0.2509028976
 40
0.270948882
 40
0.2889815798
 40
0.3053600688
 40
0.320581565
 40
0.3352742952
 40
0.3501334221
 40
0.3828123249
 40
0.4017906221
 40
0.4229651623
 40
0.4726992859
 40
0.5331006038
 40
0.6045931581
 40
0.687292132
 40
0.7810134486
 40
0.8854038647
 40
1.0
 40
1.0
 40
1.0
 40
1.0
 10
8.1265221301
 20
12.2710174713
 30
0.0
 10
8.1266420758
 20
12.2706722706
 30
0.0
 10
8.1268487944
 20
12.2700231913
 30
0.0
 10
8.1270709008
 20
12.2691022236
 30
0.0
 10
8.1271822915
 20
12.2683097421
 30
0.0
 10
8.1271843537
 20
12.2677297001
 30
0.0
 10
8.127121187
 20
12.2673389954
 30
0.0
 10
8.127048072
 20
12.2670961391
 30
0.0
 10
8.1269462397
 20
12.2668881654
 30
0.0
 10
8.126814992
 20
12.2667160929
 30
0.0
 10
8.1266544604
 20
12.266581383
 30
0.0
 10
8.1263951449
 20
12.2664491149
 30
0.0
 10
8.1260816713
 20
12.2664034481
 30
0.0
 10
8.1257443236
 20
12.2664268689
 30
0.0
 10
8.1253335585
 20
12.2665052813
 30
0.0
 10
8.1247560372
 20
12.26670826
 30
0.0
 10
8.1239997345
 20
12.2670829905
 30
0.0
 10
8.1231480648
 20
12.2676010252
 30
0.0
 10
8.1222046108
 20
12.2682604136
 30
0.0
 10
8.1211733355
 20
12.2690577645
 30
0.0
 10
8.120059487
 20
12.269988404
 30
0.0
 10
8.1192998209
 20
12.2706636857
 30
0.0
 10
8.1189066587
 20
12.2710218026
 30
0.0
  0
SPLINE
  5
43A
100
AcDbEntity
  8
0
100
AcDbSpline
 62
9
  6
CONTINUOUS
 70
0
 71
3
 72
12
 73
8
 74
0
 42
0.0000001
 43
0.0000001
 44
0.0000000001
 40
0.0
 40
0.0
 40
0.0
 40
0.0
 40
0.1037017928
 40
0.2155340605
 40
0.4599067372
 40
0.7246774291
 40
1.0
 40
1.0
 40
1.0
 40
1.0
 10
8.1189066587
 20
12.2710218026
 30
0.0
 10
8.1184281016
 20
12.2714577025
 30
0.0
 10
8.1174467586
 20
12.2723783246
 30
0.0
 10
8.1153992135
 20
12.2743908204
 30
0.0
 10
8.1127166652
 20
12.2771900778
 30
0.0
 10
8.1094336377
 20
12.2808239044
 30
0.0
 10
8.1072360518
 20
12.2833810973
 30
0.0
 10
8.1061313361
 20
12.2846976092
 30
0.0
  0
SPLINE
  5
43B
100
AcDbEntity
  8
0
100
AcDbSpline
 62
9
  6
CONTINUOUS
 70
0
 71
3
 72
11
 73
7
 74
0
 42
0.0000001
 43
0.0000001
 44
0.0000000001
 40
0.0
 40
0.0
 40
0.0
 40
0.0
 40
0.275310064
 40
0.540084652
 40
0.7844727218
 40
1.0
 40
1.0
 40
1.0
 40
1.0
 10
8.1061313361
 20
12.2846976092
 30
0.0
 10
8.1050270333
 20
12.2860137279
 30
0.0
 10
8.10289103
 20
12.2886212338
 30
0.0
 10
8.0998830266
 20
12.292484237
 30
0.0
 10
8.0972107709
 20
12.2961334222
 30
0.0
 10
8.0956038173
 20
12.2985129718
 30
0.0
 10
8.0948844927
 20
12.2996494216
 30
0.0
  0
SPLINE
  5
43C
100
AcDbEntity
  8
0
100
AcDbSpline
 62
9
  6
CONTINUOUS
 70
0
 71
3
 72
26
 73
22
 74
0
 42
0.0000001
 43
0.0000001
 44
0.0000000001
 40
0.0
 40
0.0
 40
0.0
 40
0.0
 40
0.1146373452
 40
0.2190856439
 40
0.3128140667
 40
0.3955275159
 40
0.4670850728
 40
0.5275045473
 40
0.5772209522
 40
0.5984069829
 40
0.6174091592
 40
0.6501160843
 40
0.6649737764
 40
0.6796656986
 40
0.7111137842
 40
0.7291294522
 40
0.7491546535
 40
0.7961553888
 40
0.8533786779
 40
0.9212844997
 40
1.0
 40
1.0
 40
1.0
 40
1.0
 10
8.0948844927
 20
12.2996494216
 30
0.0
 10
8.0945999364
 20
12.3000989876
 30
0.0
 10
8.0940664525
 20
12.3009647946
 30
0.0
 10
8.0933427511
 20
12.3022236993
 30
0.0
 10
8.0927363286
 20
12.3033781907
 30
0.0
 10
8.0922506174
 20
12.3044222925
 30
0.0
 10
8.0918876657
 20
12.305351288
 30
0.0
 10
8.0916495526
 20
12.3061614902
 30
0.0
 10
8.0915502692
 20
12.3067656415
 30
0.0
 10
8.091544219
 20
12.3071838933
 30
0.0
 10
8.0915792687
 20
12.3075205238
 30
0.0
 10
8.0916779942
 20
12.3078218936
 30
0.0
 10
8.0918534875
 20
12.3080543885
 30
0.0
 10
8.0920722229
 20
12.3082378137
 30
0.0
 10
8.0923596623
 20
12.3083446491
 30
0.0
 10
8.0926802519
 20
12.308382732
 30
0.0
 10
8.0930760632
 20
12.3083777727
 30
0.0
 10
8.0936467985
 20
12.3082748025
 30
0.0
 10
8.0944078014
 20
12.308027288
 30
0.0
 10
8.0952762354
 20
12.3076490694
 30
0.0
 10
8.0958794408
 20
12.3073330087
 30
0.0
 10
8.0961984733
 20
12.3071549996
 30
0.0
  0
SPLINE
  5
43D
100
AcDbEntity
  8
0
100
AcDbSpline
 62
9
  6
CONTINUOUS
 70
0
 71
3
 72
19
 73
15
 74
0
 42
0.0000001
 43
0.0000001
 44
0.0000000001
 40
0.0
 40
0.0
 40
0.0
 40
0.0
 40
0.0463215015
 40
0.0921786737
 40
0.1384766779
 40
0.1860191467
 40
0.2872164488
 40
0.3420283548
 40
0.4000569826
 40
0.4615564614
 40
0.526726232
 40
0.6685510195
 40
0.8263843709
 40
1.0
 40
1.0
 40
1.0
 40
1.0
 10
8.2839688044
 20
12.1059951759
 30
0.0
 10
8.284264876
 20
12.1065473711
 30
0.0
 10
8.2849401016
 20
12.1076027999
 30
0.0
 10
8.2861910154
 20
12.1090067998
 30
0.0
 10
8.287656076
 20
12.1102118634
 30
0.0
 10
8.2899219894
 20
12.1115780332
 30
0.0
 10
8.2925514797
 20
12.1124993843
 30
0.0
 10
8.2954045349
 20
12.113006457
 30
0.0
 10
8.2977599967
 20
12.1131863191
 30
0.0
 10
8.300261106
 20
12.1131482098
 30
0.0
 10
8.3038784222
 20
12.112786015
 30
0.0
 10
8.3087131475
 20
12.1116965373
 30
0.0
 10
8.3147070986
 20
12.1093928624
 30
0.0
 10
8.3186383031
 20
12.1071994881
 30
0.0
 10
8.3206050956
 20
12.105916275
 30
0.0
  0
SPLINE
  5
43E
100
AcDbEntity
  8
0
100
AcDbSpline
 62
9
  6
CONTINUOUS
 70
0
 71
3
 72
34
 73
30
 74
0
 42
0.0000001
 43
0.0000001
 44
0.0000000001
 40
0.0
 40
0.0
 40
0.0
 40
0.0
 40
0.0725157979
 40
0.1061118495
 40
0.1379633232
 40
0.1967358888
 40
0.2239467727
 40
0.2498589612
 40
0.2983254164
 40
0.321328479
 40
0.3437865332
 40
0.3659725373
 40
0.3881966934
 40
0.4108001907
 40
0.4341412936
 40
0.4585792401
 40
0.4844554569
 40
0.5120694704
 40
0.5416671121
 40
0.5734159228
 40
0.6073795442
 40
0.6435141056
 40
0.6816332083
 40
0.7623193369
 40
0.8454053284
 40
0.8863084015
 40
0.9259939356
 40
0.9639926705
 40
1.0
 40
1.0
 40
1.0
 40
1.0
 10
9.8278312393
 20
10.3050174434
 30
0.0
 10
9.8286249846
 20
10.3028856636
 30
0.0
 10
9.8295141291
 20
10.2996528098
 30
0.0
 10
9.8300809526
 20
10.2953578465
 30
0.0
 10
9.8302464115
 20
10.2914609146
 30
0.0
 10
9.8299183401
 20
10.2877543319
 30
0.0
 10
9.8291016197
 20
10.2843351592
 30
0.0
 10
9.8280545142
 20
10.2813216149
 30
0.0
 10
9.8266009632
 20
10.2785990935
 30
0.0
 10
9.8247538144
 20
10.2762949625
 30
0.0
 10
9.8232196251
 20
10.2748196155
 30
0.0
 10
9.8215184557
 20
10.2735809811
 30
0.0
 10
9.8196553428
 20
10.2725920438
 30
0.0
 10
9.8176358545
 20
10.2718670835
 30
0.0
 10
9.8154663883
 20
10.2714203658
 30
0.0
 10
9.8131542517
 20
10.271265933
 30
0.0
 10
9.8107081729
 20
10.2714176139
 30
0.0
 10
9.8081386873
 20
10.2718870256
 30
0.0
 10
9.8054595218
 20
10.2726855926
 30
0.0
 10
9.8026888786
 20
10.2738209146
 30
0.0
 10
9.7998498856
 20
10.2752947778
 30
0.0
 10
9.796973382
 20
10.2771042937
 30
0.0
 10
9.7930653238
 20
10.2800005196
 30
0.0
 10
9.7883975833
 20
10.2843116371
 30
0.0
 10
9.7842671243
 20
10.2892518191
 30
0.0
 10
9.7813755543
 20
10.293498353
 30
0.0
 10
9.7794919762
 20
10.296709915
 30
0.0
 10
9.7779133374
 20
10.2999112687
 30
0.0
 10
9.7770461371
 20
10.3020678604
 30
0.0
 10
9.7766700448
 20
10.3031329264
 30
0.0
  0
SPLINE
  5
43F
100
AcDbEntity
  8
0
100
AcDbSpline
 62
9
  6
CONTINUOUS
 70
0
 71
3
 72
11
 73
7
 74
0
 42
0.0000001
 43
0.0000001
 44
0.0000000001
 40
0.0
 40
0.0
 40
0.0
 40
0.0
 40
0.2441851412
 40
0.4999992673
 40
0.7558138011
 40
1.0
 40
1.0
 40
1.0
 40
1.0
 10
9.8108480155
 20
10.3252570606
 30
0.0
 10
9.8127364689
 20
10.3241481156
 30
0.0
 10
9.8164170915
 20
10.3215436147
 30
0.0
 10
9.8212300757
 20
10.3167235613
 30
0.0
 10
9.8251411776
 20
10.3111467325
 30
0.0
 10
9.8270670804
 20
10.307069788
 30
0.0
 10
9.8278312393
 20
10.3050174434
 30
0.0
  0
SPLINE
  5
440
100
AcDbEntity
  8
0
100
AcDbSpline
 62
9
  6
CONTINUOUS
 70
0
 71
3
 72
34
 73
30
 74
0
 42
0.0000001
 43
0.0000001
 44
0.0000000001
 40
0.0
 40
0.0
 40
0.0
 40
0.0
 40
0.072515321
 40
0.1061111188
 40
0.1379623545
 40
0.1967345114
 40
0.2239452258
 40
0.2498572692
 40
0.2983235138
 40
0.3213265159
 40
0.3437845428
 40
0.3659705554
 40
0.3881947573
 40
0.4107983379
 40
0.4341395594
 40
0.4585776561
 40
0.4844540493
 40
0.512068258
 40
0.5416661061
 40
0.5734151255
 40
0.6073789483
 40
0.6435136958
 40
0.6816329592
 40
0.7623193127
 40
0.84540539
 40
0.8863084646
 40
0.9259939832
 40
0.9639926945
 40
1.0
 40
1.0
 40
1.0
 40
1.0
 10
9.6414230369
 20
10.5271697475
 30
0.0
 10
9.6422167729
 20
10.5250379938
 30
0.0
 10
9.643105828
 20
10.5218051554
 30
0.0
 10
9.6436725899
 20
10.5175102409
 30
0.0
 10
9.6438379889
 20
10.5136133563
 30
0.0
 10
9.6435098715
 20
10.5099068251
 30
0.0
 10
9.6426931125
 20
10.5064877052
 30
0.0
 10
9.6416459749
 20
10.5034742086
 30
0.0
 10
9.6401923969
 20
10.500751736
 30
0.0
 10
9.6383452279
 20
10.4984476545
 30
0.0
 10
9.6368110252
 20
10.4969723423
 30
0.0
 10
9.6351098445
 20
10.4957337422
 30
0.0
 10
9.6332467225
 20
10.4947448383
 30
0.0
 10
9.6312272271
 20
10.4940199106
 30
0.0
 10
9.6290577561
 20
10.4935732244
 30
0.0
 10
9.6267456166
 20
10.4934188216
 30
0.0
 10
9.6242995372
 20
10.4935705311
 30
0.0
 10
9.6217300531
 20
10.4940399693
 30
0.0
 10
9.6190508915
 20
10.4948385607
 30
0.0
 10
9.6162802546
 20
10.4959739045
 30
0.0
 10
9.6134412705
 20
10.4974477862
 30
0.0
 10
9.6105647789
 20
10.4992573172
 30
0.0
 10
9.6066567422
 20
10.5021535561
 30
0.0
 10
9.6019890343
 20
10.5064646774
 30
0.0
 10
9.5978586082
 20
10.511404852
 30
0.0
 10
9.5949670652
 20
10.5156513721
 30
0.0
 10
9.5930835071
 20
10.51886292
 30
0.0
 10
9.5915048861
 20
10.5220642578
 30
0.0
 10
9.5906376962
 20
10.5242208379
 30
0.0
 10
9.5902616086
 20
10.525285898
 30
0.0
  0
SPLINE
  5
441
100
AcDbEntity
  8
0
100
AcDbSpline
 62
9
  6
CONTINUOUS
 70
0
 71
3
 72
11
 73
7
 74
0
 42
0.0000001
 43
0.0000001
 44
0.0000000001
 40
0.0
 40
0.0
 40
0.0
 40
0.0
 40
0.244185806
 40
0.5000005067
 40
0.7558149633
 40
1.0
 40
1.0
 40
1.0
 40
1.0
 10
9.6244396086
 20
10.5474099491
 30
0.0
 10
9.6263281077
 20
10.5463009711
 30
0.0
 10
9.6300088279
 20
10.5436964064
 30
0.0
 10
9.634821885
 20
10.5388761929
 30
0.0
 10
9.6387330537
 20
10.5332992148
 30
0.0
 10
9.6406588461
 20
10.5292221225
 30
0.0
 10
9.6414230369
 20
10.5271697475
 30
0.0
  0
SPLINE
  5
442
100
AcDbEntity
  8
0
100
AcDbSpline
 62
9
  6
CONTINUOUS
 70
0
 71
3
 72
33
 73
29
 74
0
 42
0.0000001
 43
0.0000001
 44
0.0000000001
 40
0.0
 40
0.0
 40
0.0
 40
0.0
 40
0.0725185393
 40
0.13790341
 40
0.1966781482
 40
0.2238901236
 40
0.2498034219
 40
0.2982722072
 40
0.321276536
 40
0.3437359535
 40
0.3659234439
 40
0.388149233
 40
0.4107545298
 40
0.4340976122
 40
0.4585377237
 40
0.4844162897
 40
0.5120328273
 40
0.5416331546
 40
0.5733847875
 40
0.6073513403
 40
0.6434889102
 40
0.6816110571
 40
0.7623032327
 40
0.8453950038
 40
0.8863008209
 40
0.9259889905
 40
0.9639902517
 40
1.0
 40
1.0
 40
1.0
 40
1.0
 10
9.4550152768
 20
10.749320787
 30
0.0
 10
9.4558089812
 20
10.7471891218
 30
0.0
 10
9.4569631533
 20
10.7429908906
 30
0.0
 10
9.4575226427
 20
10.7368176795
 30
0.0
 10
9.4571013069
 20
10.7320587044
 30
0.0
 10
9.4562843951
 20
10.7286395203
 30
0.0
 10
9.4552371722
 20
10.7256262291
 30
0.0
 10
9.4537835151
 20
10.7229038911
 30
0.0
 10
9.4519362936
 20
10.7205999674
 30
0.0
 10
9.4504020574
 20
10.7191247619
 30
0.0
 10
9.4487008509
 20
10.7178862655
 30
0.0
 10
9.4468377105
 20
10.716897461
 30
0.0
 10
9.4448182039
 20
10.716172628
 30
0.0
 10
9.442648729
 20
10.7157260309
 30
0.0
 10
9.4403365926
 20
10.715571711
 30
0.0
 10
9.4378905233
 20
10.715723496
 30
0.0
 10
9.4353210562
 20
10.7161930015
 30
0.0
 10
9.4326419188
 20
10.7169916514
 30
0.0
 10
9.4298713134
 20
10.7181270429
 30
0.0
 10
9.4270323681
 20
10.7196009609
 30
0.0
 10
9.4241559223
 20
10.7214105155
 30
0.0
 10
9.4202479611
 20
10.7243067638
 30
0.0
 10
9.4155803553
 20
10.7286178604
 30
0.0
 10
9.4114500233
 20
10.7335579789
 30
0.0
 10
9.4085585498
 20
10.7378044348
 30
0.0
 10
9.4066750371
 20
10.7410159288
 30
0.0
 10
9.405096452
 20
10.7442172109
 30
0.0
 10
9.4042292799
 20
10.7463737526
 30
0.0
 10
9.4038531992
 20
10.7474387939
 30
0.0
  0
SPLINE
  5
443
100
AcDbEntity
  8
0
100
AcDbSpline
 62
9
  6
CONTINUOUS
 70
0
 71
3
 72
34
 73
30
 74
0
 42
0.0000001
 43
0.0000001
 44
0.0000000001
 40
0.0
 40
0.0
 40
0.0
 40
0.0
 40
0.0725144035
 40
0.1061097175
 40
0.1379605001
 40
0.1967318848
 40
0.223942281
 40
0.249854054
 40
0.298319911
 40
0.3213228041
 40
0.3437807847
 40
0.3659668174
 40
0.3881911081
 40
0.4107948452
 40
0.4341362869
 40
0.4585746592
 40
0.4844513725
 40
0.5120659325
 40
0.541664149
 40
0.5734135369
 40
0.6073777127
 40
0.6435127835
 40
0.6816323252
 40
0.7623190724
 40
0.8454053259
 40
0.8863084314
 40
0.9259939615
 40
0.9639926801
 40
1.0
 40
1.0
 40
1.0
 40
1.0
 10
9.2686066195
 20
10.9714743915
 30
0.0
 10
9.2694003368
 20
10.9693426905
 30
0.0
 10
9.270289218
 20
10.9661098846
 30
0.0
 10
9.2708558607
 20
10.9618150683
 30
0.0
 10
9.2710211449
 20
10.9579182782
 30
0.0
 10
9.2706929398
 20
10.9542118488
 30
0.0
 10
9.2698761084
 20
10.950792833
 30
0.0
 10
9.2688289113
 20
10.9477794297
 30
0.0
 10
9.2673752842
 20
10.945057052
 30
0.0
 10
9.2655280796
 20
10.9427530659
 30
0.0
 10
9.2639938539
 20
10.9412778203
 30
0.0
 10
9.2622926547
 20
10.9400392849
 30
0.0
 10
9.2604295185
 20
10.9390504437
 30
0.0
 10
9.2584100132
 20
10.9383255764
 30
0.0
 10
9.2562405366
 20
10.9378789476
 30
0.0
 10
9.2539283957
 20
10.937724599
 30
0.0
 10
9.2514823191
 20
10.9378763588
 30
0.0
 10
9.2489128421
 20
10.9383458429
 30
0.0
 10
9.2462336919
 20
10.9391444754
 30
0.0
 10
9.2434630712
 20
10.9402798542
 30
0.0
 10
9.240624108
 20
10.9417537644
 30
0.0
 10
9.2377476421
 20
10.9435633165
 30
0.0
 10
9.2338396497
 20
10.94645957
 30
0.0
 10
9.2291720046
 20
10.9507706864
 30
0.0
 10
9.2250416389
 20
10.9557108358
 30
0.0
 10
9.222150143
 20
10.9599573221
 30
0.0
 10
9.2202666175
 20
10.9631688396
 30
0.0
 10
9.2186880242
 20
10.9663701447
 30
0.0
 10
9.2178208494
 20
10.9685267018
 30
0.0
 10
9.2174447683
 20
10.9695917505
 30
0.0
  0
SPLINE
  5
444
100
AcDbEntity
  8
0
100
AcDbSpline
 62
9
  6
CONTINUOUS
 70
0
 71
3
 72
34
 73
30
 74
0
 42
0.0000001
 43
0.0000001
 44
0.0000000001
 40
0.0
 40
0.0
 40
0.0
 40
0.0
 40
0.0725144035
 40
0.1061097175
 40
0.1379605001
 40
0.1967318848
 40
0.223942281
 40
0.249854054
 40
0.298319911
 40
0.3213228041
 40
0.3437807847
 40
0.3659668174
 40
0.3881911081
 40
0.4107948452
 40
0.4341362869
 40
0.4585746592
 40
0.4844513725
 40
0.5120659325
 40
0.541664149
 40
0.5734135369
 40
0.6073777127
 40
0.6435127835
 40
0.6816323252
 40
0.7623190724
 40
0.8454053259
 40
0.8863084314
 40
0.9259939615
 40
0.9639926801
 40
1.0
 40
1.0
 40
1.0
 40
1.0
 10
9.0821982127
 20
11.19362728
 30
0.0
 10
9.08299193
 20
11.191495579
 30
0.0
 10
9.0838808112
 20
11.1882627732
 30
0.0
 10
9.0844474539
 20
11.1839679568
 30
0.0
 10
9.0846127381
 20
11.1800711667
 30
0.0
 10
9.084284533
 20
11.1763647373
 30
0.0
 10
9.0834677016
 20
11.1729457215
 30
0.0
 10
9.0824205045
 20
11.1699323182
 30
0.0
 10
9.0809668773
 20
11.1672099405
 30
0.0
 10
9.0791196728
 20
11.1649059544
 30
0.0
 10
9.0775854471
 20
11.1634307088
 30
0.0
 10
9.0758842479
 20
11.1621921734
 30
0.0
 10
9.0740211117
 20
11.1612033322
 30
0.0
 10
9.0720016064
 20
11.1604784649
 30
0.0
 10
9.0698321298
 20
11.1600318361
 30
0.0
 10
9.0675199889
 20
11.1598774875
 30
0.0
 10
9.0650739123
 20
11.1600292473
 30
0.0
 10
9.0625044352
 20
11.1604987314
 30
0.0
 10
9.0598252851
 20
11.1612973639
 30
0.0
 10
9.0570546644
 20
11.1624327427
 30
0.0
 10
9.0542157012
 20
11.1639066529
 30
0.0
 10
9.0513392353
 20
11.165716205
 30
0.0
 10
9.0474312429
 20
11.1686124585
 30
0.0
 10
9.0427635978
 20
11.1729235749
 30
0.0
 10
9.0386332321
 20
11.1778637243
 30
0.0
 10
9.0357417362
 20
11.1821102106
 30
0.0
 10
9.0338582107
 20
11.1853217281
 30
0.0
 10
9.0322796174
 20
11.1885230332
 30
0.0
 10
9.0314124426
 20
11.1906795903
 30
0.0
 10
9.0310363615
 20
11.191744639
 30
0.0
  0
SPLINE
  5
445
100
AcDbEntity
  8
0
100
AcDbSpline
 62
9
  6
CONTINUOUS
 70
0
 71
3
 72
34
 73
30
 74
0
 42
0.0000001
 43
0.0000001
 44
0.0000000001
 40
0.0
 40
0.0
 40
0.0
 40
0.0
 40
0.0725144035
 40
0.1061097175
 40
0.1379605001
 40
0.1967318848
 40
0.223942281
 40
0.249854054
 40
0.298319911
 40
0.3213228041
 40
0.3437807847
 40
0.3659668174
 40
0.3881911081
 40
0.4107948452
 40
0.4341362869
 40
0.4585746592
 40
0.4844513725
 40
0.5120659325
 40
0.541664149
 40
0.5734135369
 40
0.6073777127
 40
0.6435127835
 40
0.6816323252
 40
0.7623190724
 40
0.8454053259
 40
0.8863084314
 40
0.9259939615
 40
0.9639926801
 40
1.0
 40
1.0
 40
1.0
 40
1.0
 10
8.8957898059
 20
11.4157801685
 30
0.0
 10
8.8965835232
 20
11.4136484675
 30
0.0
 10
8.8974724044
 20
11.4104156617
 30
0.0
 10
8.8980390471
 20
11.4061208453
 30
0.0
 10
8.8982043312
 20
11.4022240552
 30
0.0
 10
8.8978761261
 20
11.3985176258
 30
0.0
 10
8.8970592948
 20
11.39509861
 30
0.0
 10
8.8960120977
 20
11.3920852067
 30
0.0
 10
8.8945584705
 20
11.3893628291
 30
0.0
 10
8.892711266
 20
11.3870588429
 30
0.0
 10
8.8911770403
 20
11.3855835973
 30
0.0
 10
8.8894758411
 20
11.3843450619
 30
0.0
 10
8.8876127049
 20
11.3833562207
 30
0.0
 10
8.8855931996
 20
11.3826313534
 30
0.0
 10
8.883423723
 20
11.3821847246
 30
0.0
 10
8.8811115821
 20
11.382030376
 30
0.0
 10
8.8786655055
 20
11.3821821358
 30
0.0
 10
8.8760960284
 20
11.38265162
 30
0.0
 10
8.8734168783
 20
11.3834502524
 30
0.0
 10
8.8706462576
 20
11.3845856312
 30
0.0
 10
8.8678072944
 20
11.3860595414
 30
0.0
 10
8.8649308285
 20
11.3878690935
 30
0.0
 10
8.8610228361
 20
11.390765347
 30
0.0
 10
8.856355191
 20
11.3950764634
 30
0.0
 10
8.8522248252
 20
11.4000166128
 30
0.0
 10
8.8493333294
 20
11.4042630991
 30
0.0
 10
8.8474498039
 20
11.4074746166
 30
0.0
 10
8.8458712106
 20
11.4106759217
 30
0.0
 10
8.8450040358
 20
11.4128324788
 30
0.0
 10
8.8446279547
 20
11.4138975275
 30
0.0
  0
SPLINE
  5
446
100
AcDbEntity
  8
0
100
AcDbSpline
 62
9
  6
CONTINUOUS
 70
0
 71
3
 72
34
 73
30
 74
0
 42
0.0000001
 43
0.0000001
 44
0.0000000001
 40
0.0
 40
0.0
 40
0.0
 40
0.0
 40
0.072515321
 40
0.1061111188
 40
0.1379623545
 40
0.1967345114
 40
0.2239452258
 40
0.2498572692
 40
0.2983235138
 40
0.3213265159
 40
0.3437845428
 40
0.3659705554
 40
0.3881947573
 40
0.4107983379
 40
0.4341395594
 40
0.4585776561
 40
0.4844540493
 40
0.512068258
 40
0.5416661061
 40
0.5734151255
 40
0.6073789483
 40
0.6435136958
 40
0.6816329592
 40
0.7623193127
 40
0.84540539
 40
0.8863084646
 40
0.9259939832
 40
0.9639926945
 40
1.0
 40
1.0
 40
1.0
 40
1.0
 10
8.7093810029
 20
11.63793419
 30
0.0
 10
8.7101747388
 20
11.6358024363
 30
0.0
 10
8.7110637939
 20
11.6325695979
 30
0.0
 10
8.7116305558
 20
11.6282746834
 30
0.0
 10
8.7117959549
 20
11.6243777988
 30
0.0
 10
8.7114678374
 20
11.6206712676
 30
0.0
 10
8.7106510784
 20
11.6172521477
 30
0.0
 10
8.7096039408
 20
11.6142386511
 30
0.0
 10
8.7081503629
 20
11.6115161785
 30
0.0
 10
8.7063031938
 20
11.609212097
 30
0.0
 10
8.7047689911
 20
11.6077367849
 30
0.0
 10
8.7030678104
 20
11.6064981847
 30
0.0
 10
8.7012046884
 20
11.6055092808
 30
0.0
 10
8.699185193
 20
11.6047843532
 30
0.0
 10
8.697015722
 20
11.6043376669
 30
0.0
 10
8.6947035826
 20
11.6041832641
 30
0.0
 10
8.6922575032
 20
11.6043349736
 30
0.0
 10
8.6896880191
 20
11.6048044118
 30
0.0
 10
8.6870088574
 20
11.6056030032
 30
0.0
 10
8.6842382206
 20
11.606738347
 30
0.0
 10
8.6813992365
 20
11.6082122287
 30
0.0
 10
8.6785227448
 20
11.6100217597
 30
0.0
 10
8.6746147082
 20
11.6129179986
 30
0.0
 10
8.6699470003
 20
11.6172291199
 30
0.0
 10
8.6658165741
 20
11.6221692946
 30
0.0
 10
8.6629250312
 20
11.6264158146
 30
0.0
 10
8.661041473
 20
11.6296273625
 30
0.0
 10
8.659462852
 20
11.6328287003
 30
0.0
 10
8.6585956621
 20
11.6349852804
 30
0.0
 10
8.6582195746
 20
11.6360503406
 30
0.0
  0
SPLINE
  5
447
100
AcDbEntity
  8
0
100
AcDbSpline
 62
9
  6
CONTINUOUS
 70
0
 71
3
 72
11
 73
7
 74
0
 42
0.0000001
 43
0.0000001
 44
0.0000000001
 40
0.0
 40
0.0
 40
0.0
 40
0.0
 40
0.244185806
 40
0.5000005067
 40
0.7558149633
 40
1.0
 40
1.0
 40
1.0
 40
1.0
 10
8.6923975746
 20
11.6581743917
 30
0.0
 10
8.6942860737
 20
11.6570654136
 30
0.0
 10
8.6979667938
 20
11.654460849
 30
0.0
 10
8.7027798509
 20
11.6496406355
 30
0.0
 10
8.7066910196
 20
11.6440636573
 30
0.0
 10
8.708616812
 20
11.639986565
 30
0.0
 10
8.7093810029
 20
11.63793419
 30
0.0
  0
SPLINE
  5
448
100
AcDbEntity
  8
0
100
AcDbSpline
 62
9
  6
CONTINUOUS
 70
0
 71
3
 72
34
 73
30
 74
0
 42
0.0000001
 43
0.0000001
 44
0.0000000001
 40
0.0
 40
0.0
 40
0.0
 40
0.0
 40
0.0725148027
 40
0.1061103247
 40
0.1379613017
 40
0.1967330145
 40
0.2239435446
 40
0.2498554304
 40
0.2983214463
 40
0.3213243826
 40
0.3437823799
 40
0.3659684018
 40
0.3881926536
 40
0.4107963245
 40
0.434137675
 40
0.4585759349
 40
0.4844525195
 40
0.5120669402
 40
0.5416650126
 40
0.5734142585
 40
0.6073782999
 40
0.6435132495
 40
0.6816326873
 40
0.7623192849
 40
0.8454054554
 40
0.8863085321
 40
0.9259940341
 40
0.9639927201
 40
1.0
 40
1.0
 40
1.0
 40
1.0
 10
8.5229728183
 20
11.8600864431
 30
0.0
 10
8.5237665441
 20
11.857954718
 30
0.0
 10
8.524655502
 20
11.8547218963
 30
0.0
 10
8.5252221968
 20
11.8504270349
 30
0.0
 10
8.5253875309
 20
11.8465302018
 30
0.0
 10
8.5250593634
 20
11.8428237264
 30
0.0
 10
8.5242425625
 20
11.839404664
 30
0.0
 10
8.5231953901
 20
11.8363912192
 30
0.0
 10
8.5217417827
 20
11.8336687997
 30
0.0
 10
8.5198945917
 20
11.8313647721
 30
0.0
 10
8.5183603745
 20
11.8298894978
 30
0.0
 10
8.5166591816
 20
11.8286509348
 30
0.0
 10
8.5147960497
 20
11.8276620673
 30
0.0
 10
8.5127765467
 20
11.826937175
 30
0.0
 10
8.5106070704
 20
11.8264905229
 30
0.0
 10
8.5082949279
 20
11.8263361528
 30
0.0
 10
8.5058488478
 20
11.8264878932
 30
0.0
 10
8.5032793654
 20
11.8269573602
 30
0.0
 10
8.500600208
 20
11.8277559782
 30
0.0
 10
8.4978295781
 20
11.8288913455
 30
0.0
 10
8.4949906038
 20
11.8303652473
 30
0.0
 10
8.492114125
 20
11.8321747946
 30
0.0
 10
8.4882061119
 20
11.8350710476
 30
0.0
 10
8.4835384393
 20
11.8393821729
 30
0.0
 10
8.4794080489
 20
11.8443223395
 30
0.0
 10
8.4765165354
 20
11.8485688444
 30
0.0
 10
8.4746329988
 20
11.851780377
 30
0.0
 10
8.4730543971
 20
11.8549816974
 30
0.0
 10
8.4721872185
 20
11.857138265
 30
0.0
 10
8.4718111361
 20
11.8582033187
 30
0.0
  0
SPLINE
  5
449
100
AcDbEntity
  8
0
100
AcDbSpline
 62
9
  6
CONTINUOUS
 70
0
 71
3
 72
34
 73
30
 74
0
 42
0.0000001
 43
0.0000001
 44
0.0000000001
 40
0.0
 40
0.0
 40
0.0
 40
0.0
 40
0.0725157979
 40
0.1061118495
 40
0.1379633232
 40
0.1967358888
 40
0.2239467727
 40
0.2498589612
 40
0.2983254164
 40
0.321328479
 40
0.3437865332
 40
0.3659725373
 40
0.3881966934
 40
0.4108001907
 40
0.4341412936
 40
0.4585792401
 40
0.4844554569
 40
0.5120694704
 40
0.5416671121
 40
0.5734159228
 40
0.6073795442
 40
0.6435141056
 40
0.6816332083
 40
0.7623193369
 40
0.8454053284
 40
0.8863084015
 40
0.9259939356
 40
0.9639926705
 40
1.0
 40
1.0
 40
1.0
 40
1.0
 10
8.3365639848
 20
12.0822405515
 30
0.0
 10
8.3373577301
 20
12.0801087716
 30
0.0
 10
8.3382468746
 20
12.0768759178
 30
0.0
 10
8.3388136982
 20
12.0725809545
 30
0.0
 10
8.338979157
 20
12.0686840226
 30
0.0
 10
8.3386510857
 20
12.06497744
 30
0.0
 10
8.3378343652
 20
12.0615582673
 30
0.0
 10
8.3367872597
 20
12.058544723
 30
0.0
 10
8.3353337087
 20
12.0558222015
 30
0.0
 10
8.3334865599
 20
12.0535180705
 30
0.0
 10
8.3319523707
 20
12.0520427235
 30
0.0
 10
8.3302512012
 20
12.0508040892
 30
0.0
 10
8.3283880884
 20
12.0498151518
 30
0.0
 10
8.3263686
 20
12.0490901916
 30
0.0
 10
8.3241991339
 20
12.0486434739
 30
0.0
 10
8.3218869972
 20
12.048489041
 30
0.0
 10
8.3194409185
 20
12.048640722
 30
0.0
 10
8.3168714329
 20
12.0491101336
 30
0.0
 10
8.3141922673
 20
12.0499087006
 30
0.0
 10
8.3114216241
 20
12.0510440226
 30
0.0
 10
8.3085826311
 20
12.0525178859
 30
0.0
 10
8.3057061275
 20
12.0543274018
 30
0.0
 10
8.3017980693
 20
12.0572236276
 30
0.0
 10
8.2971303288
 20
12.0615347451
 30
0.0
 10
8.2929998699
 20
12.0664749271
 30
0.0
 10
8.2901082998
 20
12.070721461
 30
0.0
 10
8.2882247218
 20
12.0739330231
 30
0.0
 10
8.286646083
 20
12.0771343767
 30
0.0
 10
8.2857788826
 20
12.0792909684
 30
0.0
 10
8.2854027903
 20
12.0803560345
 30
0.0
  0
SPLINE
  5
44A
100
AcDbEntity
  8
0
100
AcDbSpline
 62
9
  6
CONTINUOUS
 70
0
 71
3
 72
11
 73
7
 74
0
 42
0.0000001
 43
0.0000001
 44
0.0000000001
 40
0.0
 40
0.0
 40
0.0
 40
0.0
 40
0.2441851412
 40
0.4999992673
 40
0.7558138011
 40
1.0
 40
1.0
 40
1.0
 40
1.0
 10
8.319580761
 20
12.1024801687
 30
0.0
 10
8.3214692144
 20
12.1013712236
 30
0.0
 10
8.325149837
 20
12.0987667228
 30
0.0
 10
8.3299628212
 20
12.0939466693
 30
0.0
 10
8.3338739231
 20
12.0883698406
 30
0.0
 10
8.3357998259
 20
12.084292896
 30
0.0
 10
8.3365639848
 20
12.0822405515
 30
0.0
  0
SPLINE
  5
44B
100
AcDbEntity
  8
0
100
AcDbSpline
 62
9
  6
CONTINUOUS
 70
0
 71
3
 72
34
 73
30
 74
0
 42
0.0000001
 43
0.0000001
 44
0.0000000001
 40
0.0
 40
0.0
 40
0.0
 40
0.0
 40
0.0725155893
 40
0.1061115298
 40
0.1379628994
 40
0.1967352862
 40
0.223946096
 40
0.249858221
 40
0.298324584
 40
0.3213276201
 40
0.3437856624
 40
0.3659716702
 40
0.3881958464
 40
0.4107993801
 40
0.4341405349
 40
0.4585785471
 40
0.4844548411
 40
0.51206894
 40
0.541666672
 40
0.573415574
 40
0.6073792835
 40
0.6435139263
 40
0.6816330993
 40
0.7623193263
 40
0.8454053553
 40
0.8863084291
 40
0.9259939564
 40
0.963992681
 40
1.0
 40
1.0
 40
1.0
 40
1.0
 10
8.1501556674
 20
12.3043931843
 30
0.0
 10
8.1509494087
 20
12.3022614159
 30
0.0
 10
8.1518385141
 20
12.2990285688
 30
0.0
 10
8.1524053106
 20
12.2947336268
 30
0.0
 10
8.1525707433
 20
12.2908367157
 30
0.0
 10
8.1522426518
 20
12.2871301555
 30
0.0
 10
8.1514259145
 20
12.2837110059
 30
0.0
 10
8.1503787949
 20
12.2806974825
 30
0.0
 10
8.1489252322
 20
12.2779749824
 30
0.0
 10
8.1470780745
 20
12.2756708731
 30
0.0
 10
8.1455438793
 20
12.2741955413
 30
0.0
 10
8.143842705
 20
12.2729569219
 30
0.0
 10
8.1419795881
 20
12.2719679992
 30
0.0
 10
8.1399600967
 20
12.2712430532
 30
0.0
 10
8.1377906284
 20
12.2707963493
 30
0.0
 10
8.1354784906
 20
12.2706419296
 30
0.0
 10
8.1330324115
 20
12.270793623
 30
0.0
 10
8.1304629266
 20
12.2712630463
 30
0.0
 10
8.1277837627
 20
12.272061624
 30
0.0
 10
8.1250131223
 20
12.2731969555
 30
0.0
 10
8.1221741332
 20
12.2746708268
 30
0.0
 10
8.1192976348
 20
12.2764803493
 30
0.0
 10
8.1153895861
 20
12.2793765808
 30
0.0
 10
8.1107218598
 20
12.2836877001
 30
0.0
 10
8.1065914152
 20
12.2886278788
 30
0.0
 10
8.103699857
 20
12.2928744066
 30
0.0
 10
8.1018162877
 20
12.2960859625
 30
0.0
 10
8.1002376567
 20
12.2992873092
 30
0.0
 10
8.0993704609
 20
12.3014438959
 30
0.0
 10
8.0989943706
 20
12.3025089593
 30
0.0
  0
SPLINE
  5
44C
100
AcDbEntity
  8
0
100
AcDbSpline
 62
9
  6
CONTINUOUS
 70
0
 71
3
 72
11
 73
7
 74
0
 42
0.0000001
 43
0.0000001
 44
0.0000000001
 40
0.0
 40
0.0
 40
0.0
 40
0.0
 40
0.2441854296
 40
0.4999998288
 40
0.7558142784
 40
1.0
 40
1.0
 40
1.0
 40
1.0
 10
8.1331723542
 20
12.3246330572
 30
0.0
 10
8.135060833
 20
12.3235241069
 30
0.0
 10
8.1387415053
 20
12.3209195815
 30
0.0
 10
8.1435544882
 20
12.3160994293
 30
0.0
 10
8.147465659
 20
12.3105225622
 30
0.0
 10
8.1493914879
 20
12.30644554
 30
0.0
 10
8.1501556674
 20
12.3043931843
 30
0.0
  0
SPLINE
  5
44D
100
AcDbEntity
  8
0
100
AcDbSpline
 62
7
  6
CONTINUOUS
 70
0
 71
3
 72
14
 73
10
 74
0
 42
0.0000001
 43
0.0000001
 44
0.0000000001
 40
0.0
 40
0.0
 40
0.0
 40
0.0
 40
0.2540177351
 40
0.5063267028
 40
0.6313533891
 40
0.7553835871
 40
0.8169864432
 40
0.8783046335
 40
1.0
 40
1.0
 40
1.0
 40
1.0
 10
8.8901864784
 20
11.4283255342
 30
0.0
 10
8.889358833
 20
11.429312026
 30
0.0
 10
8.8876653882
 20
11.4312420374
 30
0.0
 10
8.8854663326
 20
11.4335680437
 30
0.0
 10
8.883690719
 20
11.435386522
 30
0.0
 10
8.8825855782
 20
11.4365084592
 30
0.0
 10
8.8817124912
 20
11.4374056712
 30
0.0
 10
8.88085433
 20
11.4383006795
 30
0.0
 10
8.880227691
 20
11.4389857292
 30
0.0
 10
8.8798303143
 20
11.4394576115
 30
0.0
  0
SPLINE
  5
44E
100
AcDbEntity
  8
0
100
AcDbSpline
 62
7
  6
CONTINUOUS
 70
0
 71
3
 72
14
 73
10
 74
0
 42
0.0000001
 43
0.0000001
 44
0.0000000001
 40
0.0
 40
0.0
 40
0.0
 40
0.0
 40
0.1216962499
 40
0.1830144477
 40
0.2446169674
 40
0.3686464699
 40
0.4936730235
 40
0.7459823544
 40
1.0
 40
1.0
 40
1.0
 40
1.0
 10
8.8993511178
 20
11.4161936242
 30
0.0
 10
8.8989553494
 20
11.4166668636
 30
0.0
 10
8.8983892636
 20
11.4174027488
 30
0.0
 10
8.8976568726
 20
11.4184033001
 30
0.0
 10
8.8969251493
 20
11.4194190979
 30
0.0
 10
8.8960125501
 20
11.4207025438
 30
0.0
 10
8.8945300572
 20
11.422766984
 30
0.0
 10
8.8926204853
 20
11.4253359752
 30
0.0
 10
8.891014126
 20
11.4273390414
 30
0.0
 10
8.8901864792
 20
11.4283255349
 30
0.0
  0
SPLINE
  5
44F
100
AcDbEntity
  8
0
100
AcDbSpline
 62
7
  6
CONTINUOUS
 70
0
 71
3
 72
33
 73
29
 74
0
 42
0.0000001
 43
0.0000001
 44
0.0000000001
 40
0.0
 40
0.0
 40
0.0
 40
0.0
 40
0.1249998665
 40
0.2499996773
 40
0.3124996562
 40
0.3749996398
 40
0.4374996033
 40
0.4999994881
 40
0.5624991585
 40
0.6249983343
 40
0.6562486557
 40
0.6874989545
 40
0.7187492053
 40
0.7499993837
 40
0.7812494088
 40
0.81249911
 40
0.8437481185
 40
0.8749953478
 40
0.8906212974
 40
0.9062471546
 40
0.9218727858
 40
0.9374978016
 40
0.9531209092
 40
0.9687371644
 40
0.9765543055
 40
0.9843700202
 40
0.9921861008
 40
1.0
 40
1.0
 40
1.0
 40
1.0
 10
13.6665496554
 20
6.5594005491
 30
0.0
 10
13.6711625775
 20
6.5632712504
 30
0.0
 10
13.6803871424
 20
6.5710141519
 30
0.0
 10
13.691933833
 20
6.5806738391
 30
0.0
 10
13.7012158659
 20
6.5883478621
 30
0.0
 10
13.7082132393
 20
6.5940598234
 30
0.0
 10
13.7152620883
 20
6.5997082607
 30
0.0
 10
13.7223814609
 20
6.6052677861
 30
0.0
 10
13.7295940424
 20
6.6107060882
 30
0.0
 10
13.7357052713
 20
6.6151021581
 30
0.0
 10
13.740671548
 20
6.6185080863
 30
0.0
 10
13.7444403528
 20
6.6209972602
 30
0.0
 10
13.7482590512
 20
6.6234093517
 30
0.0
 10
13.7521345596
 20
6.6257293386
 30
0.0
 10
13.7560750398
 20
6.6279375476
 30
0.0
 10
13.7600904054
 20
6.6300073069
 30
0.0
 10
13.76419244
 20
6.6319002346
 30
0.0
 10
13.7676961346
 20
6.6332828833
 30
0.0
 10
13.7705574588
 20
6.6342226111
 30
0.0
 10
13.7727351425
 20
6.63482452
 30
0.0
 10
13.7749450505
 20
6.6352968339
 30
0.0
 10
13.7771857736
 20
6.6355998509
 30
0.0
 10
13.7794468121
 20
6.6356725194
 30
0.0
 10
13.7813279901
 20
6.6354585048
 30
0.0
 10
13.7827790216
 20
6.635044328
 30
0.0
 10
13.7838168714
 20
6.6345873075
 30
0.0
 10
13.7847662257
 20
6.63396483
 30
0.0
 10
13.785310032
 20
6.6334355796
 30
0.0
 10
13.7855519944
 20
6.63314722
 30
0.0
  0
SPLINE
  5
450
100
AcDbEntity
  8
0
100
AcDbSpline
 62
7
  6
CONTINUOUS
 70
0
 71
3
 72
23
 73
19
 74
0
 42
0.0000001
 43
0.0000001
 44
0.0000000001
 40
0.0
 40
0.0
 40
0.0
 40
0.0
 40
0.0084906217
 40
0.0178769539
 40
0.0285813346
 40
0.0408473195
 40
0.0548041666
 40
0.0705234047
 40
0.1073441825
 40
0.1513531547
 40
0.2024075237
 40
0.260320254
 40
0.3248186383
 40
0.395477849
 40
0.4715914991
 40
0.6369935843
 40
0.8151129113
 40
1.0
 40
1.0
 40
1.0
 40
1.0
 10
9.4024049935
 20
10.7462474362
 30
0.0
 10
9.4023700333
 20
10.746207215
 30
0.0
 10
9.4023091783
 20
10.7461109031
 30
0.0
 10
9.4022545962
 20
10.7459385632
 30
0.0
 10
9.4022310844
 20
10.7457359219
 30
0.0
 10
9.4022371654
 20
10.7455036698
 30
0.0
 10
9.4022718703
 20
10.7452423412
 30
0.0
 10
9.4023606307
 20
10.7448341595
 30
0.0
 10
9.4025479644
 20
10.7442564831
 30
0.0
 10
9.4028674951
 20
10.7434923124
 30
0.0
 10
9.4032907231
 20
10.7426299372
 30
0.0
 10
9.4038150702
 20
10.7416754382
 30
0.0
 10
9.4044373418
 20
10.7406353425
 30
0.0
 10
9.4051524403
 20
10.7395184449
 30
0.0
 10
9.4062493668
 20
10.7378947314
 30
0.0
 10
9.40779114
 20
10.7357585196
 30
0.0
 10
9.4098150193
 20
10.733130585
 30
0.0
 10
9.4112552013
 20
10.7313646153
 30
0.0
 10
9.412001119
 20
10.7304756651
 30
0.0
  0
SPLINE
  5
451
100
AcDbEntity
  8
0
100
AcDbSpline
 62
9
  6
CONTINUOUS
 70
0
 71
3
 72
18
 73
14
 74
0
 42
0.0000001
 43
0.0000001
 44
0.0000000001
 40
0.0
 40
0.0
 40
0.0
 40
0.0
 40
0.0354247367
 40
0.0699518837
 40
0.1051544522
 40
0.1425102458
 40
0.1832515351
 40
0.2283233338
 40
0.3338858205
 40
0.4627002858
 40
0.6163331441
 40
0.7953953481
 40
1.0
 40
1.0
 40
1.0
 40
1.0
 10
8.4636408321
 20
11.8712782084
 30
0.0
 10
8.4636656914
 20
11.871324522
 30
0.0
 10
8.4637237382
 20
11.8714116191
 30
0.0
 10
8.4638371329
 20
11.8715205679
 30
0.0
 10
8.463973908
 20
11.8716037635
 30
0.0
 10
8.4641329372
 20
11.8716611678
 30
0.0
 10
8.4643135836
 20
11.8716933287
 30
0.0
 10
8.4645981034
 20
11.8717035263
 30
0.0
 10
8.4650114494
 20
11.871645519
 30
0.0
 10
8.4655651929
 20
11.8714841659
 30
0.0
 10
8.4662009551
 20
11.8712272733
 30
0.0
 10
8.4669168072
 20
11.870875248
 30
0.0
 10
8.4674131487
 20
11.8705958767
 30
0.0
 10
8.4676745704
 20
11.8704415125
 30
0.0
  0
SPLINE
  5
452
100
AcDbEntity
  8
0
100
AcDbSpline
 62
9
  6
CONTINUOUS
 70
0
 71
3
 72
18
 73
14
 74
0
 42
0.0000001
 43
0.0000001
 44
0.0000000001
 40
0.0
 40
0.0
 40
0.0
 40
0.0
 40
0.2046214801
 40
0.3836951187
 40
0.5373343221
 40
0.666148748
 40
0.7717029822
 40
0.8167681691
 40
0.8575023765
 40
0.8948513947
 40
0.9300488172
 40
0.9645740378
 40
1.0
 40
1.0
 40
1.0
 40
1.0
 10
9.0658083606
 20
11.1576142398
 30
0.0
 10
9.0659150889
 20
11.1573298614
 30
0.0
 10
9.0661042172
 20
11.1567923163
 30
0.0
 10
9.066326699
 20
11.1560258392
 30
0.0
 10
9.0664693206
 20
11.1553548133
 30
0.0
 10
9.0665321153
 20
11.1547812315
 30
0.0
 10
9.0665174957
 20
11.1543639379
 30
0.0
 10
9.0664580372
 20
11.1540854242
 30
0.0
 10
9.0663949758
 20
11.1539130643
 30
0.0
 10
9.0663107897
 20
11.1537663912
 30
0.0
 10
9.0662050466
 20
11.1536461305
 30
0.0
 10
9.0660779826
 20
11.1535533881
 30
0.0
 10
9.0659820743
 20
11.1535113657
 30
0.0
 10
9.0659321188
 20
11.1534949374
 30
0.0
  0
SPLINE
  5
453
100
AcDbEntity
  8
0
100
AcDbSpline
 62
9
  6
CONTINUOUS
 70
0
 71
3
 72
19
 73
15
 74
0
 42
0.0000001
 43
0.0000001
 44
0.0000000001
 40
0.0
 40
0.0
 40
0.0
 40
0.0
 40
0.1736155891
 40
0.33144884
 40
0.4732735398
 40
0.5384433215
 40
0.5999427106
 40
0.6579712604
 40
0.7127831973
 40
0.8139806051
 40
0.8615232409
 40
0.9078216659
 40
0.9536790622
 40
1.0
 40
1.0
 40
1.0
 40
1.0
 10
9.0857595102
 20
11.1940407529
 30
0.0
 10
9.0866816949
 20
11.1918810116
 30
0.0
 10
9.088159112
 20
11.1876286605
 30
0.0
 10
9.0893869276
 20
11.1813257415
 30
0.0
 10
9.0896203334
 20
11.1763752824
 30
0.0
 10
9.0893488593
 20
11.1727500311
 30
0.0
 10
9.088952098
 20
11.170280301
 30
0.0
 10
9.0883659555
 20
11.1679918553
 30
0.0
 10
9.0873711512
 20
11.1652701983
 30
0.0
 10
9.0860071897
 20
11.1628406432
 30
0.0
 10
9.0842682933
 20
11.1608463824
 30
0.0
 10
9.0828271181
 20
11.1596128359
 30
0.0
 10
9.0812272291
 20
11.1586247274
 30
0.0
 10
9.0800705899
 20
11.1581430287
 30
0.0
 10
9.0794753788
 20
11.1579473444
 30
0.0
  0
SPLINE
  5
454
100
AcDbEntity
  8
0
100
AcDbSpline
 62
9
  6
CONTINUOUS
 70
0
 71
3
 72
19
 73
15
 74
0
 42
0.0000001
 43
0.0000001
 44
0.0000000001
 40
0.0
 40
0.0
 40
0.0
 40
0.0
 40
0.0463214964
 40
0.0921786636
 40
0.1384766632
 40
0.1860191283
 40
0.2872164253
 40
0.3420283302
 40
0.4000569578
 40
0.4615564373
 40
0.5267262094
 40
0.6685510025
 40
0.8263843618
 40
1.0
 40
1.0
 40
1.0
 40
1.0
 10
8.0975603976
 20
12.3281480644
 30
0.0
 10
8.0978564693
 20
12.3287002598
 30
0.0
 10
8.098531695
 20
12.3297556887
 30
0.0
 10
8.0997826092
 20
12.331159689
 30
0.0
 10
8.1012476703
 20
12.3323647527
 30
0.0
 10
8.1035135846
 20
12.3337309226
 30
0.0
 10
8.1061430758
 20
12.3346522736
 30
0.0
 10
8.1089961319
 20
12.335159346
 30
0.0
 10
8.1113515947
 20
12.3353392078
 30
0.0
 10
8.1138527048
 20
12.335301098
 30
0.0
 10
8.1174700223
 20
12.3349389024
 30
0.0
 10
8.1223047493
 20
12.3338494232
 30
0.0
 10
8.1282987025
 20
12.3315457463
 30
0.0
 10
8.1322299075
 20
12.3293523694
 30
0.0
 10
8.1341967009
 20
12.3280691558
 30
0.0
  0
SPLINE
  5
455
100
AcDbEntity
  8
0
100
AcDbSpline
 62
7
  6
CONTINUOUS
 70
0
 71
3
 72
23
 73
19
 74
0
 42
0.0000001
 43
0.0000001
 44
0.0000000001
 40
0.0
 40
0.0
 40
0.0
 40
0.0
 40
0.0084906217
 40
0.0178769539
 40
0.0285813346
 40
0.0408473195
 40
0.0548041666
 40
0.0705234047
 40
0.1073441825
 40
0.1513531547
 40
0.2024075237
 40
0.260320254
 40
0.3248186383
 40
0.395477849
 40
0.4715914991
 40
0.6369935843
 40
0.8151129113
 40
1.0
 40
1.0
 40
1.0
 40
1.0
 10
9.2159965867
 20
10.9684003247
 30
0.0
 10
9.2159616265
 20
10.9683601035
 30
0.0
 10
9.2159007714
 20
10.9682637916
 30
0.0
 10
9.2158461894
 20
10.9680914517
 30
0.0
 10
9.2158226776
 20
10.9678888104
 30
0.0
 10
9.2158287586
 20
10.9676565583
 30
0.0
 10
9.2158634635
 20
10.9673952297
 30
0.0
 10
9.2159522239
 20
10.966987048
 30
0.0
 10
9.2161395576
 20
10.9664093716
 30
0.0
 10
9.2164590883
 20
10.9656452009
 30
0.0
 10
9.2168823163
 20
10.9647828257
 30
0.0
 10
9.2174066634
 20
10.9638283267
 30
0.0
 10
9.218028935
 20
10.962788231
 30
0.0
 10
9.2187440335
 20
10.9616713334
 30
0.0
 10
9.21984096
 20
10.9600476199
 30
0.0
 10
9.2213827332
 20
10.9579114081
 30
0.0
 10
9.2234066124
 20
10.9552834735
 30
0.0
 10
9.2248467945
 20
10.9535175038
 30
0.0
 10
9.2255927122
 20
10.9526285536
 30
0.0
  0
SPLINE
  5
456
100
AcDbEntity
  8
0
100
AcDbSpline
 62
7
  6
CONTINUOUS
 70
0
 71
3
 72
14
 73
10
 74
0
 42
0.0000001
 43
0.0000001
 44
0.0000000001
 40
0.0
 40
0.0
 40
0.0
 40
0.0
 40
0.2540177351
 40
0.5063267028
 40
0.6313533891
 40
0.7553835871
 40
0.8169864432
 40
0.8783046335
 40
1.0
 40
1.0
 40
1.0
 40
1.0
 10
9.0765948852
 20
11.2061726457
 30
0.0
 10
9.0757672398
 20
11.2071591375
 30
0.0
 10
9.074073795
 20
11.2090891489
 30
0.0
 10
9.0718747394
 20
11.2114151552
 30
0.0
 10
9.0700991258
 20
11.2132336335
 30
0.0
 10
9.068993985
 20
11.2143555707
 30
0.0
 10
9.068120898
 20
11.2152527827
 30
0.0
 10
9.0672627368
 20
11.216147791
 30
0.0
 10
9.0666360978
 20
11.2168328407
 30
0.0
 10
9.0662387211
 20
11.217304723
 30
0.0
  0
SPLINE
  5
457
100
AcDbEntity
  8
0
100
AcDbSpline
 62
7
  6
CONTINUOUS
 70
0
 71
3
 72
14
 73
10
 74
0
 42
0.0000001
 43
0.0000001
 44
0.0000000001
 40
0.0
 40
0.0
 40
0.0
 40
0.0
 40
0.1216962499
 40
0.1830144477
 40
0.2446169674
 40
0.3686464699
 40
0.4936730235
 40
0.7459823544
 40
1.0
 40
1.0
 40
1.0
 40
1.0
 10
9.0857595246
 20
11.1940407357
 30
0.0
 10
9.0853637562
 20
11.1945139751
 30
0.0
 10
9.0847976704
 20
11.1952498603
 30
0.0
 10
9.0840652794
 20
11.1962504116
 30
0.0
 10
9.0833335561
 20
11.1972662093
 30
0.0
 10
9.0824209569
 20
11.1985496553
 30
0.0
 10
9.080938464
 20
11.2006140955
 30
0.0
 10
9.0790288921
 20
11.2031830867
 30
0.0
 10
9.0774225328
 20
11.2051861529
 30
0.0
 10
9.076594886
 20
11.2061726464
 30
0.0
  0
SPLINE
  5
458
100
AcDbEntity
  8
0
100
AcDbSpline
 62
9
  6
CONTINUOUS
 70
0
 71
3
 72
18
 73
14
 74
0
 42
0.0000001
 43
0.0000001
 44
0.0000000001
 40
0.0
 40
0.0
 40
0.0
 40
0.0
 40
0.2046214801
 40
0.3836951187
 40
0.5373343221
 40
0.666148748
 40
0.7717029822
 40
0.8167681691
 40
0.8575023765
 40
0.8948513947
 40
0.9300488172
 40
0.9645740378
 40
1.0
 40
1.0
 40
1.0
 40
1.0
 10
9.2522167674
 20
10.9354613513
 30
0.0
 10
9.2523234957
 20
10.9351769729
 30
0.0
 10
9.252512624
 20
10.9346394278
 30
0.0
 10
9.2527351058
 20
10.9338729507
 30
0.0
 10
9.2528777274
 20
10.9332019248
 30
0.0
 10
9.2529405221
 20
10.932628343
 30
0.0
 10
9.2529259025
 20
10.9322110493
 30
0.0
 10
9.252866444
 20
10.9319325357
 30
0.0
 10
9.2528033826
 20
10.9317601758
 30
0.0
 10
9.2527191965
 20
10.9316135027
 30
0.0
 10
9.2526134534
 20
10.931493242
 30
0.0
 10
9.2524863894
 20
10.9314004996
 30
0.0
 10
9.2523904811
 20
10.9313584772
 30
0.0
 10
9.2523405257
 20
10.9313420489
 30
0.0
  0
SPLINE
  5
459
100
AcDbEntity
  8
0
100
AcDbSpline
 62
9
  6
CONTINUOUS
 70
0
 71
3
 72
19
 73
15
 74
0
 42
0.0000001
 43
0.0000001
 44
0.0000000001
 40
0.0
 40
0.0
 40
0.0
 40
0.0
 40
0.1736155891
 40
0.33144884
 40
0.4732735398
 40
0.5384433215
 40
0.5999427106
 40
0.6579712604
 40
0.7127831973
 40
0.8139806051
 40
0.8615232409
 40
0.9078216659
 40
0.9536790622
 40
1.0
 40
1.0
 40
1.0
 40
1.0
 10
9.272167917
 20
10.9718878643
 30
0.0
 10
9.2730901017
 20
10.9697281231
 30
0.0
 10
9.2745675188
 20
10.965475772
 30
0.0
 10
9.2757953344
 20
10.959172853
 30
0.0
 10
9.2760287402
 20
10.9542223939
 30
0.0
 10
9.2757572661
 20
10.9505971426
 30
0.0
 10
9.2753605048
 20
10.9481274125
 30
0.0
 10
9.2747743624
 20
10.9458389668
 30
0.0
 10
9.2737795581
 20
10.9431173098
 30
0.0
 10
9.2724155965
 20
10.9406877547
 30
0.0
 10
9.2706767002
 20
10.9386934939
 30
0.0
 10
9.2692355249
 20
10.9374599474
 30
0.0
 10
9.2676356359
 20
10.9364718389
 30
0.0
 10
9.2664789967
 20
10.9359901402
 30
0.0
 10
9.2658837857
 20
10.9357944559
 30
0.0
  0
SPLINE
  5
45A
100
AcDbEntity
  8
0
100
AcDbSpline
 62
7
  6
CONTINUOUS
 70
0
 71
3
 72
23
 73
19
 74
0
 42
0.0000001
 43
0.0000001
 44
0.0000000001
 40
0.0
 40
0.0
 40
0.0
 40
0.0
 40
0.0084906217
 40
0.0178769539
 40
0.0285813346
 40
0.0408473195
 40
0.0548041666
 40
0.0705234047
 40
0.1073441825
 40
0.1513531547
 40
0.2024075237
 40
0.260320254
 40
0.3248186383
 40
0.395477849
 40
0.4715914991
 40
0.6369935843
 40
0.8151129113
 40
1.0
 40
1.0
 40
1.0
 40
1.0
 10
9.0295881799
 20
11.1905532132
 30
0.0
 10
9.0295532197
 20
11.190512992
 30
0.0
 10
9.0294923646
 20
11.1904166801
 30
0.0
 10
9.0294377826
 20
11.1902443402
 30
0.0
 10
9.0294142707
 20
11.1900416989
 30
0.0
 10
9.0294203518
 20
11.1898094468
 30
0.0
 10
9.0294550567
 20
11.1895481182
 30
0.0
 10
9.0295438171
 20
11.1891399365
 30
0.0
 10
9.0297311508
 20
11.1885622601
 30
0.0
 10
9.0300506815
 20
11.1877980894
 30
0.0
 10
9.0304739095
 20
11.1869357142
 30
0.0
 10
9.0309982566
 20
11.1859812152
 30
0.0
 10
9.0316205282
 20
11.1849411195
 30
0.0
 10
9.0323356267
 20
11.1838242219
 30
0.0
 10
9.0334325532
 20
11.1822005084
 30
0.0
 10
9.0349743264
 20
11.1800642966
 30
0.0
 10
9.0369982056
 20
11.177436362
 30
0.0
 10
9.0384383876
 20
11.1756703923
 30
0.0
 10
9.0391843054
 20
11.1747814421
 30
0.0
  0
SPLINE
  5
45B
100
AcDbEntity
  8
0
100
AcDbSpline
 62
9
  6
CONTINUOUS
 70
0
 71
3
 72
28
 73
24
 74
0
 42
0.0000001
 43
0.0000001
 44
0.0000000001
 40
0.0
 40
0.0
 40
0.0
 40
0.0
 40
0.0158393249
 40
0.0316715606
 40
0.0474795834
 40
0.0632589785
 40
0.0790076169
 40
0.0947270437
 40
0.1260696673
 40
0.1573317165
 40
0.1885361465
 40
0.2197027119
 40
0.2508411509
 40
0.2819642568
 40
0.3130815268
 40
0.3753018703
 40
0.4375467155
 40
0.499828001
 40
0.5621577924
 40
0.6245411224
 40
0.7494670178
 40
0.8746233961
 40
1.0
 40
1.0
 40
1.0
 40
1.0
 10
14.4776302544
 20
5.3433283897
 30
0.0
 10
14.4776308038
 20
5.3438087281
 30
0.0
 10
14.4775720242
 20
5.3447702988
 30
0.0
 10
14.4773095827
 20
5.3461892951
 30
0.0
 10
14.4768886493
 20
5.3475672764
 30
0.0
 10
14.4763317516
 20
5.3488927617
 30
0.0
 10
14.475654909
 20
5.3501578402
 30
0.0
 10
14.474617032
 20
5.3517571589
 30
0.0
 10
14.4731122055
 20
5.35360415
 30
0.0
 10
14.4710798234
 20
5.3556007405
 30
0.0
 10
14.468884076
 20
5.3574059271
 30
0.0
 10
14.4665698492
 20
5.3590478972
 30
0.0
 10
14.4641697802
 20
5.3605559576
 30
0.0
 10
14.4617003032
 20
5.3619438576
 30
0.0
 10
14.4583355121
 20
5.3636555558
 30
0.0
 10
14.4540231538
 20
5.3655781151
 30
0.0
 10
14.4487297453
 20
5.3675967253
 30
0.0
 10
14.4433534838
 20
5.3693915377
 30
0.0
 10
14.4379126683
 20
5.370993523
 30
0.0
 10
14.4305894424
 20
5.3729158627
 30
0.0
 10
14.4213364888
 20
5.3749747316
 30
0.0
 10
14.4101337795
 20
5.3770204085
 30
0.0
 10
14.4026210049
 20
5.3781598522
 30
0.0
 10
14.398855135
 20
5.3786837288
 30
0.0
  0
SPLINE
  5
45C
100
AcDbEntity
  8
0
100
AcDbSpline
 62
7
  6
CONTINUOUS
 70
0
 71
3
 72
14
 73
10
 74
0
 42
0.0000001
 43
0.0000001
 44
0.0000000001
 40
0.0
 40
0.0
 40
0.0
 40
0.0
 40
0.2540177351
 40
0.5063267028
 40
0.6313533891
 40
0.7553835871
 40
0.8169864432
 40
0.8783046335
 40
1.0
 40
1.0
 40
1.0
 40
1.0
 10
9.263003292
 20
10.9840197572
 30
0.0
 10
9.2621756466
 20
10.985006249
 30
0.0
 10
9.2604822018
 20
10.9869362604
 30
0.0
 10
9.2582831462
 20
10.9892622667
 30
0.0
 10
9.2565075326
 20
10.991080745
 30
0.0
 10
9.2554023918
 20
10.9922026822
 30
0.0
 10
9.2545293048
 20
10.9930998942
 30
0.0
 10
9.2536711436
 20
10.9939949025
 30
0.0
 10
9.2530445046
 20
10.9946799522
 30
0.0
 10
9.2526471279
 20
10.9951518345
 30
0.0
  0
SPLINE
  5
45D
100
AcDbEntity
  8
0
100
AcDbSpline
 62
7
  6
CONTINUOUS
 70
0
 71
3
 72
14
 73
10
 74
0
 42
0.0000001
 43
0.0000001
 44
0.0000000001
 40
0.0
 40
0.0
 40
0.0
 40
0.0
 40
0.1216962499
 40
0.1830144477
 40
0.2446169674
 40
0.3686464699
 40
0.4936730235
 40
0.7459823544
 40
1.0
 40
1.0
 40
1.0
 40
1.0
 10
9.2721679314
 20
10.9718878472
 30
0.0
 10
9.271772163
 20
10.9723610866
 30
0.0
 10
9.2712060772
 20
10.9730969718
 30
0.0
 10
9.2704736862
 20
10.9740975231
 30
0.0
 10
9.2697419629
 20
10.9751133208
 30
0.0
 10
9.2688293638
 20
10.9763967668
 30
0.0
 10
9.2673468708
 20
10.978461207
 30
0.0
 10
9.2654372989
 20
10.9810301982
 30
0.0
 10
9.2638309396
 20
10.9830332644
 30
0.0
 10
9.2630032928
 20
10.9840197579
 30
0.0
  0
SPLINE
  5
45E
100
AcDbEntity
  8
0
100
AcDbSpline
 62
9
  6
CONTINUOUS
 70
0
 71
3
 72
24
 73
20
 74
0
 42
0.0000001
 43
0.0000001
 44
0.0000000001
 40
0.0
 40
0.0
 40
0.0
 40
0.0
 40
0.0324506793
 40
0.0648518124
 40
0.0810151117
 40
0.0971461576
 40
0.1292924479
 40
0.1612688337
 40
0.1930690655
 40
0.2561266242
 40
0.3186111746
 40
0.3806763107
 40
0.4424684853
 40
0.5041126354
 40
0.5657103834
 40
0.6273414613
 40
0.7508791797
 40
0.8750584389
 40
1.0
 40
1.0
 40
1.0
 40
1.0
 10
14.4989515373
 20
5.3433283897
 30
0.0
 10
14.4989531386
 20
5.3446255473
 30
0.0
 10
14.4988293851
 20
5.3472192557
 30
0.0
 10
14.4983905064
 20
5.350431958
 30
0.0
 10
14.4978746663
 20
5.3529668382
 30
0.0
 10
14.497250491
 20
5.3554667105
 30
0.0
 10
14.4962749272
 20
5.3585269911
 30
0.0
 10
14.4948186284
 20
5.3620782247
 30
0.0
 10
14.4925448121
 20
5.3666141946
 30
0.0
 10
14.4891369178
 20
5.3719246316
 30
0.0
 10
14.4843362028
 20
5.3777055999
 30
0.0
 10
14.4790020378
 20
5.3829209312
 30
0.0
 10
14.4732563016
 20
5.3876213076
 30
0.0
 10
14.4671839562
 20
5.3918550842
 30
0.0
 10
14.4608541823
 20
5.3956779213
 30
0.0
 10
14.4521293634
 20
5.400288941
 30
0.0
 10
14.4407798476
 20
5.4052433952
 30
0.0
 10
14.4266977074
 20
5.4101327864
 30
0.0
 10
14.4171013744
 20
5.4128152508
 30
0.0
 10
14.4122593206
 20
5.4140390679
 30
0.0
  0
SPLINE
  5
45F
100
AcDbEntity
  8
0
100
AcDbSpline
 62
7
  6
CONTINUOUS
 70
0
 71
3
 72
23
 73
19
 74
0
 42
0.0000001
 43
0.0000001
 44
0.0000000001
 40
0.0
 40
0.0
 40
0.0
 40
0.0
 40
0.0084906217
 40
0.0178769539
 40
0.0285813346
 40
0.0408473195
 40
0.0548041666
 40
0.0705234047
 40
0.1073441825
 40
0.1513531547
 40
0.2024075237
 40
0.260320254
 40
0.3248186383
 40
0.395477849
 40
0.4715914991
 40
0.6369935843
 40
0.8151129113
 40
1.0
 40
1.0
 40
1.0
 40
1.0
 10
8.8431797731
 20
11.4127061017
 30
0.0
 10
8.8431448129
 20
11.4126658805
 30
0.0
 10
8.8430839578
 20
11.4125695686
 30
0.0
 10
8.8430293758
 20
11.4123972287
 30
0.0
 10
8.8430058639
 20
11.4121945874
 30
0.0
 10
8.8430119449
 20
11.4119623354
 30
0.0
 10
8.8430466499
 20
11.4117010067
 30
0.0
 10
8.8431354103
 20
11.411292825
 30
0.0
 10
8.843322744
 20
11.4107151486
 30
0.0
 10
8.8436422746
 20
11.4099509779
 30
0.0
 10
8.8440655027
 20
11.4090886027
 30
0.0
 10
8.8445898498
 20
11.4081341037
 30
0.0
 10
8.8452121214
 20
11.407094008
 30
0.0
 10
8.8459272198
 20
11.4059771104
 30
0.0
 10
8.8470241464
 20
11.4043533969
 30
0.0
 10
8.8485659196
 20
11.4022171852
 30
0.0
 10
8.8505897988
 20
11.3995892505
 30
0.0
 10
8.8520299808
 20
11.3978232808
 30
0.0
 10
8.8527758986
 20
11.3969343306
 30
0.0
  0
SPLINE
  5
460
100
AcDbEntity
  8
0
100
AcDbSpline
 62
9
  6
CONTINUOUS
 70
0
 71
3
 72
18
 73
14
 74
0
 42
0.0000001
 43
0.0000001
 44
0.0000000001
 40
0.0
 40
0.0
 40
0.0
 40
0.0
 40
0.0354247367
 40
0.0699518837
 40
0.1051544522
 40
0.1425102458
 40
0.1832515351
 40
0.2283233338
 40
0.3338858205
 40
0.4627002858
 40
0.6163331441
 40
0.7953953481
 40
1.0
 40
1.0
 40
1.0
 40
1.0
 10
9.9549080866
 20
10.0940551004
 30
0.0
 10
9.9549329459
 20
10.094101414
 30
0.0
 10
9.9549909926
 20
10.094188511
 30
0.0
 10
9.9551043874
 20
10.0942974599
 30
0.0
 10
9.9552411625
 20
10.0943806555
 30
0.0
 10
9.9554001917
 20
10.0944380598
 30
0.0
 10
9.9555808381
 20
10.0944702206
 30
0.0
 10
9.9558653579
 20
10.0944804183
 30
0.0
 10
9.9562787039
 20
10.094422411
 30
0.0
 10
9.9568324474
 20
10.0942610579
 30
0.0
 10
9.9574682096
 20
10.0940041652
 30
0.0
 10
9.9581840617
 20
10.09365214
 30
0.0
 10
9.9586804032
 20
10.0933727687
 30
0.0
 10
9.9589418249
 20
10.0932184045
 30
0.0
  0
SPLINE
  5
461
100
AcDbEntity
  8
0
100
AcDbSpline
 62
9
  6
CONTINUOUS
 70
0
 71
3
 72
18
 73
14
 74
0
 42
0.0000001
 43
0.0000001
 44
0.0000000001
 40
0.0
 40
0.0
 40
0.0
 40
0.0
 40
0.2046214801
 40
0.3836951187
 40
0.5373343221
 40
0.666148748
 40
0.7717029822
 40
0.8167681691
 40
0.8575023765
 40
0.8948513947
 40
0.9300488172
 40
0.9645740378
 40
1.0
 40
1.0
 40
1.0
 40
1.0
 10
9.4386251742
 20
10.7133084628
 30
0.0
 10
9.4387319025
 20
10.7130240844
 30
0.0
 10
9.4389210309
 20
10.7124865393
 30
0.0
 10
9.4391435126
 20
10.7117200621
 30
0.0
 10
9.4392861342
 20
10.7110490363
 30
0.0
 10
9.4393489289
 20
10.7104754545
 30
0.0
 10
9.4393343093
 20
10.7100581608
 30
0.0
 10
9.4392748508
 20
10.7097796472
 30
0.0
 10
9.4392117894
 20
10.7096072873
 30
0.0
 10
9.4391276033
 20
10.7094606142
 30
0.0
 10
9.4390218602
 20
10.7093403535
 30
0.0
 10
9.4388947962
 20
10.7092476111
 30
0.0
 10
9.4387988879
 20
10.7092055887
 30
0.0
 10
9.4387489325
 20
10.7091891604
 30
0.0
  0
SPLINE
  5
462
100
AcDbEntity
  8
0
100
AcDbSpline
 62
9
  6
CONTINUOUS
 70
0
 71
3
 72
19
 73
15
 74
0
 42
0.0000001
 43
0.0000001
 44
0.0000000001
 40
0.0
 40
0.0
 40
0.0
 40
0.0
 40
0.1736155891
 40
0.33144884
 40
0.4732735398
 40
0.5384433215
 40
0.5999427106
 40
0.6579712604
 40
0.7127831973
 40
0.8139806051
 40
0.8615232409
 40
0.9078216659
 40
0.9536790622
 40
1.0
 40
1.0
 40
1.0
 40
1.0
 10
9.4585763238
 20
10.7497349758
 30
0.0
 10
9.4594985085
 20
10.7475752346
 30
0.0
 10
9.4609759256
 20
10.7433228835
 30
0.0
 10
9.4622037412
 20
10.7370199645
 30
0.0
 10
9.462437147
 20
10.7320695054
 30
0.0
 10
9.4621656729
 20
10.7284442541
 30
0.0
 10
9.4617689116
 20
10.725974524
 30
0.0
 10
9.4611827692
 20
10.7236860783
 30
0.0
 10
9.4601879649
 20
10.7209644213
 30
0.0
 10
9.4588240033
 20
10.7185348662
 30
0.0
 10
9.457085107
 20
10.7165406054
 30
0.0
 10
9.4556439317
 20
10.7153070589
 30
0.0
 10
9.4540440427
 20
10.7143189504
 30
0.0
 10
9.4528874035
 20
10.7138372517
 30
0.0
 10
9.4522921925
 20
10.7136415674
 30
0.0
  0
SPLINE
  5
463
100
AcDbEntity
  8
0
100
AcDbSpline
 62
7
  6
CONTINUOUS
 70
0
 71
3
 72
33
 73
29
 74
0
 42
0.0000001
 43
0.0000001
 44
0.0000000001
 40
0.0
 40
0.0
 40
0.0
 40
0.0
 40
0.0078138913
 40
0.015629962
 40
0.0234456744
 40
0.0312628141
 40
0.0468790737
 40
0.0625021872
 40
0.0781272042
 40
0.0937528375
 40
0.1093786961
 40
0.1250046465
 40
0.1562518762
 40
0.1875008848
 40
0.218750586
 40
0.2500006111
 40
0.2812507895
 40
0.3125010404
 40
0.3437513392
 40
0.3750016608
 40
0.4375008369
 40
0.5000005078
 40
0.5625003931
 40
0.6250003571
 40
0.6875003412
 40
0.7500003207
 40
0.8750001325
 40
1.0
 40
1.0
 40
1.0
 40
1.0
 10
13.573259531
 20
6.4550126922
 30
0.0
 10
13.5730175704
 20
6.4553010497
 30
0.0
 10
13.5725907941
 20
6.4559284925
 30
0.0
 10
13.5721426281
 20
6.4569715075
 30
0.0
 10
13.5718727708
 20
6.4580729425
 30
0.0
 10
13.5717168509
 20
6.4595738404
 30
0.0
 10
13.5718327444
 20
6.4614635911
 30
0.0
 10
13.572296925
 20
6.4636776483
 30
0.0
 10
13.572984426
 20
6.4658316999
 30
0.0
 10
13.5738333004
 20
6.4679260069
 30
0.0
 10
13.5748042052
 20
6.4699660756
 30
0.0
 10
13.5762265056
 20
6.4726207339
 30
0.0
 10
13.5781965401
 20
6.4758310885
 30
0.0
 10
13.5807729979
 20
6.4795420813
 30
0.0
 10
13.5835085504
 20
6.4831370161
 30
0.0
 10
13.5863674454
 20
6.486634162
 30
0.0
 10
13.5893251376
 20
6.4900479136
 30
0.0
 10
13.5923636702
 20
6.4933897248
 30
0.0
 10
13.59546945
 20
6.4966690155
 30
0.0
 10
13.5996859873
 20
6.5009683876
 30
0.0
 10
13.6050764346
 20
6.506223376
 30
0.0
 10
13.6116845203
 20
6.5123819978
 30
0.0
 10
13.6183958024
 20
6.5184277765
 30
0.0
 10
13.6251823998
 20
6.5243886631
 30
0.0
 10
13.632022618
 20
6.5302878249
 30
0.0
 10
13.6411918019
 20
6.5380962163
 30
0.0
 10
13.6527097233
 20
6.5477900397
 30
0.0
 10
13.6619367627
 20
6.5555298726
 30
0.0
 10
13.6665496554
 20
6.5594005491
 30
0.0
  0
SPLINE
  5
464
100
AcDbEntity
  8
0
100
AcDbSpline
 62
7
  6
CONTINUOUS
 70
0
 71
3
 72
14
 73
10
 74
0
 42
0.0000001
 43
0.0000001
 44
0.0000000001
 40
0.0
 40
0.0
 40
0.0
 40
0.0
 40
0.2540177097
 40
0.5063267565
 40
0.631353445
 40
0.7553835642
 40
0.8169863602
 40
0.8783045248
 40
1.0
 40
1.0
 40
1.0
 40
1.0
 10
9.4494117248
 20
10.7618668906
 30
0.0
 10
9.44858405
 20
10.7628533577
 30
0.0
 10
9.4468905345
 20
10.7647833047
 30
0.0
 10
9.4446916
 20
10.7671094251
 30
0.0
 10
9.4429159893
 20
10.7689279075
 30
0.0
 10
9.4418107994
 20
10.7700497956
 30
0.0
 10
9.4409376791
 20
10.7709469743
 30
0.0
 10
9.440079517
 20
10.7718419825
 30
0.0
 10
9.4394529069
 20
10.7725270591
 30
0.0
 10
9.4390555347
 20
10.772998946
 30
0.0
  0
SPLINE
  5
465
100
AcDbEntity
  8
0
100
AcDbSpline
 62
7
  6
CONTINUOUS
 70
0
 71
3
 72
14
 73
10
 74
0
 42
0.0000001
 43
0.0000001
 44
0.0000000001
 40
0.0
 40
0.0
 40
0.0
 40
0.0
 40
0.1216960652
 40
0.1830143026
 40
0.244616919
 40
0.36864656
 40
0.4936731322
 40
0.7459823421
 40
1.0
 40
1.0
 40
1.0
 40
1.0
 10
9.4585763382
 20
10.7497349587
 30
0.0
 10
9.4581805784
 20
10.7502082039
 30
0.0
 10
9.4576145464
 20
10.7509441299
 30
0.0
 10
9.4568821579
 20
10.7519446819
 30
0.0
 10
9.4561503732
 20
10.7529604368
 30
0.0
 10
9.4552376782
 20
10.7542438159
 30
0.0
 10
9.4537551781
 20
10.7563082499
 30
0.0
 10
9.4518457972
 20
10.7588773822
 30
0.0
 10
9.4502394019
 20
10.7608804225
 30
0.0
 10
9.4494117256
 20
10.7618668912
 30
0.0
  0
SPLINE
  5
466
100
AcDbEntity
  8
0
100
AcDbSpline
 62
7
  6
CONTINUOUS
 70
0
 71
3
 72
23
 73
19
 74
0
 42
0.0000001
 43
0.0000001
 44
0.0000000001
 40
0.0
 40
0.0
 40
0.0
 40
0.0
 40
0.0084906217
 40
0.0178769539
 40
0.0285813346
 40
0.0408473195
 40
0.0548041666
 40
0.0705234047
 40
0.1073441825
 40
0.1513531547
 40
0.2024075237
 40
0.260320254
 40
0.3248186383
 40
0.395477849
 40
0.4715914991
 40
0.6369935843
 40
0.8151129113
 40
1.0
 40
1.0
 40
1.0
 40
1.0
 10
8.6567713663
 20
11.6348589902
 30
0.0
 10
8.6567364061
 20
11.634818769
 30
0.0
 10
8.656675551
 20
11.6347224571
 30
0.0
 10
8.656620969
 20
11.6345501172
 30
0.0
 10
8.6565974571
 20
11.6343474759
 30
0.0
 10
8.6566035381
 20
11.6341152239
 30
0.0
 10
8.6566382431
 20
11.6338538952
 30
0.0
 10
8.6567270035
 20
11.6334457136
 30
0.0
 10
8.6569143372
 20
11.6328680371
 30
0.0
 10
8.6572338678
 20
11.6321038664
 30
0.0
 10
8.6576570959
 20
11.6312414912
 30
0.0
 10
8.658181443
 20
11.6302869922
 30
0.0
 10
8.6588037146
 20
11.6292468965
 30
0.0
 10
8.659518813
 20
11.6281299989
 30
0.0
 10
8.6606157396
 20
11.6265062854
 30
0.0
 10
8.6621575128
 20
11.6243700737
 30
0.0
 10
8.664181392
 20
11.621742139
 30
0.0
 10
8.665621574
 20
11.6199761693
 30
0.0
 10
8.6663674918
 20
11.6190872191
 30
0.0
  0
SPLINE
  5
467
100
AcDbEntity
  8
0
100
AcDbSpline
 62
9
  6
CONTINUOUS
 70
0
 71
3
 72
18
 73
14
 74
0
 42
0.0000001
 43
0.0000001
 44
0.0000000001
 40
0.0
 40
0.0
 40
0.0
 40
0.0
 40
0.0354247367
 40
0.0699518837
 40
0.1051544522
 40
0.1425102458
 40
0.1832515351
 40
0.2283233338
 40
0.3338858205
 40
0.4627002858
 40
0.6163331441
 40
0.7953953481
 40
1.0
 40
1.0
 40
1.0
 40
1.0
 10
8.2772324253
 20
12.093431097
 30
0.0
 10
8.2772572846
 20
12.0934774105
 30
0.0
 10
8.2773153314
 20
12.0935645076
 30
0.0
 10
8.2774287261
 20
12.0936734564
 30
0.0
 10
8.2775655012
 20
12.093756652
 30
0.0
 10
8.2777245304
 20
12.0938140564
 30
0.0
 10
8.2779051768
 20
12.0938462172
 30
0.0
 10
8.2781896966
 20
12.0938564148
 30
0.0
 10
8.2786030426
 20
12.0937984075
 30
0.0
 10
8.2791567861
 20
12.0936370544
 30
0.0
 10
8.2797925483
 20
12.0933801618
 30
0.0
 10
8.2805084004
 20
12.0930281365
 30
0.0
 10
8.2810047419
 20
12.0927487652
 30
0.0
 10
8.2812661636
 20
12.092594401
 30
0.0
  0
SPLINE
  5
468
100
AcDbEntity
  8
0
100
AcDbSpline
 62
9
  6
CONTINUOUS
 70
0
 71
3
 72
18
 73
14
 74
0
 42
0.0000001
 43
0.0000001
 44
0.0000000001
 40
0.0
 40
0.0
 40
0.0
 40
0.0
 40
0.2046214801
 40
0.3836951187
 40
0.5373343221
 40
0.666148748
 40
0.7717029822
 40
0.8167681691
 40
0.8575023765
 40
0.8948513947
 40
0.9300488172
 40
0.9645740378
 40
1.0
 40
1.0
 40
1.0
 40
1.0
 10
9.625033581
 20
10.4911555743
 30
0.0
 10
9.6251403093
 20
10.4908711959
 30
0.0
 10
9.6253294377
 20
10.4903336508
 30
0.0
 10
9.6255519194
 20
10.4895671736
 30
0.0
 10
9.625694541
 20
10.4888961478
 30
0.0
 10
9.6257573357
 20
10.488322566
 30
0.0
 10
9.6257427161
 20
10.4879052723
 30
0.0
 10
9.6256832576
 20
10.4876267587
 30
0.0
 10
9.6256201962
 20
10.4874543988
 30
0.0
 10
9.6255360101
 20
10.4873077257
 30
0.0
 10
9.625430267
 20
10.487187465
 30
0.0
 10
9.625303203
 20
10.4870947226
 30
0.0
 10
9.6252072947
 20
10.4870527002
 30
0.0
 10
9.6251573393
 20
10.4870362719
 30
0.0
  0
SPLINE
  5
469
100
AcDbEntity
  8
0
100
AcDbSpline
 62
9
  6
CONTINUOUS
 70
0
 71
3
 72
19
 73
15
 74
0
 42
0.0000001
 43
0.0000001
 44
0.0000000001
 40
0.0
 40
0.0
 40
0.0
 40
0.0
 40
0.1736155903
 40
0.3314488423
 40
0.4732735429
 40
0.5384433248
 40
0.599942714
 40
0.6579712637
 40
0.7127832004
 40
0.8139806076
 40
0.8615232429
 40
0.9078216672
 40
0.9536790629
 40
1.0
 40
1.0
 40
1.0
 40
1.0
 10
9.6449847299
 20
10.5275820891
 30
0.0
 10
9.6459069146
 20
10.5254223477
 30
0.0
 10
9.6473843321
 20
10.5211699965
 30
0.0
 10
9.6486121478
 20
10.5148670772
 30
0.0
 10
9.6488455538
 20
10.5099166178
 30
0.0
 10
9.6485740798
 20
10.5062913664
 30
0.0
 10
9.6481773186
 20
10.5038216361
 30
0.0
 10
9.6475911761
 20
10.5015331903
 30
0.0
 10
9.6465963718
 20
10.4988115332
 30
0.0
 10
9.6452324103
 20
10.4963819779
 30
0.0
 10
9.6434935139
 20
10.494387717
 30
0.0
 10
9.6420523386
 20
10.4931541705
 30
0.0
 10
9.6404524496
 20
10.4921660619
 30
0.0
 10
9.6392958103
 20
10.4916843632
 30
0.0
 10
9.6387005993
 20
10.4914886788
 30
0.0
  0
SPLINE
  5
46A
100
AcDbEntity
  8
0
100
AcDbSpline
 62
7
  6
CONTINUOUS
 70
0
 71
3
 72
23
 73
19
 74
0
 42
0.0000001
 43
0.0000001
 44
0.0000000001
 40
0.0
 40
0.0
 40
0.0
 40
0.0
 40
0.0084906217
 40
0.0178769539
 40
0.0285813346
 40
0.0408473195
 40
0.0548041666
 40
0.0705234047
 40
0.1073441825
 40
0.1513531547
 40
0.2024075237
 40
0.260320254
 40
0.3248186383
 40
0.395477849
 40
0.4715914991
 40
0.6369935843
 40
0.8151129113
 40
1.0
 40
1.0
 40
1.0
 40
1.0
 10
8.4703629595
 20
11.8570118787
 30
0.0
 10
8.4703279993
 20
11.8569716575
 30
0.0
 10
8.4702671442
 20
11.8568753456
 30
0.0
 10
8.4702125621
 20
11.8567030057
 30
0.0
 10
8.4701890503
 20
11.8565003644
 30
0.0
 10
8.4701951313
 20
11.8562681124
 30
0.0
 10
8.4702298363
 20
11.8560067837
 30
0.0
 10
8.4703185967
 20
11.8555986021
 30
0.0
 10
8.4705059304
 20
11.8550209256
 30
0.0
 10
8.470825461
 20
11.8542567549
 30
0.0
 10
8.4712486891
 20
11.8533943797
 30
0.0
 10
8.4717730362
 20
11.8524398807
 30
0.0
 10
8.4723953078
 20
11.851399785
 30
0.0
 10
8.4731104062
 20
11.8502828874
 30
0.0
 10
8.4742073328
 20
11.8486591739
 30
0.0
 10
8.475749106
 20
11.8465229622
 30
0.0
 10
8.4777729852
 20
11.8438950275
 30
0.0
 10
8.4792131672
 20
11.8421290578
 30
0.0
 10
8.479959085
 20
11.8412401076
 30
0.0
  0
SPLINE
  5
46B
100
AcDbEntity
  8
0
100
AcDbSpline
 62
7
  6
CONTINUOUS
 70
0
 71
3
 72
15
 73
11
 74
0
 42
0.0000001
 43
0.0000001
 44
0.0000000001
 40
0.0
 40
0.0
 40
0.0
 40
0.0
 40
0.2540154927
 40
0.3804891764
 40
0.5063285641
 40
0.631352016
 40
0.7553798084
 40
0.8169822582
 40
0.8783010931
 40
1.0
 40
1.0
 40
1.0
 40
1.0
 10
9.6358184095
 20
10.539712557
 30
0.0
 10
9.6349906959
 20
10.5406989808
 30
0.0
 10
9.6337193516
 20
10.5421504299
 30
0.0
 10
9.6319739954
 20
10.5440325224
 30
0.0
 10
9.6306515492
 20
10.5454146846
 30
0.0
 10
9.6293227067
 20
10.5467733338
 30
0.0
 10
9.6282171308
 20
10.5478948005
 30
0.0
 10
9.6273441995
 20
10.5487921561
 30
0.0
 10
9.6264864825
 20
10.5496876178
 30
0.0
 10
9.6258605655
 20
10.5503733922
 30
0.0
 10
9.6254640042
 20
10.5508459852
 30
0.0
  0
SPLINE
  5
46C
100
AcDbEntity
  8
0
100
AcDbSpline
 62
7
  6
CONTINUOUS
 70
0
 71
3
 72
15
 73
11
 74
0
 42
0.0000001
 43
0.0000001
 44
0.0000000001
 40
0.0
 40
0.0
 40
0.0
 40
0.0
 40
0.1216988625
 40
0.1830176743
 40
0.2446201063
 40
0.368647884
 40
0.4936713308
 40
0.6195107218
 40
0.7459844336
 40
1.0
 40
1.0
 40
1.0
 40
1.0
 10
9.6449847401
 20
10.527582077
 30
0.0
 10
9.6445881893
 20
10.5280546843
 30
0.0
 10
9.6440215157
 20
10.5287901776
 30
0.0
 10
9.6432885904
 20
10.5297903632
 30
0.0
 10
9.6425564455
 20
10.5308058636
 30
0.0
 10
9.6416439924
 20
10.5320893936
 30
0.0
 10
9.6405367276
 20
10.5336339857
 30
0.0
 10
9.639405195
 20
10.5351763611
 30
0.0
 10
9.6378547635
 20
10.5372220387
 30
0.0
 10
9.6366461299
 20
10.5387261267
 30
0.0
 10
9.6358184103
 20
10.5397125577
 30
0.0
  0
SPLINE
  5
46D
100
AcDbEntity
  8
0
100
AcDbSpline
 62
7
  6
CONTINUOUS
 70
0
 71
3
 72
23
 73
19
 74
0
 42
0.0000001
 43
0.0000001
 44
0.0000000001
 40
0.0
 40
0.0
 40
0.0
 40
0.0
 40
0.0084906217
 40
0.0178769539
 40
0.0285813346
 40
0.0408473195
 40
0.0548041666
 40
0.0705234047
 40
0.1073441825
 40
0.1513531547
 40
0.2024075237
 40
0.260320254
 40
0.3248186383
 40
0.395477849
 40
0.4715914991
 40
0.6369935843
 40
0.8151129113
 40
1.0
 40
1.0
 40
1.0
 40
1.0
 10
8.2839545527
 20
12.0791647672
 30
0.0
 10
8.2839195924
 20
12.079124546
 30
0.0
 10
8.2838587374
 20
12.0790282341
 30
0.0
 10
8.2838041553
 20
12.0788558942
 30
0.0
 10
8.2837806435
 20
12.0786532529
 30
0.0
 10
8.2837867245
 20
12.0784210009
 30
0.0
 10
8.2838214295
 20
12.0781596722
 30
0.0
 10
8.2839101899
 20
12.0777514906
 30
0.0
 10
8.2840975235
 20
12.0771738142
 30
0.0
 10
8.2844170542
 20
12.0764096434
 30
0.0
 10
8.2848402822
 20
12.0755472682
 30
0.0
 10
8.2853646294
 20
12.0745927692
 30
0.0
 10
8.285986901
 20
12.0735526735
 30
0.0
 10
8.2867019994
 20
12.0724357759
 30
0.0
 10
8.287798926
 20
12.0708120624
 30
0.0
 10
8.2893406992
 20
12.0686758507
 30
0.0
 10
8.2913645784
 20
12.066047916
 30
0.0
 10
8.2928047604
 20
12.0642819463
 30
0.0
 10
8.2935506782
 20
12.0633929961
 30
0.0
  0
SPLINE
  5
46E
100
AcDbEntity
  8
0
100
AcDbSpline
 62
9
  6
CONTINUOUS
 70
0
 71
3
 72
18
 73
14
 74
0
 42
0.0000001
 43
0.0000001
 44
0.0000000001
 40
0.0
 40
0.0
 40
0.0
 40
0.0
 40
0.2046214801
 40
0.3836951187
 40
0.5373343221
 40
0.666148748
 40
0.7717029822
 40
0.8167681691
 40
0.8575023765
 40
0.8948513947
 40
0.9300488172
 40
0.9645740378
 40
1.0
 40
1.0
 40
1.0
 40
1.0
 10
9.8114419878
 20
10.2690026858
 30
0.0
 10
9.8115487161
 20
10.2687183074
 30
0.0
 10
9.8117378445
 20
10.2681807623
 30
0.0
 10
9.8119603262
 20
10.2674142851
 30
0.0
 10
9.8121029478
 20
10.2667432593
 30
0.0
 10
9.8121657425
 20
10.2661696775
 30
0.0
 10
9.812151123
 20
10.2657523838
 30
0.0
 10
9.8120916644
 20
10.2654738702
 30
0.0
 10
9.812028603
 20
10.2653015103
 30
0.0
 10
9.811944417
 20
10.2651548372
 30
0.0
 10
9.8118386738
 20
10.2650345765
 30
0.0
 10
9.8117116098
 20
10.2649418341
 30
0.0
 10
9.8116157015
 20
10.2648998117
 30
0.0
 10
9.8115657461
 20
10.2648833834
 30
0.0
  0
SPLINE
  5
46F
100
AcDbEntity
  8
0
100
AcDbSpline
 62
9
  6
CONTINUOUS
 70
0
 71
3
 72
18
 73
14
 74
0
 42
0.0000001
 43
0.0000001
 44
0.0000000001
 40
0.0
 40
0.0
 40
0.0
 40
0.0
 40
0.0354247367
 40
0.0699518837
 40
0.1051544522
 40
0.1425102458
 40
0.1832515351
 40
0.2283233338
 40
0.3338858205
 40
0.4627002858
 40
0.6163331441
 40
0.7953953481
 40
1.0
 40
1.0
 40
1.0
 40
1.0
 10
8.0908240185
 20
12.3155839855
 30
0.0
 10
8.0908488778
 20
12.315630299
 30
0.0
 10
8.0909069245
 20
12.3157173961
 30
0.0
 10
8.0910203193
 20
12.3158263449
 30
0.0
 10
8.0911570944
 20
12.3159095405
 30
0.0
 10
8.0913161236
 20
12.3159669449
 30
0.0
 10
8.09149677
 20
12.3159991057
 30
0.0
 10
8.0917812898
 20
12.3160093033
 30
0.0
 10
8.0921946358
 20
12.315951296
 30
0.0
 10
8.0927483793
 20
12.3157899429
 30
0.0
 10
8.0933841415
 20
12.3155330503
 30
0.0
 10
8.0940999936
 20
12.315181025
 30
0.0
 10
8.0945963351
 20
12.3149016537
 30
0.0
 10
8.0948577568
 20
12.3147472895
 30
0.0
  0
SPLINE
  5
470
100
AcDbEntity
  8
0
100
AcDbSpline
 62
9
  6
CONTINUOUS
 70
0
 71
3
 72
19
 73
15
 74
0
 42
0.0000001
 43
0.0000001
 44
0.0000000001
 40
0.0
 40
0.0
 40
0.0
 40
0.0
 40
0.173615588
 40
0.3314488379
 40
0.473273537
 40
0.5384433185
 40
0.5999427075
 40
0.6579712574
 40
0.7127831943
 40
0.8139806028
 40
0.8615232391
 40
0.9078216646
 40
0.9536790615
 40
1.0
 40
1.0
 40
1.0
 40
1.0
 10
9.8313931381
 20
10.3054291972
 30
0.0
 10
9.8323153228
 20
10.303269456
 30
0.0
 10
9.8337927395
 20
10.299017105
 30
0.0
 10
9.8350205549
 20
10.2927141864
 30
0.0
 10
9.8352539606
 20
10.2877637275
 30
0.0
 10
9.8349824865
 20
10.2841384764
 30
0.0
 10
9.8345857251
 20
10.2816687464
 30
0.0
 10
9.8339995826
 20
10.2793803009
 30
0.0
 10
9.8330047783
 20
10.276658644
 30
0.0
 10
9.8316408168
 20
10.274229089
 30
0.0
 10
9.8299019205
 20
10.2722348282
 30
0.0
 10
9.8284607452
 20
10.2710012818
 30
0.0
 10
9.8268608563
 20
10.2700131734
 30
0.0
 10
9.8257042171
 20
10.2695314746
 30
0.0
 10
9.8251090061
 20
10.2693357903
 30
0.0
  0
SPLINE
  5
471
100
AcDbEntity
  8
0
100
AcDbSpline
 62
7
  6
CONTINUOUS
 70
0
 71
3
 72
15
 73
11
 74
0
 42
0.0000001
 43
0.0000001
 44
0.0000000001
 40
0.0
 40
0.0
 40
0.0
 40
0.0
 40
0.2540155498
 40
0.3804892535
 40
0.506328656
 40
0.6313521114
 40
0.7553798979
 40
0.8169823362
 40
0.8783011505
 40
1.0
 40
1.0
 40
1.0
 40
1.0
 10
9.8222268168
 20
10.317559669
 30
0.0
 10
9.8213990939
 20
10.3185460956
 30
0.0
 10
9.8201277467
 20
10.3199975582
 30
0.0
 10
9.8183823799
 20
10.321879663
 30
0.0
 10
9.817059926
 20
10.3232618342
 30
0.0
 10
9.8157310774
 20
10.3246204939
 30
0.0
 10
9.814625497
 20
10.3257419697
 30
0.0
 10
9.8137525613
 20
10.3266393314
 30
0.0
 10
9.8128948391
 20
10.327534798
 30
0.0
 10
9.8122689159
 20
10.3282205737
 30
0.0
 10
9.8118723498
 20
10.3286931673
 30
0.0
  0
SPLINE
  5
472
100
AcDbEntity
  8
0
100
AcDbSpline
 62
7
  6
CONTINUOUS
 70
0
 71
3
 72
15
 73
11
 74
0
 42
0.0000001
 43
0.0000001
 44
0.0000000001
 40
0.0
 40
0.0
 40
0.0
 40
0.0
 40
0.1216988014
 40
0.1830176064
 40
0.2446200354
 40
0.3686478098
 40
0.4936712618
 40
0.6195106603
 40
0.7459843881
 40
1.0
 40
1.0
 40
1.0
 40
1.0
 10
9.8313931928
 20
10.3054291319
 30
0.0
 10
9.8309966342
 20
10.3059017359
 30
0.0
 10
9.8304299699
 20
10.3066372425
 30
0.0
 10
9.8296970489
 20
10.3076374378
 30
0.0
 10
9.8289648956
 20
10.3086529395
 30
0.0
 10
9.828052427
 20
10.3099364675
 30
0.0
 10
9.8269451573
 20
10.3114810674
 30
0.0
 10
9.8258136202
 20
10.313023451
 30
0.0
 10
9.8242631828
 20
10.3150691398
 30
0.0
 10
9.8230545454
 20
10.3165732372
 30
0.0
 10
9.8222268176
 20
10.3175596696
 30
0.0
  0
SPLINE
  5
473
100
AcDbEntity
  8
0
100
AcDbSpline
 62
7
  6
CONTINUOUS
 70
0
 71
3
 72
23
 73
19
 74
0
 42
0.0000001
 43
0.0000001
 44
0.0000000001
 40
0.0
 40
0.0
 40
0.0
 40
0.0
 40
0.0084906217
 40
0.0178769539
 40
0.0285813346
 40
0.0408473195
 40
0.0548041666
 40
0.0705234047
 40
0.1073441825
 40
0.1513531547
 40
0.2024075237
 40
0.260320254
 40
0.3248186383
 40
0.395477849
 40
0.4715914991
 40
0.6369935843
 40
0.8151129113
 40
1.0
 40
1.0
 40
1.0
 40
1.0
 10
8.0975461458
 20
12.3013176557
 30
0.0
 10
8.0975111856
 20
12.3012774345
 30
0.0
 10
8.0974503306
 20
12.3011811227
 30
0.0
 10
8.0973957485
 20
12.3010087827
 30
0.0
 10
8.0973722367
 20
12.3008061414
 30
0.0
 10
8.0973783177
 20
12.3005738894
 30
0.0
 10
8.0974130227
 20
12.3003125607
 30
0.0
 10
8.097501783
 20
12.2999043791
 30
0.0
 10
8.0976891167
 20
12.2993267027
 30
0.0
 10
8.0980086474
 20
12.2985625319
 30
0.0
 10
8.0984318754
 20
12.2977001567
 30
0.0
 10
8.0989562226
 20
12.2967456577
 30
0.0
 10
8.0995784941
 20
12.295705562
 30
0.0
 10
8.1002935926
 20
12.2945886644
 30
0.0
 10
8.1013905192
 20
12.2929649509
 30
0.0
 10
8.1029322924
 20
12.2908287392
 30
0.0
 10
8.1049561716
 20
12.2882008045
 30
0.0
 10
8.1063963536
 20
12.2864348348
 30
0.0
 10
8.1071422714
 20
12.2855458846
 30
0.0
  0
SPLINE
  5
474
100
AcDbEntity
  8
0
100
AcDbSpline
 62
9
  6
CONTINUOUS
 70
0
 71
3
 72
18
 73
14
 74
0
 42
0.0000001
 43
0.0000001
 44
0.0000000001
 40
0.0
 40
0.0
 40
0.0
 40
0.0
 40
0.2046214801
 40
0.3836951187
 40
0.5373343221
 40
0.666148748
 40
0.7717029822
 40
0.8167681691
 40
0.8575023765
 40
0.8948513947
 40
0.9300488172
 40
0.9645740378
 40
1.0
 40
1.0
 40
1.0
 40
1.0
 10
9.9978503947
 20
10.0468497973
 30
0.0
 10
9.9979571229
 20
10.0465654189
 30
0.0
 10
9.9981462513
 20
10.0460278738
 30
0.0
 10
9.998368733
 20
10.0452613966
 30
0.0
 10
9.9985113546
 20
10.0445903708
 30
0.0
 10
9.9985741493
 20
10.044016789
 30
0.0
 10
9.9985595298
 20
10.0435994953
 30
0.0
 10
9.9985000712
 20
10.0433209817
 30
0.0
 10
9.9984370098
 20
10.0431486218
 30
0.0
 10
9.9983528238
 20
10.0430019487
 30
0.0
 10
9.9982470806
 20
10.042881688
 30
0.0
 10
9.9981200166
 20
10.0427889456
 30
0.0
 10
9.9980241083
 20
10.0427469232
 30
0.0
 10
9.9979741529
 20
10.0427304949
 30
0.0
  0
SPLINE
  5
475
100
AcDbEntity
  8
0
100
AcDbSpline
 62
9
  6
CONTINUOUS
 70
0
 71
3
 72
19
 73
15
 74
0
 42
0.0000001
 43
0.0000001
 44
0.0000000001
 40
0.0
 40
0.0
 40
0.0
 40
0.0
 40
0.1736155984
 40
0.3314488577
 40
0.4732735633
 40
0.5384433466
 40
0.5999427365
 40
0.657971286
 40
0.7127832217
 40
0.8139806243
 40
0.8615232562
 40
0.9078216764
 40
0.9536790675
 40
1.0
 40
1.0
 40
1.0
 40
1.0
 10
10.0178015386
 20
10.083276324
 30
0.0
 10
10.0187237235
 20
10.0811165818
 30
0.0
 10
10.0202011433
 20
10.0768642297
 30
0.0
 10
10.0214289605
 20
10.0705613082
 30
0.0
 10
10.0216623675
 20
10.0656108472
 30
0.0
 10
10.0213908941
 20
10.0619855944
 30
0.0
 10
10.0209941331
 20
10.0595158633
 30
0.0
 10
10.0204079908
 20
10.0572274167
 30
0.0
 10
10.0194131867
 20
10.0545057586
 30
0.0
 10
10.018049225
 20
10.0520762025
 30
0.0
 10
10.0163103284
 20
10.0500819409
 30
0.0
 10
10.0148691529
 20
10.0488483939
 30
0.0
 10
10.0132692636
 20
10.0478602851
 30
0.0
 10
10.012112624
 20
10.0473785862
 30
0.0
 10
10.0115174129
 20
10.0471829018
 30
0.0
  0
SPLINE
  5
476
100
AcDbEntity
  8
0
100
AcDbSpline
 62
7
  6
CONTINUOUS
 70
0
 71
3
 72
19
 73
15
 74
0
 42
0.0000001
 43
0.0000001
 44
0.0000000001
 40
0.0
 40
0.0
 40
0.0
 40
0.0
 40
0.0423900202
 40
0.0866875015
 40
0.1334976334
 40
0.1832377682
 40
0.236172129
 40
0.2924555131
 40
0.4151110624
 40
0.4813159956
 40
0.5502799463
 40
0.6948843401
 40
0.8458405377
 40
1.0
 40
1.0
 40
1.0
 40
1.0
 10
9.9746886937
 20
10.0911129495
 30
0.0
 10
9.9745098782
 20
10.0908689266
 30
0.0
 10
9.9741901953
 20
10.0903349141
 30
0.0
 10
9.9738396384
 20
10.0894452612
 30
0.0
 10
9.9736082816
 20
10.0884638824
 30
0.0
 10
9.9734951819
 20
10.0874006495
 30
0.0
 10
9.9734991626
 20
10.0862641827
 30
0.0
 10
9.9736651259
 20
10.0846156239
 30
0.0
 10
9.9740721128
 20
10.0829051302
 30
0.0
 10
9.9746785582
 20
10.0811672813
 30
0.0
 10
9.9754504994
 20
10.0793245858
 30
0.0
 10
9.9766531956
 20
10.0770122934
 30
0.0
 10
9.9783925596
 20
10.0743104932
 30
0.0
 10
9.97972434
 20
10.0725838715
 30
0.0
 10
9.9804315319
 20
10.0717410731
 30
0.0
  0
SPLINE
  5
477
100
AcDbEntity
  8
0
100
AcDbSpline
 62
9
  6
CONTINUOUS
 70
0
 71
3
 72
14
 73
10
 74
0
 42
0.0000001
 43
0.0000001
 44
0.0000000001
 40
0.0
 40
0.0
 40
0.0
 40
0.0
 40
0.1061290075
 40
0.2199289722
 40
0.3403504492
 40
0.4662702305
 40
0.5964793299
 40
0.7297103637
 40
1.0
 40
1.0
 40
1.0
 40
1.0
 10
14.398855135
 20
5.3786837288
 30
0.0
 10
14.3995071784
 20
5.3798553443
 30
0.0
 10
14.400799826
 20
5.3823161165
 30
0.0
 10
14.402646856
 20
5.3862002212
 30
0.0
 10
14.4044554755
 20
5.3903763002
 30
0.0
 10
14.406206521
 20
5.3948004427
 30
0.0
 10
14.4078815082
 20
5.3994264482
 30
0.0
 10
14.4099995947
 20
5.405828914
 30
0.0
 10
14.4114052991
 20
5.4107327129
 30
0.0
 10
14.4122592292
 20
5.4140390678
 30
0.0
  0
SPLINE
  5
478
100
AcDbEntity
  8
0
100
AcDbSpline
 62
7
  6
CONTINUOUS
 70
0
 71
3
 72
15
 73
11
 74
0
 42
0.0000001
 43
0.0000001
 44
0.0000000001
 40
0.0
 40
0.0
 40
0.0
 40
0.0
 40
0.2540153828
 40
0.3804890284
 40
0.5063283872
 40
0.6313518436
 40
0.7553796583
 40
0.8169821426
 40
0.8783010298
 40
1.0
 40
1.0
 40
1.0
 40
1.0
 10
10.008635232
 20
10.0954067875
 30
0.0
 10
10.0078075363
 20
10.0963932034
 30
0.0
 10
10.0065361912
 20
10.0978446174
 30
0.0
 10
10.004790857
 20
10.0997266826
 30
0.0
 10
10.003468428
 20
10.101108826
 30
0.0
 10
10.0021395993
 20
10.1024674536
 30
0.0
 10
10.0010340514
 20
10.1035889192
 30
0.0
 10
10.0001611362
 20
10.1044862683
 30
0.0
 10
9.9993034159
 20
10.1053817047
 30
0.0
 10
9.9986774878
 20
10.1060674551
 30
0.0
 10
9.9982809491
 20
10.1065400569
 30
0.0
  0
SPLINE
  5
479
100
AcDbEntity
  8
0
100
AcDbSpline
 62
7
  6
CONTINUOUS
 70
0
 71
3
 72
15
 73
11
 74
0
 42
0.0000001
 43
0.0000001
 44
0.0000000001
 40
0.0
 40
0.0
 40
0.0
 40
0.0
 40
0.1216989615
 40
0.1830178309
 40
0.2446203001
 40
0.3686481026
 40
0.4936715528
 40
0.6195109167
 40
0.7459845775
 40
1.0
 40
1.0
 40
1.0
 40
1.0
 10
10.0178013936
 20
10.0832764976
 30
0.0
 10
10.0174048346
 20
10.0837490852
 30
0.0
 10
10.0168381831
 20
10.0844845785
 30
0.0
 10
10.016105283
 20
10.0854847576
 30
0.0
 10
10.0153731473
 20
10.0865002396
 30
0.0
 10
10.0144606994
 20
10.0877837413
 30
0.0
 10
10.0133534556
 20
10.0893283094
 30
0.0
 10
10.0122219414
 20
10.0908706582
 30
0.0
 10
10.0106715354
 20
10.0929162997
 30
0.0
 10
10.0094629315
 20
10.0944203687
 30
0.0
 10
10.0086352328
 20
10.0954067882
 30
0.0
  0
SPLINE
  5
47A
100
AcDbEntity
  8
0
100
AcDbSpline
 62
7
  6
CONTINUOUS
 70
0
 71
3
 72
19
 73
15
 74
0
 42
0.0000001
 43
0.0000001
 44
0.0000000001
 40
0.0
 40
0.0
 40
0.0
 40
0.0
 40
0.0423900202
 40
0.0866875015
 40
0.1334976334
 40
0.1832377682
 40
0.236172129
 40
0.2924555131
 40
0.4151110624
 40
0.4813159956
 40
0.5502799463
 40
0.6948843401
 40
0.8458405377
 40
1.0
 40
1.0
 40
1.0
 40
1.0
 10
9.7882802869
 20
10.3132658381
 30
0.0
 10
9.7881014714
 20
10.3130218151
 30
0.0
 10
9.7877817885
 20
10.3124878027
 30
0.0
 10
9.7874312315
 20
10.3115981497
 30
0.0
 10
9.7871998748
 20
10.3106167709
 30
0.0
 10
9.7870867751
 20
10.309553538
 30
0.0
 10
9.7870907558
 20
10.3084170713
 30
0.0
 10
9.787256719
 20
10.3067685124
 30
0.0
 10
9.7876637059
 20
10.3050580187
 30
0.0
 10
9.7882701514
 20
10.3033201698
 30
0.0
 10
9.7890420926
 20
10.3014774743
 30
0.0
 10
9.7902447888
 20
10.2991651819
 30
0.0
 10
9.7919841528
 20
10.2964633817
 30
0.0
 10
9.7933159332
 20
10.29473676
 30
0.0
 10
9.794023125
 20
10.2938939616
 30
0.0
  0
SPLINE
  5
47B
100
AcDbEntity
  8
0
100
AcDbSpline
 62
7
  6
CONTINUOUS
 70
0
 71
3
 72
19
 73
15
 74
0
 42
0.0000001
 43
0.0000001
 44
0.0000000001
 40
0.0
 40
0.0
 40
0.0
 40
0.0
 40
0.0423900202
 40
0.0866875015
 40
0.1334976334
 40
0.1832377682
 40
0.236172129
 40
0.2924555131
 40
0.4151110624
 40
0.4813159956
 40
0.5502799463
 40
0.6948843401
 40
0.8458405377
 40
1.0
 40
1.0
 40
1.0
 40
1.0
 10
9.6018718801
 20
10.5354187266
 30
0.0
 10
9.6016930646
 20
10.5351747036
 30
0.0
 10
9.6013733817
 20
10.5346406912
 30
0.0
 10
9.6010228247
 20
10.5337510382
 30
0.0
 10
9.6007914679
 20
10.5327696595
 30
0.0
 10
9.6006783683
 20
10.5317064265
 30
0.0
 10
9.600682349
 20
10.5305699598
 30
0.0
 10
9.6008483122
 20
10.5289214009
 30
0.0
 10
9.6012552991
 20
10.5272109072
 30
0.0
 10
9.6018617445
 20
10.5254730583
 30
0.0
 10
9.6026336858
 20
10.5236303628
 30
0.0
 10
9.603836382
 20
10.5213180704
 30
0.0
 10
9.605575746
 20
10.5186162702
 30
0.0
 10
9.6069075264
 20
10.5168896485
 30
0.0
 10
9.6076147182
 20
10.5160468501
 30
0.0
  0
SPLINE
  5
47C
100
AcDbEntity
  8
0
100
AcDbSpline
 62
7
  6
CONTINUOUS
 70
0
 71
3
 72
19
 73
15
 74
0
 42
0.0000001
 43
0.0000001
 44
0.0000000001
 40
0.0
 40
0.0
 40
0.0
 40
0.0
 40
0.1541594623
 40
0.3051156599
 40
0.4497200537
 40
0.5186840044
 40
0.5848889376
 40
0.7075444869
 40
0.763827871
 40
0.8167622318
 40
0.8665023666
 40
0.9133124985
 40
0.9576099798
 40
1.0
 40
1.0
 40
1.0
 40
1.0
 10
8.1163474638
 20
12.2932699581
 30
0.0
 10
8.1170546556
 20
12.2924271597
 30
0.0
 10
8.1185237848
 20
12.2908157873
 30
0.0
 10
8.1208825012
 20
12.2886336855
 30
0.0
 10
8.1229508187
 20
12.2870477355
 30
0.0
 10
8.1246314733
 20
12.2859675411
 30
0.0
 10
8.1262376122
 20
12.2850685347
 30
0.0
 10
8.1278514472
 20
12.2843707067
 30
0.0
 10
8.1294461415
 20
12.2839209956
 30
0.0
 10
8.1305646515
 20
12.28371973
 30
0.0
 10
8.1316313711
 20
12.283646483
 30
0.0
 10
8.1326380152
 20
12.2837039103
 30
0.0
 10
8.1335750259
 20
12.2838946549
 30
0.0
 10
8.1341564378
 20
12.2841167508
 30
0.0
 10
8.1344278045
 20
12.2842504755
 30
0.0
  0
SPLINE
  5
47D
100
AcDbEntity
  8
0
100
AcDbSpline
 62
7
  6
CONTINUOUS
 70
0
 71
3
 72
9
 73
5
 74
0
 42
0.0000001
 43
0.0000001
 44
0.0000000001
 40
0.0
 40
0.0
 40
0.0
 40
0.0
 40
0.5142238131
 40
1.0
 40
1.0
 40
1.0
 40
1.0
 10
8.1286361937
 20
12.3035814269
 30
0.0
 10
8.1297872648
 20
12.3022096337
 30
0.0
 10
8.1321803542
 20
12.2996679959
 30
0.0
 10
8.1348513541
 20
12.2974183985
 30
0.0
 10
8.1362142745
 20
12.296416283
 30
0.0
  0
SPLINE
  5
47E
100
AcDbEntity
  8
0
100
AcDbSpline
 62
7
  6
CONTINUOUS
 70
0
 71
3
 72
19
 73
15
 74
0
 42
0.0000001
 43
0.0000001
 44
0.0000000001
 40
0.0
 40
0.0
 40
0.0
 40
0.0
 40
0.0423900202
 40
0.0866875015
 40
0.1334976334
 40
0.1832377682
 40
0.236172129
 40
0.2924555131
 40
0.4151110624
 40
0.4813159956
 40
0.5502799463
 40
0.6948843401
 40
0.8458405377
 40
1.0
 40
1.0
 40
1.0
 40
1.0
 10
9.4154634733
 20
10.7575716151
 30
0.0
 10
9.4152846578
 20
10.7573275921
 30
0.0
 10
9.4149649749
 20
10.7567935797
 30
0.0
 10
9.4146144179
 20
10.7559039267
 30
0.0
 10
9.4143830611
 20
10.754922548
 30
0.0
 10
9.4142699615
 20
10.753859315
 30
0.0
 10
9.4142739422
 20
10.7527228483
 30
0.0
 10
9.4144399054
 20
10.7510742894
 30
0.0
 10
9.4148468923
 20
10.7493637957
 30
0.0
 10
9.4154533377
 20
10.7476259468
 30
0.0
 10
9.4162252789
 20
10.7457832513
 30
0.0
 10
9.4174279752
 20
10.7434709589
 30
0.0
 10
9.4191673392
 20
10.7407691587
 30
0.0
 10
9.4204991196
 20
10.739042537
 30
0.0
 10
9.4212063114
 20
10.7381997386
 30
0.0
  0
SPLINE
  5
47F
100
AcDbEntity
  8
0
100
AcDbSpline
 62
7
  6
CONTINUOUS
 70
0
 71
3
 72
9
 73
5
 74
0
 42
0.0000001
 43
0.0000001
 44
0.0000000001
 40
0.0
 40
0.0
 40
0.0
 40
0.0
 40
0.5142238131
 40
1.0
 40
1.0
 40
1.0
 40
1.0
 10
8.1286361937
 20
12.3035814269
 30
0.0
 10
8.1274851226
 20
12.30495322
 30
0.0
 10
8.1253976535
 20
12.3077513038
 30
0.0
 10
8.1236460468
 20
12.3107723637
 30
0.0
 10
8.1228958244
 20
12.3122885938
 30
0.0
  0
SPLINE
  5
480
100
AcDbEntity
  8
0
100
AcDbSpline
 62
9
  6
CONTINUOUS
 70
0
 71
3
 72
28
 73
24
 74
0
 42
0.0000001
 43
0.0000001
 44
0.0000000001
 40
0.0
 40
0.0
 40
0.0
 40
0.0
 40
0.1253766029
 40
0.2505329807
 40
0.3754588766
 40
0.4378422071
 40
0.5001719953
 40
0.5624532831
 40
0.6246981255
 40
0.6869184704
 40
0.7180357385
 40
0.7491588442
 40
0.7802972835
 40
0.811463849
 40
0.8426682752
 40
0.873930329
 40
0.9052729474
 40
0.9209923715
 40
0.9367410156
 40
0.9525204084
 40
0.9683284308
 40
0.9841606734
 40
1.0
 40
1.0
 40
1.0
 40
1.0
 10
14.1321118432
 20
5.3786837288
 30
0.0
 10
14.128345973
 20
5.3781598543
 30
0.0
 10
14.1208331991
 20
5.3770204066
 30
0.0
 10
14.1096304889
 20
5.3749747337
 30
0.0
 10
14.1003775365
 20
5.3729158603
 30
0.0
 10
14.0930543089
 20
5.3709935265
 30
0.0
 10
14.0876134956
 20
5.369391534
 30
0.0
 10
14.0822372317
 20
5.3675967287
 30
0.0
 10
14.0769438255
 20
5.3655781123
 30
0.0
 10
14.0726314652
 20
5.3636555577
 30
0.0
 10
14.0692666753
 20
5.3619438572
 30
0.0
 10
14.0667971989
 20
5.3605559563
 30
0.0
 10
14.0643971287
 20
5.3590478979
 30
0.0
 10
14.0620829014
 20
5.3574059283
 30
0.0
 10
14.0598871571
 20
5.3556007378
 30
0.0
 10
14.0578547729
 20
5.3536041504
 30
0.0
 10
14.056349941
 20
5.3517571629
 30
0.0
 10
14.0553120733
 20
5.3501578381
 30
0.0
 10
14.0546352307
 20
5.34889276
 30
0.0
 10
14.0540783261
 20
5.3475672774
 30
0.0
 10
14.0536573917
 20
5.3461892961
 30
0.0
 10
14.0533949516
 20
5.3447702993
 30
0.0
 10
14.0533361728
 20
5.3438087282
 30
0.0
 10
14.0533367239
 20
5.3433283897
 30
0.0
  0
SPLINE
  5
481
100
AcDbEntity
  8
0
100
AcDbSpline
 62
7
  6
CONTINUOUS
 70
0
 71
3
 72
19
 73
15
 74
0
 42
0.0000001
 43
0.0000001
 44
0.0000000001
 40
0.0
 40
0.0
 40
0.0
 40
0.0
 40
0.0423900202
 40
0.0866875015
 40
0.1334976334
 40
0.1832377682
 40
0.236172129
 40
0.2924555131
 40
0.4151110624
 40
0.4813159956
 40
0.5502799463
 40
0.6948843401
 40
0.8458405377
 40
1.0
 40
1.0
 40
1.0
 40
1.0
 10
9.2290550664
 20
10.9797245036
 30
0.0
 10
9.228876251
 20
10.9794804806
 30
0.0
 10
9.2285565681
 20
10.9789464682
 30
0.0
 10
9.2282060111
 20
10.9780568152
 30
0.0
 10
9.2279746543
 20
10.9770754365
 30
0.0
 10
9.2278615547
 20
10.9760122035
 30
0.0
 10
9.2278655354
 20
10.9748757368
 30
0.0
 10
9.2280314986
 20
10.9732271779
 30
0.0
 10
9.2284384855
 20
10.9715166842
 30
0.0
 10
9.2290449309
 20
10.9697788353
 30
0.0
 10
9.2298168721
 20
10.9679361398
 30
0.0
 10
9.2310195684
 20
10.9656238474
 30
0.0
 10
9.2327589324
 20
10.9629220472
 30
0.0
 10
9.2340907128
 20
10.9611954255
 30
0.0
 10
9.2347979046
 20
10.9603526271
 30
0.0
  0
SPLINE
  5
482
100
AcDbEntity
  8
0
100
AcDbSpline
 62
9
  6
CONTINUOUS
 70
0
 71
3
 72
24
 73
20
 74
0
 42
0.0000001
 43
0.0000001
 44
0.0000000001
 40
0.0
 40
0.0
 40
0.0
 40
0.0
 40
0.1249415622
 40
0.2491208217
 40
0.3726585371
 40
0.4342896159
 40
0.495887366
 40
0.5575315188
 40
0.6193236937
 40
0.6813888256
 40
0.7438733824
 40
0.8069309347
 40
0.8387311727
 40
0.8707075514
 40
0.9028538422
 40
0.9189848945
 40
0.9351481945
 40
0.9675493174
 40
1.0
 40
1.0
 40
1.0
 40
1.0
 10
14.1187076577
 20
5.4140390679
 30
0.0
 10
14.1138656039
 20
5.4128152509
 30
0.0
 10
14.1042692734
 20
5.4101327773
 30
0.0
 10
14.0901871342
 20
5.4052433861
 30
0.0
 10
14.0788376129
 20
5.4002889449
 30
0.0
 10
14.0701127935
 20
5.3956779259
 30
0.0
 10
14.0637830222
 20
5.3918550839
 30
0.0
 10
14.0577106831
 20
5.3876212988
 30
0.0
 10
14.0519649395
 20
5.3829209316
 30
0.0
 10
14.0466307789
 20
5.3777055958
 30
0.0
 10
14.0418300579
 20
5.3719246326
 30
0.0
 10
14.0384221712
 20
5.3666141903
 30
0.0
 10
14.0361483511
 20
5.3620782235
 30
0.0
 10
14.0346920386
 20
5.358526995
 30
0.0
 10
14.0337164931
 20
5.3554667082
 30
0.0
 10
14.0330923225
 20
5.3529668347
 30
0.0
 10
14.0325764725
 20
5.3504319569
 30
0.0
 10
14.0321375777
 20
5.3472192566
 30
0.0
 10
14.0320138337
 20
5.3446255474
 30
0.0
 10
14.032015441
 20
5.3433283897
 30
0.0
  0
SPLINE
  5
483
100
AcDbEntity
  8
0
100
AcDbSpline
 62
7
  6
CONTINUOUS
 70
0
 71
3
 72
19
 73
15
 74
0
 42
0.0000001
 43
0.0000001
 44
0.0000000001
 40
0.0
 40
0.0
 40
0.0
 40
0.0
 40
0.1541594623
 40
0.3051156599
 40
0.4497200537
 40
0.5186840044
 40
0.5848889376
 40
0.7075444869
 40
0.763827871
 40
0.8167622318
 40
0.8665023666
 40
0.9133124985
 40
0.9576099798
 40
1.0
 40
1.0
 40
1.0
 40
1.0
 10
8.3027558706
 20
12.0711170696
 30
0.0
 10
8.3034630624
 20
12.0702742712
 30
0.0
 10
8.3049321916
 20
12.0686628988
 30
0.0
 10
8.307290908
 20
12.066480797
 30
0.0
 10
8.3093592255
 20
12.064894847
 30
0.0
 10
8.3110398801
 20
12.0638146526
 30
0.0
 10
8.312646019
 20
12.0629156462
 30
0.0
 10
8.314259854
 20
12.0622178182
 30
0.0
 10
8.3158545483
 20
12.0617681071
 30
0.0
 10
8.3169730583
 20
12.0615668415
 30
0.0
 10
8.3180397779
 20
12.0614935945
 30
0.0
 10
8.319046422
 20
12.0615510218
 30
0.0
 10
8.3199834327
 20
12.0617417664
 30
0.0
 10
8.3205648446
 20
12.0619638623
 30
0.0
 10
8.3208362113
 20
12.062097587
 30
0.0
  0
SPLINE
  5
484
100
AcDbEntity
  8
0
100
AcDbSpline
 62
7
  6
CONTINUOUS
 70
0
 71
3
 72
9
 73
5
 74
0
 42
0.0000001
 43
0.0000001
 44
0.0000000001
 40
0.0
 40
0.0
 40
0.0
 40
0.0
 40
0.5142238131
 40
1.0
 40
1.0
 40
1.0
 40
1.0
 10
8.3150446005
 20
12.0814285384
 30
0.0
 10
8.3161956716
 20
12.0800567452
 30
0.0
 10
8.3185887611
 20
12.0775151074
 30
0.0
 10
8.3212597609
 20
12.07526551
 30
0.0
 10
8.3226226813
 20
12.0742633945
 30
0.0
  0
SPLINE
  5
485
100
AcDbEntity
  8
0
100
AcDbSpline
 62
7
  6
CONTINUOUS
 70
0
 71
3
 72
19
 73
15
 74
0
 42
0.0000001
 43
0.0000001
 44
0.0000000001
 40
0.0
 40
0.0
 40
0.0
 40
0.0
 40
0.0423900202
 40
0.0866875015
 40
0.1334976334
 40
0.1832377682
 40
0.236172129
 40
0.2924555131
 40
0.4151110624
 40
0.4813159956
 40
0.5502799463
 40
0.6948843401
 40
0.8458405377
 40
1.0
 40
1.0
 40
1.0
 40
1.0
 10
9.0426466596
 20
11.2018773921
 30
0.0
 10
9.0424678442
 20
11.2016333691
 30
0.0
 10
9.0421481613
 20
11.2010993567
 30
0.0
 10
9.0417976043
 20
11.2002097037
 30
0.0
 10
9.0415662475
 20
11.199228325
 30
0.0
 10
9.0414531478
 20
11.1981650921
 30
0.0
 10
9.0414571286
 20
11.1970286253
 30
0.0
 10
9.0416230918
 20
11.1953800664
 30
0.0
 10
9.0420300787
 20
11.1936695727
 30
0.0
 10
9.0426365241
 20
11.1919317238
 30
0.0
 10
9.0434084653
 20
11.1900890283
 30
0.0
 10
9.0446111616
 20
11.1877767359
 30
0.0
 10
9.0463505256
 20
11.1850749357
 30
0.0
 10
9.047682306
 20
11.183348314
 30
0.0
 10
9.0483894978
 20
11.1825055156
 30
0.0
  0
SPLINE
  5
486
100
AcDbEntity
  8
0
100
AcDbSpline
 62
9
  6
CONTINUOUS
 70
0
 71
3
 72
14
 73
10
 74
0
 42
0.0000001
 43
0.0000001
 44
0.0000000001
 40
0.0
 40
0.0
 40
0.0
 40
0.0
 40
0.1061285933
 40
0.2199282214
 40
0.3403494634
 40
0.466269133
 40
0.5964782635
 40
0.7297094858
 40
1.0
 40
1.0
 40
1.0
 40
1.0
 10
14.1321118432
 20
5.3786837687
 30
0.0
 10
14.1314597968
 20
5.3798553768
 30
0.0
 10
14.1301671426
 20
5.3823161354
 30
0.0
 10
14.1283201018
 20
5.3862002222
 30
0.0
 10
14.1265114696
 20
5.3903762872
 30
0.0
 10
14.1247604094
 20
5.3948004206
 30
0.0
 10
14.1230854056
 20
5.3994264226
 30
0.0
 10
14.1209672932
 20
5.4058288958
 30
0.0
 10
14.1195615694
 20
5.4107327042
 30
0.0
 10
14.1187076261
 20
5.4140390679
 30
0.0
  0
SPLINE
  5
487
100
AcDbEntity
  8
0
100
AcDbSpline
 62
7
  6
CONTINUOUS
 70
0
 71
3
 72
9
 73
5
 74
0
 42
0.0000001
 43
0.0000001
 44
0.0000000001
 40
0.0
 40
0.0
 40
0.0
 40
0.0
 40
0.5142238131
 40
1.0
 40
1.0
 40
1.0
 40
1.0
 10
8.3150446005
 20
12.0814285384
 30
0.0
 10
8.3138935294
 20
12.0828003315
 30
0.0
 10
8.3118060603
 20
12.0855984153
 30
0.0
 10
8.3100544536
 20
12.0886194752
 30
0.0
 10
8.3093042312
 20
12.0901357053
 30
0.0
  0
SPLINE
  5
488
100
AcDbEntity
  8
0
100
AcDbSpline
 62
7
  6
CONTINUOUS
 70
0
 71
3
 72
19
 73
15
 74
0
 42
0.0000001
 43
0.0000001
 44
0.0000000001
 40
0.0
 40
0.0
 40
0.0
 40
0.0
 40
0.0423900202
 40
0.0866875015
 40
0.1334976334
 40
0.1832377682
 40
0.236172129
 40
0.2924555131
 40
0.4151110624
 40
0.4813159956
 40
0.5502799463
 40
0.6948843401
 40
0.8458405377
 40
1.0
 40
1.0
 40
1.0
 40
1.0
 10
8.8562382528
 20
11.4240302806
 30
0.0
 10
8.8560594374
 20
11.4237862576
 30
0.0
 10
8.8557397545
 20
11.4232522452
 30
0.0
 10
8.8553891975
 20
11.4223625922
 30
0.0
 10
8.8551578407
 20
11.4213812135
 30
0.0
 10
8.855044741
 20
11.4203179806
 30
0.0
 10
8.8550487218
 20
11.4191815138
 30
0.0
 10
8.855214685
 20
11.417532955
 30
0.0
 10
8.8556216719
 20
11.4158224612
 30
0.0
 10
8.8562281173
 20
11.4140846123
 30
0.0
 10
8.8570000585
 20
11.4122419168
 30
0.0
 10
8.8582027548
 20
11.4099296244
 30
0.0
 10
8.8599421188
 20
11.4072278242
 30
0.0
 10
8.8612738992
 20
11.4055012025
 30
0.0
 10
8.861981091
 20
11.4046584041
 30
0.0
  0
SPLINE
  5
489
100
AcDbEntity
  8
0
100
AcDbSpline
 62
7
  6
CONTINUOUS
 70
0
 71
3
 72
19
 73
15
 74
0
 42
0.0000001
 43
0.0000001
 44
0.0000000001
 40
0.0
 40
0.0
 40
0.0
 40
0.0
 40
0.0423900202
 40
0.0866875015
 40
0.1334976334
 40
0.1832377682
 40
0.236172129
 40
0.2924555131
 40
0.4151110624
 40
0.4813159956
 40
0.5502799463
 40
0.6948843401
 40
0.8458405377
 40
1.0
 40
1.0
 40
1.0
 40
1.0
 10
8.669829846
 20
11.6461831691
 30
0.0
 10
8.6696510306
 20
11.6459391461
 30
0.0
 10
8.6693313477
 20
11.6454051337
 30
0.0
 10
8.6689807907
 20
11.6445154807
 30
0.0
 10
8.6687494339
 20
11.643534102
 30
0.0
 10
8.6686363342
 20
11.6424708691
 30
0.0
 10
8.668640315
 20
11.6413344023
 30
0.0
 10
8.6688062782
 20
11.6396858435
 30
0.0
 10
8.6692132651
 20
11.6379753497
 30
0.0
 10
8.6698197105
 20
11.6362375008
 30
0.0
 10
8.6705916517
 20
11.6343948053
 30
0.0
 10
8.671794348
 20
11.632082513
 30
0.0
 10
8.6735337119
 20
11.6293807127
 30
0.0
 10
8.6748654924
 20
11.627654091
 30
0.0
 10
8.6755726842
 20
11.6268112926
 30
0.0
  0
SPLINE
  5
48A
100
AcDbEntity
  8
0
100
AcDbSpline
 62
7
  6
CONTINUOUS
 70
0
 71
3
 72
19
 73
15
 74
0
 42
0.0000001
 43
0.0000001
 44
0.0000000001
 40
0.0
 40
0.0
 40
0.0
 40
0.0
 40
0.1541594623
 40
0.3051156599
 40
0.4497200537
 40
0.5186840044
 40
0.5848889376
 40
0.7075444869
 40
0.763827871
 40
0.8167622318
 40
0.8665023666
 40
0.9133124985
 40
0.9576099798
 40
1.0
 40
1.0
 40
1.0
 40
1.0
 10
8.4891642774
 20
11.8489641811
 30
0.0
 10
8.4898714692
 20
11.8481213827
 30
0.0
 10
8.4913405984
 20
11.8465100103
 30
0.0
 10
8.4936993149
 20
11.8443279085
 30
0.0
 10
8.4957676323
 20
11.8427419585
 30
0.0
 10
8.4974482869
 20
11.8416617641
 30
0.0
 10
8.4990544258
 20
11.8407627577
 30
0.0
 10
8.5006682608
 20
11.8400649297
 30
0.0
 10
8.5022629551
 20
11.8396152186
 30
0.0
 10
8.5033814652
 20
11.839413953
 30
0.0
 10
8.5044481847
 20
11.839340706
 30
0.0
 10
8.5054548288
 20
11.8393981333
 30
0.0
 10
8.5063918395
 20
11.8395888779
 30
0.0
 10
8.5069732514
 20
11.8398109738
 30
0.0
 10
8.5072446181
 20
11.8399446985
 30
0.0
  0
SPLINE
  5
48B
100
AcDbEntity
  8
0
100
AcDbSpline
 62
7
  6
CONTINUOUS
 70
0
 71
3
 72
9
 73
5
 74
0
 42
0.0000001
 43
0.0000001
 44
0.0000000001
 40
0.0
 40
0.0
 40
0.0
 40
0.0
 40
0.5142238131
 40
1.0
 40
1.0
 40
1.0
 40
1.0
 10
8.5014530073
 20
11.8592756499
 30
0.0
 10
8.5026040785
 20
11.8579038567
 30
0.0
 10
8.5049971679
 20
11.8553622189
 30
0.0
 10
8.5076681677
 20
11.8531126215
 30
0.0
 10
8.5090310881
 20
11.852110506
 30
0.0
  0
SPLINE
  5
48C
100
AcDbEntity
  8
0
100
AcDbSpline
 62
7
  6
CONTINUOUS
 70
0
 71
3
 72
9
 73
5
 74
0
 42
0.0000001
 43
0.0000001
 44
0.0000000001
 40
0.0
 40
0.0
 40
0.0
 40
0.0
 40
0.5142238131
 40
1.0
 40
1.0
 40
1.0
 40
1.0
 10
8.5014530073
 20
11.8592756499
 30
0.0
 10
8.5003019362
 20
11.860647443
 30
0.0
 10
8.4982144671
 20
11.8634455268
 30
0.0
 10
8.4964628604
 20
11.8664665866
 30
0.0
 10
8.495712638
 20
11.8679828168
 30
0.0
  0
SPLINE
  5
48D
100
AcDbEntity
  8
0
100
AcDbSpline
 62
7
  6
CONTINUOUS
 70
0
 71
3
 72
19
 73
15
 74
0
 42
0.0000001
 43
0.0000001
 44
0.0000000001
 40
0.0
 40
0.0
 40
0.0
 40
0.0
 40
0.0423900202
 40
0.0866875015
 40
0.1334976334
 40
0.1832377682
 40
0.236172129
 40
0.2924555131
 40
0.4151110624
 40
0.4813159956
 40
0.5502799463
 40
0.6948843401
 40
0.8458405377
 40
1.0
 40
1.0
 40
1.0
 40
1.0
 10
8.4834214392
 20
11.8683360576
 30
0.0
 10
8.4832426238
 20
11.8680920346
 30
0.0
 10
8.4829229409
 20
11.8675580222
 30
0.0
 10
8.4825723839
 20
11.8666683692
 30
0.0
 10
8.4823410271
 20
11.8656869905
 30
0.0
 10
8.4822279274
 20
11.8646237576
 30
0.0
 10
8.4822319082
 20
11.8634872908
 30
0.0
 10
8.4823978714
 20
11.861838732
 30
0.0
 10
8.4828048583
 20
11.8601282382
 30
0.0
 10
8.4834113037
 20
11.8583903893
 30
0.0
 10
8.4841832449
 20
11.8565476938
 30
0.0
 10
8.4853859412
 20
11.8542354015
 30
0.0
 10
8.4871253051
 20
11.8515336012
 30
0.0
 10
8.4884570856
 20
11.8498069795
 30
0.0
 10
8.4891642774
 20
11.8489641811
 30
0.0
  0
SPLINE
  5
48E
100
AcDbEntity
  8
0
100
AcDbSpline
 62
7
  6
CONTINUOUS
 70
0
 71
3
 72
19
 73
15
 74
0
 42
0.0000001
 43
0.0000001
 44
0.0000000001
 40
0.0
 40
0.0
 40
0.0
 40
0.0
 40
0.0423900202
 40
0.0866875015
 40
0.1334976334
 40
0.1832377682
 40
0.236172129
 40
0.2924555131
 40
0.4151110624
 40
0.4813159956
 40
0.5502799463
 40
0.6948843401
 40
0.8458405377
 40
1.0
 40
1.0
 40
1.0
 40
1.0
 10
8.2970130324
 20
12.0904889461
 30
0.0
 10
8.2968342169
 20
12.0902449231
 30
0.0
 10
8.2965145341
 20
12.0897109107
 30
0.0
 10
8.2961639771
 20
12.0888212577
 30
0.0
 10
8.2959326203
 20
12.087839879
 30
0.0
 10
8.2958195206
 20
12.0867766461
 30
0.0
 10
8.2958235014
 20
12.0856401793
 30
0.0
 10
8.2959894646
 20
12.0839916205
 30
0.0
 10
8.2963964515
 20
12.0822811267
 30
0.0
 10
8.2970028969
 20
12.0805432779
 30
0.0
 10
8.2977748381
 20
12.0787005823
 30
0.0
 10
8.2989775344
 20
12.07638829
 30
0.0
 10
8.3007168983
 20
12.0736864897
 30
0.0
 10
8.3020486787
 20
12.071959868
 30
0.0
 10
8.3027558706
 20
12.0711170696
 30
0.0
  0
SPLINE
  5
48F
100
AcDbEntity
  8
0
100
AcDbSpline
 62
7
  6
CONTINUOUS
 70
0
 71
3
 72
19
 73
15
 74
0
 42
0.0000001
 43
0.0000001
 44
0.0000000001
 40
0.0
 40
0.0
 40
0.0
 40
0.0
 40
0.1541594623
 40
0.3051156599
 40
0.4497200537
 40
0.5186840044
 40
0.5848889376
 40
0.7075444869
 40
0.763827871
 40
0.8167622318
 40
0.8665023666
 40
0.9133124985
 40
0.9576099798
 40
1.0
 40
1.0
 40
1.0
 40
1.0
 10
8.6755726842
 20
11.6268112926
 30
0.0
 10
8.676279876
 20
11.6259684942
 30
0.0
 10
8.6777490052
 20
11.6243571218
 30
0.0
 10
8.6801077217
 20
11.62217502
 30
0.0
 10
8.6821760391
 20
11.62058907
 30
0.0
 10
8.6838566937
 20
11.6195088756
 30
0.0
 10
8.6854628326
 20
11.6186098692
 30
0.0
 10
8.6870766676
 20
11.6179120412
 30
0.0
 10
8.6886713619
 20
11.6174623301
 30
0.0
 10
8.689789872
 20
11.6172610645
 30
0.0
 10
8.6908565915
 20
11.6171878174
 30
0.0
 10
8.6918632356
 20
11.6172452448
 30
0.0
 10
8.6928002463
 20
11.6174359894
 30
0.0
 10
8.6933816583
 20
11.6176580853
 30
0.0
 10
8.6936530249
 20
11.61779181
 30
0.0
  0
SPLINE
  5
490
100
AcDbEntity
  8
0
100
AcDbSpline
 62
7
  6
CONTINUOUS
 70
0
 71
3
 72
9
 73
5
 74
0
 42
0.0000001
 43
0.0000001
 44
0.0000000001
 40
0.0
 40
0.0
 40
0.0
 40
0.0
 40
0.5142238131
 40
1.0
 40
1.0
 40
1.0
 40
1.0
 10
8.6878614141
 20
11.6371227614
 30
0.0
 10
8.6890124853
 20
11.6357509682
 30
0.0
 10
8.6914055747
 20
11.6332093304
 30
0.0
 10
8.6940765745
 20
11.630959733
 30
0.0
 10
8.695439495
 20
11.6299576175
 30
0.0
  0
SPLINE
  5
491
100
AcDbEntity
  8
0
100
AcDbSpline
 62
7
  6
CONTINUOUS
 70
0
 71
3
 72
19
 73
15
 74
0
 42
0.0000001
 43
0.0000001
 44
0.0000000001
 40
0.0
 40
0.0
 40
0.0
 40
0.0
 40
0.0423900202
 40
0.0866875015
 40
0.1334976334
 40
0.1832377682
 40
0.236172129
 40
0.2924555131
 40
0.4151110624
 40
0.4813159956
 40
0.5502799463
 40
0.6948843401
 40
0.8458405377
 40
1.0
 40
1.0
 40
1.0
 40
1.0
 10
8.1106046256
 20
12.3126418346
 30
0.0
 10
8.1104258101
 20
12.3123978116
 30
0.0
 10
8.1101061273
 20
12.3118637992
 30
0.0
 10
8.1097555703
 20
12.3109741462
 30
0.0
 10
8.1095242135
 20
12.3099927675
 30
0.0
 10
8.1094111138
 20
12.3089295346
 30
0.0
 10
8.1094150945
 20
12.3077930678
 30
0.0
 10
8.1095810578
 20
12.306144509
 30
0.0
 10
8.1099880447
 20
12.3044340152
 30
0.0
 10
8.1105944901
 20
12.3026961664
 30
0.0
 10
8.1113664313
 20
12.3008534709
 30
0.0
 10
8.1125691276
 20
12.2985411785
 30
0.0
 10
8.1143084915
 20
12.2958393782
 30
0.0
 10
8.1156402719
 20
12.2941127565
 30
0.0
 10
8.1163474638
 20
12.2932699581
 30
0.0
  0
SPLINE
  5
492
100
AcDbEntity
  8
0
100
AcDbSpline
 62
7
  6
CONTINUOUS
 70
0
 71
3
 72
9
 73
5
 74
0
 42
0.0000001
 43
0.0000001
 44
0.0000000001
 40
0.0
 40
0.0
 40
0.0
 40
0.0
 40
0.5142238131
 40
1.0
 40
1.0
 40
1.0
 40
1.0
 10
8.6878614141
 20
11.6371227614
 30
0.0
 10
8.686710343
 20
11.6384945545
 30
0.0
 10
8.684622874
 20
11.6412926383
 30
0.0
 10
8.6828712673
 20
11.6443136981
 30
0.0
 10
8.6821210448
 20
11.6458299283
 30
0.0
  0
SPLINE
  5
493
100
AcDbEntity
  8
0
100
AcDbSpline
 62
9
  6
CONTINUOUS
 70
0
 71
3
 72
18
 73
14
 74
0
 42
0.0000001
 43
0.0000001
 44
0.0000000001
 40
0.0
 40
0.0
 40
0.0
 40
0.0
 40
0.0354247367
 40
0.0699518837
 40
0.1051544522
 40
0.1425102458
 40
0.1832515351
 40
0.2283233338
 40
0.3338858205
 40
0.4627002858
 40
0.6163331441
 40
0.7953953481
 40
1.0
 40
1.0
 40
1.0
 40
1.0
 10
9.7684996798
 20
10.3162079889
 30
0.0
 10
9.768524539
 20
10.3162543025
 30
0.0
 10
9.7685825858
 20
10.3163413995
 30
0.0
 10
9.7686959806
 20
10.3164503484
 30
0.0
 10
9.7688327557
 20
10.316533544
 30
0.0
 10
9.7689917849
 20
10.3165909483
 30
0.0
 10
9.7691724313
 20
10.3166231091
 30
0.0
 10
9.7694569511
 20
10.3166333068
 30
0.0
 10
9.7698702971
 20
10.3165752995
 30
0.0
 10
9.7704240406
 20
10.3164139464
 30
0.0
 10
9.7710598028
 20
10.3161570537
 30
0.0
 10
9.7717756549
 20
10.3158050285
 30
0.0
 10
9.7722719964
 20
10.3155256572
 30
0.0
 10
9.772533418
 20
10.315371293
 30
0.0
  0
SPLINE
  5
494
100
AcDbEntity
  8
0
100
AcDbSpline
 62
7
  6
CONTINUOUS
 70
0
 71
3
 72
19
 73
15
 74
0
 42
0.0000001
 43
0.0000001
 44
0.0000000001
 40
0.0
 40
0.0
 40
0.0
 40
0.0
 40
0.1541594623
 40
0.3051156599
 40
0.4497200537
 40
0.5186840044
 40
0.5848889376
 40
0.7075444869
 40
0.763827871
 40
0.8167622318
 40
0.8665023666
 40
0.9133124985
 40
0.9576099798
 40
1.0
 40
1.0
 40
1.0
 40
1.0
 10
8.861981091
 20
11.4046584041
 30
0.0
 10
8.8626882828
 20
11.4038156057
 30
0.0
 10
8.864157412
 20
11.4022042333
 30
0.0
 10
8.8665161285
 20
11.4000221315
 30
0.0
 10
8.8685844459
 20
11.3984361815
 30
0.0
 10
8.8702651006
 20
11.3973559871
 30
0.0
 10
8.8718712395
 20
11.3964569807
 30
0.0
 10
8.8734850744
 20
11.3957591527
 30
0.0
 10
8.8750797687
 20
11.3953094416
 30
0.0
 10
8.8761982788
 20
11.395108176
 30
0.0
 10
8.8772649983
 20
11.3950349289
 30
0.0
 10
8.8782716424
 20
11.3950923563
 30
0.0
 10
8.8792086531
 20
11.3952831009
 30
0.0
 10
8.8797900651
 20
11.3955051968
 30
0.0
 10
8.8800614318
 20
11.3956389215
 30
0.0
  0
SPLINE
  5
495
100
AcDbEntity
  8
0
100
AcDbSpline
 62
7
  6
CONTINUOUS
 70
0
 71
3
 72
9
 73
5
 74
0
 42
0.0000001
 43
0.0000001
 44
0.0000000001
 40
0.0
 40
0.0
 40
0.0
 40
0.0
 40
0.5142238131
 40
1.0
 40
1.0
 40
1.0
 40
1.0
 10
8.8742698209
 20
11.4149698729
 30
0.0
 10
8.8754208921
 20
11.4135980797
 30
0.0
 10
8.8778139815
 20
11.4110564419
 30
0.0
 10
8.8804849813
 20
11.4088068445
 30
0.0
 10
8.8818479018
 20
11.407804729
 30
0.0
  0
SPLINE
  5
496
100
AcDbEntity
  8
0
100
AcDbSpline
 62
7
  6
CONTINUOUS
 70
0
 71
3
 72
9
 73
5
 74
0
 42
0.0000001
 43
0.0000001
 44
0.0000000001
 40
0.0
 40
0.0
 40
0.0
 40
0.0
 40
0.5142238131
 40
1.0
 40
1.0
 40
1.0
 40
1.0
 10
8.8742698209
 20
11.4149698729
 30
0.0
 10
8.8731187498
 20
11.416341666
 30
0.0
 10
8.8710312808
 20
11.4191397498
 30
0.0
 10
8.8692796741
 20
11.4221608096
 30
0.0
 10
8.8685294516
 20
11.4236770398
 30
0.0
  0
SPLINE
  5
497
100
AcDbEntity
  8
0
100
AcDbSpline
 62
9
  6
CONTINUOUS
 70
0
 71
3
 72
19
 73
15
 74
0
 42
0.0000001
 43
0.0000001
 44
0.0000000001
 40
0.0
 40
0.0
 40
0.0
 40
0.0
 40
0.0463214964
 40
0.0921786636
 40
0.1384766632
 40
0.1860191283
 40
0.2872164253
 40
0.3420283302
 40
0.4000569578
 40
0.4615564373
 40
0.5267262094
 40
0.6685510025
 40
0.8263843618
 40
1.0
 40
1.0
 40
1.0
 40
1.0
 10
9.9616444657
 20
10.1066191794
 30
0.0
 10
9.9619405374
 20
10.1071713747
 30
0.0
 10
9.9626157631
 20
10.1082268037
 30
0.0
 10
9.9638666773
 20
10.1096308039
 30
0.0
 10
9.9653317384
 20
10.1108358677
 30
0.0
 10
9.9675976527
 20
10.1122020376
 30
0.0
 10
9.9702271439
 20
10.1131233886
 30
0.0
 10
9.9730802
 20
10.113630461
 30
0.0
 10
9.9754356628
 20
10.1138103227
 30
0.0
 10
9.9779367729
 20
10.113772213
 30
0.0
 10
9.9815540904
 20
10.1134100174
 30
0.0
 10
9.9863888174
 20
10.1123205381
 30
0.0
 10
9.9923827706
 20
10.1100168612
 30
0.0
 10
9.9963139756
 20
10.1078234844
 30
0.0
 10
9.998280769
 20
10.1065402708
 30
0.0
  0
SPLINE
  5
498
100
AcDbEntity
  8
0
100
AcDbSpline
 62
7
  6
CONTINUOUS
 70
0
 71
3
 72
19
 73
15
 74
0
 42
0.0000001
 43
0.0000001
 44
0.0000000001
 40
0.0
 40
0.0
 40
0.0
 40
0.0
 40
0.1541594623
 40
0.3051156599
 40
0.4497200537
 40
0.5186840044
 40
0.5848889376
 40
0.7075444869
 40
0.763827871
 40
0.8167622318
 40
0.8665023666
 40
0.9133124985
 40
0.9576099798
 40
1.0
 40
1.0
 40
1.0
 40
1.0
 10
9.0483894978
 20
11.1825055156
 30
0.0
 10
9.0490966896
 20
11.1816627172
 30
0.0
 10
9.0505658189
 20
11.1800513448
 30
0.0
 10
9.0529245353
 20
11.177869243
 30
0.0
 10
9.0549928527
 20
11.176283293
 30
0.0
 10
9.0566735074
 20
11.1752030986
 30
0.0
 10
9.0582796463
 20
11.1743040922
 30
0.0
 10
9.0598934812
 20
11.1736062642
 30
0.0
 10
9.0614881755
 20
11.1731565531
 30
0.0
 10
9.0626066856
 20
11.1729552875
 30
0.0
 10
9.0636734051
 20
11.1728820404
 30
0.0
 10
9.0646800492
 20
11.1729394678
 30
0.0
 10
9.0656170599
 20
11.1731302124
 30
0.0
 10
9.0661984719
 20
11.1733523083
 30
0.0
 10
9.0664698386
 20
11.173486033
 30
0.0
  0
SPLINE
  5
499
100
AcDbEntity
  8
0
100
AcDbSpline
 62
7
  6
CONTINUOUS
 70
0
 71
3
 72
9
 73
5
 74
0
 42
0.0000001
 43
0.0000001
 44
0.0000000001
 40
0.0
 40
0.0
 40
0.0
 40
0.0
 40
0.5142238131
 40
1.0
 40
1.0
 40
1.0
 40
1.0
 10
9.0606782278
 20
11.1928169844
 30
0.0
 10
9.0618292989
 20
11.1914451912
 30
0.0
 10
9.0642223883
 20
11.1889035534
 30
0.0
 10
9.0668933881
 20
11.186653956
 30
0.0
 10
9.0682563086
 20
11.1856518404
 30
0.0
  0
SPLINE
  5
49A
100
AcDbEntity
  8
0
100
AcDbSpline
 62
7
  6
CONTINUOUS
 70
0
 71
3
 72
9
 73
5
 74
0
 42
0.0000001
 43
0.0000001
 44
0.0000000001
 40
0.0
 40
0.0
 40
0.0
 40
0.0
 40
0.5142238131
 40
1.0
 40
1.0
 40
1.0
 40
1.0
 10
9.0606782278
 20
11.1928169844
 30
0.0
 10
9.0595271566
 20
11.1941887775
 30
0.0
 10
9.0574396876
 20
11.1969868613
 30
0.0
 10
9.0556880809
 20
11.2000079211
 30
0.0
 10
9.0549378584
 20
11.2015241513
 30
0.0
  0
SPLINE
  5
49B
100
AcDbEntity
  8
0
100
AcDbSpline
 62
9
  6
CONTINUOUS
 70
0
 71
3
 72
23
 73
19
 74
0
 42
0.0000001
 43
0.0000001
 44
0.0000000001
 40
0.0
 40
0.0
 40
0.0
 40
0.0
 40
0.0756902974
 40
0.1445602234
 40
0.2071650387
 40
0.2645244796
 40
0.3179903052
 40
0.3690698918
 40
0.4192811923
 40
0.4700169249
 40
0.5224651113
 40
0.5775928916
 40
0.6361774626
 40
0.6988573015
 40
0.7661770577
 40
0.8386088904
 40
0.9165076284
 40
1.0
 40
1.0
 40
1.0
 40
1.0
 10
9.9630784387
 20
10.0809800743
 30
0.0
 10
9.9626000124
 20
10.082334947
 30
0.0
 10
9.9618261251
 20
10.0849759601
 30
0.0
 10
9.9612109227
 20
10.0888722164
 30
0.0
 10
9.9611733273
 20
10.0924713582
 30
0.0
 10
9.96168563
 20
10.0957404765
 30
0.0
 10
9.9627117672
 20
10.0986571767
 30
0.0
 10
9.964214408
 20
10.1012037602
 30
0.0
 10
9.9661518615
 20
10.1033673024
 30
0.0
 10
9.9684833747
 20
10.1051393127
 30
0.0
 10
9.9711723854
 20
10.1065133169
 30
0.0
 10
9.9741880341
 20
10.1074801148
 30
0.0
 10
9.9775034273
 20
10.1080237262
 30
0.0
 10
9.9810924391
 20
10.1081187208
 30
0.0
 10
9.9849254803
 20
10.1077289633
 30
0.0
 10
9.9889636762
 20
10.1068069159
 30
0.0
 10
9.9931489798
 20
10.1052972949
 30
0.0
 10
9.995889674
 20
10.1039067525
 30
0.0
 10
9.9972564223
 20
10.1031041721
 30
0.0
  0
SPLINE
  5
49C
100
AcDbEntity
  8
0
100
AcDbSpline
 62
9
  6
CONTINUOUS
 70
0
 71
3
 72
23
 73
19
 74
0
 42
0.0000001
 43
0.0000001
 44
0.0000000001
 40
0.0
 40
0.0
 40
0.0
 40
0.0
 40
0.075690344
 40
0.1445603115
 40
0.20716516
 40
0.2645246236
 40
0.317990461
 40
0.3690700494
 40
0.4192813435
 40
0.4700170637
 40
0.5224652337
 40
0.5775929954
 40
0.6361775469
 40
0.6988573664
 40
0.766177104
 40
0.8386089193
 40
0.9165076417
 40
1.0
 40
1.0
 40
1.0
 40
1.0
 10
9.7766700448
 20
10.3031329264
 30
0.0
 10
9.7761916165
 20
10.3044878004
 30
0.0
 10
9.7754177255
 20
10.3071288161
 30
0.0
 10
9.7748025182
 20
10.3110250766
 30
0.0
 10
9.7747649187
 20
10.3146242227
 30
0.0
 10
9.7752772181
 20
10.3178933451
 30
0.0
 10
9.7763033528
 20
10.3208100492
 30
0.0
 10
9.7778059919
 20
10.3233566361
 30
0.0
 10
9.7797434443
 20
10.3255201815
 30
0.0
 10
9.7820749571
 20
10.3272921945
 30
0.0
 10
9.7847639679
 20
10.3286662011
 30
0.0
 10
9.7877796172
 20
10.3296330009
 30
0.0
 10
9.7910950113
 20
10.3301766139
 30
0.0
 10
9.7946840245
 20
10.3302716097
 30
0.0
 10
9.7985170672
 20
10.3298818529
 30
0.0
 10
9.8025552651
 20
10.3289598057
 30
0.0
 10
9.8067405709
 20
10.3274501844
 30
0.0
 10
9.8094812665
 20
10.3260596415
 30
0.0
 10
9.8108480155
 20
10.3252570606
 30
0.0
  0
SPLINE
  5
49D
100
AcDbEntity
  8
0
100
AcDbSpline
 62
9
  6
CONTINUOUS
 70
0
 71
3
 72
23
 73
19
 74
0
 42
0.0000001
 43
0.0000001
 44
0.0000000001
 40
0.0
 40
0.0
 40
0.0
 40
0.0
 40
0.0756902375
 40
0.1445601101
 40
0.2071648827
 40
0.2645242945
 40
0.317990105
 40
0.3690696892
 40
0.419280998
 40
0.4700167465
 40
0.522464954
 40
0.5775927581
 40
0.6361773542
 40
0.6988572181
 40
0.7661769983
 40
0.8386088533
 40
0.9165076112
 40
1.0
 40
1.0
 40
1.0
 40
1.0
 10
9.5902616086
 20
10.525285898
 30
0.0
 10
9.5897831848
 20
10.5266407691
 30
0.0
 10
9.5890093022
 20
10.5292817789
 30
0.0
 10
9.5883941061
 20
10.5331780296
 30
0.0
 10
9.588356516
 20
10.5367771661
 30
0.0
 10
9.5888688229
 20
10.5400462791
 30
0.0
 10
9.5898949633
 20
10.5429629744
 30
0.0
 10
9.5913976064
 20
10.5455095533
 30
0.0
 10
9.5933350612
 20
10.5476730915
 30
0.0
 10
9.5956665749
 20
10.5494450982
 30
0.0
 10
9.5983555855
 20
10.5508190994
 30
0.0
 10
9.6013712335
 20
10.5517858948
 30
0.0
 10
9.6046866255
 20
10.5523295042
 30
0.0
 10
9.6082756356
 20
10.5524244973
 30
0.0
 10
9.6121086746
 20
10.5520347389
 30
0.0
 10
9.616146868
 20
10.5511126911
 30
0.0
 10
9.6203321689
 20
10.5496030706
 30
0.0
 10
9.6230728613
 20
10.548212529
 30
0.0
 10
9.6244396086
 20
10.5474099491
 30
0.0
  0
SPLINE
  5
49E
100
AcDbEntity
  8
0
100
AcDbSpline
 62
9
  6
CONTINUOUS
 70
0
 71
3
 72
23
 73
19
 74
0
 42
0.0000001
 43
0.0000001
 44
0.0000000001
 40
0.0
 40
0.0
 40
0.0
 40
0.0
 40
0.0756902281
 40
0.1445600923
 40
0.2071648583
 40
0.2645242655
 40
0.3179900736
 40
0.3690696575
 40
0.4192809675
 40
0.4700167186
 40
0.5224649294
 40
0.5775927372
 40
0.6361773372
 40
0.698857205
 40
0.766176989
 40
0.8386088475
 40
0.9165076086
 40
1.0
 40
1.0
 40
1.0
 40
1.0
 10
9.4038531992
 20
10.7474387939
 30
0.0
 10
9.4033747758
 20
10.7487936647
 30
0.0
 10
9.4026008939
 20
10.7514346739
 30
0.0
 10
9.4019856988
 20
10.7553309238
 30
0.0
 10
9.4019481096
 20
10.7589300594
 30
0.0
 10
9.4024604171
 20
10.7621991716
 30
0.0
 10
9.4034865581
 20
10.7651158662
 30
0.0
 10
9.4049892015
 20
10.7676624444
 30
0.0
 10
9.4069266565
 20
10.7698259819
 30
0.0
 10
9.4092581703
 20
10.771597988
 30
0.0
 10
9.4119471808
 20
10.7729719888
 30
0.0
 10
9.4149628287
 20
10.7739387838
 30
0.0
 10
9.4182782205
 20
10.7744823929
 30
0.0
 10
9.4218672304
 20
10.7745773857
 30
0.0
 10
9.4257002691
 20
10.7741876272
 30
0.0
 10
9.4297384621
 20
10.7732655794
 30
0.0
 10
9.4339237625
 20
10.7717559589
 30
0.0
 10
9.4366644546
 20
10.7703654174
 30
0.0
 10
9.4380312018
 20
10.7695628376
 30
0.0
  0
SPLINE
  5
49F
100
AcDbEntity
  8
0
100
AcDbSpline
 62
9
  6
CONTINUOUS
 70
0
 71
3
 72
23
 73
19
 74
0
 42
0.0000001
 43
0.0000001
 44
0.0000000001
 40
0.0
 40
0.0
 40
0.0
 40
0.0
 40
0.0756901409
 40
0.1445599273
 40
0.2071646311
 40
0.2645239959
 40
0.3179897818
 40
0.3690693623
 40
0.4192806843
 40
0.4700164587
 40
0.5224647002
 40
0.5775925428
 40
0.6361771792
 40
0.6988570834
 40
0.7661769024
 40
0.8386087934
 40
0.9165075836
 40
1.0
 40
1.0
 40
1.0
 40
1.0
 10
9.2174447683
 20
10.9695917505
 30
0.0
 10
9.2169663485
 20
10.9709466189
 30
0.0
 10
9.2161924736
 20
10.9735876232
 30
0.0
 10
9.2155772876
 20
10.9774838652
 30
0.0
 10
9.2155397061
 20
10.9810829928
 30
0.0
 10
9.2160520199
 20
10.9843520974
 30
0.0
 10
9.2170781655
 20
10.9872687848
 30
0.0
 10
9.2185808121
 20
10.9898153564
 30
0.0
 10
9.220518269
 20
10.9919788879
 30
0.0
 10
9.2228497836
 20
10.993750889
 30
0.0
 10
9.225538794
 20
10.9951248853
 30
0.0
 10
9.2285544409
 20
10.9960916766
 30
0.0
 10
9.2318698309
 20
10.9966352828
 30
0.0
 10
9.2354588383
 20
10.9967302735
 30
0.0
 10
9.2392918739
 20
10.9963405136
 30
0.0
 10
9.2433300633
 20
10.9954184653
 30
0.0
 10
9.2475153597
 20
10.9939088455
 30
0.0
 10
9.2502560491
 20
10.9925183052
 30
0.0
 10
9.251622795
 20
10.9917157261
 30
0.0
  0
SPLINE
  5
4A0
100
AcDbEntity
  8
0
100
AcDbSpline
 62
9
  6
CONTINUOUS
 70
0
 71
3
 72
23
 73
19
 74
0
 42
0.0000001
 43
0.0000001
 44
0.0000000001
 40
0.0
 40
0.0
 40
0.0
 40
0.0
 40
0.0756901409
 40
0.1445599273
 40
0.2071646311
 40
0.2645239959
 40
0.3179897818
 40
0.3690693623
 40
0.4192806843
 40
0.4700164587
 40
0.5224647002
 40
0.5775925428
 40
0.6361771792
 40
0.6988570834
 40
0.7661769024
 40
0.8386087934
 40
0.9165075836
 40
1.0
 40
1.0
 40
1.0
 40
1.0
 10
9.0310363615
 20
11.191744639
 30
0.0
 10
9.0305579417
 20
11.1930995074
 30
0.0
 10
9.0297840667
 20
11.1957405117
 30
0.0
 10
9.0291688808
 20
11.1996367537
 30
0.0
 10
9.0291312993
 20
11.2032358813
 30
0.0
 10
9.0296436131
 20
11.2065049859
 30
0.0
 10
9.0306697587
 20
11.2094216733
 30
0.0
 10
9.0321724053
 20
11.2119682449
 30
0.0
 10
9.0341098622
 20
11.2141317764
 30
0.0
 10
9.0364413768
 20
11.2159037775
 30
0.0
 10
9.0391303872
 20
11.2172777738
 30
0.0
 10
9.0421460341
 20
11.2182445651
 30
0.0
 10
9.045461424
 20
11.2187881713
 30
0.0
 10
9.0490504315
 20
11.218883162
 30
0.0
 10
9.0528834671
 20
11.2184934021
 30
0.0
 10
9.0569216565
 20
11.2175713538
 30
0.0
 10
9.0611069529
 20
11.216061734
 30
0.0
 10
9.0638476423
 20
11.2146711937
 30
0.0
 10
9.0652143882
 20
11.2138686147
 30
0.0
  0
SPLINE
  5
4A1
100
AcDbEntity
  8
0
100
AcDbSpline
 62
9
  6
CONTINUOUS
 70
0
 71
3
 72
23
 73
19
 74
0
 42
0.0000001
 43
0.0000001
 44
0.0000000001
 40
0.0
 40
0.0
 40
0.0
 40
0.0
 40
0.0756901409
 40
0.1445599273
 40
0.2071646311
 40
0.2645239959
 40
0.3179897818
 40
0.3690693623
 40
0.4192806843
 40
0.4700164587
 40
0.5224647002
 40
0.5775925428
 40
0.6361771792
 40
0.6988570834
 40
0.7661769024
 40
0.8386087934
 40
0.9165075836
 40
1.0
 40
1.0
 40
1.0
 40
1.0
 10
8.8446279547
 20
11.4138975275
 30
0.0
 10
8.8441495349
 20
11.4152523959
 30
0.0
 10
8.8433756599
 20
11.4178934003
 30
0.0
 10
8.842760474
 20
11.4217896422
 30
0.0
 10
8.8427228925
 20
11.4253887698
 30
0.0
 10
8.8432352063
 20
11.4286578744
 30
0.0
 10
8.8442613518
 20
11.4315745618
 30
0.0
 10
8.8457639985
 20
11.4341211334
 30
0.0
 10
8.8477014554
 20
11.4362846649
 30
0.0
 10
8.85003297
 20
11.438056666
 30
0.0
 10
8.8527219804
 20
11.4394306623
 30
0.0
 10
8.8557376273
 20
11.4403974536
 30
0.0
 10
8.8590530172
 20
11.4409410598
 30
0.0
 10
8.8626420246
 20
11.4410360505
 30
0.0
 10
8.8664750603
 20
11.4406462906
 30
0.0
 10
8.8705132497
 20
11.4397242424
 30
0.0
 10
8.8746985461
 20
11.4382146225
 30
0.0
 10
8.8774392355
 20
11.4368240822
 30
0.0
 10
8.8788059814
 20
11.4360215032
 30
0.0
  0
SPLINE
  5
4A2
100
AcDbEntity
  8
0
100
AcDbSpline
 62
9
  6
CONTINUOUS
 70
0
 71
3
 72
23
 73
19
 74
0
 42
0.0000001
 43
0.0000001
 44
0.0000000001
 40
0.0
 40
0.0
 40
0.0
 40
0.0
 40
0.0756902375
 40
0.1445601101
 40
0.2071648827
 40
0.2645242945
 40
0.317990105
 40
0.3690696892
 40
0.419280998
 40
0.4700167465
 40
0.522464954
 40
0.5775927581
 40
0.6361773542
 40
0.6988572181
 40
0.7661769983
 40
0.8386088533
 40
0.9165076112
 40
1.0
 40
1.0
 40
1.0
 40
1.0
 10
8.6582195746
 20
11.6360503406
 30
0.0
 10
8.6577411507
 20
11.6374052116
 30
0.0
 10
8.6569672681
 20
11.6400462214
 30
0.0
 10
8.656352072
 20
11.6439424722
 30
0.0
 10
8.656314482
 20
11.6475416086
 30
0.0
 10
8.6568267889
 20
11.6508107216
 30
0.0
 10
8.6578529293
 20
11.6537274169
 30
0.0
 10
8.6593555724
 20
11.6562739958
 30
0.0
 10
8.6612930271
 20
11.658437534
 30
0.0
 10
8.6636245409
 20
11.6602095407
 30
0.0
 10
8.6663135514
 20
11.6615835419
 30
0.0
 10
8.6693291995
 20
11.6625503373
 30
0.0
 10
8.6726445914
 20
11.6630939467
 30
0.0
 10
8.6762336016
 20
11.6631889398
 30
0.0
 10
8.6800666406
 20
11.6627991814
 30
0.0
 10
8.684104834
 20
11.6618771337
 30
0.0
 10
8.6882901349
 20
11.6603675131
 30
0.0
 10
8.6910308272
 20
11.6589769715
 30
0.0
 10
8.6923975746
 20
11.6581743917
 30
0.0
  0
SPLINE
  5
4A3
100
AcDbEntity
  8
0
100
AcDbSpline
 62
9
  6
CONTINUOUS
 70
0
 71
3
 72
23
 73
19
 74
0
 42
0.0000001
 43
0.0000001
 44
0.0000000001
 40
0.0
 40
0.0
 40
0.0
 40
0.0
 40
0.0756901226
 40
0.1445598927
 40
0.2071645836
 40
0.2645239395
 40
0.3179897208
 40
0.3690693005
 40
0.419280625
 40
0.4700164043
 40
0.5224646522
 40
0.5775925021
 40
0.6361771462
 40
0.698857058
 40
0.7661768843
 40
0.8386087821
 40
0.9165075784
 40
1.0
 40
1.0
 40
1.0
 40
1.0
 10
8.4718111361
 20
11.8582033187
 30
0.0
 10
8.471332717
 20
11.8595581867
 30
0.0
 10
8.4705588435
 20
11.86219919
 30
0.0
 10
8.4699436594
 20
11.8660954303
 30
0.0
 10
8.4699060796
 20
11.8696945562
 30
0.0
 10
8.4704183946
 20
11.8729636592
 30
0.0
 10
8.4714445412
 20
11.8758803451
 30
0.0
 10
8.4729471885
 20
11.8784269153
 30
0.0
 10
8.4748846459
 20
11.8805904456
 30
0.0
 10
8.4772161606
 20
11.8823624456
 30
0.0
 10
8.4799051709
 20
11.883736441
 30
0.0
 10
8.4829208176
 20
11.8847032316
 30
0.0
 10
8.4862362072
 20
11.8852468372
 30
0.0
 10
8.4898252141
 20
11.8853418274
 30
0.0
 10
8.4936582491
 20
11.8849520672
 30
0.0
 10
8.4976964377
 20
11.8840300188
 30
0.0
 10
8.5018817333
 20
11.8825203991
 30
0.0
 10
8.5046224222
 20
11.881129859
 30
0.0
 10
8.5059891678
 20
11.8803272802
 30
0.0
  0
SPLINE
  5
4A4
100
AcDbEntity
  8
0
100
AcDbSpline
 62
9
  6
CONTINUOUS
 70
0
 71
3
 72
23
 73
19
 74
0
 42
0.0000001
 43
0.0000001
 44
0.0000000001
 40
0.0
 40
0.0
 40
0.0
 40
0.0
 40
0.075690344
 40
0.1445603115
 40
0.20716516
 40
0.2645246236
 40
0.317990461
 40
0.3690700494
 40
0.4192813435
 40
0.4700170637
 40
0.5224652337
 40
0.5775929954
 40
0.6361775469
 40
0.6988573664
 40
0.766177104
 40
0.8386089193
 40
0.9165076417
 40
1.0
 40
1.0
 40
1.0
 40
1.0
 10
8.2854027903
 20
12.0803560345
 30
0.0
 10
8.284924362
 20
12.0817109085
 30
0.0
 10
8.2841504711
 20
12.0843519242
 30
0.0
 10
8.2835352637
 20
12.0882481847
 30
0.0
 10
8.2834976642
 20
12.0918473308
 30
0.0
 10
8.2840099636
 20
12.0951164531
 30
0.0
 10
8.2850360983
 20
12.0980331572
 30
0.0
 10
8.2865387374
 20
12.1005797442
 30
0.0
 10
8.2884761898
 20
12.1027432895
 30
0.0
 10
8.2908077026
 20
12.1045153026
 30
0.0
 10
8.2934967134
 20
12.1058893091
 30
0.0
 10
8.2965123627
 20
12.106856109
 30
0.0
 10
8.2998277569
 20
12.107399722
 30
0.0
 10
8.30341677
 20
12.1074947177
 30
0.0
 10
8.3072498128
 20
12.107104961
 30
0.0
 10
8.3112880106
 20
12.1061829137
 30
0.0
 10
8.3154733164
 20
12.1046732924
 30
0.0
 10
8.318214012
 20
12.1032827495
 30
0.0
 10
8.319580761
 20
12.1024801687
 30
0.0
  0
SPLINE
  5
4A5
100
AcDbEntity
  8
0
100
AcDbSpline
 62
9
  6
CONTINUOUS
 70
0
 71
3
 72
23
 73
19
 74
0
 42
0.0000001
 43
0.0000001
 44
0.0000000001
 40
0.0
 40
0.0
 40
0.0
 40
0.0
 40
0.0756902974
 40
0.1445602234
 40
0.2071650387
 40
0.2645244796
 40
0.3179903052
 40
0.3690698918
 40
0.4192811923
 40
0.4700169249
 40
0.5224651113
 40
0.5775928916
 40
0.6361774626
 40
0.6988573015
 40
0.7661770577
 40
0.8386088904
 40
0.9165076284
 40
1.0
 40
1.0
 40
1.0
 40
1.0
 10
8.0989943706
 20
12.3025089593
 30
0.0
 10
8.0985159443
 20
12.3038638321
 30
0.0
 10
8.097742057
 20
12.3065048452
 30
0.0
 10
8.0971268546
 20
12.3104011014
 30
0.0
 10
8.0970892592
 20
12.3140002433
 30
0.0
 10
8.0976015619
 20
12.3172693615
 30
0.0
 10
8.0986276991
 20
12.3201860618
 30
0.0
 10
8.1001303399
 20
12.3227326452
 30
0.0
 10
8.1020677934
 20
12.3248961874
 30
0.0
 10
8.1043993066
 20
12.3266681977
 30
0.0
 10
8.1070883173
 20
12.3280422019
 30
0.0
 10
8.110103966
 20
12.3290089998
 30
0.0
 10
8.1134193592
 20
12.3295526113
 30
0.0
 10
8.117008371
 20
12.3296476058
 30
0.0
 10
8.1208414122
 20
12.3292578484
 30
0.0
 10
8.1248796081
 20
12.3283358009
 30
0.0
 10
8.1290649117
 20
12.3268261799
 30
0.0
 10
8.1318056059
 20
12.3254356376
 30
0.0
 10
8.1331723542
 20
12.3246330572
 30
0.0
  0
ENDSEC
  0
SECTION
  2
OBJECTS
  0
DICTIONARY
  5
C
100
AcDbDictionary
280
0
281
1
  3
ACAD_GROUP
350
D
  3
ACAD_MLINESTYLE
350
17
  3
ACAD_LAYOUT
350
1A
  3
ACAD_PLOTSETTINGS
350
19
  3
ACAD_PLOTSTYLENAME
350
E
  0
DICTIONARY
  5
D
102
{ACAD_REACTORS
330
C
102
}
100
AcDbDictionary
280
0
281
1
  0
ACDBDICTIONARYWDFLT
  5
E
102
{ACAD_REACTORS
330
C
102
}
100
AcDbDictionary
281
1
  3
Normal
350
F
100
AcDbDictionaryWithDefault
340
F
  0
DICTIONARY
  5
17
102
{ACAD_REACTORS
330
C
102
}
100
AcDbDictionary
280
0
281
1
  3
Standard
350
18
  0
DICTIONARY
  5
19
102
{ACAD_REACTORS
330
C
102
}
100
AcDbDictionary
281
1
  0
DICTIONARY
  5
1A
102
{ACAD_REACTORS
330
C
102
}
100
AcDbDictionary
281
1
  3
Model
350
4A6
  3
Layout1
350
4A7
  0
ACDBPLACEHOLDER
  5
F
102
{ACAD_REACTORS
330
E
102
}
  0
MLINESTYLE
  5
18
102
{ACAD_REACTORS
330
17
102
}
100
AcDbMlineStyle
  2
STANDARD
 70
0
  3

 62
256
 51
90.0
 52
90.0
 71
2
 49
0.5
 62
256
  6
BYLAYER
 49
-0.5
 62
256
  6
BYLAYER
  0
LAYOUT
  5
4A6
102
{ACAD_REACTORS
330
1A
102
}
100
AcDbPlotSettings
  1

  2
none_device
  4
ANSI_C_(22.00_x_17.00_Inches)
  6

 40
0.0
 41
0.0
 42
0.0
 43
0.0
 44
558.8
 45
431.8
 46
0.0
 47
0.0
 48
0.0
 49
0.0
140
0.0
141
0.0
142
1.0
143
1.0
 70
1024
 72
0
 73
0
 74
0
  7

 75
0
147
1.0
148
0.0
149
0.0
100
AcDbLayout
  1
Model
 70
0
 71
0
 10
0.0
 20
0.0
 11
22.0
 21
17.0
 12
0.0
 22
0.0
 32
0.0
 14
0.0
 24
0.0
 34
0.0
 15
0.0
 25
0.0
 35
0.0
146
0.0
 13
0.0
 23
0.0
 33
0.0
 16
1.0
 26
0.0
 36
0.0
 17
0.0
 27
1.0
 37
0.0
 76
0
330
205
345
0
346
0
  0
LAYOUT
  5
4A7
102
{ACAD_REACTORS
330
1A
102
}
100
AcDbPlotSettings
  1

  2
none_device
  4
ANSI_C_(22.00_x_17.00_Inches)
  6

 40
0.0
 41
0.0
 42
0.0
 43
0.0
 44
558.8
 45
431.8
 46
0.0
 47
0.0
 48
0.0
 49
0.0
140
0.0
141
0.0
142
1.0
143
1.0
 70
0
 72
0
 73
0
 74
0
  7

 75
0
147
1.0
148
0.0
149
0.0
100
AcDbLayout
  1
Layout1
 70
0
 71
1
 10
0.0
 20
0.0
 11
22.0
 21
17.0
 12
0.0
 22
0.0
 32
0.0
 14
0.0
 24
0.0
 34
0.0
 15
0.0
 25
0.0
 35
0.0
146
0.0
 13
0.0
 23
0.0
 33
0.0
 16
1.0
 26
0.0
 36
0.0
 17
0.0
 27
1.0
 37
0.0
 76
0
330
206
345
0
346
0
  0
ENDSEC
  0
EOF
