999
DXF file: E:\BT Custom\CADOUTPUT\_FRONT.dxf
999
Pro/ENGINEER 2018400 by Parametric Technology Corporation
  0
SECTION
  2
HEADER
  9
$ACADVER
  1
AC1018
  9
$DWGCODEPAGE
  3
ANSI_1252
  9
$EXTMAX
 10
22.0
 20
17.0
 30
0.0
  9
$EXTMIN
 10
0.0
 20
0.0
 30
0.0
  9
$LIMMIN
 10
0.0
 20
0.0
  9
$LIMMAX
 10
22.0
 20
17.0
  9
$VIEWCTR
 10
11.0
 20
8.5
  9
$VIEWSIZE
 40
17.0
  9
$CLAYER
  8
0
  9
$LTSCALE
 40
1.21
  9
$CELTYPE
  6
BYLAYER
  9
$DIMSCALE
 40
1.0
  9
$DIMASZ
 40
0.1
  9
$DIMEXO
 40
0.0625
  9
$DIMDLI
 40
0.836
  9
$DIMEXE
 40
0.125
  9
$DIMCEN
 40
0.198
  9
$DIMLFAC
 40
1.0
  9
$DIMBLK
  1
_FILLED
  9
$DIMALT
 70
1
  9
$DIMALTD
 70
2
  9
$DIMALTTD
 70
2
  9
$DIMALTF
 40
25.4
  9
$DIMTXT
 40
0.08
  9
$DIMTOL
 70
1
  9
$DIMLIM
 70
0
  9
$DIMTFAC
 40
1.0
  9
$DIMTP
 40
0.001
  9
$DIMTM
 40
0.001
  9
$DIMGAP
 40
0.09
  9
$DIMDSEP
 70
46
  9
$AUNITS
 70
0
  9
$PDMODE
 70
3
  9
$PDSIZE
 40
0.06
  9
$HANDSEED
  5
4B6
  9
$TILEMODE
 70
1
  9
$MEASUREMENT
 70
0
  9
$INSUNITS
 70
1
  0
ENDSEC
  0
SECTION
  2
CLASSES
  0
CLASS
  1
ACDBDICTIONARYWDFLT
  2
AcDbDictionaryWithDefault
  3
AutoCAD 2000
 90
0
 91
1
280
0
281
0
  0
CLASS
  1
ACDBPLACEHOLDER
  2
AcDbPlaceHolder
  3
AutoCAD 2000
 90
0
 91
1
280
0
281
0
  0
CLASS
  1
LAYOUT
  2
AcDbLayout
  3
AutoCAD 2000
 90
0
 91
0
280
0
281
0
  0
ENDSEC
  0
SECTION
  2
TABLES
  0
TABLE
  2
VPORT
  5
8
100
AcDbSymbolTable
 70
2
  0
VPORT
  5
1F4
100
AcDbSymbolTableRecord
100
AcDbViewportTableRecord
  2
*ACTIVE
 70
0
 10
0.0
 20
0.0
 11
1.0
 21
1.0
 12
11.0
 22
8.5
 13
0.0
 23
0.0
 14
1.0
 24
1.0
 15
0.0
 25
0.0
 16
0.0
 26
0.0
 36
1.0
 17
0.0
 27
0.0
 37
0.0
 40
17.0
 41
1.2941176471
 42
50.0
 43
0.0
 44
0.0
 50
0.0
 51
0.0
 71
0
 72
100
 73
1
 74
1
 75
0
 76
0
 77
0
 78
0
  0
ENDTAB
  0
TABLE
  2
LTYPE
  5
5
100
AcDbSymbolTable
 70
6
  0
LTYPE
  5
14
100
AcDbSymbolTableRecord
100
AcDbLinetypeTableRecord
  2
BYBLOCK
 70
0
  3

 72
65
 73
0
 40
0.0
  0
LTYPE
  5
15
100
AcDbSymbolTableRecord
100
AcDbLinetypeTableRecord
  2
BYLAYER
 70
0
  3

 72
65
 73
0
 40
0.0
  0
LTYPE
  5
16
100
AcDbSymbolTableRecord
100
AcDbLinetypeTableRecord
  2
CONTINUOUS
 70
64
  3
Solid line
 72
65
 73
0
 40
0.0
  0
LTYPE
  5
1F5
100
AcDbSymbolTableRecord
100
AcDbLinetypeTableRecord
  2
CENTER
 70
64
  3
____ _ ____ _ ____ _ ____ _ ____ _ ____ _ ____
 72
65
 73
4
 40
0.6
 49
0.375
 74
0
 49
-0.075
 74
0
 49
0.075
 74
0
 49
-0.075
 74
0
  0
LTYPE
  5
1F6
100
AcDbSymbolTableRecord
100
AcDbLinetypeTableRecord
  2
HIDDEN
 70
64
  3
- - - - - - - - - - - - - - - - - - - -
 72
65
 73
2
 40
0.2
 49
0.1
 74
0
 49
-0.1
 74
0
  0
LTYPE
  5
1F7
100
AcDbSymbolTableRecord
100
AcDbLinetypeTableRecord
  2
PHANTOM
 70
64
  3
_____ _ _ _____ _ _ _____ _ _ _____
 72
65
 73
6
 40
0.8
 49
0.45
 74
0
 49
-0.05
 74
0
 49
0.1
 74
0
 49
-0.05
 74
0
 49
0.1
 74
0
 49
-0.05
 74
0
  0
LTYPE
  5
1F8
100
AcDbSymbolTableRecord
100
AcDbLinetypeTableRecord
  2
DOT
 70
64
  3
. . . . . . . . . . . . . . . . . . . .
 72
65
 73
2
 40
0.2
 49
0.1
 74
0
 49
-0.1
 74
0
  0
LTYPE
  5
1F9
100
AcDbSymbolTableRecord
100
AcDbLinetypeTableRecord
  2
DASHED
 70
64
  3
- - - - - - - - - - - - - - - - - - - -
 72
65
 73
2
 40
0.2
 49
0.1
 74
0
 49
-0.1
 74
0
  0
ENDTAB
  0
TABLE
  2
LAYER
  5
2
100
AcDbSymbolTable
 70
36
  0
LAYER
  5
10
100
AcDbSymbolTableRecord
100
AcDbLayerTableRecord
  2
0
 70
0
 62
7
  6
CONTINUOUS
370
-3
390
F
  0
LAYER
  5
1FA
100
AcDbSymbolTableRecord
100
AcDbLayerTableRecord
  2
DEFAULT_1
 70
0
 62
7
  6
CENTER
370
-3
390
F
  0
LAYER
  5
1FB
100
AcDbSymbolTableRecord
100
AcDbLayerTableRecord
  2
DEFAULT_2
 70
0
 62
8
  6
HIDDEN
370
-3
390
F
  0
LAYER
  5
1FC
100
AcDbSymbolTableRecord
100
AcDbLayerTableRecord
  2
DEFAULT_3
 70
0
 62
7
  6
PHANTOM
370
-3
390
F
  0
LAYER
  5
1FD
100
AcDbSymbolTableRecord
100
AcDbLayerTableRecord
  2
ALL_FEATURES
 70
0
 62
7
  6
CONTINUOUS
370
-3
390
F
  0
LAYER
  5
1FE
100
AcDbSymbolTableRecord
100
AcDbLayerTableRecord
  2
AXES_FEATURES
 70
0
 62
7
  6
CONTINUOUS
370
-3
390
F
  0
LAYER
  5
1FF
100
AcDbSymbolTableRecord
100
AcDbLayerTableRecord
  2
DEFAULT_COORDINATE_SYSTEM
 70
0
 62
7
  6
CONTINUOUS
370
-3
390
F
  0
LAYER
  5
200
100
AcDbSymbolTableRecord
100
AcDbLayerTableRecord
  2
DEFAULT_DATUM_AXES
 70
0
 62
7
  6
CONTINUOUS
370
-3
390
F
  0
LAYER
  5
201
100
AcDbSymbolTableRecord
100
AcDbLayerTableRecord
  2
DEFAULT_DATUM_PLANES
 70
0
 62
7
  6
CONTINUOUS
370
-3
390
F
  0
LAYER
  5
202
100
AcDbSymbolTableRecord
100
AcDbLayerTableRecord
  2
DIMENSIONS
 70
0
 62
7
  6
CONTINUOUS
370
-3
390
F
  0
ENDTAB
  0
TABLE
  2
STYLE
  5
3
100
AcDbSymbolTable
 70
1
  0
STYLE
  5
11
100
AcDbSymbolTableRecord
100
AcDbTextStyleTableRecord
  2
STANDARD
 70
0
 40
0.0
 41
0.8
 50
0.0
 71
0
 42
0.2
  3
txt
  4

  0
STYLE
  5
203
100
AcDbSymbolTableRecord
100
AcDbTextStyleTableRecord
  2
TEXTSTYLE_1
 70
0
 40
0.0
 41
0.8
 50
0.0
 71
0
 42
0.2
  3
gdt
  4

  0
ENDTAB
  0
TABLE
  2
VIEW
  5
6
100
AcDbSymbolTable
 70
0
  0
ENDTAB
  0
TABLE
  2
UCS
  5
7
100
AcDbSymbolTable
 70
0
  0
ENDTAB
  0
TABLE
  2
APPID
  5
9
100
AcDbSymbolTable
 70
1
  0
APPID
  5
204
100
AcDbSymbolTableRecord
100
AcDbRegAppTableRecord
  2
ACAD
 70
0
  0
ENDTAB
  0
TABLE
  2
BLOCK_RECORD
  5
1
100
AcDbSymbolTable
 70
0
  0
BLOCK_RECORD
  5
205
100
AcDbSymbolTableRecord
100
AcDbBlockTableRecord
  2
*Model_Space
  0
BLOCK_RECORD
  5
206
100
AcDbSymbolTableRecord
100
AcDbBlockTableRecord
  2
*Paper_Space
  0
BLOCK_RECORD
  5
207
100
AcDbSymbolTableRecord
100
AcDbBlockTableRecord
  2
_FILLED
  0
ENDTAB
  0
TABLE
  2
DIMSTYLE
  5
A
100
AcDbSymbolTable
 70
1
100
AcDbDimStyleTable
 71
0
  0
DIMSTYLE
105
208
100
AcDbSymbolTableRecord
100
AcDbDimStyleTableRecord
  2
STANDARD
 70
0
  3

  4

 40
1.0
 41
0.1
 42
0.0625
 43
0.38
 44
0.125
 45
0.0
 46
0.0
 47
0.001
 48
0.001
140
0.08
141
0.09
142
0.0
143
25.4
144
1.0
145
0.0
146
1.0
147
0.09
 71
1.0
 72
0.0
 73
1
 74
1
 75
0
 76
0
 77
0
 78
4
 79
1
170
1
171
2
172
0
173
0
174
0
175
0
176
0
177
0
178
0
270
2
179
3
271
3
272
3
273
2
274
2
275
0
280
0
281
0
282
0
283
1
284
4
285
0
286
0
287
3
288
0
340
11
278
46
341
207
342
207
343
207
344
207
  0
ENDTAB
  0
ENDSEC
  0
SECTION
  2
BLOCKS
  0
BLOCK
  5
20
100
AcDbEntity
  8
0
100
AcDbBlockBegin
  2
*Model_Space
 70
0
 10
0.0
 20
0.0
 30
0.0
  3
*Model_Space
  1

  0
ENDBLK
  5
21
100
AcDbEntity
  8
0
100
AcDbBlockEnd
  0
BLOCK
  5
1C
100
AcDbEntity
  8
0
100
AcDbBlockBegin
  2
*Paper_Space
 70
0
 10
0.0
 20
0.0
 30
0.0
  3
*Paper_Space
  1

  0
ENDBLK
  5
1D
100
AcDbEntity
  8
0
100
AcDbBlockEnd
  0
BLOCK
  5
209
100
AcDbEntity
  8
0
100
AcDbBlockBegin
  2
_FILLED
 70
64
 10
0.0
 20
0.0
  3
_FILLED
  1

  0
SOLID
  5
20A
100
AcDbEntity
  8
0
  6
BYBLOCK
 62
0
100
AcDbTrace
 10
0.0
 20
0.0
 11
-1.0
 21
0.2
 12
-1.0
 22
-0.2
 13
-1.0
 23
-0.2
  0
ENDBLK
  5
20B
100
AcDbEntity
  8
0
  6
BYBLOCK
 62
0
100
AcDbBlockEnd
  0
ENDSEC
  0
SECTION
  2
ENTITIES
  0
LINE
  5
20C
100
AcDbEntity
  8
0
100
AcDbLine
 62
7
  6
CONTINUOUS
 10
11.2926923427
 20
1.2051695021
 11
10.5826923427
 21
1.2051695021
  0
LINE
  5
20D
100
AcDbEntity
  8
0
100
AcDbLine
 62
9
  6
CONTINUOUS
 10
11.3126923427
 20
1.2251695021
 11
10.5626923427
 21
1.2251695021
  0
LINE
  5
20E
100
AcDbEntity
  8
0
100
AcDbLine
 62
7
  6
CONTINUOUS
 10
12.6218669735
 20
4.2539416733
 11
12.6544385873
 21
4.2616156074
  0
LINE
  5
20F
100
AcDbEntity
  8
0
100
AcDbLine
 62
7
  6
CONTINUOUS
 10
8.5626923427
 20
4.0801695021
 11
8.5957755637
 21
4.0801695021
  0
LINE
  5
210
100
AcDbEntity
  8
0
100
AcDbLine
 62
7
  6
CONTINUOUS
 10
8.7257209871
 20
4.0801695021
 11
8.7588042174
 21
4.0801695021
  0
LINE
  5
211
100
AcDbEntity
  8
0
100
AcDbLine
 62
7
  6
CONTINUOUS
 10
9.1491521154
 20
4.0801695021
 11
9.1822353159
 21
4.0801695021
  0
LINE
  5
212
100
AcDbEntity
  8
0
100
AcDbLine
 62
7
  6
CONTINUOUS
 10
12.9697523438
 20
4.0801695021
 11
13.1259597265
 21
4.0801695021
  0
LINE
  5
213
100
AcDbEntity
  8
0
100
AcDbLine
 62
7
  6
CONTINUOUS
 10
13.165352615
 20
4.0801695021
 11
13.2555641257
 21
4.0801695021
  0
LINE
  5
214
100
AcDbEntity
  8
0
100
AcDbLine
 62
7
  6
CONTINUOUS
 10
13.2518123709
 20
4.1096715494
 11
13.1984358751
 21
4.1096715494
  0
LINE
  5
215
100
AcDbEntity
  8
0
100
AcDbLine
 62
7
  6
CONTINUOUS
 10
13.1259597265
 20
4.1096715494
 11
13.0028356038
 21
4.1096715494
  0
LINE
  5
216
100
AcDbEntity
  8
0
100
AcDbLine
 62
7
  6
CONTINUOUS
 10
8.5957755637
 20
4.1980071547
 11
8.7257209871
 21
4.1980071547
  0
LINE
  5
217
100
AcDbEntity
  8
0
100
AcDbLine
 62
7
  6
CONTINUOUS
 10
8.7257209871
 20
4.2275092038
 11
8.5957755637
 21
4.2275092038
  0
LINE
  5
218
100
AcDbEntity
  8
0
100
AcDbLine
 62
7
  6
CONTINUOUS
 10
9.0667851124
 20
4.3006674531
 11
9.1491521154
 21
4.3006674531
  0
LINE
  5
219
100
AcDbEntity
  8
0
100
AcDbLine
 62
7
  6
CONTINUOUS
 10
9.1822353159
 20
4.3006674531
 11
9.2649433766
 21
4.3006674531
  0
LINE
  5
21A
100
AcDbEntity
  8
0
100
AcDbLine
 62
7
  6
CONTINUOUS
 10
13.1984358751
 20
4.3006674531
 11
13.2509597265
 21
4.3006674531
  0
LINE
  5
21B
100
AcDbEntity
  8
0
100
AcDbLine
 62
7
  6
CONTINUOUS
 10
13.2514713131
 20
4.3301695021
 11
13.165352615
 21
4.3301695021
  0
LINE
  5
21C
100
AcDbEntity
  8
0
100
AcDbLine
 62
7
  6
CONTINUOUS
 10
13.0028356038
 20
4.3301695021
 11
12.9697523438
 21
4.3301695021
  0
LINE
  5
21D
100
AcDbEntity
  8
0
100
AcDbLine
 62
7
  6
CONTINUOUS
 10
9.2649433766
 20
4.3301695021
 11
9.0667851124
 21
4.3301695021
  0
LINE
  5
21E
100
AcDbEntity
  8
0
100
AcDbLine
 62
7
  6
CONTINUOUS
 10
8.7588042174
 20
4.3301695021
 11
8.7257209871
 21
4.3301695021
  0
LINE
  5
21F
100
AcDbEntity
  8
0
100
AcDbLine
 62
7
  6
CONTINUOUS
 10
8.5957755637
 20
4.3301695021
 11
8.5626923427
 21
4.3301695021
  0
LINE
  5
220
100
AcDbEntity
  8
0
100
AcDbLine
 62
7
  6
CONTINUOUS
 10
12.6587018989
 20
4.1594669106
 11
12.6256186687
 21
4.1678229826
  0
LINE
  5
221
100
AcDbEntity
  8
0
100
AcDbLine
 62
7
  6
CONTINUOUS
 10
7.9826923427
 20
9.22490293
 11
7.9826923427
 21
10.1035824219
  0
LINE
  5
222
100
AcDbEntity
  8
0
100
AcDbLine
 62
7
  6
CONTINUOUS
 10
8.6216527825
 20
9.0189138587
 11
8.6240867789
 21
8.9864605727
  0
LINE
  5
223
100
AcDbEntity
  8
0
100
AcDbLine
 62
7
  6
CONTINUOUS
 10
8.7203371319
 20
9.0186746727
 11
8.7227531894
 21
8.9864605727
  0
LINE
  5
224
100
AcDbEntity
  8
0
100
AcDbLine
 62
7
  6
CONTINUOUS
 10
8.5626923427
 20
4.3301695021
 11
8.5626923427
 21
4.0801695021
  0
LINE
  5
225
100
AcDbEntity
  8
0
100
AcDbLine
 62
7
  6
CONTINUOUS
 10
8.5957755637
 20
4.0801695021
 11
8.5957755637
 21
4.1980071547
  0
LINE
  5
226
100
AcDbEntity
  8
0
100
AcDbLine
 62
7
  6
CONTINUOUS
 10
8.5957755637
 20
4.2275092038
 11
8.5957755637
 21
4.3301695021
  0
LINE
  5
227
100
AcDbEntity
  8
0
100
AcDbLine
 62
7
  6
CONTINUOUS
 10
8.9133928189
 20
9.0182071853
 11
8.9157738148
 21
8.9864605727
  0
LINE
  5
228
100
AcDbEntity
  8
0
100
AcDbLine
 62
7
  6
CONTINUOUS
 10
9.0393954791
 20
8.9815406038
 11
9.0416514814
 21
8.9514605727
  0
LINE
  5
229
100
AcDbEntity
  8
0
100
AcDbLine
 62
7
  6
CONTINUOUS
 10
9.1021032921
 20
8.9813894916
 11
9.1043479611
 21
8.9514605727
  0
LINE
  5
22A
100
AcDbEntity
  8
0
100
AcDbLine
 62
7
  6
CONTINUOUS
 10
9.1923823245
 20
9.0175326135
 11
9.1947127276
 21
8.9864605727
  0
LINE
  5
22B
100
AcDbEntity
  8
0
100
AcDbLine
 62
7
  6
CONTINUOUS
 10
9.2865805998
 20
8.9725824219
 11
9.2881647385
 21
8.9514605727
  0
LINE
  5
22C
100
AcDbEntity
  8
0
100
AcDbLine
 62
7
  6
CONTINUOUS
 10
8.7257209871
 20
4.3301695021
 11
8.7257209871
 21
4.2275092038
  0
LINE
  5
22D
100
AcDbEntity
  8
0
100
AcDbLine
 62
7
  6
CONTINUOUS
 10
8.7257209871
 20
4.1980071547
 11
8.7257209871
 21
4.0801695021
  0
LINE
  5
22E
100
AcDbEntity
  8
0
100
AcDbLine
 62
7
  6
CONTINUOUS
 10
8.7588042174
 20
4.0801695021
 11
8.7588042174
 21
4.3301695021
  0
LINE
  5
22F
100
AcDbEntity
  8
0
100
AcDbLine
 62
7
  6
CONTINUOUS
 10
9.0667851124
 20
4.3301695021
 11
9.0667851124
 21
4.3006674531
  0
LINE
  5
230
100
AcDbEntity
  8
0
100
AcDbLine
 62
7
  6
CONTINUOUS
 10
9.1491521154
 20
4.3006674531
 11
9.1491521154
 21
4.0801695021
  0
LINE
  5
231
100
AcDbEntity
  8
0
100
AcDbLine
 62
7
  6
CONTINUOUS
 10
9.1822353159
 20
4.0801695021
 11
9.1822353159
 21
4.3006674531
  0
LINE
  5
232
100
AcDbEntity
  8
0
100
AcDbLine
 62
7
  6
CONTINUOUS
 10
9.2649433766
 20
4.3006674531
 11
9.2649433766
 21
4.3301695021
  0
LINE
  5
233
100
AcDbEntity
  8
0
100
AcDbLine
 62
7
  6
CONTINUOUS
 10
8.8364767386
 20
9.0083515928
 11
8.8348349121
 21
8.9864605727
  0
LINE
  5
234
100
AcDbEntity
  8
0
100
AcDbLine
 62
7
  6
CONTINUOUS
 10
9.0295315297
 20
9.0088071358
 11
9.0278555375
 21
8.9864605727
  0
LINE
  5
235
100
AcDbEntity
  8
0
100
AcDbLine
 62
7
  6
CONTINUOUS
 10
9.2180138224
 20
8.9725824219
 11
9.2164296837
 21
8.9514605727
  0
LINE
  5
236
100
AcDbEntity
  8
0
100
AcDbLine
 62
7
  6
CONTINUOUS
 10
9.4908006707
 20
8.9517522925
 11
9.4930725497
 21
8.9214605727
  0
LINE
  5
237
100
AcDbEntity
  8
0
100
AcDbLine
 62
7
  6
CONTINUOUS
 10
9.5451123936
 20
9.0166814409
 11
9.5473789587
 21
8.9864605727
  0
LINE
  5
238
100
AcDbEntity
  8
0
100
AcDbLine
 62
7
  6
CONTINUOUS
 10
9.5789908654
 20
8.9725824219
 11
9.580575004
 21
8.9514605727
  0
LINE
  5
239
100
AcDbEntity
  8
0
100
AcDbLine
 62
7
  6
CONTINUOUS
 10
9.6593465234
 20
8.9375824219
 11
9.6605556621
 21
8.9214605727
  0
LINE
  5
23A
100
AcDbEntity
  8
0
100
AcDbLine
 62
7
  6
CONTINUOUS
 10
9.4776923427
 20
10.1635824219
 11
9.4776923427
 21
10.3945824219
  0
LINE
  5
23B
100
AcDbEntity
  8
0
100
AcDbLine
 62
7
  6
CONTINUOUS
 10
9.3085198889
 20
9.0094664218
 11
9.3067944502
 21
8.9864605727
  0
LINE
  5
23C
100
AcDbEntity
  8
0
100
AcDbLine
 62
7
  6
CONTINUOUS
 10
9.4018883261
 20
8.9733521056
 11
9.4002464611
 21
8.9514605727
  0
LINE
  5
23D
100
AcDbEntity
  8
0
100
AcDbLine
 62
7
  6
CONTINUOUS
 10
9.606363411
 20
8.9375824219
 11
9.6051542723
 21
8.9214605727
  0
LINE
  5
23E
100
AcDbEntity
  8
0
100
AcDbLine
 62
7
  6
CONTINUOUS
 10
9.6612487592
 20
9.0103016104
 11
9.6594606813
 21
8.9864605727
  0
LINE
  5
23F
100
AcDbEntity
  8
0
100
AcDbLine
 62
7
  6
CONTINUOUS
 10
9.6943503817
 20
8.9740426392
 11
9.6926567267
 21
8.9514605727
  0
LINE
  5
240
100
AcDbEntity
  8
0
100
AcDbLine
 62
7
  6
CONTINUOUS
 10
9.7744423686
 20
8.9455270244
 11
9.7726373847
 21
8.9214605727
  0
LINE
  5
241
100
AcDbEntity
  8
0
100
AcDbLine
 62
7
  6
CONTINUOUS
 10
11.3901923427
 20
11.8286695021
 11
11.3726923427
 21
11.8111695021
  0
LINE
  5
242
100
AcDbEntity
  8
0
100
AcDbLine
 62
7
  6
CONTINUOUS
 10
11.2832860603
 20
11.4292632197
 11
11.3351284176
 21
11.481105577
  0
LINE
  5
243
100
AcDbEntity
  8
0
100
AcDbLine
 62
7
  6
CONTINUOUS
 10
8.2835615781
 20
9.0338754878
 11
7.9976923427
 21
9.1989221678
  0
LINE
  5
244
100
AcDbEntity
  8
0
100
AcDbLine
 62
7
  6
CONTINUOUS
 10
9.8991589083
 20
8.9296948817
 11
9.9016514814
 21
8.8964605727
  0
LINE
  5
245
100
AcDbEntity
  8
0
100
AcDbLine
 62
7
  6
CONTINUOUS
 10
9.9561669514
 20
9.0156919089
 11
9.9583593016
 21
8.9864605727
  0
LINE
  5
246
100
AcDbEntity
  8
0
100
AcDbLine
 62
7
  6
CONTINUOUS
 10
9.9595613362
 20
8.9793291761
 11
9.9616514814
 21
8.9514605727
  0
LINE
  5
247
100
AcDbEntity
  8
0
100
AcDbLine
 62
7
  6
CONTINUOUS
 10
9.9740940013
 20
8.9378199123
 11
9.9753209518
 21
8.9214605727
  0
LINE
  5
248
100
AcDbEntity
  8
0
100
AcDbLine
 62
7
  6
CONTINUOUS
 10
10.0321082483
 20
8.9076384045
 11
10.0329465857
 21
8.8964605727
  0
LINE
  5
249
100
AcDbEntity
  8
0
100
AcDbLine
 62
7
  6
CONTINUOUS
 10
10.3892472991
 20
8.9285163369
 11
10.3916514814
 21
8.8964605727
  0
LINE
  5
24A
100
AcDbEntity
  8
0
100
AcDbLine
 62
7
  6
CONTINUOUS
 10
10.3972942168
 20
8.9495787394
 11
10.3994030793
 21
8.9214605727
  0
LINE
  5
24B
100
AcDbEntity
  8
0
100
AcDbLine
 62
7
  6
CONTINUOUS
 10
10.403413954
 20
8.9782670321
 11
10.4054244384
 21
8.9514605727
  0
LINE
  5
24C
100
AcDbEntity
  8
0
100
AcDbLine
 62
7
  6
CONTINUOUS
 10
10.4075808739
 20
9.014608164
 11
10.4096919433
 21
8.9864605727
  0
LINE
  5
24D
100
AcDbEntity
  8
0
100
AcDbLine
 62
7
  6
CONTINUOUS
 10
10.2376923427
 20
11.2175824219
 11
10.2376923427
 21
10.6785824219
  0
LINE
  5
24E
100
AcDbEntity
  8
0
100
AcDbLine
 62
7
  6
CONTINUOUS
 10
10.2376923427
 20
10.4545824219
 11
10.2376923427
 21
10.6385824219
  0
LINE
  5
24F
100
AcDbEntity
  8
0
100
AcDbLine
 62
7
  6
CONTINUOUS
 10
10.0145673427
 20
8.9075824219
 11
10.013733204
 21
8.8964605727
  0
LINE
  5
250
100
AcDbEntity
  8
0
100
AcDbLine
 62
7
  6
CONTINUOUS
 10
10.0723022731
 20
9.0112772239
 11
10.0704410243
 21
8.9864605727
  0
LINE
  5
251
100
AcDbEntity
  8
0
100
AcDbLine
 62
7
  6
CONTINUOUS
 10
10.0754944951
 20
8.974944453
 11
10.073733204
 21
8.9514605727
  0
LINE
  5
252
100
AcDbEntity
  8
0
100
AcDbLine
 62
7
  6
CONTINUOUS
 10
10.0892635695
 20
8.9462725076
 11
10.0874026744
 21
8.9214605727
  0
LINE
  5
253
100
AcDbEntity
  8
0
100
AcDbLine
 62
7
  6
CONTINUOUS
 10
10.1471923793
 20
8.9253148528
 11
10.1450283083
 21
8.8964605727
  0
LINE
  5
254
100
AcDbEntity
  8
0
100
AcDbLine
 62
7
  6
CONTINUOUS
 10
10.8795971668
 20
8.9138514338
 11
10.8816514814
 21
8.8864605727
  0
LINE
  5
255
100
AcDbEntity
  8
0
100
AcDbLine
 62
7
  6
CONTINUOUS
 10
10.8793354191
 20
8.9273414032
 11
10.8816514814
 21
8.8964605727
  0
LINE
  5
256
100
AcDbEntity
  8
0
100
AcDbLine
 62
7
  6
CONTINUOUS
 10
10.8796289813
 20
8.9484272411
 11
10.8816514814
 21
8.9214605727
  0
LINE
  5
257
100
AcDbEntity
  8
0
100
AcDbLine
 62
7
  6
CONTINUOUS
 10
10.8797262371
 20
8.9771304964
 11
10.8816514814
 21
8.9514605727
  0
LINE
  5
258
100
AcDbEntity
  8
0
100
AcDbLine
 62
7
  6
CONTINUOUS
 10
10.8796251614
 20
9.0134781724
 11
10.8816514814
 21
8.9864605727
  0
LINE
  5
259
100
AcDbEntity
  8
0
100
AcDbLine
 62
7
  6
CONTINUOUS
 10
10.4851923427
 20
11.8286695021
 11
10.4851923427
 21
11.9361695021
  0
LINE
  5
25A
100
AcDbEntity
  8
0
100
AcDbLine
 62
7
  6
CONTINUOUS
 10
10.5026923427
 20
11.8111695021
 11
10.5026923427
 21
11.5348346446
  0
LINE
  5
25B
100
AcDbEntity
  8
0
100
AcDbLine
 62
7
  6
CONTINUOUS
 10
10.5314423427
 20
16.2051695021
 11
10.5314423427
 21
11.9361695021
  0
LINE
  5
25C
100
AcDbEntity
  8
0
100
AcDbLine
 62
7
  6
CONTINUOUS
 10
10.5626923427
 20
1.2251695021
 11
10.5626923427
 21
4.2051695021
  0
LINE
  5
25D
100
AcDbEntity
  8
0
100
AcDbLine
 62
7
  6
CONTINUOUS
 10
10.6778847216
 20
10.8675824219
 11
10.6778847216
 21
11.2175824219
  0
LINE
  5
25E
100
AcDbEntity
  8
0
100
AcDbLine
 62
7
  6
CONTINUOUS
 10
10.504751942
 20
8.9100437452
 11
10.503733204
 21
8.8964605727
  0
LINE
  5
25F
100
AcDbEntity
  8
0
100
AcDbLine
 62
7
  6
CONTINUOUS
 10
10.5130151976
 20
8.941865848
 11
10.511484802
 21
8.9214605727
  0
LINE
  5
260
100
AcDbEntity
  8
0
100
AcDbLine
 62
7
  6
CONTINUOUS
 10
10.5193464191
 20
8.9759973465
 11
10.5175061611
 21
8.9514605727
  0
LINE
  5
261
100
AcDbEntity
  8
0
100
AcDbLine
 62
7
  6
CONTINUOUS
 10
10.5237154871
 20
9.0123515223
 11
10.5217736659
 21
8.9864605727
  0
LINE
  5
262
100
AcDbEntity
  8
0
100
AcDbLine
 62
7
  6
CONTINUOUS
 10
10.5193885762
 20
8.9127184962
 11
10.517419232
 21
8.8864605727
  0
LINE
  5
263
100
AcDbEntity
  8
0
100
AcDbLine
 62
7
  6
CONTINUOUS
 10
10.995759524
 20
9.0134781724
 11
10.993733204
 21
8.9864605727
  0
LINE
  5
264
100
AcDbEntity
  8
0
100
AcDbLine
 62
7
  6
CONTINUOUS
 10
11.1226923427
 20
8.9082837947
 11
11.1623481893
 21
8.9114902724
  0
LINE
  5
265
100
AcDbEntity
  8
0
100
AcDbLine
 62
7
  6
CONTINUOUS
 10
12.8374354408
 20
8.9816535098
 11
12.8359892064
 21
8.9815406038
  0
LINE
  5
266
100
AcDbEntity
  8
0
100
AcDbLine
 62
7
  6
CONTINUOUS
 10
11.9811042127
 20
8.9299032083
 11
11.9762257772
 21
8.9296948817
  0
LINE
  5
267
100
AcDbEntity
  8
0
100
AcDbLine
 62
7
  6
CONTINUOUS
 10
11.4550891257
 20
8.8725824219
 11
11.372923504
 21
8.8725824219
  0
LINE
  5
268
100
AcDbEntity
  8
0
100
AcDbLine
 62
7
  6
CONTINUOUS
 10
10.9787751536
 20
8.8725824219
 11
10.8966095319
 21
8.8725824219
  0
LINE
  5
269
100
AcDbEntity
  8
0
100
AcDbLine
 62
7
  6
CONTINUOUS
 10
10.5024611815
 20
8.8725824219
 11
10.4202955598
 21
8.8725824219
  0
LINE
  5
26A
100
AcDbEntity
  8
0
100
AcDbLine
 62
7
  6
CONTINUOUS
 10
11.9587751536
 20
8.8825824219
 11
11.8766095319
 21
8.8825824219
  0
LINE
  5
26B
100
AcDbEntity
  8
0
100
AcDbLine
 62
7
  6
CONTINUOUS
 10
11.8274800493
 20
8.8825824219
 11
11.7453144276
 21
8.8825824219
  0
LINE
  5
26C
100
AcDbEntity
  8
0
100
AcDbLine
 62
7
  6
CONTINUOUS
 10
11.4687751536
 20
8.8825824219
 11
11.3866095319
 21
8.8825824219
  0
LINE
  5
26D
100
AcDbEntity
  8
0
100
AcDbLine
 62
7
  6
CONTINUOUS
 10
10.9787751536
 20
8.8825824219
 11
10.8966095319
 21
8.8825824219
  0
LINE
  5
26E
100
AcDbEntity
  8
0
100
AcDbLine
 62
7
  6
CONTINUOUS
 10
10.4887751536
 20
8.8825824219
 11
10.4066095319
 21
8.8825824219
  0
LINE
  5
26F
100
AcDbEntity
  8
0
100
AcDbLine
 62
7
  6
CONTINUOUS
 10
10.1300702579
 20
8.8825824219
 11
10.0479046362
 21
8.8825824219
  0
LINE
  5
270
100
AcDbEntity
  8
0
100
AcDbLine
 62
7
  6
CONTINUOUS
 10
9.9987751536
 20
8.8825824219
 11
9.9166095319
 21
8.8825824219
  0
LINE
  5
271
100
AcDbEntity
  8
0
100
AcDbLine
 62
9
  6
CONTINUOUS
 10
11.3765792541
 20
8.8864605727
 11
11.3579654535
 21
8.8864605727
  0
LINE
  5
272
100
AcDbEntity
  8
0
100
AcDbLine
 62
9
  6
CONTINUOUS
 10
10.993733204
 20
8.8864605727
 11
10.9888054314
 21
8.8864605727
  0
LINE
  5
273
100
AcDbEntity
  8
0
100
AcDbLine
 62
9
  6
CONTINUOUS
 10
10.8865792541
 20
8.8864605727
 11
10.8816514814
 21
8.8864605727
  0
LINE
  5
274
100
AcDbEntity
  8
0
100
AcDbLine
 62
9
  6
CONTINUOUS
 10
10.517419232
 20
8.8864605727
 11
10.4988054314
 21
8.8864605727
  0
LINE
  5
275
100
AcDbEntity
  8
0
100
AcDbLine
 62
9
  6
CONTINUOUS
 10
11.973733204
 20
8.8964605727
 11
11.8616514814
 21
8.8964605727
  0
LINE
  5
276
100
AcDbEntity
  8
0
100
AcDbLine
 62
9
  6
CONTINUOUS
 10
11.8424380998
 20
8.8964605727
 11
11.7303563771
 21
8.8964605727
  0
LINE
  5
277
100
AcDbEntity
  8
0
100
AcDbLine
 62
9
  6
CONTINUOUS
 10
11.483733204
 20
8.8964605727
 11
11.3716514814
 21
8.8964605727
  0
LINE
  5
278
100
AcDbEntity
  8
0
100
AcDbLine
 62
9
  6
CONTINUOUS
 10
10.993733204
 20
8.8964605727
 11
10.8816514814
 21
8.8964605727
  0
LINE
  5
279
100
AcDbEntity
  8
0
100
AcDbLine
 62
9
  6
CONTINUOUS
 10
10.503733204
 20
8.8964605727
 11
10.3916514814
 21
8.8964605727
  0
LINE
  5
27A
100
AcDbEntity
  8
0
100
AcDbLine
 62
9
  6
CONTINUOUS
 10
10.1450283083
 20
8.8964605727
 11
10.0329465857
 21
8.8964605727
  0
LINE
  5
27B
100
AcDbEntity
  8
0
100
AcDbLine
 62
9
  6
CONTINUOUS
 10
10.013733204
 20
8.8964605727
 11
9.9016514814
 21
8.8964605727
  0
LINE
  5
27C
100
AcDbEntity
  8
0
100
AcDbLine
 62
7
  6
CONTINUOUS
 10
12.3673540853
 20
8.9075824219
 11
12.2851884636
 21
8.9075824219
  0
LINE
  5
27D
100
AcDbEntity
  8
0
100
AcDbLine
 62
7
  6
CONTINUOUS
 10
12.1998709729
 20
8.9075824219
 11
12.1177053512
 21
8.9075824219
  0
LINE
  5
27E
100
AcDbEntity
  8
0
100
AcDbLine
 62
7
  6
CONTINUOUS
 10
11.8851056833
 20
8.9075824219
 11
11.8029400615
 21
8.9075824219
  0
LINE
  5
27F
100
AcDbEntity
  8
0
100
AcDbLine
 62
7
  6
CONTINUOUS
 10
11.4610235557
 20
8.9075824219
 11
11.378857934
 21
8.9075824219
  0
LINE
  5
280
100
AcDbEntity
  8
0
100
AcDbLine
 62
7
  6
CONTINUOUS
 10
10.9787751536
 20
8.9075824219
 11
10.8966095319
 21
8.9075824219
  0
LINE
  5
281
100
AcDbEntity
  8
0
100
AcDbLine
 62
7
  6
CONTINUOUS
 10
10.4965267515
 20
8.9075824219
 11
10.4143611298
 21
8.9075824219
  0
LINE
  5
282
100
AcDbEntity
  8
0
100
AcDbLine
 62
7
  6
CONTINUOUS
 10
10.0724446239
 20
8.9075824219
 11
9.9902790022
 21
8.9075824219
  0
LINE
  5
283
100
AcDbEntity
  8
0
100
AcDbLine
 62
7
  6
CONTINUOUS
 10
9.7576793343
 20
8.9075824219
 11
9.6755137125
 21
8.9075824219
  0
LINE
  5
284
100
AcDbEntity
  8
0
100
AcDbLine
 62
7
  6
CONTINUOUS
 10
9.5901962218
 20
8.9075824219
 11
9.5080306001
 21
8.9075824219
  0
LINE
  5
285
100
AcDbEntity
  8
0
100
AcDbLine
 62
7
  6
CONTINUOUS
 10
10.8800147398
 20
8.9082837947
 11
10.7526923427
 21
8.9082837947
  0
LINE
  5
286
100
AcDbEntity
  8
0
100
AcDbLine
 62
7
  6
CONTINUOUS
 10
10.9953699457
 20
8.9082837947
 11
11.1226923427
 21
8.9082837947
  0
LINE
  5
287
100
AcDbEntity
  8
0
100
AcDbLine
 62
7
  6
CONTINUOUS
 10
10.5192964594
 20
8.9114902724
 11
10.8797742539
 21
8.9114902724
  0
LINE
  5
288
100
AcDbEntity
  8
0
100
AcDbLine
 62
7
  6
CONTINUOUS
 10
10.9956104315
 20
8.9114902724
 11
11.356088226
 21
8.9114902724
  0
LINE
  5
289
100
AcDbEntity
  8
0
100
AcDbLine
 62
9
  6
CONTINUOUS
 10
10.5193089852
 20
8.9116572822
 11
10.8797617282
 21
8.9116572822
  0
LINE
  5
28A
100
AcDbEntity
  8
0
100
AcDbLine
 62
9
  6
CONTINUOUS
 10
10.9956229573
 20
8.9116572822
 11
11.3560757003
 21
8.9116572822
  0
LINE
  5
28B
100
AcDbEntity
  8
0
100
AcDbLine
 62
9
  6
CONTINUOUS
 10
11.553010999
 20
8.9153425427
 11
11.4851493518
 21
8.9153425427
  0
LINE
  5
28C
100
AcDbEntity
  8
0
100
AcDbLine
 62
9
  6
CONTINUOUS
 10
11.3657429513
 20
8.9153425427
 11
10.9951493518
 21
8.9153425427
  0
LINE
  5
28D
100
AcDbEntity
  8
0
100
AcDbLine
 62
9
  6
CONTINUOUS
 10
10.8802353337
 20
8.9153425427
 11
10.5096417341
 21
8.9153425427
  0
LINE
  5
28E
100
AcDbEntity
  8
0
100
AcDbLine
 62
9
  6
CONTINUOUS
 10
10.3902353337
 20
8.9153425427
 11
10.3223736865
 21
8.9153425427
  0
LINE
  5
28F
100
AcDbEntity
  8
0
100
AcDbLine
 62
9
  6
CONTINUOUS
 10
12.3823121358
 20
8.9214605727
 11
12.2702304132
 21
8.9214605727
  0
LINE
  5
290
100
AcDbEntity
  8
0
100
AcDbLine
 62
9
  6
CONTINUOUS
 10
12.2148290234
 20
8.9214605727
 11
12.1027473008
 21
8.9214605727
  0
LINE
  5
291
100
AcDbEntity
  8
0
100
AcDbLine
 62
9
  6
CONTINUOUS
 10
11.9000637337
 20
8.9214605727
 11
11.7879820111
 21
8.9214605727
  0
LINE
  5
292
100
AcDbEntity
  8
0
100
AcDbLine
 62
9
  6
CONTINUOUS
 10
11.4759816061
 20
8.9214605727
 11
11.3638998835
 21
8.9214605727
  0
LINE
  5
293
100
AcDbEntity
  8
0
100
AcDbLine
 62
9
  6
CONTINUOUS
 10
10.993733204
 20
8.9214605727
 11
10.8816514814
 21
8.9214605727
  0
LINE
  5
294
100
AcDbEntity
  8
0
100
AcDbLine
 62
9
  6
CONTINUOUS
 10
10.511484802
 20
8.9214605727
 11
10.3994030793
 21
8.9214605727
  0
LINE
  5
295
100
AcDbEntity
  8
0
100
AcDbLine
 62
9
  6
CONTINUOUS
 10
10.0874026744
 20
8.9214605727
 11
9.9753209518
 21
8.9214605727
  0
LINE
  5
296
100
AcDbEntity
  8
0
100
AcDbLine
 62
9
  6
CONTINUOUS
 10
9.7726373847
 20
8.9214605727
 11
9.6605556621
 21
8.9214605727
  0
LINE
  5
297
100
AcDbEntity
  8
0
100
AcDbLine
 62
9
  6
CONTINUOUS
 10
9.6051542723
 20
8.9214605727
 11
9.4930725497
 21
8.9214605727
  0
LINE
  5
298
100
AcDbEntity
  8
0
100
AcDbLine
 62
7
  6
CONTINUOUS
 10
10.1471306399
 20
8.9244916603
 11
10.3895491499
 21
8.9244916603
  0
LINE
  5
299
100
AcDbEntity
  8
0
100
AcDbLine
 62
7
  6
CONTINUOUS
 10
10.5117121335
 20
8.9244916603
 11
10.8795491499
 21
8.9244916603
  0
LINE
  5
29A
100
AcDbEntity
  8
0
100
AcDbLine
 62
7
  6
CONTINUOUS
 10
10.9958355356
 20
8.9244916603
 11
11.3636725519
 21
8.9244916603
  0
LINE
  5
29B
100
AcDbEntity
  8
0
100
AcDbLine
 62
7
  6
CONTINUOUS
 10
11.4858355356
 20
8.9244916603
 11
11.7282540456
 21
8.9244916603
  0
LINE
  5
29C
100
AcDbEntity
  8
0
100
AcDbLine
 62
9
  6
CONTINUOUS
 10
10.1471923793
 20
8.9252143104
 11
10.3894949511
 21
8.9252143104
  0
LINE
  5
29D
100
AcDbEntity
  8
0
100
AcDbLine
 62
9
  6
CONTINUOUS
 10
10.5117663323
 20
8.9252143104
 11
10.8794949511
 21
8.9252143104
  0
LINE
  5
29E
100
AcDbEntity
  8
0
100
AcDbLine
 62
9
  6
CONTINUOUS
 10
10.9958897344
 20
8.9252143104
 11
11.3636183532
 21
8.9252143104
  0
LINE
  5
29F
100
AcDbEntity
  8
0
100
AcDbLine
 62
9
  6
CONTINUOUS
 10
11.4858897344
 20
8.9252143104
 11
11.7281923061
 21
8.9252143104
  0
LINE
  5
2A0
100
AcDbEntity
  8
0
100
AcDbLine
 62
9
  6
CONTINUOUS
 10
11.9811042127
 20
8.9299032083
 11
11.9006969314
 21
8.9299032083
  0
LINE
  5
2A1
100
AcDbEntity
  8
0
100
AcDbLine
 62
9
  6
CONTINUOUS
 10
11.7873488134
 20
8.9299032083
 11
11.4766148038
 21
8.9299032083
  0
LINE
  5
2A2
100
AcDbEntity
  8
0
100
AcDbLine
 62
9
  6
CONTINUOUS
 10
11.3632666858
 20
8.9299032083
 11
10.9943664017
 21
8.9299032083
  0
LINE
  5
2A3
100
AcDbEntity
  8
0
100
AcDbLine
 62
9
  6
CONTINUOUS
 10
10.8810182838
 20
8.9299032083
 11
10.5121179996
 21
8.9299032083
  0
LINE
  5
2A4
100
AcDbEntity
  8
0
100
AcDbLine
 62
9
  6
CONTINUOUS
 10
10.3987698817
 20
8.9299032083
 11
10.0880358721
 21
8.9299032083
  0
LINE
  5
2A5
100
AcDbEntity
  8
0
100
AcDbLine
 62
9
  6
CONTINUOUS
 10
9.9746877541
 20
8.9299032083
 11
9.8942804728
 21
8.9299032083
  0
LINE
  5
2A6
100
AcDbEntity
  8
0
100
AcDbLine
 62
7
  6
CONTINUOUS
 10
12.8187751536
 20
8.9375824219
 11
12.6739130523
 21
8.9375824219
  0
LINE
  5
2A7
100
AcDbEntity
  8
0
100
AcDbLine
 62
7
  6
CONTINUOUS
 10
12.5722618966
 20
8.9375824219
 11
12.4900962748
 21
8.9375824219
  0
LINE
  5
2A8
100
AcDbEntity
  8
0
100
AcDbLine
 62
7
  6
CONTINUOUS
 10
12.279851631
 20
8.9375824219
 11
12.1976860093
 21
8.9375824219
  0
LINE
  5
2A9
100
AcDbEntity
  8
0
100
AcDbLine
 62
7
  6
CONTINUOUS
 10
11.8987751536
 20
8.9375824219
 11
11.8166095319
 21
8.9375824219
  0
LINE
  5
2AA
100
AcDbEntity
  8
0
100
AcDbLine
 62
7
  6
CONTINUOUS
 10
11.4550021966
 20
8.9375824219
 11
11.3728365749
 21
8.9375824219
  0
LINE
  5
2AB
100
AcDbEntity
  8
0
100
AcDbLine
 62
7
  6
CONTINUOUS
 10
10.9787751536
 20
8.9375824219
 11
10.8966095319
 21
8.9375824219
  0
LINE
  5
2AC
100
AcDbEntity
  8
0
100
AcDbLine
 62
7
  6
CONTINUOUS
 10
10.5025481106
 20
8.9375824219
 11
10.4203824889
 21
8.9375824219
  0
LINE
  5
2AD
100
AcDbEntity
  8
0
100
AcDbLine
 62
7
  6
CONTINUOUS
 10
10.0587751536
 20
8.9375824219
 11
9.9766095319
 21
8.9375824219
  0
LINE
  5
2AE
100
AcDbEntity
  8
0
100
AcDbLine
 62
7
  6
CONTINUOUS
 10
9.6776986762
 20
8.9375824219
 11
9.5955330545
 21
8.9375824219
  0
LINE
  5
2AF
100
AcDbEntity
  8
0
100
AcDbLine
 62
7
  6
CONTINUOUS
 10
9.3852884106
 20
8.9375824219
 11
9.3031227889
 21
8.9375824219
  0
LINE
  5
2B0
100
AcDbEntity
  8
0
100
AcDbLine
 62
7
  6
CONTINUOUS
 10
9.2014716332
 20
8.9375824219
 11
9.0566095319
 21
8.9375824219
  0
LINE
  5
2B1
100
AcDbEntity
  8
0
100
AcDbLine
 62
7
  6
CONTINUOUS
 10
9.7743059645
 20
8.9437083031
 11
9.964531276
 21
8.9437083031
  0
LINE
  5
2B2
100
AcDbEntity
  8
0
100
AcDbLine
 62
7
  6
CONTINUOUS
 10
10.0890712542
 20
8.9437083031
 11
10.3977344996
 21
8.9437083031
  0
LINE
  5
2B3
100
AcDbEntity
  8
0
100
AcDbLine
 62
7
  6
CONTINUOUS
 10
10.5146263665
 20
8.9437083031
 11
10.8799829016
 21
8.9437083031
  0
LINE
  5
2B4
100
AcDbEntity
  8
0
100
AcDbLine
 62
7
  6
CONTINUOUS
 10
10.9954017838
 20
8.9437083031
 11
11.360758319
 21
8.9437083031
  0
LINE
  5
2B5
100
AcDbEntity
  8
0
100
AcDbLine
 62
7
  6
CONTINUOUS
 10
11.4776501859
 20
8.9437083031
 11
11.7863134313
 21
8.9437083031
  0
LINE
  5
2B6
100
AcDbEntity
  8
0
100
AcDbLine
 62
7
  6
CONTINUOUS
 10
11.9108534095
 20
8.9437083031
 11
12.101078721
 21
8.9437083031
  0
LINE
  5
2B7
100
AcDbEntity
  8
0
100
AcDbLine
 62
9
  6
CONTINUOUS
 10
9.7744423686
 20
8.9452522149
 11
9.9635413011
 21
8.9452522149
  0
LINE
  5
2B8
100
AcDbEntity
  8
0
100
AcDbLine
 62
9
  6
CONTINUOUS
 10
10.5156163414
 20
8.9452522149
 11
10.8798671083
 21
8.9452522149
  0
LINE
  5
2B9
100
AcDbEntity
  8
0
100
AcDbLine
 62
9
  6
CONTINUOUS
 10
10.9955175772
 20
8.9452522149
 11
11.3597683441
 21
8.9452522149
  0
LINE
  5
2BA
100
AcDbEntity
  8
0
100
AcDbLine
 62
9
  6
CONTINUOUS
 10
11.9118433844
 20
8.9452522149
 11
12.1009423169
 21
8.9452522149
  0
LINE
  5
2BB
100
AcDbEntity
  8
0
100
AcDbLine
 62
9
  6
CONTINUOUS
 10
12.833733204
 20
8.9514605727
 11
12.6589550018
 21
8.9514605727
  0
LINE
  5
2BC
100
AcDbEntity
  8
0
100
AcDbLine
 62
9
  6
CONTINUOUS
 10
12.587219947
 20
8.9514605727
 11
12.4751382244
 21
8.9514605727
  0
LINE
  5
2BD
100
AcDbEntity
  8
0
100
AcDbLine
 62
9
  6
CONTINUOUS
 10
12.2948096814
 20
8.9514605727
 11
12.1827279588
 21
8.9514605727
  0
LINE
  5
2BE
100
AcDbEntity
  8
0
100
AcDbLine
 62
9
  6
CONTINUOUS
 10
11.913733204
 20
8.9514605727
 11
11.8016514814
 21
8.9514605727
  0
LINE
  5
2BF
100
AcDbEntity
  8
0
100
AcDbLine
 62
9
  6
CONTINUOUS
 10
11.469960247
 20
8.9514605727
 11
11.3578785244
 21
8.9514605727
  0
LINE
  5
2C0
100
AcDbEntity
  8
0
100
AcDbLine
 62
9
  6
CONTINUOUS
 10
10.993733204
 20
8.9514605727
 11
10.8816514814
 21
8.9514605727
  0
LINE
  5
2C1
100
AcDbEntity
  8
0
100
AcDbLine
 62
9
  6
CONTINUOUS
 10
10.5175061611
 20
8.9514605727
 11
10.4054244384
 21
8.9514605727
  0
LINE
  5
2C2
100
AcDbEntity
  8
0
100
AcDbLine
 62
9
  6
CONTINUOUS
 10
10.073733204
 20
8.9514605727
 11
9.9616514814
 21
8.9514605727
  0
LINE
  5
2C3
100
AcDbEntity
  8
0
100
AcDbLine
 62
9
  6
CONTINUOUS
 10
9.6926567267
 20
8.9514605727
 11
9.580575004
 21
8.9514605727
  0
LINE
  5
2C4
100
AcDbEntity
  8
0
100
AcDbLine
 62
9
  6
CONTINUOUS
 10
9.4002464611
 20
8.9514605727
 11
9.2881647385
 21
8.9514605727
  0
LINE
  5
2C5
100
AcDbEntity
  8
0
100
AcDbLine
 62
9
  6
CONTINUOUS
 10
9.2164296837
 20
8.9514605727
 11
9.0416514814
 21
8.9514605727
  0
LINE
  5
2C6
100
AcDbEntity
  8
0
100
AcDbLine
 62
9
  6
CONTINUOUS
 10
12.409245644
 20
8.9519991666
 11
12.2948096814
 21
8.9519991666
  0
LINE
  5
2C7
100
AcDbEntity
  8
0
100
AcDbLine
 62
9
  6
CONTINUOUS
 10
12.1826875643
 20
8.9519991666
 11
11.913733204
 21
8.9519991666
  0
LINE
  5
2C8
100
AcDbEntity
  8
0
100
AcDbLine
 62
9
  6
CONTINUOUS
 10
11.8016514814
 20
8.9519991666
 11
11.469960247
 21
8.9519991666
  0
LINE
  5
2C9
100
AcDbEntity
  8
0
100
AcDbLine
 62
9
  6
CONTINUOUS
 10
11.3578785244
 20
8.9519991666
 11
10.993733204
 21
8.9519991666
  0
LINE
  5
2CA
100
AcDbEntity
  8
0
100
AcDbLine
 62
9
  6
CONTINUOUS
 10
10.8816514814
 20
8.9519991666
 11
10.5175061611
 21
8.9519991666
  0
LINE
  5
2CB
100
AcDbEntity
  8
0
100
AcDbLine
 62
9
  6
CONTINUOUS
 10
10.4054244384
 20
8.9519991666
 11
10.073733204
 21
8.9519991666
  0
LINE
  5
2CC
100
AcDbEntity
  8
0
100
AcDbLine
 62
9
  6
CONTINUOUS
 10
9.9616514814
 20
8.9519991666
 11
9.6926971212
 21
8.9519991666
  0
LINE
  5
2CD
100
AcDbEntity
  8
0
100
AcDbLine
 62
9
  6
CONTINUOUS
 10
9.580575004
 20
8.9519991666
 11
9.4661390414
 21
8.9519991666
  0
LINE
  5
2CE
100
AcDbEntity
  8
0
100
AcDbLine
 62
7
  6
CONTINUOUS
 10
9.2276691567
 20
8.9701514016
 11
9.2867629263
 21
8.9701514016
  0
LINE
  5
2CF
100
AcDbEntity
  8
0
100
AcDbLine
 62
7
  6
CONTINUOUS
 10
9.4016482733
 20
8.9701514016
 11
9.5791731919
 21
8.9701514016
  0
LINE
  5
2D0
100
AcDbEntity
  8
0
100
AcDbLine
 62
7
  6
CONTINUOUS
 10
9.6940585388
 20
8.9701514016
 11
9.9602496693
 21
8.9701514016
  0
LINE
  5
2D1
100
AcDbEntity
  8
0
100
AcDbLine
 62
7
  6
CONTINUOUS
 10
10.0751350162
 20
8.9701514016
 11
10.4040226263
 21
8.9701514016
  0
LINE
  5
2D2
100
AcDbEntity
  8
0
100
AcDbLine
 62
7
  6
CONTINUOUS
 10
10.5189079732
 20
8.9701514016
 11
10.8802496693
 21
8.9701514016
  0
LINE
  5
2D3
100
AcDbEntity
  8
0
100
AcDbLine
 62
7
  6
CONTINUOUS
 10
10.9951350162
 20
8.9701514016
 11
11.3564767122
 21
8.9701514016
  0
LINE
  5
2D4
100
AcDbEntity
  8
0
100
AcDbLine
 62
7
  6
CONTINUOUS
 10
11.4713620592
 20
8.9701514016
 11
11.8002496693
 21
8.9701514016
  0
LINE
  5
2D5
100
AcDbEntity
  8
0
100
AcDbLine
 62
7
  6
CONTINUOUS
 10
11.9151350162
 20
8.9701514016
 11
12.1813261466
 21
8.9701514016
  0
LINE
  5
2D6
100
AcDbEntity
  8
0
100
AcDbLine
 62
7
  6
CONTINUOUS
 10
12.2962114936
 20
8.9701514016
 11
12.4737364122
 21
8.9701514016
  0
LINE
  5
2D7
100
AcDbEntity
  8
0
100
AcDbLine
 62
7
  6
CONTINUOUS
 10
12.5886217592
 20
8.9701514016
 11
12.6477155288
 21
8.9701514016
  0
LINE
  5
2D8
100
AcDbEntity
  8
0
100
AcDbLine
 62
7
  6
CONTINUOUS
 10
13.2363398561
 20
8.9725824219
 11
13.1541742344
 21
8.9725824219
  0
LINE
  5
2D9
100
AcDbEntity
  8
0
100
AcDbLine
 62
7
  6
CONTINUOUS
 10
13.1376734456
 20
8.9725824219
 11
13.0555078239
 21
8.9725824219
  0
LINE
  5
2DA
100
AcDbEntity
  8
0
100
AcDbLine
 62
7
  6
CONTINUOUS
 10
12.9446528202
 20
8.9725824219
 11
12.8624871985
 21
8.9725824219
  0
LINE
  5
2DB
100
AcDbEntity
  8
0
100
AcDbLine
 62
7
  6
CONTINUOUS
 10
12.6657139074
 20
8.9725824219
 11
12.5835482857
 21
8.9725824219
  0
LINE
  5
2DC
100
AcDbEntity
  8
0
100
AcDbLine
 62
7
  6
CONTINUOUS
 10
12.3130476763
 20
8.9725824219
 11
12.2308820546
 21
8.9725824219
  0
LINE
  5
2DD
100
AcDbEntity
  8
0
100
AcDbLine
 62
7
  6
CONTINUOUS
 10
11.9020673334
 20
8.9725824219
 11
11.8199017117
 21
8.9725824219
  0
LINE
  5
2DE
100
AcDbEntity
  8
0
100
AcDbLine
 62
7
  6
CONTINUOUS
 10
11.4507346917
 20
8.9725824219
 11
11.36856907
 21
8.9725824219
  0
LINE
  5
2DF
100
AcDbEntity
  8
0
100
AcDbLine
 62
7
  6
CONTINUOUS
 10
10.9787751536
 20
8.9725824219
 11
10.8966095319
 21
8.9725824219
  0
LINE
  5
2E0
100
AcDbEntity
  8
0
100
AcDbLine
 62
7
  6
CONTINUOUS
 10
10.5068156154
 20
8.9725824219
 11
10.4246499937
 21
8.9725824219
  0
LINE
  5
2E1
100
AcDbEntity
  8
0
100
AcDbLine
 62
7
  6
CONTINUOUS
 10
10.0554829738
 20
8.9725824219
 11
9.9733173521
 21
8.9725824219
  0
LINE
  5
2E2
100
AcDbEntity
  8
0
100
AcDbLine
 62
7
  6
CONTINUOUS
 10
9.6445026309
 20
8.9725824219
 11
9.5623370092
 21
8.9725824219
  0
LINE
  5
2E3
100
AcDbEntity
  8
0
100
AcDbLine
 62
7
  6
CONTINUOUS
 10
9.2918363998
 20
8.9725824219
 11
9.209670778
 21
8.9725824219
  0
LINE
  5
2E4
100
AcDbEntity
  8
0
100
AcDbLine
 62
7
  6
CONTINUOUS
 10
9.012897487
 20
8.9725824219
 11
8.9307318653
 21
8.9725824219
  0
LINE
  5
2E5
100
AcDbEntity
  8
0
100
AcDbLine
 62
7
  6
CONTINUOUS
 10
8.8198768616
 20
8.9725824219
 11
8.7377112399
 21
8.9725824219
  0
LINE
  5
2E6
100
AcDbEntity
  8
0
100
AcDbLine
 62
7
  6
CONTINUOUS
 10
8.7212104511
 20
8.9725824219
 11
8.6390448294
 21
8.9725824219
  0
LINE
  5
2E7
100
AcDbEntity
  8
0
100
AcDbLine
 62
9
  6
CONTINUOUS
 10
9.4018883261
 20
8.972825412
 11
9.5597899328
 21
8.972825412
  0
LINE
  5
2E8
100
AcDbEntity
  8
0
100
AcDbLine
 62
9
  6
CONTINUOUS
 10
9.6942590896
 20
8.972825412
 11
9.9600491185
 21
8.972825412
  0
LINE
  5
2E9
100
AcDbEntity
  8
0
100
AcDbLine
 62
9
  6
CONTINUOUS
 10
10.075335567
 20
8.972825412
 11
10.4038220755
 21
8.972825412
  0
LINE
  5
2EA
100
AcDbEntity
  8
0
100
AcDbLine
 62
9
  6
CONTINUOUS
 10
10.519108524
 20
8.972825412
 11
10.8800491185
 21
8.972825412
  0
LINE
  5
2EB
100
AcDbEntity
  8
0
100
AcDbLine
 62
9
  6
CONTINUOUS
 10
10.995335567
 20
8.972825412
 11
11.3562761615
 21
8.972825412
  0
LINE
  5
2EC
100
AcDbEntity
  8
0
100
AcDbLine
 62
9
  6
CONTINUOUS
 10
11.47156261
 20
8.972825412
 11
11.8000491185
 21
8.972825412
  0
LINE
  5
2ED
100
AcDbEntity
  8
0
100
AcDbLine
 62
9
  6
CONTINUOUS
 10
11.915335567
 20
8.972825412
 11
12.1811255959
 21
8.972825412
  0
LINE
  5
2EE
100
AcDbEntity
  8
0
100
AcDbLine
 62
9
  6
CONTINUOUS
 10
12.3155947526
 20
8.972825412
 11
12.4734963594
 21
8.972825412
  0
LINE
  5
2EF
100
AcDbEntity
  8
0
100
AcDbLine
 62
9
  6
CONTINUOUS
 10
12.8374354408
 20
8.9816535098
 11
12.6794813501
 21
8.9816535098
  0
LINE
  5
2F0
100
AcDbEntity
  8
0
100
AcDbLine
 62
9
  6
CONTINUOUS
 10
12.5697808431
 20
8.9816535098
 11
12.3268151189
 21
8.9816535098
  0
LINE
  5
2F1
100
AcDbEntity
  8
0
100
AcDbLine
 62
9
  6
CONTINUOUS
 10
12.217114612
 20
8.9816535098
 11
11.915834776
 21
8.9816535098
  0
LINE
  5
2F2
100
AcDbEntity
  8
0
100
AcDbLine
 62
9
  6
CONTINUOUS
 10
11.806134269
 20
8.9816535098
 11
11.4645021344
 21
8.9816535098
  0
LINE
  5
2F3
100
AcDbEntity
  8
0
100
AcDbLine
 62
9
  6
CONTINUOUS
 10
11.3548016274
 20
8.9816535098
 11
10.9925425962
 21
8.9816535098
  0
LINE
  5
2F4
100
AcDbEntity
  8
0
100
AcDbLine
 62
9
  6
CONTINUOUS
 10
10.8828420893
 20
8.9816535098
 11
10.5205830581
 21
8.9816535098
  0
LINE
  5
2F5
100
AcDbEntity
  8
0
100
AcDbLine
 62
9
  6
CONTINUOUS
 10
10.4108825511
 20
8.9816535098
 11
10.0692504164
 21
8.9816535098
  0
LINE
  5
2F6
100
AcDbEntity
  8
0
100
AcDbLine
 62
9
  6
CONTINUOUS
 10
9.9595499095
 20
8.9816535098
 11
9.6582700735
 21
8.9816535098
  0
LINE
  5
2F7
100
AcDbEntity
  8
0
100
AcDbLine
 62
9
  6
CONTINUOUS
 10
9.5485695665
 20
8.9816535098
 11
9.3056038424
 21
8.9816535098
  0
LINE
  5
2F8
100
AcDbEntity
  8
0
100
AcDbLine
 62
9
  6
CONTINUOUS
 10
9.1959033354
 20
8.9816535098
 11
9.0379492447
 21
8.9816535098
  0
LINE
  5
2F9
100
AcDbEntity
  8
0
100
AcDbLine
 62
9
  6
CONTINUOUS
 10
13.2512979065
 20
8.9864605727
 11
13.0405497734
 21
8.9864605727
  0
LINE
  5
2FA
100
AcDbEntity
  8
0
100
AcDbLine
 62
9
  6
CONTINUOUS
 10
12.9596108706
 20
8.9864605727
 11
12.847529148
 21
8.9864605727
  0
LINE
  5
2FB
100
AcDbEntity
  8
0
100
AcDbLine
 62
9
  6
CONTINUOUS
 10
12.6806719579
 20
8.9864605727
 11
12.5685902353
 21
8.9864605727
  0
LINE
  5
2FC
100
AcDbEntity
  8
0
100
AcDbLine
 62
9
  6
CONTINUOUS
 10
12.3280057267
 20
8.9864605727
 11
12.2159240041
 21
8.9864605727
  0
LINE
  5
2FD
100
AcDbEntity
  8
0
100
AcDbLine
 62
9
  6
CONTINUOUS
 10
11.9170253838
 20
8.9864605727
 11
11.8049436612
 21
8.9864605727
  0
LINE
  5
2FE
100
AcDbEntity
  8
0
100
AcDbLine
 62
9
  6
CONTINUOUS
 10
11.4656927422
 20
8.9864605727
 11
11.3536110196
 21
8.9864605727
  0
LINE
  5
2FF
100
AcDbEntity
  8
0
100
AcDbLine
 62
9
  6
CONTINUOUS
 10
10.993733204
 20
8.9864605727
 11
10.8816514814
 21
8.9864605727
  0
LINE
  5
300
100
AcDbEntity
  8
0
100
AcDbLine
 62
9
  6
CONTINUOUS
 10
10.5217736659
 20
8.9864605727
 11
10.4096919433
 21
8.9864605727
  0
LINE
  5
301
100
AcDbEntity
  8
0
100
AcDbLine
 62
9
  6
CONTINUOUS
 10
10.0704410243
 20
8.9864605727
 11
9.9583593016
 21
8.9864605727
  0
LINE
  5
302
100
AcDbEntity
  8
0
100
AcDbLine
 62
9
  6
CONTINUOUS
 10
9.6594606813
 20
8.9864605727
 11
9.5473789587
 21
8.9864605727
  0
LINE
  5
303
100
AcDbEntity
  8
0
100
AcDbLine
 62
9
  6
CONTINUOUS
 10
9.3067944502
 20
8.9864605727
 11
9.1947127276
 21
8.9864605727
  0
LINE
  5
304
100
AcDbEntity
  8
0
100
AcDbLine
 62
9
  6
CONTINUOUS
 10
9.0278555375
 20
8.9864605727
 11
8.9157738148
 21
8.9864605727
  0
LINE
  5
305
100
AcDbEntity
  8
0
100
AcDbLine
 62
9
  6
CONTINUOUS
 10
8.8348349121
 20
8.9864605727
 11
8.6240867789
 21
8.9864605727
  0
LINE
  5
306
100
AcDbEntity
  8
0
100
AcDbLine
 62
9
  6
CONTINUOUS
 10
12.97567916
 20
9.0022476493
 11
12.9607949014
 21
9.0022476493
  0
LINE
  5
307
100
AcDbEntity
  8
0
100
AcDbLine
 62
9
  6
CONTINUOUS
 10
12.8463451173
 20
9.0022476493
 11
12.6818559886
 21
9.0022476493
  0
LINE
  5
308
100
AcDbEntity
  8
0
100
AcDbLine
 62
9
  6
CONTINUOUS
 10
12.5674062045
 20
9.0022476493
 11
12.3291897575
 21
9.0022476493
  0
LINE
  5
309
100
AcDbEntity
  8
0
100
AcDbLine
 62
9
  6
CONTINUOUS
 10
12.2147399734
 20
9.0022476493
 11
11.9182094146
 21
9.0022476493
  0
LINE
  5
30A
100
AcDbEntity
  8
0
100
AcDbLine
 62
9
  6
CONTINUOUS
 10
11.8037596305
 20
9.0022476493
 11
11.4668767729
 21
9.0022476493
  0
LINE
  5
30B
100
AcDbEntity
  8
0
100
AcDbLine
 62
9
  6
CONTINUOUS
 10
11.3524269888
 20
9.0022476493
 11
10.9949172348
 21
9.0022476493
  0
LINE
  5
30C
100
AcDbEntity
  8
0
100
AcDbLine
 62
9
  6
CONTINUOUS
 10
10.8804674507
 20
9.0022476493
 11
10.5229576966
 21
9.0022476493
  0
LINE
  5
30D
100
AcDbEntity
  8
0
100
AcDbLine
 62
9
  6
CONTINUOUS
 10
10.4085079125
 20
9.0022476493
 11
10.071625055
 21
9.0022476493
  0
LINE
  5
30E
100
AcDbEntity
  8
0
100
AcDbLine
 62
9
  6
CONTINUOUS
 10
9.9571752709
 20
9.0022476493
 11
9.6606447121
 21
9.0022476493
  0
LINE
  5
30F
100
AcDbEntity
  8
0
100
AcDbLine
 62
9
  6
CONTINUOUS
 10
9.546194928
 20
9.0022476493
 11
9.307978481
 21
9.0022476493
  0
LINE
  5
310
100
AcDbEntity
  8
0
100
AcDbLine
 62
9
  6
CONTINUOUS
 10
9.1935286968
 20
9.0022476493
 11
9.0290395682
 21
9.0022476493
  0
LINE
  5
311
100
AcDbEntity
  8
0
100
AcDbLine
 62
9
  6
CONTINUOUS
 10
8.9145897841
 20
9.0022476493
 11
8.8997055255
 21
9.0022476493
  0
LINE
  5
312
100
AcDbEntity
  8
0
100
AcDbLine
 62
7
  6
CONTINUOUS
 10
8.8361386017
 20
9.0038431014
 11
8.9144701252
 21
9.0038431014
  0
LINE
  5
313
100
AcDbEntity
  8
0
100
AcDbLine
 62
7
  6
CONTINUOUS
 10
9.0291592271
 20
9.0038431014
 11
9.1934090379
 21
9.0038431014
  0
LINE
  5
314
100
AcDbEntity
  8
0
100
AcDbLine
 62
7
  6
CONTINUOUS
 10
9.3080981399
 20
9.0038431014
 11
9.5460752691
 21
9.0038431014
  0
LINE
  5
315
100
AcDbEntity
  8
0
100
AcDbLine
 62
7
  6
CONTINUOUS
 10
9.660764371
 20
9.0038431014
 11
9.957055612
 21
9.0038431014
  0
LINE
  5
316
100
AcDbEntity
  8
0
100
AcDbLine
 62
7
  6
CONTINUOUS
 10
10.0717447139
 20
9.0038431014
 11
10.4083882536
 21
9.0038431014
  0
LINE
  5
317
100
AcDbEntity
  8
0
100
AcDbLine
 62
7
  6
CONTINUOUS
 10
10.5230773555
 20
9.0038431014
 11
10.8803477918
 21
9.0038431014
  0
LINE
  5
318
100
AcDbEntity
  8
0
100
AcDbLine
 62
7
  6
CONTINUOUS
 10
10.9950368937
 20
9.0038431014
 11
11.3523073299
 21
9.0038431014
  0
LINE
  5
319
100
AcDbEntity
  8
0
100
AcDbLine
 62
7
  6
CONTINUOUS
 10
11.4669964319
 20
9.0038431014
 11
11.8036399716
 21
9.0038431014
  0
LINE
  5
31A
100
AcDbEntity
  8
0
100
AcDbLine
 62
7
  6
CONTINUOUS
 10
11.9183290735
 20
9.0038431014
 11
12.2146203145
 21
9.0038431014
  0
LINE
  5
31B
100
AcDbEntity
  8
0
100
AcDbLine
 62
7
  6
CONTINUOUS
 10
12.3293094164
 20
9.0038431014
 11
12.5672865456
 21
9.0038431014
  0
LINE
  5
31C
100
AcDbEntity
  8
0
100
AcDbLine
 62
7
  6
CONTINUOUS
 10
12.6819756475
 20
9.0038431014
 11
12.8462254584
 21
9.0038431014
  0
LINE
  5
31D
100
AcDbEntity
  8
0
100
AcDbLine
 62
7
  6
CONTINUOUS
 10
12.9609145603
 20
9.0038431014
 11
13.0392460838
 21
9.0038431014
  0
LINE
  5
31E
100
AcDbEntity
  8
0
100
AcDbLine
 62
9
  6
CONTINUOUS
 10
8.8364767386
 20
9.007956994
 11
8.9141615832
 21
9.007956994
  0
LINE
  5
31F
100
AcDbEntity
  8
0
100
AcDbLine
 62
9
  6
CONTINUOUS
 10
9.0294677691
 20
9.007956994
 11
9.193100496
 21
9.007956994
  0
LINE
  5
320
100
AcDbEntity
  8
0
100
AcDbLine
 62
9
  6
CONTINUOUS
 10
9.3084066818
 20
9.007956994
 11
9.5457667271
 21
9.007956994
  0
LINE
  5
321
100
AcDbEntity
  8
0
100
AcDbLine
 62
9
  6
CONTINUOUS
 10
9.6610729129
 20
9.007956994
 11
9.95674707
 21
9.007956994
  0
LINE
  5
322
100
AcDbEntity
  8
0
100
AcDbLine
 62
9
  6
CONTINUOUS
 10
10.0720532559
 20
9.007956994
 11
10.4080797117
 21
9.007956994
  0
LINE
  5
323
100
AcDbEntity
  8
0
100
AcDbLine
 62
9
  6
CONTINUOUS
 10
10.5233858975
 20
9.007956994
 11
10.8800392498
 21
9.007956994
  0
LINE
  5
324
100
AcDbEntity
  8
0
100
AcDbLine
 62
9
  6
CONTINUOUS
 10
10.9953454356
 20
9.007956994
 11
11.351998788
 21
9.007956994
  0
LINE
  5
325
100
AcDbEntity
  8
0
100
AcDbLine
 62
9
  6
CONTINUOUS
 10
11.4673049738
 20
9.007956994
 11
11.8033314296
 21
9.007956994
  0
LINE
  5
326
100
AcDbEntity
  8
0
100
AcDbLine
 62
9
  6
CONTINUOUS
 10
11.9186376154
 20
9.007956994
 11
12.2143117725
 21
9.007956994
  0
LINE
  5
327
100
AcDbEntity
  8
0
100
AcDbLine
 62
9
  6
CONTINUOUS
 10
12.3296179584
 20
9.007956994
 11
12.5669780037
 21
9.007956994
  0
LINE
  5
328
100
AcDbEntity
  8
0
100
AcDbLine
 62
9
  6
CONTINUOUS
 10
12.6822841895
 20
9.007956994
 11
12.8459169164
 21
9.007956994
  0
LINE
  5
329
100
AcDbEntity
  8
0
100
AcDbLine
 62
9
  6
CONTINUOUS
 10
12.9612231022
 20
9.007956994
 11
13.0389079469
 21
9.007956994
  0
LINE
  5
32A
100
AcDbEntity
  8
0
100
AcDbLine
 62
7
  6
CONTINUOUS
 10
8.2916908933
 20
9.0306536184
 11
13.5836937922
 21
9.0306536184
  0
LINE
  5
32B
100
AcDbEntity
  8
0
100
AcDbLine
 62
9
  6
CONTINUOUS
 10
13.5918231074
 20
9.0338754878
 11
8.2835615781
 21
9.0338754878
  0
LINE
  5
32C
100
AcDbEntity
  8
0
100
AcDbLine
 62
9
  6
CONTINUOUS
 10
13.8776923427
 20
9.1989221678
 11
7.9976923427
 21
9.1989221678
  0
LINE
  5
32D
100
AcDbEntity
  8
0
100
AcDbLine
 62
9
  6
CONTINUOUS
 10
13.8926923427
 20
9.22490293
 11
7.9826923427
 21
9.22490293
  0
LINE
  5
32E
100
AcDbEntity
  8
0
100
AcDbLine
 62
7
  6
CONTINUOUS
 10
9.8942804728
 20
8.9299032083
 11
9.8991589083
 21
8.9296948817
  0
LINE
  5
32F
100
AcDbEntity
  8
0
100
AcDbLine
 62
7
  6
CONTINUOUS
 10
9.0379492447
 20
8.9816535098
 11
9.0393954791
 21
8.9815406038
  0
LINE
  5
330
100
AcDbEntity
  8
0
100
AcDbLine
 62
7
  6
CONTINUOUS
 10
10.7526923427
 20
8.9082837947
 11
10.7130364961
 21
8.9114902724
  0
LINE
  5
331
100
AcDbEntity
  8
0
100
AcDbLine
 62
7
  6
CONTINUOUS
 10
11.3559961092
 20
8.9127184962
 11
11.3579654535
 21
8.8864605727
  0
LINE
  5
332
100
AcDbEntity
  8
0
100
AcDbLine
 62
7
  6
CONTINUOUS
 10
11.3516691984
 20
9.0123515223
 11
11.3536110196
 21
8.9864605727
  0
LINE
  5
333
100
AcDbEntity
  8
0
100
AcDbLine
 62
7
  6
CONTINUOUS
 10
11.3560382664
 20
8.9759973465
 11
11.3578785244
 21
8.9514605727
  0
LINE
  5
334
100
AcDbEntity
  8
0
100
AcDbLine
 62
7
  6
CONTINUOUS
 10
11.3623694879
 20
8.941865848
 11
11.3638998835
 21
8.9214605727
  0
LINE
  5
335
100
AcDbEntity
  8
0
100
AcDbLine
 62
7
  6
CONTINUOUS
 10
11.3706327435
 20
8.9100437452
 11
11.3716514814
 21
8.8964605727
  0
LINE
  5
336
100
AcDbEntity
  8
0
100
AcDbLine
 62
7
  6
CONTINUOUS
 10
11.1974999639
 20
10.8675824219
 11
11.1974999639
 21
11.2175824219
  0
LINE
  5
337
100
AcDbEntity
  8
0
100
AcDbLine
 62
7
  6
CONTINUOUS
 10
11.3126923427
 20
1.2251695021
 11
11.3126923427
 21
4.2051695021
  0
LINE
  5
338
100
AcDbEntity
  8
0
100
AcDbLine
 62
7
  6
CONTINUOUS
 10
11.3439423427
 20
16.2051695021
 11
11.3439423427
 21
11.9361695021
  0
LINE
  5
339
100
AcDbEntity
  8
0
100
AcDbLine
 62
7
  6
CONTINUOUS
 10
11.3726923427
 20
11.5348346446
 11
11.3726923427
 21
11.8111695021
  0
LINE
  5
33A
100
AcDbEntity
  8
0
100
AcDbLine
 62
7
  6
CONTINUOUS
 10
11.3901923427
 20
11.8286695021
 11
11.3901923427
 21
11.9361695021
  0
LINE
  5
33B
100
AcDbEntity
  8
0
100
AcDbLine
 62
7
  6
CONTINUOUS
 10
10.9956584483
 20
8.9771304964
 11
10.993733204
 21
8.9514605727
  0
LINE
  5
33C
100
AcDbEntity
  8
0
100
AcDbLine
 62
7
  6
CONTINUOUS
 10
10.9957557042
 20
8.9484272411
 11
10.993733204
 21
8.9214605727
  0
LINE
  5
33D
100
AcDbEntity
  8
0
100
AcDbLine
 62
7
  6
CONTINUOUS
 10
10.9960492663
 20
8.9273414032
 11
10.993733204
 21
8.8964605727
  0
LINE
  5
33E
100
AcDbEntity
  8
0
100
AcDbLine
 62
7
  6
CONTINUOUS
 10
10.9957875186
 20
8.9138514338
 11
10.993733204
 21
8.8864605727
  0
LINE
  5
33F
100
AcDbEntity
  8
0
100
AcDbLine
 62
7
  6
CONTINUOUS
 10
11.4678038116
 20
9.014608164
 11
11.4656927422
 21
8.9864605727
  0
LINE
  5
340
100
AcDbEntity
  8
0
100
AcDbLine
 62
7
  6
CONTINUOUS
 10
11.4719707315
 20
8.9782670321
 11
11.469960247
 21
8.9514605727
  0
LINE
  5
341
100
AcDbEntity
  8
0
100
AcDbLine
 62
7
  6
CONTINUOUS
 10
11.4780904686
 20
8.9495787394
 11
11.4759816061
 21
8.9214605727
  0
LINE
  5
342
100
AcDbEntity
  8
0
100
AcDbLine
 62
7
  6
CONTINUOUS
 10
11.4861373864
 20
8.9285163369
 11
11.483733204
 21
8.8964605727
  0
LINE
  5
343
100
AcDbEntity
  8
0
100
AcDbLine
 62
7
  6
CONTINUOUS
 10
11.7281923061
 20
8.9253148528
 11
11.7303563771
 21
8.8964605727
  0
LINE
  5
344
100
AcDbEntity
  8
0
100
AcDbLine
 62
7
  6
CONTINUOUS
 10
11.786121116
 20
8.9462725076
 11
11.7879820111
 21
8.9214605727
  0
LINE
  5
345
100
AcDbEntity
  8
0
100
AcDbLine
 62
7
  6
CONTINUOUS
 10
11.7998901904
 20
8.974944453
 11
11.8016514814
 21
8.9514605727
  0
LINE
  5
346
100
AcDbEntity
  8
0
100
AcDbLine
 62
7
  6
CONTINUOUS
 10
11.8030824124
 20
9.0112772239
 11
11.8049436612
 21
8.9864605727
  0
LINE
  5
347
100
AcDbEntity
  8
0
100
AcDbLine
 62
7
  6
CONTINUOUS
 10
11.8608173427
 20
8.9075824219
 11
11.8616514814
 21
8.8964605727
  0
LINE
  5
348
100
AcDbEntity
  8
0
100
AcDbLine
 62
7
  6
CONTINUOUS
 10
12.1009423169
 20
8.9455270244
 11
12.1027473008
 21
8.9214605727
  0
LINE
  5
349
100
AcDbEntity
  8
0
100
AcDbLine
 62
7
  6
CONTINUOUS
 10
12.1810343038
 20
8.9740426392
 11
12.1827279588
 21
8.9514605727
  0
LINE
  5
34A
100
AcDbEntity
  8
0
100
AcDbLine
 62
7
  6
CONTINUOUS
 10
11.6376923427
 20
11.2175824219
 11
11.6376923427
 21
10.6785824219
  0
LINE
  5
34B
100
AcDbEntity
  8
0
100
AcDbLine
 62
7
  6
CONTINUOUS
 10
11.6376923427
 20
10.4545824219
 11
11.6376923427
 21
10.6385824219
  0
LINE
  5
34C
100
AcDbEntity
  8
0
100
AcDbLine
 62
7
  6
CONTINUOUS
 10
11.8432764371
 20
8.9076384045
 11
11.8424380998
 21
8.8964605727
  0
LINE
  5
34D
100
AcDbEntity
  8
0
100
AcDbLine
 62
7
  6
CONTINUOUS
 10
11.9012906842
 20
8.9378199123
 11
11.9000637337
 21
8.9214605727
  0
LINE
  5
34E
100
AcDbEntity
  8
0
100
AcDbLine
 62
7
  6
CONTINUOUS
 10
11.9158233493
 20
8.9793291761
 11
11.913733204
 21
8.9514605727
  0
LINE
  5
34F
100
AcDbEntity
  8
0
100
AcDbLine
 62
7
  6
CONTINUOUS
 10
11.919217734
 20
9.0156919089
 11
11.9170253838
 21
8.9864605727
  0
LINE
  5
350
100
AcDbEntity
  8
0
100
AcDbLine
 62
7
  6
CONTINUOUS
 10
11.9762257772
 20
8.9296948817
 11
11.973733204
 21
8.8964605727
  0
LINE
  5
351
100
AcDbEntity
  8
0
100
AcDbLine
 62
9
  6
CONTINUOUS
 10
13.8926923427
 20
10.1035824219
 11
7.9826923427
 21
10.1035824219
  0
LINE
  5
352
100
AcDbEntity
  8
0
100
AcDbLine
 62
7
  6
CONTINUOUS
 10
13.8626923427
 20
10.1335824219
 11
8.0126923427
 21
10.1335824219
  0
LINE
  5
353
100
AcDbEntity
  8
0
100
AcDbLine
 62
9
  6
CONTINUOUS
 10
9.4776923427
 20
10.1635824219
 11
12.3976923427
 21
10.1635824219
  0
LINE
  5
354
100
AcDbEntity
  8
0
100
AcDbLine
 62
9
  6
CONTINUOUS
 10
12.3976923427
 20
10.3945824219
 11
9.4776923427
 21
10.3945824219
  0
LINE
  5
355
100
AcDbEntity
  8
0
100
AcDbLine
 62
7
  6
CONTINUOUS
 10
12.3676923427
 20
10.4245824219
 11
9.5076923427
 21
10.4245824219
  0
LINE
  5
356
100
AcDbEntity
  8
0
100
AcDbLine
 62
9
  6
CONTINUOUS
 10
10.2376923427
 20
10.4545824219
 11
11.6376923427
 21
10.4545824219
  0
LINE
  5
357
100
AcDbEntity
  8
0
100
AcDbLine
 62
7
  6
CONTINUOUS
 10
12.2141359263
 20
9.0103016104
 11
12.2159240041
 21
8.9864605727
  0
LINE
  5
358
100
AcDbEntity
  8
0
100
AcDbLine
 62
7
  6
CONTINUOUS
 10
12.2690212745
 20
8.9375824219
 11
12.2702304132
 21
8.9214605727
  0
LINE
  5
359
100
AcDbEntity
  8
0
100
AcDbLine
 62
7
  6
CONTINUOUS
 10
12.4734963594
 20
8.9733521056
 11
12.4751382244
 21
8.9514605727
  0
LINE
  5
35A
100
AcDbEntity
  8
0
100
AcDbLine
 62
7
  6
CONTINUOUS
 10
12.5668647966
 20
9.0094664218
 11
12.5685902353
 21
8.9864605727
  0
LINE
  5
35B
100
AcDbEntity
  8
0
100
AcDbLine
 62
7
  6
CONTINUOUS
 10
12.6573708631
 20
8.9725824219
 11
12.6589550018
 21
8.9514605727
  0
LINE
  5
35C
100
AcDbEntity
  8
0
100
AcDbLine
 62
7
  6
CONTINUOUS
 10
12.3976923427
 20
10.1635824219
 11
12.3976923427
 21
10.3945824219
  0
LINE
  5
35D
100
AcDbEntity
  8
0
100
AcDbLine
 62
7
  6
CONTINUOUS
 10
12.2160381621
 20
8.9375824219
 11
12.2148290234
 21
8.9214605727
  0
LINE
  5
35E
100
AcDbEntity
  8
0
100
AcDbLine
 62
7
  6
CONTINUOUS
 10
12.2963938201
 20
8.9725824219
 11
12.2948096814
 21
8.9514605727
  0
LINE
  5
35F
100
AcDbEntity
  8
0
100
AcDbLine
 62
7
  6
CONTINUOUS
 10
12.3302722919
 20
9.0166814409
 11
12.3280057267
 21
8.9864605727
  0
LINE
  5
360
100
AcDbEntity
  8
0
100
AcDbLine
 62
7
  6
CONTINUOUS
 10
12.3845840148
 20
8.9517522925
 11
12.3823121358
 21
8.9214605727
  0
LINE
  5
361
100
AcDbEntity
  8
0
100
AcDbLine
 62
7
  6
CONTINUOUS
 10
12.5888040857
 20
8.9725824219
 11
12.587219947
 21
8.9514605727
  0
LINE
  5
362
100
AcDbEntity
  8
0
100
AcDbLine
 62
7
  6
CONTINUOUS
 10
12.6830023609
 20
9.0175326135
 11
12.6806719579
 21
8.9864605727
  0
LINE
  5
363
100
AcDbEntity
  8
0
100
AcDbLine
 62
7
  6
CONTINUOUS
 10
13.5918231074
 20
9.0338754878
 11
13.8776923427
 21
9.1989221678
  0
LINE
  5
364
100
AcDbEntity
  8
0
100
AcDbLine
 62
9
  6
CONTINUOUS
 10
11.6376923427
 20
10.6385824219
 11
10.2376923427
 21
10.6385824219
  0
LINE
  5
365
100
AcDbEntity
  8
0
100
AcDbLine
 62
7
  6
CONTINUOUS
 10
10.2576923427
 20
10.6585824219
 11
11.6176923427
 21
10.6585824219
  0
LINE
  5
366
100
AcDbEntity
  8
0
100
AcDbLine
 62
9
  6
CONTINUOUS
 10
10.2376923427
 20
10.6785824219
 11
11.6376923427
 21
10.6785824219
  0
LINE
  5
367
100
AcDbEntity
  8
0
100
AcDbLine
 62
7
  6
CONTINUOUS
 10
11.1974999639
 20
10.8675824219
 11
10.6778847216
 21
10.8675824219
  0
LINE
  5
368
100
AcDbEntity
  8
0
100
AcDbLine
 62
7
  6
CONTINUOUS
 10
10.5920986252
 20
11.4292632197
 11
10.5402562679
 21
11.481105577
  0
LINE
  5
369
100
AcDbEntity
  8
0
100
AcDbLine
 62
7
  6
CONTINUOUS
 10
10.5026923427
 20
11.8111695021
 11
10.4851923427
 21
11.8286695021
  0
LINE
  5
36A
100
AcDbEntity
  8
0
100
AcDbLine
 62
7
  6
CONTINUOUS
 10
12.8458531558
 20
9.0088071358
 11
12.847529148
 21
8.9864605727
  0
LINE
  5
36B
100
AcDbEntity
  8
0
100
AcDbLine
 62
7
  6
CONTINUOUS
 10
13.0389079469
 20
9.0083515928
 11
13.0405497734
 21
8.9864605727
  0
LINE
  5
36C
100
AcDbEntity
  8
0
100
AcDbLine
 62
7
  6
CONTINUOUS
 10
12.9697523438
 20
4.3301695021
 11
12.9697523438
 21
4.0801695021
  0
LINE
  5
36D
100
AcDbEntity
  8
0
100
AcDbLine
 62
7
  6
CONTINUOUS
 10
13.0028356038
 20
4.1096715494
 11
13.0028356038
 21
4.3301695021
  0
LINE
  5
36E
100
AcDbEntity
  8
0
100
AcDbLine
 62
7
  6
CONTINUOUS
 10
13.1259597265
 20
4.0801695021
 11
13.1259597265
 21
4.1096715494
  0
LINE
  5
36F
100
AcDbEntity
  8
0
100
AcDbLine
 62
7
  6
CONTINUOUS
 10
13.165352615
 20
4.3301695021
 11
13.165352615
 21
4.0801695021
  0
LINE
  5
370
100
AcDbEntity
  8
0
100
AcDbLine
 62
7
  6
CONTINUOUS
 10
13.1984358751
 20
4.1096715494
 11
13.1984358751
 21
4.3006674531
  0
LINE
  5
371
100
AcDbEntity
  8
0
100
AcDbLine
 62
7
  6
CONTINUOUS
 10
12.7732813933
 20
8.9813894916
 11
12.7710367244
 21
8.9514605727
  0
LINE
  5
372
100
AcDbEntity
  8
0
100
AcDbLine
 62
7
  6
CONTINUOUS
 10
12.8359892064
 20
8.9815406038
 11
12.833733204
 21
8.9514605727
  0
LINE
  5
373
100
AcDbEntity
  8
0
100
AcDbLine
 62
7
  6
CONTINUOUS
 10
12.9619918666
 20
9.0182071853
 11
12.9596108706
 21
8.9864605727
  0
LINE
  5
374
100
AcDbEntity
  8
0
100
AcDbLine
 62
7
  6
CONTINUOUS
 10
13.1550475535
 20
9.0186746727
 11
13.152631496
 21
8.9864605727
  0
LINE
  5
375
100
AcDbEntity
  8
0
100
AcDbLine
 62
7
  6
CONTINUOUS
 10
13.253731903
 20
9.0189138587
 11
13.2512979065
 21
8.9864605727
  0
LINE
  5
376
100
AcDbEntity
  8
0
100
AcDbLine
 62
7
  6
CONTINUOUS
 10
10.2376925435
 20
11.2175824219
 11
11.637692142
 21
11.2175824219
  0
LINE
  5
377
100
AcDbEntity
  8
0
100
AcDbLine
 62
9
  6
CONTINUOUS
 10
11.2833115785
 20
11.316100628
 11
10.5920731069
 21
11.316100628
  0
LINE
  5
378
100
AcDbEntity
  8
0
100
AcDbLine
 62
9
  6
CONTINUOUS
 10
11.2832860603
 20
11.4292632197
 11
10.5920986252
 21
11.4292632197
  0
LINE
  5
379
100
AcDbEntity
  8
0
100
AcDbLine
 62
9
  6
CONTINUOUS
 10
10.5402562679
 20
11.481105577
 11
11.3351284176
 21
11.481105577
  0
LINE
  5
37A
100
AcDbEntity
  8
0
100
AcDbLine
 62
9
  6
CONTINUOUS
 10
10.5026923427
 20
11.6140416519
 11
11.3726923427
 21
11.6140416519
  0
LINE
  5
37B
100
AcDbEntity
  8
0
100
AcDbLine
 62
7
  6
CONTINUOUS
 10
11.3901923427
 20
11.9361695021
 11
10.4851923427
 21
11.9361695021
  0
LINE
  5
37C
100
AcDbEntity
  8
0
100
AcDbLine
 62
7
  6
CONTINUOUS
 10
13.8926923427
 20
9.22490293
 11
13.8926923427
 21
10.1035824219
  0
LINE
  5
37D
100
AcDbEntity
  8
0
100
AcDbLine
 62
9
  6
CONTINUOUS
 10
11.3439423427
 20
13.3051695021
 11
10.5314423427
 21
13.3051695021
  0
ARC
  5
37E
100
AcDbEntity
  8
0
100
AcDbCircle
 62
7
  6
CONTINUOUS
 10
9.2690545231
 20
4.021513911
 40
4.9354498128
100
AcDbArc
 50
86.3687812655
 51
86.7470409694
  0
ARC
  5
37F
100
AcDbEntity
  8
0
100
AcDbCircle
 62
7
  6
CONTINUOUS
 10
8.2647088515
 20
4.5186799315
 40
4.5145185032
100
AcDbArc
 50
84.1988995235
 51
84.7202662548
  0
ARC
  5
380
100
AcDbEntity
  8
0
100
AcDbCircle
 62
7
  6
CONTINUOUS
 10
9.2276691567
 20
9.9701514016
 40
1.0
100
AcDbArc
 50
269.4370126836
 51
270.0
  0
ARC
  5
381
100
AcDbEntity
  8
0
100
AcDbCircle
 62
7
  6
CONTINUOUS
 10
9.1158109874
 20
9.9786176761
 40
1.0
100
AcDbArc
 50
264.907554802
 51
265.5343308342
  0
ARC
  5
382
100
AcDbEntity
  8
0
100
AcDbCircle
 62
7
  6
CONTINUOUS
 10
9.1158109874
 20
9.9786176761
 40
1.0
100
AcDbArc
 50
257.5196096022
 51
258.4033226512
  0
ARC
  5
383
100
AcDbEntity
  8
0
100
AcDbCircle
 62
7
  6
CONTINUOUS
 10
8.8726923427
 20
8.8802013959
 40
0.125
100
AcDbArc
 50
77.5196096022
 51
81.5997372456
  0
ARC
  5
384
100
AcDbEntity
  8
0
100
AcDbCircle
 62
7
  6
CONTINUOUS
 10
8.0126923427
 20
9.22490293
 40
0.03
100
AcDbArc
 50
180.0
 51
240.0
  0
ARC
  5
385
100
AcDbEntity
  8
0
100
AcDbCircle
 62
7
  6
CONTINUOUS
 10
8.2985615781
 20
9.05985625
 40
0.03
100
AcDbArc
 50
240.0
 51
256.7604517071
  0
ARC
  5
386
100
AcDbEntity
  8
0
100
AcDbCircle
 62
7
  6
CONTINUOUS
 10
8.0126923427
 20
10.1035824219
 40
0.03
100
AcDbArc
 50
90.0
 51
180.0
  0
ARC
  5
387
100
AcDbEntity
  8
0
100
AcDbCircle
 62
7
  6
CONTINUOUS
 10
9.4476923427
 20
10.1635824219
 40
0.03
100
AcDbArc
 50
270.0
 51
360.0
  0
ARC
  5
388
100
AcDbEntity
  8
0
100
AcDbCircle
 62
7
  6
CONTINUOUS
 10
9.1193059507
 20
8.9525824219
 40
0.015
100
AcDbArc
 50
184.2891533288
 51
270.0
  0
ARC
  5
389
100
AcDbEntity
  8
0
100
AcDbCircle
 62
7
  6
CONTINUOUS
 10
9.201471694
 20
8.9525824219
 40
0.015
100
AcDbArc
 50
270.0
 51
355.7108466712
  0
ARC
  5
38A
100
AcDbEntity
  8
0
100
AcDbCircle
 62
7
  6
CONTINUOUS
 10
9.0566094711
 20
8.9525824219
 40
0.015
100
AcDbArc
 50
184.2891533288
 51
270.0
  0
ARC
  5
38B
100
AcDbEntity
  8
0
100
AcDbCircle
 62
7
  6
CONTINUOUS
 10
9.3031227281
 20
8.9525824219
 40
0.015
100
AcDbArc
 50
184.2891533288
 51
270.0
  0
ARC
  5
38C
100
AcDbEntity
  8
0
100
AcDbCircle
 62
7
  6
CONTINUOUS
 10
9.3852884714
 20
8.9525824219
 40
0.015
100
AcDbArc
 50
270.0
 51
355.7108466712
  0
ARC
  5
38D
100
AcDbEntity
  8
0
100
AcDbCircle
 62
7
  6
CONTINUOUS
 10
8.7377111791
 20
8.9875824219
 40
0.015
100
AcDbArc
 50
184.2891533288
 51
270.0
  0
ARC
  5
38E
100
AcDbEntity
  8
0
100
AcDbCircle
 62
7
  6
CONTINUOUS
 10
8.8198769224
 20
8.9875824219
 40
0.015
100
AcDbArc
 50
270.0
 51
355.7108466712
  0
ARC
  5
38F
100
AcDbEntity
  8
0
100
AcDbCircle
 62
7
  6
CONTINUOUS
 10
8.6390447686
 20
8.9875824219
 40
0.015
100
AcDbArc
 50
184.2891533288
 51
270.0
  0
ARC
  5
390
100
AcDbEntity
  8
0
100
AcDbCircle
 62
7
  6
CONTINUOUS
 10
8.7212105119
 20
8.9875824219
 40
0.015
100
AcDbArc
 50
270.0
 51
303.3841362968
  0
ARC
  5
391
100
AcDbEntity
  8
0
100
AcDbCircle
 62
7
  6
CONTINUOUS
 10
9.2096707172
 20
8.9875824219
 40
0.015
100
AcDbArc
 50
184.2891533288
 51
270.0
  0
ARC
  5
392
100
AcDbEntity
  8
0
100
AcDbCircle
 62
7
  6
CONTINUOUS
 10
9.2918364606
 20
8.9875824219
 40
0.015
100
AcDbArc
 50
270.0
 51
355.7108466712
  0
ARC
  5
393
100
AcDbEntity
  8
0
100
AcDbCircle
 62
7
  6
CONTINUOUS
 10
8.9307318045
 20
8.9875824219
 40
0.015
100
AcDbArc
 50
184.2891533288
 51
270.0
  0
ARC
  5
394
100
AcDbEntity
  8
0
100
AcDbCircle
 62
7
  6
CONTINUOUS
 10
9.0128975478
 20
8.9875824219
 40
0.015
100
AcDbArc
 50
270.0
 51
355.7108466712
  0
ARC
  5
395
100
AcDbEntity
  8
0
100
AcDbCircle
 62
7
  6
CONTINUOUS
 10
10.5826923427
 20
1.2251695021
 40
0.02
100
AcDbArc
 50
180.0
 51
270.0
  0
ARC
  5
396
100
AcDbEntity
  8
0
100
AcDbCircle
 62
7
  6
CONTINUOUS
 10
9.6225337821
 20
7.0859135371
 40
1.8665698337
100
AcDbArc
 50
87.1114492185
 51
87.835731067
  0
ARC
  5
397
100
AcDbEntity
  8
0
100
AcDbCircle
 62
7
  6
CONTINUOUS
 10
9.9166094711
 20
8.8975824219
 40
0.015
100
AcDbArc
 50
184.2891533288
 51
270.0
  0
ARC
  5
398
100
AcDbEntity
  8
0
100
AcDbCircle
 62
7
  6
CONTINUOUS
 10
9.9987752144
 20
8.8975824219
 40
0.015
100
AcDbArc
 50
270.0
 51
355.7108466712
  0
ARC
  5
399
100
AcDbEntity
  8
0
100
AcDbCircle
 62
7
  6
CONTINUOUS
 10
10.0479045754
 20
8.8975824219
 40
0.015
100
AcDbArc
 50
184.2891533288
 51
270.0
  0
ARC
  5
39A
100
AcDbEntity
  8
0
100
AcDbCircle
 62
7
  6
CONTINUOUS
 10
10.1300703187
 20
8.8975824219
 40
0.015
100
AcDbArc
 50
270.0
 51
355.7108466712
  0
ARC
  5
39B
100
AcDbEntity
  8
0
100
AcDbCircle
 62
7
  6
CONTINUOUS
 10
9.5080305393
 20
8.9225824219
 40
0.015
100
AcDbArc
 50
184.2891533288
 51
270.0
  0
ARC
  5
39C
100
AcDbEntity
  8
0
100
AcDbCircle
 62
7
  6
CONTINUOUS
 10
9.5901962827
 20
8.9225824219
 40
0.015
100
AcDbArc
 50
270.0
 51
355.7108466712
  0
ARC
  5
39D
100
AcDbEntity
  8
0
100
AcDbCircle
 62
7
  6
CONTINUOUS
 10
9.9902789414
 20
8.9225824219
 40
0.015
100
AcDbArc
 50
184.2891533288
 51
270.0
  0
ARC
  5
39E
100
AcDbEntity
  8
0
100
AcDbCircle
 62
7
  6
CONTINUOUS
 10
10.0724446847
 20
8.9225824219
 40
0.015
100
AcDbArc
 50
270.0
 51
355.7108466712
  0
ARC
  5
39F
100
AcDbEntity
  8
0
100
AcDbCircle
 62
7
  6
CONTINUOUS
 10
9.6755136517
 20
8.9225824219
 40
0.015
100
AcDbArc
 50
184.2891533288
 51
270.0
  0
ARC
  5
3A0
100
AcDbEntity
  8
0
100
AcDbCircle
 62
7
  6
CONTINUOUS
 10
9.7576793951
 20
8.9225824219
 40
0.015
100
AcDbArc
 50
270.0
 51
355.7108466712
  0
ARC
  5
3A1
100
AcDbEntity
  8
0
100
AcDbCircle
 62
7
  6
CONTINUOUS
 10
9.9766094711
 20
8.9525824219
 40
0.015
100
AcDbArc
 50
184.2891533288
 51
270.0
  0
ARC
  5
3A2
100
AcDbEntity
  8
0
100
AcDbCircle
 62
7
  6
CONTINUOUS
 10
10.0587752144
 20
8.9525824219
 40
0.015
100
AcDbArc
 50
270.0
 51
355.7108466712
  0
ARC
  5
3A3
100
AcDbEntity
  8
0
100
AcDbCircle
 62
7
  6
CONTINUOUS
 10
9.5955329937
 20
8.9525824219
 40
0.015
100
AcDbArc
 50
184.2891533288
 51
270.0
  0
ARC
  5
3A4
100
AcDbEntity
  8
0
100
AcDbCircle
 62
7
  6
CONTINUOUS
 10
9.677698737
 20
8.9525824219
 40
0.015
100
AcDbArc
 50
270.0
 51
355.7108466712
  0
ARC
  5
3A5
100
AcDbEntity
  8
0
100
AcDbCircle
 62
7
  6
CONTINUOUS
 10
9.9733172913
 20
8.9875824219
 40
0.015
100
AcDbArc
 50
184.2891533288
 51
270.0
  0
ARC
  5
3A6
100
AcDbEntity
  8
0
100
AcDbCircle
 62
7
  6
CONTINUOUS
 10
10.0554830346
 20
8.9875824219
 40
0.015
100
AcDbArc
 50
270.0
 51
355.7108466712
  0
ARC
  5
3A7
100
AcDbEntity
  8
0
100
AcDbCircle
 62
7
  6
CONTINUOUS
 10
9.5623369484
 20
8.9875824219
 40
0.015
100
AcDbArc
 50
184.2891533288
 51
270.0
  0
ARC
  5
3A8
100
AcDbEntity
  8
0
100
AcDbCircle
 62
7
  6
CONTINUOUS
 10
9.6445026917
 20
8.9875824219
 40
0.015
100
AcDbArc
 50
270.0
 51
355.7108466712
  0
ARC
  5
3A9
100
AcDbEntity
  8
0
100
AcDbCircle
 62
7
  6
CONTINUOUS
 10
9.5264512513
 20
9.9501787283
 40
1.0
100
AcDbArc
 50
262.7783136043
 51
266.542266468
  0
ARC
  5
3AA
100
AcDbEntity
  8
0
100
AcDbCircle
 62
7
  6
CONTINUOUS
 10
9.9370451322
 20
9.9289883818
 40
1.0
100
AcDbArc
 50
260.6273191301
 51
267.549018051
  0
ARC
  5
3AB
100
AcDbEntity
  8
0
100
AcDbCircle
 62
7
  6
CONTINUOUS
 10
9.5076923427
 20
10.3945824219
 40
0.03
100
AcDbArc
 50
90.0
 51
180.0
  0
ARC
  5
3AC
100
AcDbEntity
  8
0
100
AcDbCircle
 62
7
  6
CONTINUOUS
 10
10.8966094711
 20
8.8875824219
 40
0.015
100
AcDbArc
 50
184.2891533288
 51
270.0
  0
ARC
  5
3AD
100
AcDbEntity
  8
0
100
AcDbCircle
 62
7
  6
CONTINUOUS
 10
10.420295499
 20
8.8875824219
 40
0.015
100
AcDbArc
 50
199.3966028077
 51
270.0
  0
ARC
  5
3AE
100
AcDbEntity
  8
0
100
AcDbCircle
 62
7
  6
CONTINUOUS
 10
10.5024612423
 20
8.8875824219
 40
0.015
100
AcDbArc
 50
270.0
 51
355.7108466712
  0
ARC
  5
3AF
100
AcDbEntity
  8
0
100
AcDbCircle
 62
7
  6
CONTINUOUS
 10
10.8966094711
 20
8.8975824219
 40
0.015
100
AcDbArc
 50
184.2891533288
 51
270.0
  0
ARC
  5
3B0
100
AcDbEntity
  8
0
100
AcDbCircle
 62
7
  6
CONTINUOUS
 10
10.4066094711
 20
8.8975824219
 40
0.015
100
AcDbArc
 50
184.2891533288
 51
270.0
  0
ARC
  5
3B1
100
AcDbEntity
  8
0
100
AcDbCircle
 62
7
  6
CONTINUOUS
 10
10.4887752144
 20
8.8975824219
 40
0.015
100
AcDbArc
 50
270.0
 51
355.7108466712
  0
ARC
  5
3B2
100
AcDbEntity
  8
0
100
AcDbCircle
 62
7
  6
CONTINUOUS
 10
10.8966094711
 20
8.9225824219
 40
0.015
100
AcDbArc
 50
184.2891533288
 51
270.0
  0
ARC
  5
3B3
100
AcDbEntity
  8
0
100
AcDbCircle
 62
7
  6
CONTINUOUS
 10
10.414361069
 20
8.9225824219
 40
0.015
100
AcDbArc
 50
184.2891533288
 51
270.0
  0
ARC
  5
3B4
100
AcDbEntity
  8
0
100
AcDbCircle
 62
7
  6
CONTINUOUS
 10
10.4965268123
 20
8.9225824219
 40
0.015
100
AcDbArc
 50
270.0
 51
355.7108466712
  0
ARC
  5
3B5
100
AcDbEntity
  8
0
100
AcDbCircle
 62
7
  6
CONTINUOUS
 10
10.8966094711
 20
8.9525824219
 40
0.015
100
AcDbArc
 50
184.2891533288
 51
270.0
  0
ARC
  5
3B6
100
AcDbEntity
  8
0
100
AcDbCircle
 62
7
  6
CONTINUOUS
 10
10.4203824281
 20
8.9525824219
 40
0.015
100
AcDbArc
 50
184.2891533288
 51
270.0
  0
ARC
  5
3B7
100
AcDbEntity
  8
0
100
AcDbCircle
 62
7
  6
CONTINUOUS
 10
10.5025481714
 20
8.9525824219
 40
0.015
100
AcDbArc
 50
270.0
 51
355.7108466712
  0
ARC
  5
3B8
100
AcDbEntity
  8
0
100
AcDbCircle
 62
7
  6
CONTINUOUS
 10
10.8966094711
 20
8.9875824219
 40
0.015
100
AcDbArc
 50
184.2891533288
 51
270.0
  0
ARC
  5
3B9
100
AcDbEntity
  8
0
100
AcDbCircle
 62
7
  6
CONTINUOUS
 10
10.4246499329
 20
8.9875824219
 40
0.015
100
AcDbArc
 50
184.2891533288
 51
270.0
  0
ARC
  5
3BA
100
AcDbEntity
  8
0
100
AcDbCircle
 62
7
  6
CONTINUOUS
 10
10.5068156762
 20
8.9875824219
 40
0.015
100
AcDbArc
 50
270.0
 51
355.7108466712
  0
ARC
  5
3BB
100
AcDbEntity
  8
0
100
AcDbCircle
 62
7
  6
CONTINUOUS
 10
10.3475927716
 20
9.915024491
 40
1.0
100
AcDbArc
 50
262.1497539613
 51
268.5548996513
  0
ARC
  5
3BC
100
AcDbEntity
  8
0
100
AcDbCircle
 62
7
  6
CONTINUOUS
 10
10.6731923427
 20
11.6140416519
 40
0.188
100
AcDbArc
 50
204.9175653171
 51
225.0
  0
ARC
  5
3BD
100
AcDbEntity
  8
0
100
AcDbCircle
 62
7
  6
CONTINUOUS
 10
10.5355300827
 20
11.3726946772
 40
0.08
100
AcDbArc
 50
314.9741595356
 51
45.0
  0
ARC
  5
3BE
100
AcDbEntity
  8
0
100
AcDbCircle
 62
7
  6
CONTINUOUS
 10
10.2076923427
 20
10.4545824219
 40
0.03
100
AcDbArc
 50
270.0
 51
360.0
  0
ARC
  5
3BF
100
AcDbEntity
  8
0
100
AcDbCircle
 62
7
  6
CONTINUOUS
 10
10.2576923427
 20
10.6785824219
 40
0.02
100
AcDbArc
 50
180.0
 51
270.0
  0
ARC
  5
3C0
100
AcDbEntity
  8
0
100
AcDbCircle
 62
7
  6
CONTINUOUS
 10
10.2576923427
 20
10.6385824219
 40
0.02
100
AcDbArc
 50
90.0
 51
180.0
  0
ARC
  5
3C1
100
AcDbEntity
  8
0
100
AcDbCircle
 62
7
  6
CONTINUOUS
 10
10.9376923427
 20
4.2051695021
 40
3.0
100
AcDbArc
 50
277.1820508549
 51
262.8179491451
  0
ARC
  5
3C2
100
AcDbEntity
  8
0
100
AcDbCircle
 62
9
  6
CONTINUOUS
 10
10.9376923427
 20
4.2051695021
 40
2.9709762382
100
AcDbArc
 50
277.2524809403
 51
262.7475190597
  0
ARC
  5
3C3
100
AcDbEntity
  8
0
100
AcDbCircle
 62
9
  6
CONTINUOUS
 10
10.9376923427
 20
4.2051695021
 40
2.9510523443
100
AcDbArc
 50
277.3017110525
 51
262.6982889475
  0
ARC
  5
3C4
100
AcDbEntity
  8
0
100
AcDbCircle
 62
7
  6
CONTINUOUS
 10
12.2528508856
 20
7.0859139212
 40
1.8665694492
100
AcDbArc
 50
92.1642679263
 51
92.88855083
  0
ARC
  5
3C5
100
AcDbEntity
  8
0
100
AcDbCircle
 62
7
  6
CONTINUOUS
 10
10.9376923427
 20
4.2051695021
 40
0.43
100
AcDbArc
 50
330.7260340637
 51
209.2739659363
  0
ARC
  5
3C6
100
AcDbEntity
  8
0
100
AcDbCircle
 62
7
  6
CONTINUOUS
 10
10.9376923427
 20
4.2051695021
 40
0.375
100
AcDbArc
 50
359.9981334997
 51
180.0018357531
  0
ARC
  5
3C7
100
AcDbEntity
  8
0
100
AcDbCircle
 62
7
  6
CONTINUOUS
 10
11.2926923427
 20
1.2251695021
 40
0.02
100
AcDbArc
 50
270.0
 51
360.0
  0
ARC
  5
3C8
100
AcDbEntity
  8
0
100
AcDbCircle
 62
7
  6
CONTINUOUS
 10
11.5277919138
 20
9.915024491
 40
1.0
100
AcDbArc
 50
271.4451003487
 51
277.8502460387
  0
ARC
  5
3C9
100
AcDbEntity
  8
0
100
AcDbCircle
 62
7
  6
CONTINUOUS
 10
10.9376923427
 20
10.9701695021
 40
0.489
100
AcDbArc
 50
30.394893546
 51
45.0258404644
  0
ARC
  5
3CA
100
AcDbEntity
  8
0
100
AcDbCircle
 62
7
  6
CONTINUOUS
 10
10.9376923427
 20
10.9701695021
 40
0.489
100
AcDbArc
 50
134.9741595356
 51
149.605106454
  0
ARC
  5
3CB
100
AcDbEntity
  8
0
100
AcDbCircle
 62
7
  6
CONTINUOUS
 10
11.2021923427
 20
11.6140416519
 40
0.188
100
AcDbArc
 50
315.0
 51
335.0824346829
  0
ARC
  5
3CC
100
AcDbEntity
  8
0
100
AcDbCircle
 62
7
  6
CONTINUOUS
 10
11.3398546028
 20
11.3726946772
 40
0.08
100
AcDbArc
 50
135.0
 51
225.0258404644
  0
ARC
  5
3CD
100
AcDbEntity
  8
0
100
AcDbCircle
 62
7
  6
CONTINUOUS
 10
11.6176923427
 20
10.6785824219
 40
0.02
100
AcDbArc
 50
270.0
 51
360.0
  0
ARC
  5
3CE
100
AcDbEntity
  8
0
100
AcDbCircle
 62
7
  6
CONTINUOUS
 10
11.6176923427
 20
10.6385824219
 40
0.02
100
AcDbArc
 50
0.0
 51
90.0
  0
ARC
  5
3CF
100
AcDbEntity
  8
0
100
AcDbCircle
 62
7
  6
CONTINUOUS
 10
11.3729234432
 20
8.8875824219
 40
0.015
100
AcDbArc
 50
184.2891533288
 51
270.0
  0
ARC
  5
3D0
100
AcDbEntity
  8
0
100
AcDbCircle
 62
7
  6
CONTINUOUS
 10
11.4550891865
 20
8.8875824219
 40
0.015
100
AcDbArc
 50
270.0
 51
340.6033971923
  0
ARC
  5
3D1
100
AcDbEntity
  8
0
100
AcDbCircle
 62
7
  6
CONTINUOUS
 10
10.9787752144
 20
8.8875824219
 40
0.015
100
AcDbArc
 50
270.0
 51
355.7108466712
  0
ARC
  5
3D2
100
AcDbEntity
  8
0
100
AcDbCircle
 62
7
  6
CONTINUOUS
 10
11.3866094711
 20
8.8975824219
 40
0.015
100
AcDbArc
 50
184.2891533288
 51
270.0
  0
ARC
  5
3D3
100
AcDbEntity
  8
0
100
AcDbCircle
 62
7
  6
CONTINUOUS
 10
11.4687752144
 20
8.8975824219
 40
0.015
100
AcDbArc
 50
270.0
 51
355.7108466712
  0
ARC
  5
3D4
100
AcDbEntity
  8
0
100
AcDbCircle
 62
7
  6
CONTINUOUS
 10
10.9787752144
 20
8.8975824219
 40
0.015
100
AcDbArc
 50
270.0
 51
355.7108466712
  0
ARC
  5
3D5
100
AcDbEntity
  8
0
100
AcDbCircle
 62
7
  6
CONTINUOUS
 10
11.3788578732
 20
8.9225824219
 40
0.015
100
AcDbArc
 50
184.2891533288
 51
270.0
  0
ARC
  5
3D6
100
AcDbEntity
  8
0
100
AcDbCircle
 62
7
  6
CONTINUOUS
 10
11.4610236165
 20
8.9225824219
 40
0.015
100
AcDbArc
 50
270.0
 51
355.7108466712
  0
ARC
  5
3D7
100
AcDbEntity
  8
0
100
AcDbCircle
 62
7
  6
CONTINUOUS
 10
10.9787752144
 20
8.9225824219
 40
0.015
100
AcDbArc
 50
270.0
 51
355.7108466712
  0
ARC
  5
3D8
100
AcDbEntity
  8
0
100
AcDbCircle
 62
7
  6
CONTINUOUS
 10
11.3728365141
 20
8.9525824219
 40
0.015
100
AcDbArc
 50
184.2891533288
 51
270.0
  0
ARC
  5
3D9
100
AcDbEntity
  8
0
100
AcDbCircle
 62
7
  6
CONTINUOUS
 10
11.4550022574
 20
8.9525824219
 40
0.015
100
AcDbArc
 50
270.0
 51
355.7108466712
  0
ARC
  5
3DA
100
AcDbEntity
  8
0
100
AcDbCircle
 62
7
  6
CONTINUOUS
 10
10.9787752144
 20
8.9525824219
 40
0.015
100
AcDbArc
 50
270.0
 51
355.7108466712
  0
ARC
  5
3DB
100
AcDbEntity
  8
0
100
AcDbCircle
 62
7
  6
CONTINUOUS
 10
11.3685690092
 20
8.9875824219
 40
0.015
100
AcDbArc
 50
184.2891533288
 51
270.0
  0
ARC
  5
3DC
100
AcDbEntity
  8
0
100
AcDbCircle
 62
7
  6
CONTINUOUS
 10
11.4507347526
 20
8.9875824219
 40
0.015
100
AcDbArc
 50
270.0
 51
355.7108466712
  0
ARC
  5
3DD
100
AcDbEntity
  8
0
100
AcDbCircle
 62
7
  6
CONTINUOUS
 10
10.9787752144
 20
8.9875824219
 40
0.015
100
AcDbArc
 50
270.0
 51
355.7108466712
  0
ARC
  5
3DE
100
AcDbEntity
  8
0
100
AcDbCircle
 62
7
  6
CONTINUOUS
 10
10.9376923427
 20
16.2051695021
 40
1.125
100
AcDbArc
 50
291.1725515801
 51
248.8274484114
  0
ARC
  5
3DF
100
AcDbEntity
  8
0
100
AcDbCircle
 62
9
  6
CONTINUOUS
 10
10.9376923427
 20
16.2051695021
 40
1.095
100
AcDbArc
 50
291.7785541984
 51
248.2214457787
  0
ARC
  5
3E0
100
AcDbEntity
  8
0
100
AcDbCircle
 62
7
  6
CONTINUOUS
 10
10.9376923427
 20
16.2051695021
 40
0.40625
100
AcDbArc
 50
0.0
 51
180.0
  0
ARC
  5
3E1
100
AcDbEntity
  8
0
100
AcDbCircle
 62
7
  6
CONTINUOUS
 10
12.3489334342
 20
9.9501787283
 40
1.0
100
AcDbArc
 50
273.457733532
 51
277.2216863957
  0
ARC
  5
3E2
100
AcDbEntity
  8
0
100
AcDbCircle
 62
7
  6
CONTINUOUS
 10
11.9383395533
 20
9.9289883818
 40
1.0
100
AcDbArc
 50
272.450981949
 51
279.3726808699
  0
ARC
  5
3E3
100
AcDbEntity
  8
0
100
AcDbCircle
 62
7
  6
CONTINUOUS
 10
12.3676923427
 20
10.3945824219
 40
0.03
100
AcDbArc
 50
0.0
 51
90.0
  0
ARC
  5
3E4
100
AcDbEntity
  8
0
100
AcDbCircle
 62
7
  6
CONTINUOUS
 10
11.6676923427
 20
10.4545824219
 40
0.03
100
AcDbArc
 50
180.0
 51
270.0
  0
ARC
  5
3E5
100
AcDbEntity
  8
0
100
AcDbCircle
 62
7
  6
CONTINUOUS
 10
11.8766094711
 20
8.8975824219
 40
0.015
100
AcDbArc
 50
184.2891533288
 51
270.0
  0
ARC
  5
3E6
100
AcDbEntity
  8
0
100
AcDbCircle
 62
7
  6
CONTINUOUS
 10
11.9587752144
 20
8.8975824219
 40
0.015
100
AcDbArc
 50
270.0
 51
355.7108466712
  0
ARC
  5
3E7
100
AcDbEntity
  8
0
100
AcDbCircle
 62
7
  6
CONTINUOUS
 10
11.7453143668
 20
8.8975824219
 40
0.015
100
AcDbArc
 50
184.2891533288
 51
270.0
  0
ARC
  5
3E8
100
AcDbEntity
  8
0
100
AcDbCircle
 62
7
  6
CONTINUOUS
 10
11.8274801101
 20
8.8975824219
 40
0.015
100
AcDbArc
 50
270.0
 51
355.7108466712
  0
ARC
  5
3E9
100
AcDbEntity
  8
0
100
AcDbCircle
 62
7
  6
CONTINUOUS
 10
12.2851884028
 20
8.9225824219
 40
0.015
100
AcDbArc
 50
184.2891533288
 51
270.0
  0
ARC
  5
3EA
100
AcDbEntity
  8
0
100
AcDbCircle
 62
7
  6
CONTINUOUS
 10
12.3673541461
 20
8.9225824219
 40
0.015
100
AcDbArc
 50
270.0
 51
355.7108466712
  0
ARC
  5
3EB
100
AcDbEntity
  8
0
100
AcDbCircle
 62
7
  6
CONTINUOUS
 10
12.1177052904
 20
8.9225824219
 40
0.015
100
AcDbArc
 50
184.2891533288
 51
270.0
  0
ARC
  5
3EC
100
AcDbEntity
  8
0
100
AcDbCircle
 62
7
  6
CONTINUOUS
 10
12.1998710337
 20
8.9225824219
 40
0.015
100
AcDbArc
 50
270.0
 51
355.7108466712
  0
ARC
  5
3ED
100
AcDbEntity
  8
0
100
AcDbCircle
 62
7
  6
CONTINUOUS
 10
11.8029400007
 20
8.9225824219
 40
0.015
100
AcDbArc
 50
184.2891533288
 51
270.0
  0
ARC
  5
3EE
100
AcDbEntity
  8
0
100
AcDbCircle
 62
7
  6
CONTINUOUS
 10
11.8851057441
 20
8.9225824219
 40
0.015
100
AcDbArc
 50
270.0
 51
355.7108466712
  0
ARC
  5
3EF
100
AcDbEntity
  8
0
100
AcDbCircle
 62
7
  6
CONTINUOUS
 10
12.1976859485
 20
8.9525824219
 40
0.015
100
AcDbArc
 50
184.2891533288
 51
270.0
  0
ARC
  5
3F0
100
AcDbEntity
  8
0
100
AcDbCircle
 62
7
  6
CONTINUOUS
 10
12.2798516918
 20
8.9525824219
 40
0.015
100
AcDbArc
 50
270.0
 51
355.7108466712
  0
ARC
  5
3F1
100
AcDbEntity
  8
0
100
AcDbCircle
 62
7
  6
CONTINUOUS
 10
11.8166094711
 20
8.9525824219
 40
0.015
100
AcDbArc
 50
184.2891533288
 51
270.0
  0
ARC
  5
3F2
100
AcDbEntity
  8
0
100
AcDbCircle
 62
7
  6
CONTINUOUS
 10
11.8987752144
 20
8.9525824219
 40
0.015
100
AcDbArc
 50
270.0
 51
355.7108466712
  0
ARC
  5
3F3
100
AcDbEntity
  8
0
100
AcDbCircle
 62
7
  6
CONTINUOUS
 10
12.2308819938
 20
8.9875824219
 40
0.015
100
AcDbArc
 50
184.2891533288
 51
270.0
  0
ARC
  5
3F4
100
AcDbEntity
  8
0
100
AcDbCircle
 62
7
  6
CONTINUOUS
 10
12.3130477371
 20
8.9875824219
 40
0.015
100
AcDbArc
 50
270.0
 51
355.7108466712
  0
ARC
  5
3F5
100
AcDbEntity
  8
0
100
AcDbCircle
 62
7
  6
CONTINUOUS
 10
11.8199016509
 20
8.9875824219
 40
0.015
100
AcDbArc
 50
184.2891533288
 51
270.0
  0
ARC
  5
3F6
100
AcDbEntity
  8
0
100
AcDbCircle
 62
7
  6
CONTINUOUS
 10
11.9020673942
 20
8.9875824219
 40
0.015
100
AcDbArc
 50
270.0
 51
355.7108466712
  0
ARC
  5
3F7
100
AcDbEntity
  8
0
100
AcDbCircle
 62
7
  6
CONTINUOUS
 10
12.6063297306
 20
4.0215212327
 40
4.9354424784
100
AcDbArc
 50
93.2529588494
 51
93.6312206503
  0
ARC
  5
3F8
100
AcDbEntity
  8
0
100
AcDbCircle
 62
7
  6
CONTINUOUS
 10
13.6106758312
 20
4.5186799644
 40
4.5145184702
100
AcDbArc
 50
95.2797337478
 51
95.8011004868
  0
ARC
  5
3F9
100
AcDbEntity
  8
0
100
AcDbCircle
 62
7
  6
CONTINUOUS
 10
12.6477155288
 20
9.9701514016
 40
1.0
100
AcDbArc
 50
270.0
 51
270.5629873164
  0
ARC
  5
3FA
100
AcDbEntity
  8
0
100
AcDbCircle
 62
7
  6
CONTINUOUS
 10
12.7595736981
 20
9.9786176761
 40
1.0
100
AcDbArc
 50
274.4656691658
 51
275.092445198
  0
ARC
  5
3FB
100
AcDbEntity
  8
0
100
AcDbCircle
 62
7
  6
CONTINUOUS
 10
12.7595736981
 20
9.9786176761
 40
1.0
100
AcDbArc
 50
281.5966773488
 51
282.4803903978
  0
ARC
  5
3FC
100
AcDbEntity
  8
0
100
AcDbCircle
 62
7
  6
CONTINUOUS
 10
13.0026923427
 20
8.8802013959
 40
0.125
100
AcDbArc
 50
98.4002627544
 51
102.4803903978
  0
ARC
  5
3FD
100
AcDbEntity
  8
0
100
AcDbCircle
 62
7
  6
CONTINUOUS
 10
13.8626923427
 20
9.22490293
 40
0.03
100
AcDbArc
 50
300.0
 51
360.0
  0
ARC
  5
3FE
100
AcDbEntity
  8
0
100
AcDbCircle
 62
7
  6
CONTINUOUS
 10
13.5768231074
 20
9.05985625
 40
0.03
100
AcDbArc
 50
283.2395482929
 51
300.0
  0
ARC
  5
3FF
100
AcDbEntity
  8
0
100
AcDbCircle
 62
7
  6
CONTINUOUS
 10
13.8626923427
 20
10.1035824219
 40
0.03
100
AcDbArc
 50
0.0
 51
90.0
  0
ARC
  5
400
100
AcDbEntity
  8
0
100
AcDbCircle
 62
7
  6
CONTINUOUS
 10
12.4276923427
 20
10.1635824219
 40
0.03
100
AcDbArc
 50
180.0
 51
270.0
  0
ARC
  5
401
100
AcDbEntity
  8
0
100
AcDbCircle
 62
7
  6
CONTINUOUS
 10
12.8187752144
 20
8.9525824219
 40
0.015
100
AcDbArc
 50
270.0
 51
355.7108466712
  0
ARC
  5
402
100
AcDbEntity
  8
0
100
AcDbCircle
 62
7
  6
CONTINUOUS
 10
12.6739129914
 20
8.9525824219
 40
0.015
100
AcDbArc
 50
184.2891533288
 51
270.0
  0
ARC
  5
403
100
AcDbEntity
  8
0
100
AcDbCircle
 62
7
  6
CONTINUOUS
 10
12.7560787348
 20
8.9525824219
 40
0.015
100
AcDbArc
 50
270.0
 51
355.7108466712
  0
ARC
  5
404
100
AcDbEntity
  8
0
100
AcDbCircle
 62
7
  6
CONTINUOUS
 10
12.490096214
 20
8.9525824219
 40
0.015
100
AcDbArc
 50
184.2891533288
 51
270.0
  0
ARC
  5
405
100
AcDbEntity
  8
0
100
AcDbCircle
 62
7
  6
CONTINUOUS
 10
12.5722619574
 20
8.9525824219
 40
0.015
100
AcDbArc
 50
270.0
 51
355.7108466712
  0
ARC
  5
406
100
AcDbEntity
  8
0
100
AcDbCircle
 62
7
  6
CONTINUOUS
 10
13.1541741736
 20
8.9875824219
 40
0.015
100
AcDbArc
 50
236.6158637032
 51
270.0
  0
ARC
  5
407
100
AcDbEntity
  8
0
100
AcDbCircle
 62
7
  6
CONTINUOUS
 10
13.2363399169
 20
8.9875824219
 40
0.015
100
AcDbArc
 50
270.0
 51
355.7108466712
  0
ARC
  5
408
100
AcDbEntity
  8
0
100
AcDbCircle
 62
7
  6
CONTINUOUS
 10
13.0555077631
 20
8.9875824219
 40
0.015
100
AcDbArc
 50
184.2891533288
 51
270.0
  0
ARC
  5
409
100
AcDbEntity
  8
0
100
AcDbCircle
 62
7
  6
CONTINUOUS
 10
13.1376735064
 20
8.9875824219
 40
0.015
100
AcDbArc
 50
270.0
 51
355.7108466712
  0
ARC
  5
40A
100
AcDbEntity
  8
0
100
AcDbCircle
 62
7
  6
CONTINUOUS
 10
12.8624871377
 20
8.9875824219
 40
0.015
100
AcDbArc
 50
184.2891533288
 51
270.0
  0
ARC
  5
40B
100
AcDbEntity
  8
0
100
AcDbCircle
 62
7
  6
CONTINUOUS
 10
12.944652881
 20
8.9875824219
 40
0.015
100
AcDbArc
 50
270.0
 51
355.7108466712
  0
ARC
  5
40C
100
AcDbEntity
  8
0
100
AcDbCircle
 62
7
  6
CONTINUOUS
 10
12.5835482249
 20
8.9875824219
 40
0.015
100
AcDbArc
 50
184.2891533288
 51
270.0
  0
ARC
  5
40D
100
AcDbEntity
  8
0
100
AcDbCircle
 62
7
  6
CONTINUOUS
 10
12.6657139682
 20
8.9875824219
 40
0.015
100
AcDbArc
 50
270.0
 51
355.7108466712
  0
ARC
  5
40E
100
AcDbEntity
  8
0
100
AcDbCircle
 62
7
  6
CONTINUOUS
 10
10.9376923427
 20
33.3065109933
 40
24.3989285714
100
AcDbArc
 50
271.2854429774
 51
271.4451003487
  0
ARC
  5
40F
100
AcDbEntity
  8
0
100
AcDbCircle
 62
7
  6
CONTINUOUS
 10
10.9376923427
 20
33.3065109933
 40
24.3989285714
100
AcDbArc
 50
273.3995135595
 51
273.457733532
  0
ARC
  5
410
100
AcDbEntity
  8
0
100
AcDbCircle
 62
7
  6
CONTINUOUS
 10
10.9376923427
 20
33.3065109933
 40
24.3989285714
100
AcDbArc
 50
268.5548996513
 51
268.7145570226
  0
ARC
  5
411
100
AcDbEntity
  8
0
100
AcDbCircle
 62
7
  6
CONTINUOUS
 10
10.9376923427
 20
33.3065109933
 40
24.3989285714
100
AcDbArc
 50
266.542266468
 51
266.6004864405
  0
ARC
  5
412
100
AcDbEntity
  8
0
100
AcDbCircle
 62
7
  6
CONTINUOUS
 10
10.9376923427
 20
33.3065109933
 40
24.3989285714
100
AcDbArc
 50
264.2464514784
 51
264.5531282714
  0
ARC
  5
413
100
AcDbEntity
  8
0
100
AcDbCircle
 62
7
  6
CONTINUOUS
 10
10.9376923427
 20
33.3065109933
 40
24.3989285714
100
AcDbArc
 50
275.4468717286
 51
275.7535485216
  0
SPLINE
  5
414
100
AcDbEntity
  8
0
100
AcDbSpline
 62
7
  6
CONTINUOUS
 70
0
 71
3
 72
8
 73
4
 74
0
 42
0.0000001
 43
0.0000001
 44
0.0000000001
 40
0.0
 40
0.0
 40
0.0
 40
0.0
 40
1.0
 40
1.0
 40
1.0
 40
1.0
 10
8.8038246785
 20
4.2019293937
 30
0.0
 10
8.8038246785
 20
4.1799307572
 30
0.0
 10
8.8085995768
 20
4.1591258454
 30
0.0
 10
8.8181158878
 20
4.1394984577
 30
0.0
  0
SPLINE
  5
415
100
AcDbEntity
  8
0
100
AcDbSpline
 62
7
  6
CONTINUOUS
 70
0
 71
3
 72
8
 73
4
 74
0
 42
0.0000001
 43
0.0000001
 44
0.0000000001
 40
0.0
 40
0.0
 40
0.0
 40
0.0
 40
1.0
 40
1.0
 40
1.0
 40
1.0
 10
8.8181158878
 20
4.1394984577
 30
0.0
 10
8.8276991699
 20
4.1197329419
 30
0.0
 10
8.841682807
 20
4.1042145225
 30
0.0
 10
8.8602092451
 20
4.0928596081
 30
0.0
  0
SPLINE
  5
416
100
AcDbEntity
  8
0
100
AcDbSpline
 62
7
  6
CONTINUOUS
 70
0
 71
3
 72
8
 73
4
 74
0
 42
0.0000001
 43
0.0000001
 44
0.0000000001
 40
0.0
 40
0.0
 40
0.0
 40
0.0
 40
1.0
 40
1.0
 40
1.0
 40
1.0
 10
8.8602092451
 20
4.0928596081
 30
0.0
 10
8.8786882613
 20
4.0815337586
 30
0.0
 10
8.899834231
 20
4.0759062008
 30
0.0
 10
8.9233676646
 20
4.0759062008
 30
0.0
  0
SPLINE
  5
417
100
AcDbEntity
  8
0
100
AcDbSpline
 62
7
  6
CONTINUOUS
 70
0
 71
3
 72
8
 73
4
 74
0
 42
0.0000001
 43
0.0000001
 44
0.0000000001
 40
0.0
 40
0.0
 40
0.0
 40
0.0
 40
1.0
 40
1.0
 40
1.0
 40
1.0
 10
8.9233676646
 20
4.0759062008
 30
0.0
 10
8.9450252209
 20
4.0759062008
 30
0.0
 10
8.9653185461
 20
4.0810221624
 30
0.0
 10
8.9840770549
 20
4.0912540798
 30
0.0
  0
SPLINE
  5
418
100
AcDbEntity
  8
0
100
AcDbSpline
 62
7
  6
CONTINUOUS
 70
0
 71
3
 72
8
 73
4
 74
0
 42
0.0000001
 43
0.0000001
 44
0.0000000001
 40
0.0
 40
0.0
 40
0.0
 40
0.0
 40
1.0
 40
1.0
 40
1.0
 40
1.0
 10
8.9840770549
 20
4.0912540798
 30
0.0
 10
9.0028355871
 20
4.10148601
 30
0.0
 10
9.0173308108
 20
4.1166633623
 30
0.0
 10
9.0275972616
 20
4.1367684883
 30
0.0
  0
SPLINE
  5
419
100
AcDbEntity
  8
0
100
AcDbSpline
 62
7
  6
CONTINUOUS
 70
0
 71
3
 72
8
 73
4
 74
0
 42
0.0000001
 43
0.0000001
 44
0.0000000001
 40
0.0
 40
0.0
 40
0.0
 40
0.0
 40
1.0
 40
1.0
 40
1.0
 40
1.0
 10
9.0275972616
 20
4.1367684883
 30
0.0
 10
9.0377946649
 20
4.1567383962
 30
0.0
 10
9.0429106508
 20
4.1794191631
 30
0.0
 10
9.0429106508
 20
4.2048284369
 30
0.0
  0
SPLINE
  5
41A
100
AcDbEntity
  8
0
100
AcDbSpline
 62
7
  6
CONTINUOUS
 70
0
 71
3
 72
8
 73
4
 74
0
 42
0.0000001
 43
0.0000001
 44
0.0000000001
 40
0.0
 40
0.0
 40
0.0
 40
0.0
 40
1.0
 40
1.0
 40
1.0
 40
1.0
 10
9.0429106508
 20
4.2048284369
 30
0.0
 10
9.0429106508
 20
4.2297261241
 30
0.0
 10
9.0379651938
 20
4.2520658257
 30
0.0
 10
9.0282448713
 20
4.2718475359
 30
0.0
  0
SPLINE
  5
41B
100
AcDbEntity
  8
0
100
AcDbSpline
 62
7
  6
CONTINUOUS
 70
0
 71
3
 72
8
 73
4
 74
0
 42
0.0000001
 43
0.0000001
 44
0.0000000001
 40
0.0
 40
0.0
 40
0.0
 40
0.0
 40
1.0
 40
1.0
 40
1.0
 40
1.0
 10
9.0282448713
 20
4.2718475359
 30
0.0
 10
9.0185245429
 20
4.291629258
 30
0.0
 10
9.0043703769
 20
4.3069771411
 30
0.0
 10
8.9858934816
 20
4.3179611068
 30
0.0
  0
SPLINE
  5
41C
100
AcDbEntity
  8
0
100
AcDbSpline
 62
7
  6
CONTINUOUS
 70
0
 71
3
 72
8
 73
4
 74
0
 42
0.0000001
 43
0.0000001
 44
0.0000000001
 40
0.0
 40
0.0
 40
0.0
 40
0.0
 40
1.0
 40
1.0
 40
1.0
 40
1.0
 10
8.9858934816
 20
4.3179611068
 30
0.0
 10
8.9673649226
 20
4.328975785
 30
0.0
 10
8.9465600107
 20
4.3346033427
 30
0.0
 10
8.9235381935
 20
4.3346033427
 30
0.0
  0
SPLINE
  5
41D
100
AcDbEntity
  8
0
100
AcDbSpline
 62
7
  6
CONTINUOUS
 70
0
 71
3
 72
8
 73
4
 74
0
 42
0.0000001
 43
0.0000001
 44
0.0000000001
 40
0.0
 40
0.0
 40
0.0
 40
0.0
 40
1.0
 40
1.0
 40
1.0
 40
1.0
 10
8.9235381935
 20
4.3346033427
 30
0.0
 10
8.8882380579
 20
4.3346033427
 30
0.0
 10
8.8594181393
 20
4.3228366258
 30
0.0
 10
8.8372039914
 20
4.2993458044
 30
0.0
  0
SPLINE
  5
41E
100
AcDbEntity
  8
0
100
AcDbSpline
 62
7
  6
CONTINUOUS
 70
0
 71
3
 72
8
 73
4
 74
0
 42
0.0000001
 43
0.0000001
 44
0.0000000001
 40
0.0
 40
0.0
 40
0.0
 40
0.0
 40
1.0
 40
1.0
 40
1.0
 40
1.0
 10
8.8372039914
 20
4.2993458044
 30
0.0
 10
8.8149092649
 20
4.2757697734
 30
0.0
 10
8.8038246785
 20
4.2433686885
 30
0.0
 10
8.8038246785
 20
4.2019293937
 30
0.0
  0
SPLINE
  5
41F
100
AcDbEntity
  8
0
100
AcDbSpline
 62
7
  6
CONTINUOUS
 70
0
 71
3
 72
8
 73
4
 74
0
 42
0.0000001
 43
0.0000001
 44
0.0000000001
 40
0.0
 40
0.0
 40
0.0
 40
0.0
 40
1.0
 40
1.0
 40
1.0
 40
1.0
 10
12.6256186687
 20
4.1678229826
 30
0.0
 10
12.6210142993
 20
4.1466770055
 30
0.0
 10
12.6123171769
 20
4.1308175246
 30
0.0
 10
12.5995344868
 20
4.1202358264
 30
0.0
  0
SPLINE
  5
420
100
AcDbEntity
  8
0
100
AcDbSpline
 62
7
  6
CONTINUOUS
 70
0
 71
3
 72
8
 73
4
 74
0
 42
0.0000001
 43
0.0000001
 44
0.0000000001
 40
0.0
 40
0.0
 40
0.0
 40
0.0
 40
1.0
 40
1.0
 40
1.0
 40
1.0
 10
12.5995344868
 20
4.1202358264
 30
0.0
 10
12.5865668379
 20
4.1095010168
 30
0.0
 10
12.5708778821
 20
4.1042145225
 30
0.0
 10
12.5524604194
 20
4.1042145225
 30
0.0
  0
SPLINE
  5
421
100
AcDbEntity
  8
0
100
AcDbSpline
 62
7
  6
CONTINUOUS
 70
0
 71
3
 72
8
 73
4
 74
0
 42
0.0000001
 43
0.0000001
 44
0.0000000001
 40
0.0
 40
0.0
 40
0.0
 40
0.0
 40
1.0
 40
1.0
 40
1.0
 40
1.0
 10
12.5524604194
 20
4.1042145225
 30
0.0
 10
12.5371125363
 20
4.1042145225
 30
0.0
 10
12.5229583703
 20
4.1081367596
 30
0.0
 10
12.5099753468
 20
4.1159435456
 30
0.0
  0
SPLINE
  5
422
100
AcDbEntity
  8
0
100
AcDbSpline
 62
7
  6
CONTINUOUS
 70
0
 71
3
 72
8
 73
4
 74
0
 42
0.0000001
 43
0.0000001
 44
0.0000000001
 40
0.0
 40
0.0
 40
0.0
 40
0.0
 40
1.0
 40
1.0
 40
1.0
 40
1.0
 10
12.5099753468
 20
4.1159435456
 30
0.0
 10
12.4968669661
 20
4.1238257098
 30
0.0
 10
12.4871466406
 20
4.1355924229
 30
0.0
 10
12.4810074858
 20
4.1514519041
 30
0.0
  0
SPLINE
  5
423
100
AcDbEntity
  8
0
100
AcDbSpline
 62
7
  6
CONTINUOUS
 70
0
 71
3
 72
8
 73
4
 74
0
 42
0.0000001
 43
0.0000001
 44
0.0000000001
 40
0.0
 40
0.0
 40
0.0
 40
0.0
 40
1.0
 40
1.0
 40
1.0
 40
1.0
 10
12.4810074858
 20
4.1514519041
 30
0.0
 10
12.4748683297
 20
4.1673113885
 30
0.0
 10
12.4717987538
 20
4.1858993801
 30
0.0
 10
12.4717987538
 20
4.2072158935
 30
0.0
  0
SPLINE
  5
424
100
AcDbEntity
  8
0
100
AcDbSpline
 62
7
  6
CONTINUOUS
 70
0
 71
3
 72
8
 73
4
 74
0
 42
0.0000001
 43
0.0000001
 44
0.0000000001
 40
0.0
 40
0.0
 40
0.0
 40
0.0
 40
1.0
 40
1.0
 40
1.0
 40
1.0
 10
12.4717987538
 20
4.2072158935
 30
0.0
 10
12.4717987538
 20
4.2235869648
 30
0.0
 10
12.4743567355
 20
4.2396169784
 30
0.0
 10
12.4795665086
 20
4.2551608931
 30
0.0
  0
SPLINE
  5
425
100
AcDbEntity
  8
0
100
AcDbSpline
 62
7
  6
CONTINUOUS
 70
0
 71
3
 72
8
 73
4
 74
0
 42
0.0000001
 43
0.0000001
 44
0.0000000001
 40
0.0
 40
0.0
 40
0.0
 40
0.0
 40
1.0
 40
1.0
 40
1.0
 40
1.0
 10
12.4795665086
 20
4.2551608931
 30
0.0
 10
12.4847591915
 20
4.2706538173
 30
0.0
 10
12.4937973865
 20
4.2831026497
 30
0.0
 10
12.5067578302
 20
4.2923113853
 30
0.0
  0
SPLINE
  5
426
100
AcDbEntity
  8
0
100
AcDbSpline
 62
7
  6
CONTINUOUS
 70
0
 71
3
 72
8
 73
4
 74
0
 42
0.0000001
 43
0.0000001
 44
0.0000000001
 40
0.0
 40
0.0
 40
0.0
 40
0.0
 40
1.0
 40
1.0
 40
1.0
 40
1.0
 10
12.5067578302
 20
4.2923113853
 30
0.0
 10
12.5197182618
 20
4.3015201124
 30
0.0
 10
12.5357482754
 20
4.3061244818
 30
0.0
 10
12.5550183975
 20
4.3061244818
 30
0.0
  0
SPLINE
  5
427
100
AcDbEntity
  8
0
100
AcDbSpline
 62
7
  6
CONTINUOUS
 70
0
 71
3
 72
8
 73
4
 74
0
 42
0.0000001
 43
0.0000001
 44
0.0000000001
 40
0.0
 40
0.0
 40
0.0
 40
0.0
 40
1.0
 40
1.0
 40
1.0
 40
1.0
 10
12.5550183975
 20
4.3061244818
 30
0.0
 10
12.5717305415
 20
4.3061244818
 30
0.0
 10
12.5855436348
 20
4.3018611851
 30
0.0
 10
12.5965560573
 20
4.2935805267
 30
0.0
  0
SPLINE
  5
428
100
AcDbEntity
  8
0
100
AcDbSpline
 62
7
  6
CONTINUOUS
 70
0
 71
3
 72
8
 73
4
 74
0
 42
0.0000001
 43
0.0000001
 44
0.0000000001
 40
0.0
 40
0.0
 40
0.0
 40
0.0
 40
1.0
 40
1.0
 40
1.0
 40
1.0
 10
12.5965560573
 20
4.2935805267
 30
0.0
 10
12.6075422787
 20
4.2853195699
 30
0.0
 10
12.6160688721
 20
4.2720180633
 30
0.0
 10
12.6218669735
 20
4.2539416733
 30
0.0
  0
SPLINE
  5
429
100
AcDbEntity
  8
0
100
AcDbSpline
 62
7
  6
CONTINUOUS
 70
0
 71
3
 72
8
 73
4
 74
0
 42
0.0000001
 43
0.0000001
 44
0.0000000001
 40
0.0
 40
0.0
 40
0.0
 40
0.0
 40
1.0
 40
1.0
 40
1.0
 40
1.0
 10
12.6544385873
 20
4.2616156074
 30
0.0
 10
12.6476173126
 20
4.2846374395
 30
0.0
 10
12.6358505957
 20
4.3025433155
 30
0.0
 10
12.6187566337
 20
4.3152783095
 30
0.0
  0
SPLINE
  5
42A
100
AcDbEntity
  8
0
100
AcDbSpline
 62
7
  6
CONTINUOUS
 70
0
 71
3
 72
8
 73
4
 74
0
 42
0.0000001
 43
0.0000001
 44
0.0000000001
 40
0.0
 40
0.0
 40
0.0
 40
0.0
 40
1.0
 40
1.0
 40
1.0
 40
1.0
 10
12.6187566337
 20
4.3152783095
 30
0.0
 10
12.6017441772
 20
4.3279525819
 30
0.0
 10
12.5805982076
 20
4.3344328138
 30
0.0
 10
12.5557005279
 20
4.3344328138
 30
0.0
  0
SPLINE
  5
42B
100
AcDbEntity
  8
0
100
AcDbSpline
 62
7
  6
CONTINUOUS
 70
0
 71
3
 72
8
 73
4
 74
0
 42
0.0000001
 43
0.0000001
 44
0.0000000001
 40
0.0
 40
0.0
 40
0.0
 40
0.0
 40
1.0
 40
1.0
 40
1.0
 40
1.0
 10
12.5557005279
 20
4.3344328138
 30
0.0
 10
12.5335313626
 20
4.3344328138
 30
0.0
 10
12.5134085738
 20
4.3293168428
 30
0.0
 10
12.4949911083
 20
4.3192554496
 30
0.0
  0
SPLINE
  5
42C
100
AcDbEntity
  8
0
100
AcDbSpline
 62
7
  6
CONTINUOUS
 70
0
 71
3
 72
8
 73
4
 74
0
 42
0.0000001
 43
0.0000001
 44
0.0000000001
 40
0.0
 40
0.0
 40
0.0
 40
0.0
 40
1.0
 40
1.0
 40
1.0
 40
1.0
 10
12.4949911083
 20
4.3192554496
 30
0.0
 10
12.4765736521
 20
4.3091940614
 30
0.0
 10
12.4624194898
 20
4.2945283088
 30
0.0
 10
12.452528628
 20
4.2750876448
 30
0.0
  0
SPLINE
  5
42D
100
AcDbEntity
  8
0
100
AcDbSpline
 62
7
  6
CONTINUOUS
 70
0
 71
3
 72
8
 73
4
 74
0
 42
0.0000001
 43
0.0000001
 44
0.0000000001
 40
0.0
 40
0.0
 40
0.0
 40
0.0
 40
1.0
 40
1.0
 40
1.0
 40
1.0
 10
12.452528628
 20
4.2750876448
 30
0.0
 10
12.4426377718
 20
4.255646992
 30
0.0
 10
12.4376923427
 20
4.2329662325
 30
0.0
 10
12.4376923427
 20
4.2070453497
 30
0.0
  0
SPLINE
  5
42E
100
AcDbEntity
  8
0
100
AcDbSpline
 62
7
  6
CONTINUOUS
 70
0
 71
3
 72
8
 73
4
 74
0
 42
0.0000001
 43
0.0000001
 44
0.0000000001
 40
0.0
 40
0.0
 40
0.0
 40
0.0
 40
1.0
 40
1.0
 40
1.0
 40
1.0
 10
12.4376923427
 20
4.2070453497
 30
0.0
 10
12.4376923427
 20
4.1831708657
 30
0.0
 10
12.4419556432
 20
4.1608311641
 30
0.0
 10
12.4508233105
 20
4.1400262557
 30
0.0
  0
SPLINE
  5
42F
100
AcDbEntity
  8
0
100
AcDbSpline
 62
7
  6
CONTINUOUS
 70
0
 71
3
 72
8
 73
4
 74
0
 42
0.0000001
 43
0.0000001
 44
0.0000000001
 40
0.0
 40
0.0
 40
0.0
 40
0.0
 40
1.0
 40
1.0
 40
1.0
 40
1.0
 10
12.4508233105
 20
4.1400262557
 30
0.0
 10
12.4596909792
 20
4.1192213441
 30
0.0
 10
12.4724808805
 20
4.1031913305
 30
0.0
 10
12.4893635545
 20
4.0922772803
 30
0.0
  0
SPLINE
  5
430
100
AcDbEntity
  8
0
100
AcDbSpline
 62
7
  6
CONTINUOUS
 70
0
 71
3
 72
8
 73
4
 74
0
 42
0.0000001
 43
0.0000001
 44
0.0000000001
 40
0.0
 40
0.0
 40
0.0
 40
0.0
 40
1.0
 40
1.0
 40
1.0
 40
1.0
 10
12.4893635545
 20
4.0922772803
 30
0.0
 10
12.5062462338
 20
4.0813632266
 30
0.0
 10
12.5282448627
 20
4.0759062008
 30
0.0
 10
12.5551889263
 20
4.0759062008
 30
0.0
  0
SPLINE
  5
431
100
AcDbEntity
  8
0
100
AcDbSpline
 62
7
  6
CONTINUOUS
 70
0
 71
3
 72
8
 73
4
 74
0
 42
0.0000001
 43
0.0000001
 44
0.0000000001
 40
0.0
 40
0.0
 40
0.0
 40
0.0
 40
1.0
 40
1.0
 40
1.0
 40
1.0
 10
12.5551889263
 20
4.0759062008
 30
0.0
 10
12.5811098092
 20
4.0759062008
 30
0.0
 10
12.6031084381
 20
4.0828980151
 30
0.0
 10
12.6211848396
 20
4.097222712
 30
0.0
  0
SPLINE
  5
432
100
AcDbEntity
  8
0
100
AcDbSpline
 62
7
  6
CONTINUOUS
 70
0
 71
3
 72
8
 73
4
 74
0
 42
0.0000001
 43
0.0000001
 44
0.0000000001
 40
0.0
 40
0.0
 40
0.0
 40
0.0
 40
1.0
 40
1.0
 40
1.0
 40
1.0
 10
12.6211848396
 20
4.097222712
 30
0.0
 10
12.6392612331
 20
4.1115474025
 30
0.0
 10
12.6517100804
 20
4.1321817818
 30
0.0
 10
12.6587018989
 20
4.1594669106
 30
0.0
  0
SPLINE
  5
433
100
AcDbEntity
  8
0
100
AcDbSpline
 62
7
  6
CONTINUOUS
 70
0
 71
3
 72
8
 73
4
 74
0
 42
0.0000001
 43
0.0000001
 44
0.0000000001
 40
0.0
 40
0.0
 40
0.0
 40
0.0
 40
1.0
 40
1.0
 40
1.0
 40
1.0
 10
12.6893976652
 20
4.2019293937
 30
0.0
 10
12.6893976652
 20
4.1799307572
 30
0.0
 10
12.6941725634
 20
4.1591258454
 30
0.0
 10
12.7036888744
 20
4.1394984577
 30
0.0
  0
SPLINE
  5
434
100
AcDbEntity
  8
0
100
AcDbSpline
 62
7
  6
CONTINUOUS
 70
0
 71
3
 72
8
 73
4
 74
0
 42
0.0000001
 43
0.0000001
 44
0.0000000001
 40
0.0
 40
0.0
 40
0.0
 40
0.0
 40
1.0
 40
1.0
 40
1.0
 40
1.0
 10
12.7036888744
 20
4.1394984577
 30
0.0
 10
12.7132721566
 20
4.1197329419
 30
0.0
 10
12.7272557937
 20
4.1042145225
 30
0.0
 10
12.7457822318
 20
4.0928596081
 30
0.0
  0
SPLINE
  5
435
100
AcDbEntity
  8
0
100
AcDbSpline
 62
7
  6
CONTINUOUS
 70
0
 71
3
 72
8
 73
4
 74
0
 42
0.0000001
 43
0.0000001
 44
0.0000000001
 40
0.0
 40
0.0
 40
0.0
 40
0.0
 40
1.0
 40
1.0
 40
1.0
 40
1.0
 10
12.7457822318
 20
4.0928596081
 30
0.0
 10
12.764261248
 20
4.0815337586
 30
0.0
 10
12.7854072176
 20
4.0759062008
 30
0.0
 10
12.8089406513
 20
4.0759062008
 30
0.0
  0
SPLINE
  5
436
100
AcDbEntity
  8
0
100
AcDbSpline
 62
7
  6
CONTINUOUS
 70
0
 71
3
 72
8
 73
4
 74
0
 42
0.0000001
 43
0.0000001
 44
0.0000000001
 40
0.0
 40
0.0
 40
0.0
 40
0.0
 40
1.0
 40
1.0
 40
1.0
 40
1.0
 10
12.8089406513
 20
4.0759062008
 30
0.0
 10
12.8305982076
 20
4.0759062008
 30
0.0
 10
12.8508915328
 20
4.0810221624
 30
0.0
 10
12.8696500416
 20
4.0912540798
 30
0.0
  0
SPLINE
  5
437
100
AcDbEntity
  8
0
100
AcDbSpline
 62
7
  6
CONTINUOUS
 70
0
 71
3
 72
8
 73
4
 74
0
 42
0.0000001
 43
0.0000001
 44
0.0000000001
 40
0.0
 40
0.0
 40
0.0
 40
0.0
 40
1.0
 40
1.0
 40
1.0
 40
1.0
 10
12.8696500416
 20
4.0912540798
 30
0.0
 10
12.8884085738
 20
4.10148601
 30
0.0
 10
12.9029037975
 20
4.1166633623
 30
0.0
 10
12.9131702483
 20
4.1367684883
 30
0.0
  0
SPLINE
  5
438
100
AcDbEntity
  8
0
100
AcDbSpline
 62
7
  6
CONTINUOUS
 70
0
 71
3
 72
8
 73
4
 74
0
 42
0.0000001
 43
0.0000001
 44
0.0000000001
 40
0.0
 40
0.0
 40
0.0
 40
0.0
 40
1.0
 40
1.0
 40
1.0
 40
1.0
 10
12.9131702483
 20
4.1367684883
 30
0.0
 10
12.9233676516
 20
4.1567383962
 30
0.0
 10
12.9284836375
 20
4.1794191631
 30
0.0
 10
12.9284836375
 20
4.2048284369
 30
0.0
  0
SPLINE
  5
439
100
AcDbEntity
  8
0
100
AcDbSpline
 62
7
  6
CONTINUOUS
 70
0
 71
3
 72
8
 73
4
 74
0
 42
0.0000001
 43
0.0000001
 44
0.0000000001
 40
0.0
 40
0.0
 40
0.0
 40
0.0
 40
1.0
 40
1.0
 40
1.0
 40
1.0
 10
12.9284836375
 20
4.2048284369
 30
0.0
 10
12.9284836375
 20
4.2297261241
 30
0.0
 10
12.9235381805
 20
4.2520658257
 30
0.0
 10
12.913817858
 20
4.2718475359
 30
0.0
  0
SPLINE
  5
43A
100
AcDbEntity
  8
0
100
AcDbSpline
 62
7
  6
CONTINUOUS
 70
0
 71
3
 72
8
 73
4
 74
0
 42
0.0000001
 43
0.0000001
 44
0.0000000001
 40
0.0
 40
0.0
 40
0.0
 40
0.0
 40
1.0
 40
1.0
 40
1.0
 40
1.0
 10
12.913817858
 20
4.2718475359
 30
0.0
 10
12.9040975295
 20
4.291629258
 30
0.0
 10
12.8899433636
 20
4.3069771411
 30
0.0
 10
12.8714664683
 20
4.3179611068
 30
0.0
  0
SPLINE
  5
43B
100
AcDbEntity
  8
0
100
AcDbSpline
 62
7
  6
CONTINUOUS
 70
0
 71
3
 72
8
 73
4
 74
0
 42
0.0000001
 43
0.0000001
 44
0.0000000001
 40
0.0
 40
0.0
 40
0.0
 40
0.0
 40
1.0
 40
1.0
 40
1.0
 40
1.0
 10
12.8714664683
 20
4.3179611068
 30
0.0
 10
12.8529379093
 20
4.328975785
 30
0.0
 10
12.8321329974
 20
4.3346033427
 30
0.0
 10
12.8091111802
 20
4.3346033427
 30
0.0
  0
SPLINE
  5
43C
100
AcDbEntity
  8
0
100
AcDbSpline
 62
7
  6
CONTINUOUS
 70
0
 71
3
 72
8
 73
4
 74
0
 42
0.0000001
 43
0.0000001
 44
0.0000000001
 40
0.0
 40
0.0
 40
0.0
 40
0.0
 40
1.0
 40
1.0
 40
1.0
 40
1.0
 10
12.8091111802
 20
4.3346033427
 30
0.0
 10
12.7738110446
 20
4.3346033427
 30
0.0
 10
12.744991126
 20
4.3228366258
 30
0.0
 10
12.7227769781
 20
4.2993458044
 30
0.0
  0
SPLINE
  5
43D
100
AcDbEntity
  8
0
100
AcDbSpline
 62
7
  6
CONTINUOUS
 70
0
 71
3
 72
8
 73
4
 74
0
 42
0.0000001
 43
0.0000001
 44
0.0000000001
 40
0.0
 40
0.0
 40
0.0
 40
0.0
 40
1.0
 40
1.0
 40
1.0
 40
1.0
 10
12.7227769781
 20
4.2993458044
 30
0.0
 10
12.7004822515
 20
4.2757697734
 30
0.0
 10
12.6893976652
 20
4.2433686885
 30
0.0
 10
12.6893976652
 20
4.2019293937
 30
0.0
  0
SPLINE
  5
43E
100
AcDbEntity
  8
0
100
AcDbSpline
 62
7
  6
CONTINUOUS
 70
0
 71
3
 72
8
 73
4
 74
0
 42
0.0000001
 43
0.0000001
 44
0.0000000001
 40
0.0
 40
0.0
 40
0.0
 40
0.0
 40
1.0
 40
1.0
 40
1.0
 40
1.0
 10
13.2555641257
 20
4.0801695021
 30
0.0
 10
13.2705709063
 20
4.0801695021
 30
0.0
 10
13.2840429269
 20
4.0815337586
 30
0.0
 10
13.2956583888
 20
4.0843522107
 30
0.0
  0
SPLINE
  5
43F
100
AcDbEntity
  8
0
100
AcDbSpline
 62
7
  6
CONTINUOUS
 70
0
 71
3
 72
8
 73
4
 74
0
 42
0.0000001
 43
0.0000001
 44
0.0000000001
 40
0.0
 40
0.0
 40
0.0
 40
0.0
 40
1.0
 40
1.0
 40
1.0
 40
1.0
 10
13.2956583888
 20
4.0843522107
 30
0.0
 10
13.3072353326
 20
4.0871613165
 30
0.0
 10
13.3172967159
 20
4.0914246183
 30
0.0
 10
13.3254822311
 20
4.0968816302
 30
0.0
  0
SPLINE
  5
440
100
AcDbEntity
  8
0
100
AcDbSpline
 62
7
  6
CONTINUOUS
 70
0
 71
3
 72
8
 73
4
 74
0
 42
0.0000001
 43
0.0000001
 44
0.0000000001
 40
0.0
 40
0.0
 40
0.0
 40
0.0
 40
1.0
 40
1.0
 40
1.0
 40
1.0
 10
13.3254822311
 20
4.0968816302
 30
0.0
 10
13.3336677872
 20
4.1023386693
 30
0.0
 10
13.3413417064
 20
4.1100126127
 30
0.0
 10
13.3482774487
 20
4.1196027457
 30
0.0
  0
SPLINE
  5
441
100
AcDbEntity
  8
0
100
AcDbSpline
 62
7
  6
CONTINUOUS
 70
0
 71
3
 72
8
 73
4
 74
0
 42
0.0000001
 43
0.0000001
 44
0.0000000001
 40
0.0
 40
0.0
 40
0.0
 40
0.0
 40
1.0
 40
1.0
 40
1.0
 40
1.0
 10
13.3482774487
 20
4.1196027457
 30
0.0
 10
13.3551548444
 20
4.1291122022
 30
0.0
 10
13.3609528862
 20
4.1413905131
 30
0.0
 10
13.3653867282
 20
4.1560562743
 30
0.0
  0
SPLINE
  5
442
100
AcDbEntity
  8
0
100
AcDbSpline
 62
7
  6
CONTINUOUS
 70
0
 71
3
 72
8
 73
4
 74
0
 42
0.0000001
 43
0.0000001
 44
0.0000000001
 40
0.0
 40
0.0
 40
0.0
 40
0.0
 40
1.0
 40
1.0
 40
1.0
 40
1.0
 10
13.3653867282
 20
4.1560562743
 30
0.0
 10
13.3698205673
 20
4.1707220259
 30
0.0
 10
13.3720375024
 20
4.1874341699
 30
0.0
 10
13.3720375024
 20
4.2065337631
 30
0.0
  0
SPLINE
  5
443
100
AcDbEntity
  8
0
100
AcDbSpline
 62
7
  6
CONTINUOUS
 70
0
 71
3
 72
8
 73
4
 74
0
 42
0.0000001
 43
0.0000001
 44
0.0000000001
 40
0.0
 40
0.0
 40
0.0
 40
0.0
 40
1.0
 40
1.0
 40
1.0
 40
1.0
 10
13.3720375024
 20
4.2065337631
 30
0.0
 10
13.3720375024
 20
4.2287029209
 30
0.0
 10
13.368626865
 20
4.2484846445
 30
0.0
 10
13.3621466456
 20
4.2658789181
 30
0.0
  0
SPLINE
  5
444
100
AcDbEntity
  8
0
100
AcDbSpline
 62
7
  6
CONTINUOUS
 70
0
 71
3
 72
8
 73
4
 74
0
 42
0.0000001
 43
0.0000001
 44
0.0000000001
 40
0.0
 40
0.0
 40
0.0
 40
0.0
 40
1.0
 40
1.0
 40
1.0
 40
1.0
 10
13.3621466456
 20
4.2658789181
 30
0.0
 10
13.3556664311
 20
4.2832731786
 30
0.0
 10
13.3457755767
 20
4.2974273446
 30
0.0
 10
13.3325773912
 20
4.3086024329
 30
0.0
  0
SPLINE
  5
445
100
AcDbEntity
  8
0
100
AcDbSpline
 62
7
  6
CONTINUOUS
 70
0
 71
3
 72
8
 73
4
 74
0
 42
0.0000001
 43
0.0000001
 44
0.0000000001
 40
0.0
 40
0.0
 40
0.0
 40
0.0
 40
1.0
 40
1.0
 40
1.0
 40
1.0
 10
13.3325773912
 20
4.3086024329
 30
0.0
 10
13.3224126421
 20
4.3172090682
 30
0.0
 10
13.3103049122
 20
4.3231776836
 30
0.0
 10
13.2959738666
 20
4.3265614066
 30
0.0
  0
SPLINE
  5
446
100
AcDbEntity
  8
0
100
AcDbSpline
 62
7
  6
CONTINUOUS
 70
0
 71
3
 72
8
 73
4
 74
0
 42
0.0000001
 43
0.0000001
 44
0.0000000001
 40
0.0
 40
0.0
 40
0.0
 40
0.0
 40
1.0
 40
1.0
 40
1.0
 40
1.0
 10
13.2959738666
 20
4.3265614066
 30
0.0
 10
13.2857482754
 20
4.328975785
 30
0.0
 10
13.2709119641
 20
4.3301695021
 30
0.0
 10
13.2514713131
 20
4.3301695021
 30
0.0
  0
SPLINE
  5
447
100
AcDbEntity
  8
0
100
AcDbSpline
 62
7
  6
CONTINUOUS
 70
0
 71
3
 72
8
 73
4
 74
0
 42
0.0000001
 43
0.0000001
 44
0.0000000001
 40
0.0
 40
0.0
 40
0.0
 40
0.0
 40
1.0
 40
1.0
 40
1.0
 40
1.0
 10
8.8379310821
 20
4.2014177995
 30
0.0
 10
8.8379310821
 20
4.238934848
 30
0.0
 10
8.8462871466
 20
4.265878919
 30
0.0
 10
8.8631698274
 20
4.28190894
 30
0.0
  0
SPLINE
  5
448
100
AcDbEntity
  8
0
100
AcDbSpline
 62
7
  6
CONTINUOUS
 70
0
 71
3
 72
8
 73
4
 74
0
 42
0.0000001
 43
0.0000001
 44
0.0000000001
 40
0.0
 40
0.0
 40
0.0
 40
0.0
 40
1.0
 40
1.0
 40
1.0
 40
1.0
 10
8.8631698274
 20
4.28190894
 30
0.0
 10
8.8800524924
 20
4.2979389461
 30
0.0
 10
8.9001752887
 20
4.3061244818
 30
0.0
 10
8.9237087224
 20
4.3061244818
 30
0.0
  0
SPLINE
  5
449
100
AcDbEntity
  8
0
100
AcDbSpline
 62
7
  6
CONTINUOUS
 70
0
 71
3
 72
8
 73
4
 74
0
 42
0.0000001
 43
0.0000001
 44
0.0000000001
 40
0.0
 40
0.0
 40
0.0
 40
0.0
 40
1.0
 40
1.0
 40
1.0
 40
1.0
 10
8.9237087224
 20
4.3061244818
 30
0.0
 10
8.9400797937
 20
4.3061244818
 30
0.0
 10
8.9549160753
 20
4.3018611851
 30
0.0
 10
8.9682175746
 20
4.2935051177
 30
0.0
  0
SPLINE
  5
44A
100
AcDbEntity
  8
0
100
AcDbSpline
 62
7
  6
CONTINUOUS
 70
0
 71
3
 72
8
 73
4
 74
0
 42
0.0000001
 43
0.0000001
 44
0.0000000001
 40
0.0
 40
0.0
 40
0.0
 40
0.0
 40
1.0
 40
1.0
 40
1.0
 40
1.0
 10
8.9682175746
 20
4.2935051177
 30
0.0
 10
8.9815190886
 20
4.2851490411
 30
0.0
 10
8.9915804718
 20
4.2733823242
 30
0.0
 10
8.998401759
 20
4.2582049756
 30
0.0
  0
SPLINE
  5
44B
100
AcDbEntity
  8
0
100
AcDbSpline
 62
7
  6
CONTINUOUS
 70
0
 71
3
 72
8
 73
4
 74
0
 42
0.0000001
 43
0.0000001
 44
0.0000000001
 40
0.0
 40
0.0
 40
0.0
 40
0.0
 40
1.0
 40
1.0
 40
1.0
 40
1.0
 10
8.998401759
 20
4.2582049756
 30
0.0
 10
9.0052230511
 20
4.2430276158
 30
0.0
 10
9.0088042174
 20
4.2252922835
 30
0.0
 10
9.0088042174
 20
4.2049989733
 30
0.0
  0
SPLINE
  5
44C
100
AcDbEntity
  8
0
100
AcDbSpline
 62
7
  6
CONTINUOUS
 70
0
 71
3
 72
8
 73
4
 74
0
 42
0.0000001
 43
0.0000001
 44
0.0000000001
 40
0.0
 40
0.0
 40
0.0
 40
0.0
 40
1.0
 40
1.0
 40
1.0
 40
1.0
 10
9.0088042174
 20
4.2049989733
 30
0.0
 10
9.0088042174
 20
4.1727684098
 30
0.0
 10
9.0006186817
 20
4.1478707301
 30
0.0
 10
8.9846311893
 20
4.1304375592
 30
0.0
  0
SPLINE
  5
44D
100
AcDbEntity
  8
0
100
AcDbSpline
 62
7
  6
CONTINUOUS
 70
0
 71
3
 72
8
 73
4
 74
0
 42
0.0000001
 43
0.0000001
 44
0.0000000001
 40
0.0
 40
0.0
 40
0.0
 40
0.0
 40
1.0
 40
1.0
 40
1.0
 40
1.0
 10
8.9846311893
 20
4.1304375592
 30
0.0
 10
8.9685586546
 20
4.112911656
 30
0.0
 10
8.9480948005
 20
4.1042145225
 30
0.0
 10
8.9231971059
 20
4.1042145225
 30
0.0
  0
SPLINE
  5
44E
100
AcDbEntity
  8
0
100
AcDbSpline
 62
7
  6
CONTINUOUS
 70
0
 71
3
 72
8
 73
4
 74
0
 42
0.0000001
 43
0.0000001
 44
0.0000000001
 40
0.0
 40
0.0
 40
0.0
 40
0.0
 40
1.0
 40
1.0
 40
1.0
 40
1.0
 10
8.9231971059
 20
4.1042145225
 30
0.0
 10
8.8986404989
 20
4.1042145225
 30
0.0
 10
8.8783471737
 20
4.1127411271
 30
0.0
 10
8.8621466322
 20
4.130135395
 30
0.0
  0
SPLINE
  5
44F
100
AcDbEntity
  8
0
100
AcDbSpline
 62
7
  6
CONTINUOUS
 70
0
 71
3
 72
8
 73
4
 74
0
 42
0.0000001
 43
0.0000001
 44
0.0000000001
 40
0.0
 40
0.0
 40
0.0
 40
0.0
 40
1.0
 40
1.0
 40
1.0
 40
1.0
 10
8.8621466322
 20
4.130135395
 30
0.0
 10
8.8459460888
 20
4.1475296649
 30
0.0
 10
8.8379310821
 20
4.17123362
 30
0.0
 10
8.8379310821
 20
4.2014177995
 30
0.0
  0
SPLINE
  5
450
100
AcDbEntity
  8
0
100
AcDbSpline
 62
7
  6
CONTINUOUS
 70
0
 71
3
 72
8
 73
4
 74
0
 42
0.0000001
 43
0.0000001
 44
0.0000000001
 40
0.0
 40
0.0
 40
0.0
 40
0.0
 40
1.0
 40
1.0
 40
1.0
 40
1.0
 10
12.7235040687
 20
4.2014177995
 30
0.0
 10
12.7235040687
 20
4.238934848
 30
0.0
 10
12.7318601333
 20
4.265878919
 30
0.0
 10
12.748742814
 20
4.28190894
 30
0.0
  0
SPLINE
  5
451
100
AcDbEntity
  8
0
100
AcDbSpline
 62
7
  6
CONTINUOUS
 70
0
 71
3
 72
8
 73
4
 74
0
 42
0.0000001
 43
0.0000001
 44
0.0000000001
 40
0.0
 40
0.0
 40
0.0
 40
0.0
 40
1.0
 40
1.0
 40
1.0
 40
1.0
 10
12.748742814
 20
4.28190894
 30
0.0
 10
12.7656254791
 20
4.2979389461
 30
0.0
 10
12.7857482754
 20
4.3061244818
 30
0.0
 10
12.8092817091
 20
4.3061244818
 30
0.0
  0
SPLINE
  5
452
100
AcDbEntity
  8
0
100
AcDbSpline
 62
7
  6
CONTINUOUS
 70
0
 71
3
 72
8
 73
4
 74
0
 42
0.0000001
 43
0.0000001
 44
0.0000000001
 40
0.0
 40
0.0
 40
0.0
 40
0.0
 40
1.0
 40
1.0
 40
1.0
 40
1.0
 10
12.8092817091
 20
4.3061244818
 30
0.0
 10
12.8256527804
 20
4.3061244818
 30
0.0
 10
12.840489062
 20
4.3018611851
 30
0.0
 10
12.8537905613
 20
4.2935051177
 30
0.0
  0
SPLINE
  5
453
100
AcDbEntity
  8
0
100
AcDbSpline
 62
7
  6
CONTINUOUS
 70
0
 71
3
 72
8
 73
4
 74
0
 42
0.0000001
 43
0.0000001
 44
0.0000000001
 40
0.0
 40
0.0
 40
0.0
 40
0.0
 40
1.0
 40
1.0
 40
1.0
 40
1.0
 10
12.8537905613
 20
4.2935051177
 30
0.0
 10
12.8670920752
 20
4.2851490411
 30
0.0
 10
12.8771534585
 20
4.2733823242
 30
0.0
 10
12.8839747456
 20
4.2582049756
 30
0.0
  0
SPLINE
  5
454
100
AcDbEntity
  8
0
100
AcDbSpline
 62
7
  6
CONTINUOUS
 70
0
 71
3
 72
8
 73
4
 74
0
 42
0.0000001
 43
0.0000001
 44
0.0000000001
 40
0.0
 40
0.0
 40
0.0
 40
0.0
 40
1.0
 40
1.0
 40
1.0
 40
1.0
 10
12.8839747456
 20
4.2582049756
 30
0.0
 10
12.8907960378
 20
4.2430276158
 30
0.0
 10
12.8943772041
 20
4.2252922835
 30
0.0
 10
12.8943772041
 20
4.2049989733
 30
0.0
  0
SPLINE
  5
455
100
AcDbEntity
  8
0
100
AcDbSpline
 62
7
  6
CONTINUOUS
 70
0
 71
3
 72
8
 73
4
 74
0
 42
0.0000001
 43
0.0000001
 44
0.0000000001
 40
0.0
 40
0.0
 40
0.0
 40
0.0
 40
1.0
 40
1.0
 40
1.0
 40
1.0
 10
12.8943772041
 20
4.2049989733
 30
0.0
 10
12.8943772041
 20
4.1727684098
 30
0.0
 10
12.8861916684
 20
4.1478707301
 30
0.0
 10
12.8702041759
 20
4.1304375592
 30
0.0
  0
SPLINE
  5
456
100
AcDbEntity
  8
0
100
AcDbSpline
 62
7
  6
CONTINUOUS
 70
0
 71
3
 72
8
 73
4
 74
0
 42
0.0000001
 43
0.0000001
 44
0.0000000001
 40
0.0
 40
0.0
 40
0.0
 40
0.0
 40
1.0
 40
1.0
 40
1.0
 40
1.0
 10
12.8702041759
 20
4.1304375592
 30
0.0
 10
12.8541316413
 20
4.112911656
 30
0.0
 10
12.8336677872
 20
4.1042145225
 30
0.0
 10
12.8087700926
 20
4.1042145225
 30
0.0
  0
SPLINE
  5
457
100
AcDbEntity
  8
0
100
AcDbSpline
 62
7
  6
CONTINUOUS
 70
0
 71
3
 72
8
 73
4
 74
0
 42
0.0000001
 43
0.0000001
 44
0.0000000001
 40
0.0
 40
0.0
 40
0.0
 40
0.0
 40
1.0
 40
1.0
 40
1.0
 40
1.0
 10
12.8087700926
 20
4.1042145225
 30
0.0
 10
12.7842134856
 20
4.1042145225
 30
0.0
 10
12.7639201604
 20
4.1127411271
 30
0.0
 10
12.7477196189
 20
4.130135395
 30
0.0
  0
SPLINE
  5
458
100
AcDbEntity
  8
0
100
AcDbSpline
 62
7
  6
CONTINUOUS
 70
0
 71
3
 72
8
 73
4
 74
0
 42
0.0000001
 43
0.0000001
 44
0.0000000001
 40
0.0
 40
0.0
 40
0.0
 40
0.0
 40
1.0
 40
1.0
 40
1.0
 40
1.0
 10
12.7477196189
 20
4.130135395
 30
0.0
 10
12.7315190755
 20
4.1475296649
 30
0.0
 10
12.7235040687
 20
4.17123362
 30
0.0
 10
12.7235040687
 20
4.2014177995
 30
0.0
  0
SPLINE
  5
459
100
AcDbEntity
  8
0
100
AcDbSpline
 62
7
  6
CONTINUOUS
 70
0
 71
3
 72
8
 73
4
 74
0
 42
0.0000001
 43
0.0000001
 44
0.0000000001
 40
0.0
 40
0.0
 40
0.0
 40
0.0
 40
1.0
 40
1.0
 40
1.0
 40
1.0
 10
13.2509597265
 20
4.3006674531
 30
0.0
 10
13.2705709063
 20
4.3006674531
 30
0.0
 10
13.284895631
 20
4.2989621344
 30
0.0
 10
13.2937558847
 20
4.2955323543
 30
0.0
  0
SPLINE
  5
45A
100
AcDbEntity
  8
0
100
AcDbSpline
 62
7
  6
CONTINUOUS
 70
0
 71
3
 72
8
 73
4
 74
0
 42
0.0000001
 43
0.0000001
 44
0.0000000001
 40
0.0
 40
0.0
 40
0.0
 40
0.0
 40
1.0
 40
1.0
 40
1.0
 40
1.0
 10
13.2937558847
 20
4.2955323543
 30
0.0
 10
13.3060415708
 20
4.2907765987
 30
0.0
 10
13.3164440714
 20
4.2812268021
 30
0.0
 10
13.3249706601
 20
4.2672431803
 30
0.0
  0
SPLINE
  5
45B
100
AcDbEntity
  8
0
100
AcDbSpline
 62
7
  6
CONTINUOUS
 70
0
 71
3
 72
8
 73
4
 74
0
 42
0.0000001
 43
0.0000001
 44
0.0000000001
 40
0.0
 40
0.0
 40
0.0
 40
0.0
 40
1.0
 40
1.0
 40
1.0
 40
1.0
 10
13.3249706601
 20
4.2672431803
 30
0.0
 10
13.3334972583
 20
4.2532595428
 30
0.0
 10
13.337931069
 20
4.2331367614
 30
0.0
 10
13.337931069
 20
4.2070453497
 30
0.0
  0
SPLINE
  5
45C
100
AcDbEntity
  8
0
100
AcDbSpline
 62
7
  6
CONTINUOUS
 70
0
 71
3
 72
8
 73
4
 74
0
 42
0.0000001
 43
0.0000001
 44
0.0000000001
 40
0.0
 40
0.0
 40
0.0
 40
0.0
 40
1.0
 40
1.0
 40
1.0
 40
1.0
 10
13.337931069
 20
4.2070453497
 30
0.0
 10
13.337931069
 20
4.1881162929
 30
0.0
 10
13.3357141935
 20
4.1720862793
 30
0.0
 10
13.33128035
 20
4.1587847712
 30
0.0
  0
SPLINE
  5
45D
100
AcDbEntity
  8
0
100
AcDbSpline
 62
7
  6
CONTINUOUS
 70
0
 71
3
 72
8
 73
4
 74
0
 42
0.0000001
 43
0.0000001
 44
0.0000000001
 40
0.0
 40
0.0
 40
0.0
 40
0.0
 40
1.0
 40
1.0
 40
1.0
 40
1.0
 10
13.33128035
 20
4.1587847712
 30
0.0
 10
13.3268465124
 20
4.145483281
 30
0.0
 10
13.3208778821
 20
4.135080825
 30
0.0
 10
13.3130334243
 20
4.1272363607
 30
0.0
  0
SPLINE
  5
45E
100
AcDbEntity
  8
0
100
AcDbSpline
 62
7
  6
CONTINUOUS
 70
0
 71
3
 72
8
 73
4
 74
0
 42
0.0000001
 43
0.0000001
 44
0.0000000001
 40
0.0
 40
0.0
 40
0.0
 40
0.0
 40
1.0
 40
1.0
 40
1.0
 40
1.0
 10
13.3130334243
 20
4.1272363607
 30
0.0
 10
13.3074058615
 20
4.1216087932
 30
0.0
 10
13.2999024116
 20
4.1173454928
 30
0.0
 10
13.2905232001
 20
4.1142759237
 30
0.0
  0
SPLINE
  5
45F
100
AcDbEntity
  8
0
100
AcDbSpline
 62
7
  6
CONTINUOUS
 70
0
 71
3
 72
8
 73
4
 74
0
 42
0.0000001
 43
0.0000001
 44
0.0000000001
 40
0.0
 40
0.0
 40
0.0
 40
0.0
 40
1.0
 40
1.0
 40
1.0
 40
1.0
 10
13.2905232001
 20
4.1142759237
 30
0.0
 10
13.2811439358
 20
4.1112063373
 30
0.0
 10
13.2681835018
 20
4.1096715494
 30
0.0
 10
13.2518123709
 20
4.1096715494
 30
0.0
  0
SPLINE
  5
460
100
AcDbEntity
  8
0
100
AcDbSpline
 62
7
  6
CONTINUOUS
 70
0
 71
3
 72
14
 73
10
 74
0
 42
0.0000001
 43
0.0000001
 44
0.0000000001
 40
0.0
 40
0.0
 40
0.0
 40
0.0
 40
0.0757341402
 40
0.1566897345
 40
0.2495040326
 40
0.3586648517
 40
0.4869318647
 40
0.6359728576
 40
1.0
 40
1.0
 40
1.0
 40
1.0
 10
11.9158233484
 20
8.9793291761
 30
0.0
 10
11.9158253951
 20
8.9793564847
 30
0.0
 10
11.9158200117
 20
8.9794141415
 30
0.0
 10
11.9157826769
 20
8.9794976334
 30
0.0
 10
11.915718247
 20
8.9795781265
 30
0.0
 10
11.9156275272
 20
8.9796564813
 30
0.0
 10
11.9155104779
 20
8.9797333564
 30
0.0
 10
11.9153050399
 20
8.9798414655
 30
0.0
 10
11.9151316064
 20
8.9799089965
 30
0.0
 10
11.9150072999
 20
8.9799522937
 30
0.0
  0
LINE
  5
461
100
AcDbEntity
  8
0
100
AcDbLine
 62
7
  6
CONTINUOUS
 10
12.1827451212
 20
8.9511662193
 11
12.1823606015
 21
8.951151876
  0
SPLINE
  5
462
100
AcDbEntity
  8
0
100
AcDbSpline
 62
7
  6
CONTINUOUS
 70
0
 71
3
 72
21
 73
17
 74
0
 42
0.0000001
 43
0.0000001
 44
0.0000000001
 40
0.0
 40
0.0
 40
0.0
 40
0.0
 40
0.0083483758
 40
0.0169547916
 40
0.0363971721
 40
0.060694667
 40
0.0910243517
 40
0.1279728802
 40
0.171841396
 40
0.2227812165
 40
0.2808670613
 40
0.3461188457
 40
0.4185252666
 40
0.5846316526
 40
0.7786971987
 40
1.0
 40
1.0
 40
1.0
 40
1.0
 10
11.4719707306
 20
8.9782670321
 30
0.0
 10
11.4719725128
 20
8.9782908096
 30
0.0
 10
11.4719705062
 20
8.9783397105
 30
0.0
 10
11.4719422567
 20
8.9784406103
 30
0.0
 10
11.4718567929
 20
8.9785673519
 30
0.0
 10
11.4716952935
 20
8.9787058694
 30
0.0
 10
11.471470999
 20
8.9788419723
 30
0.0
 10
11.4711827928
 20
8.9789760222
 30
0.0
 10
11.4708302315
 20
8.9791083578
 30
0.0
 10
11.4704132941
 20
8.9792387606
 30
0.0
 10
11.4699322259
 20
8.9793670351
 30
0.0
 10
11.4693874453
 20
8.9794930069
 30
0.0
 10
11.4685371089
 20
8.9796656091
 30
0.0
 10
11.4673182862
 20
8.9798699812
 30
0.0
 10
11.4656725658
 20
8.9800942609
 30
0.0
 10
11.4644935387
 20
8.9802268324
 30
0.0
 10
11.4638648351
 20
8.9802920012
 30
0.0
  0
SPLINE
  5
463
100
AcDbEntity
  8
0
100
AcDbSpline
 62
7
  6
CONTINUOUS
 70
0
 71
3
 72
19
 73
15
 74
0
 42
0.0000001
 43
0.0000001
 44
0.0000000001
 40
0.0
 40
0.0
 40
0.0
 40
0.0
 40
0.0218415437
 40
0.0455299204
 40
0.0729710664
 40
0.1054097578
 40
0.1435921929
 40
0.1879656163
 40
0.2388036395
 40
0.2962698727
 40
0.4314239199
 40
0.5938159116
 40
0.7834231678
 40
1.0
 40
1.0
 40
1.0
 40
1.0
 10
10.9956584463
 20
8.9771304964
 30
0.0
 10
10.9956612592
 20
8.9771680313
 30
0.0
 10
10.9956532477
 20
8.9772478863
 30
0.0
 10
10.9956003427
 20
8.9773638126
 30
0.0
 10
10.9955096107
 20
8.9774769889
 30
0.0
 10
10.9953819834
 20
8.9775886673
 30
0.0
 10
10.9952173722
 20
8.9776996759
 30
0.0
 10
10.9950155713
 20
8.9778102693
 30
0.0
 10
10.9947764866
 20
8.9779205062
 30
0.0
 10
10.9943864107
 20
8.9780754273
 30
0.0
 10
10.9938035884
 20
8.978263406
 30
0.0
 10
10.9929913598
 20
8.9784766844
 30
0.0
 10
10.9920341742
 20
8.9786871718
 30
0.0
 10
10.9913461793
 20
8.9788166889
 30
0.0
 10
10.9909786364
 20
8.9788816137
 30
0.0
  0
SPLINE
  5
464
100
AcDbEntity
  8
0
100
AcDbSpline
 62
9
  6
CONTINUOUS
 70
0
 71
3
 72
39
 73
35
 74
0
 42
0.0000001
 43
0.0000001
 44
0.0000000001
 40
0.0
 40
0.0
 40
0.0
 40
0.0
 40
0.0261370279
 40
0.052306077
 40
0.0785359597
 40
0.1048582495
 40
0.1313043434
 40
0.1579056151
 40
0.1846939622
 40
0.2117018946
 40
0.238961972
 40
0.2665073874
 40
0.2943720123
 40
0.3225900373
 40
0.3511962767
 40
0.3802257202
 40
0.4097132891
 40
0.4396938898
 40
0.4702018147
 40
0.5012700187
 40
0.5329296703
 40
0.5652090991
 40
0.5981323903
 40
0.6317179715
 40
0.6659767041
 40
0.7009099226
 40
0.7365069412
 40
0.7727428585
 40
0.8095762471
 40
0.8469477436
 40
0.8847792068
 40
0.9229748335
 40
0.9614225398
 40
1.0
 40
1.0
 40
1.0
 40
1.0
 10
10.5626923427
 20
4.2051695021
 30
0.0
 10
10.5626933602
 20
4.2100978509
 30
0.0
 10
10.5629231539
 20
4.2199620791
 30
0.0
 10
10.5639562121
 20
4.2347397228
 30
0.0
 10
10.5656824584
 20
4.2494880291
 30
0.0
 10
10.5681027381
 20
4.2641912991
 30
0.0
 10
10.5712203872
 20
4.2788343168
 30
0.0
 10
10.5750405575
 20
4.2934008645
 30
0.0
 10
10.5795691097
 20
4.3078740689
 30
0.0
 10
10.5848123832
 20
4.3222363291
 30
0.0
 10
10.5907783852
 20
4.336468728
 30
0.0
 10
10.5974756846
 20
4.3505511606
 30
0.0
 10
10.604913684
 20
4.3644620914
 30
0.0
 10
10.613102708
 20
4.3781782089
 30
0.0
 10
10.6220534215
 20
4.3916743607
 30
0.0
 10
10.6317770512
 20
4.4049230453
 30
0.0
 10
10.6422850328
 20
4.4178941245
 30
0.0
 10
10.6535885409
 20
4.4305546242
 30
0.0
 10
10.6656980906
 20
4.4428683802
 30
0.0
 10
10.6786230972
 20
4.4547955416
 30
0.0
 10
10.6923708992
 20
4.4662924933
 30
0.0
 10
10.7069459218
 20
4.4773115556
 30
0.0
 10
10.7223487977
 20
4.487800348
 30
0.0
 10
10.7385743514
 20
4.4977025953
 30
0.0
 10
10.7556107494
 20
4.5069571831
 30
0.0
 10
10.7734368595
 20
4.5154999352
 30
0.0
 10
10.7920210941
 20
4.5232630474
 30
0.0
 10
10.8113187368
 20
4.5301778243
 30
0.0
 10
10.831270787
 20
4.5361754221
 30
0.0
 10
10.8518024511
 20
4.5411898804
 30
0.0
 10
10.8728227761
 20
4.5451613084
 30
0.0
 10
10.894225837
 20
4.548037854
 30
0.0
 10
10.9158915187
 20
4.5497805237
 30
0.0
 10
10.9304182494
 20
4.5501694765
 30
0.0
 10
10.9376923427
 20
4.5501695021
 30
0.0
  0
SPLINE
  5
465
100
AcDbEntity
  8
0
100
AcDbSpline
 62
7
  6
CONTINUOUS
 70
0
 71
3
 72
16
 73
12
 74
0
 42
0.0000001
 43
0.0000001
 44
0.0000000001
 40
0.0
 40
0.0
 40
0.0
 40
0.0
 40
0.0306929901
 40
0.062445531
 40
0.1338140247
 40
0.2218126559
 40
0.3304186484
 40
0.4616832592
 40
0.6167008318
 40
0.796041329
 40
1.0
 40
1.0
 40
1.0
 40
1.0
 10
10.5193464187
 20
8.9759973465
 30
0.0
 10
10.5193480999
 20
8.9760197725
 30
0.0
 10
10.5193464731
 20
8.9760659297
 30
0.0
 10
10.5193219108
 20
8.9761615382
 30
0.0
 10
10.5192472806
 20
8.9762833111
 30
0.0
 10
10.5191046768
 20
8.9764198692
 30
0.0
 10
10.5189061048
 20
8.9765563627
 30
0.0
 10
10.5186507659
 20
8.9766932451
 30
0.0
 10
10.5183382972
 20
8.9768308175
 30
0.0
 10
10.5179686765
 20
8.9769689331
 30
0.0
 10
10.5177014785
 20
8.9770556803
 30
0.0
 10
10.5175586109
 20
8.977099518
 30
0.0
  0
SPLINE
  5
466
100
AcDbEntity
  8
0
100
AcDbSpline
 62
7
  6
CONTINUOUS
 70
0
 71
3
 72
24
 73
20
 74
0
 42
0.0000001
 43
0.0000001
 44
0.0000000001
 40
0.0
 40
0.0
 40
0.0
 40
0.0
 40
0.0063506479
 40
0.0131080851
 40
0.0207680472
 40
0.0296764353
 40
0.0400544886
 40
0.052040402
 40
0.0811441852
 40
0.117410342
 40
0.1610157944
 40
0.212033376
 40
0.2704855822
 40
0.3363552782
 40
0.4096055237
 40
0.4901802415
 40
0.5780065557
 40
0.7750706198
 40
1.0
 40
1.0
 40
1.0
 40
1.0
 10
11.4780904665
 20
8.9495787394
 30
0.0
 10
11.4780917939
 20
8.9495964584
 30
0.0
 10
11.4780887015
 20
8.9496337133
 30
0.0
 10
11.4780664058
 20
8.9496881407
 30
0.0
 10
11.4780275497
 20
8.9497411738
 30
0.0
 10
11.4779726111
 20
8.9497932247
 30
0.0
 10
11.4779016069
 20
8.9498446691
 30
0.0
 10
11.4777771245
 20
8.9499173991
 30
0.0
 10
11.4775784085
 20
8.9500046384
 30
0.0
 10
11.4772894254
 20
8.9501024302
 30
0.0
 10
11.4769359069
 20
8.9501987296
 30
0.0
 10
11.4765181164
 20
8.9502933928
 30
0.0
 10
11.4760363133
 20
8.9503861813
 30
0.0
 10
11.4754909774
 20
8.9504769494
 30
0.0
 10
11.4748826695
 20
8.9505655368
 30
0.0
 10
11.4742120486
 20
8.9506518219
 30
0.0
 10
11.4731961133
 20
8.9507681388
 30
0.0
 10
11.4717760998
 20
8.9509045677
 30
0.0
 10
11.4705989669
 20
8.9509969823
 30
0.0
 10
11.4699712537
 20
8.9510421533
 30
0.0
  0
SPLINE
  5
467
100
AcDbEntity
  8
0
100
AcDbSpline
 62
7
  6
CONTINUOUS
 70
0
 71
3
 72
23
 73
19
 74
0
 42
0.0000001
 43
0.0000001
 44
0.0000000001
 40
0.0
 40
0.0
 40
0.0
 40
0.0
 40
0.0071358133
 40
0.0147113961
 40
0.0231569991
 40
0.0327859096
 40
0.0563405616
 40
0.0863905994
 40
0.1233640591
 40
0.1674618592
 40
0.2187696829
 40
0.2773149179
 40
0.3430810359
 40
0.4160287736
 40
0.4960949825
 40
0.5832017117
 40
0.7781514291
 40
1.0
 40
1.0
 40
1.0
 40
1.0
 10
10.0754944947
 20
8.974944453
 30
0.0
 10
10.0754961931
 20
8.9749670884
 30
0.0
 10
10.0754931064
 20
8.975014476
 30
0.0
 10
10.07546899
 20
8.9750848043
 30
0.0
 10
10.0754262476
 20
8.9751548991
 30
0.0
 10
10.0753389726
 20
8.9752551071
 30
0.0
 10
10.0751783843
 20
8.9753788055
 30
0.0
 10
10.0749270359
 20
8.9755204438
 30
0.0
 10
10.0746038147
 20
8.9756645706
 30
0.0
 10
10.0742087902
 20
8.9758109529
 30
0.0
 10
10.0737419603
 20
8.9759593917
 30
0.0
 10
10.0732037934
 20
8.9761095889
 30
0.0
 10
10.0725948638
 20
8.976261317
 30
0.0
 10
10.0719159016
 20
8.9764143196
 30
0.0
 10
10.0711677389
 20
8.9765683905
 30
0.0
 10
10.0700359691
 20
8.9767830793
 30
0.0
 10
10.068455196
 20
8.9770496088
 30
0.0
 10
10.0671436551
 20
8.9772442576
 30
0.0
 10
10.0664448516
 20
8.9773426877
 30
0.0
  0
SPLINE
  5
468
100
AcDbEntity
  8
0
100
AcDbSpline
 62
7
  6
CONTINUOUS
 70
0
 71
3
 72
30
 73
26
 74
0
 42
0.0000001
 43
0.0000001
 44
0.0000000001
 40
0.0
 40
0.0
 40
0.0
 40
0.0
 40
0.0015631349
 40
0.0032984682
 40
0.0053435501
 40
0.0077836161
 40
0.0106687064
 40
0.0140286471
 40
0.0222357686
 40
0.0324867669
 40
0.0448112136
 40
0.0592155893
 40
0.0756948302
 40
0.0942345692
 40
0.1148155339
 40
0.1374123816
 40
0.1619967883
 40
0.2169927597
 40
0.279503912
 40
0.3491819899
 40
0.4256352602
 40
0.5084315254
 40
0.5971014417
 40
0.7900169519
 40
1.0
 40
1.0
 40
1.0
 40
1.0
 10
9.6943503782
 20
8.9740426394
 30
0.0
 10
9.6943518646
 20
8.9740624392
 30
0.0
 10
9.6943470672
 20
8.9741050922
 30
0.0
 10
9.694317598
 20
8.9741671964
 30
0.0
 10
9.6942675596
 20
8.9742290012
 30
0.0
 10
9.6941972529
 20
8.9742912547
 30
0.0
 10
9.6941065649
 20
8.974354387
 30
0.0
 10
9.6939473428
 20
8.9744460807
 30
0.0
 10
9.6936941606
 20
8.9745601524
 30
0.0
 10
9.6933265662
 20
8.9746938996
 30
0.0
 10
9.6928773017
 20
8.9748316246
 30
0.0
 10
9.6923469205
 20
8.9749730933
 30
0.0
 10
9.691736001
 20
8.975117945
 30
0.0
 10
9.6910453856
 20
8.9752659262
 30
0.0
 10
9.6902760417
 20
8.9754167555
 30
0.0
 10
9.6894290669
 20
8.9755702048
 30
0.0
 10
9.6881492364
 20
8.9757861129
 30
0.0
 10
9.6863648563
 20
8.9760581927
 30
0.0
 10
9.6840090718
 20
8.9763806653
 30
0.0
 10
9.6813790695
 20
8.9767080625
 30
0.0
 10
9.6784899418
 20
8.9770384236
 30
0.0
 10
9.6753582337
 20
8.9773697703
 30
0.0
 10
9.6707519557
 20
8.9778230971
 30
0.0
 10
9.6645320447
 20
8.9783735515
 30
0.0
 10
9.6594297192
 20
8.9787717184
 30
0.0
 10
9.6567696373
 20
8.9789674688
 30
0.0
  0
SPLINE
  5
469
100
AcDbEntity
  8
0
100
AcDbSpline
 62
7
  6
CONTINUOUS
 70
0
 71
3
 72
34
 73
30
 74
0
 42
0.0000001
 43
0.0000001
 44
0.0000000001
 40
0.0
 40
0.0
 40
0.0
 40
0.0
 40
0.0004673137
 40
0.0009794848
 40
0.0015723648
 40
0.002269434
 40
0.004026568
 40
0.0063156934
 40
0.0091626953
 40
0.0125797608
 40
0.0165724547
 40
0.0211432652
 40
0.0262927878
 40
0.0320198771
 40
0.0451982455
 40
0.0606551791
 40
0.0783581694
 40
0.0982671122
 40
0.1203361501
 40
0.1707405941
 40
0.2290938043
 40
0.2948395097
 40
0.3673503408
 40
0.445935162
 40
0.5298459699
 40
0.6182842024
 40
0.7104082023
 40
0.8053419884
 40
1.0
 40
1.0
 40
1.0
 40
1.0
 10
9.4018883198
 20
8.973352106
 30
0.0
 10
9.4018889972
 20
8.9733611343
 30
0.0
 10
9.4018871618
 20
8.9733804122
 30
0.0
 10
9.4018751706
 20
8.9734087876
 30
0.0
 10
9.4018545203
 20
8.9734372119
 30
0.0
 10
9.4018122742
 20
8.9734787131
 30
0.0
 10
9.4017355145
 20
8.9735303116
 30
0.0
 10
9.4016162099
 20
8.9735905616
 30
0.0
 10
9.4014626241
 20
8.973653186
 30
0.0
 10
9.4012747605
 20
8.9737181171
 30
0.0
 10
9.4010525235
 20
8.9737852656
 30
0.0
 10
9.4007960109
 20
8.9738545463
 30
0.0
 10
9.400505339
 20
8.9739258911
 30
0.0
 10
9.4000507269
 20
8.97402856
 30
0.0
 10
9.399398008
 20
8.9741599913
 30
0.0
 10
9.3985143746
 20
8.9743188351
 30
0.0
 10
9.3974996572
 20
8.9744847361
 30
0.0
 10
9.3963563213
 20
8.9746572659
 30
0.0
 10
9.3945839479
 20
8.9749066917
 30
0.0
 10
9.3920696971
 20
8.9752282269
 30
0.0
 10
9.3887114153
 20
8.9756184076
 30
0.0
 10
9.384923911
 20
8.9760239651
 30
0.0
 10
9.3807435429
 20
8.9764409019
 30
0.0
 10
9.3762103117
 20
8.9768650831
 30
0.0
 10
9.3713675206
 20
8.9772923877
 30
0.0
 10
9.3662613735
 20
8.9777186795
 30
0.0
 10
9.3609405483
 20
8.9781398635
 30
0.0
 10
9.3535659591
 20
8.9786938149
 30
0.0
 10
9.3479687859
 20
8.9790819331
 30
0.0
 10
9.3442055998
 20
8.9793291761
 30
0.0
  0
SPLINE
  5
46A
100
AcDbEntity
  8
0
100
AcDbSpline
 62
7
  6
CONTINUOUS
 70
0
 71
3
 72
18
 73
14
 74
0
 42
0.0000001
 43
0.0000001
 44
0.0000000001
 40
0.0
 40
0.0
 40
0.0
 40
0.0
 40
0.0234093821
 40
0.0484451933
 40
0.0768961824
 40
0.1100005389
 40
0.1485454187
 40
0.1930220362
 40
0.3008719279
 40
0.435053991
 40
0.5961723168
 40
0.7844749715
 40
1.0
 40
1.0
 40
1.0
 40
1.0
 10
10.9957557001
 20
8.9484272411
 30
0.0
 10
10.9957572054
 20
8.9484473325
 30
0.0
 10
10.9957536544
 20
8.9484896773
 30
0.0
 10
10.9957284138
 20
8.9485517026
 30
0.0
 10
10.9956844682
 20
8.9486125449
 30
0.0
 10
10.9956223159
 20
8.9486726595
 30
0.0
 10
10.9955419803
 20
8.9487324579
 30
0.0
 10
10.9954012074
 20
8.9488174936
 30
0.0
 10
10.99517649
 20
8.948920589
 30
0.0
 10
10.994849626
 20
8.9490375968
 30
0.0
 10
10.9944498839
 20
8.9491542817
 30
0.0
 10
10.9939776315
 20
8.9492704314
 30
0.0
 10
10.9936375612
 20
8.9493424793
 30
0.0
 10
10.9934556511
 20
8.9493787739
 30
0.0
  0
SPLINE
  5
46B
100
AcDbEntity
  8
0
100
AcDbSpline
 62
7
  6
CONTINUOUS
 70
0
 71
3
 72
34
 73
30
 74
0
 42
0.0000001
 43
0.0000001
 44
0.0000000001
 40
0.0
 40
0.0
 40
0.0
 40
0.0
 40
0.0003613002
 40
0.0007825839
 40
0.0013020271
 40
0.0019403743
 40
0.0036122428
 40
0.0058438282
 40
0.0086508049
 40
0.0120397474
 40
0.0160134548
 40
0.0205722763
 40
0.0257150357
 40
0.0314399448
 40
0.044625012
 40
0.0600994875
 40
0.0778279594
 40
0.0977686374
 40
0.119873368
 40
0.1703570224
 40
0.2287914057
 40
0.2946129696
 40
0.367189386
 40
0.445826414
 40
0.529774601
 40
0.6182365687
 40
0.7103739262
 40
0.8053155742
 40
1.0
 40
1.0
 40
1.0
 40
1.0
 10
8.8364767382
 20
9.0083515928
 30
0.0
 10
8.8364772614
 20
9.0083585781
 30
0.0
 10
8.8364748371
 20
9.0083740645
 30
0.0
 10
8.8364620235
 20
9.0083962171
 30
0.0
 10
8.8364408737
 20
9.0084185873
 30
0.0
 10
8.8363973879
 20
9.0084522649
 30
0.0
 10
8.8363196731
 20
9.0084945302
 30
0.0
 10
8.8361997555
 20
9.0085451008
 30
0.0
 10
8.8360453636
 20
9.0085988927
 30
0.0
 10
8.8358565755
 20
9.0086558624
 30
0.0
 10
8.8356333379
 20
9.008715875
 30
0.0
 10
8.835375776
 20
9.0087788631
 30
0.0
 10
8.8350840251
 20
9.0088447645
 30
0.0
 10
8.834627725
 20
9.008941039
 30
0.0
 10
8.8339730365
 20
9.00906699
 30
0.0
 10
8.8330872529
 20
9.0092228591
 30
0.0
 10
8.8320704019
 20
9.0093892074
 30
0.0
 10
8.8309249971
 20
9.0095656015
 30
0.0
 10
8.8291499176
 20
9.0098252231
 30
0.0
 10
8.8266329274
 20
9.0101687221
 30
0.0
 10
8.8232722817
 20
9.0105973969
 30
0.0
 10
8.8194835353
 20
9.0110543797
 30
0.0
 10
8.8153032094
 20
9.0115352015
 30
0.0
 10
8.8107713809
 20
9.0120351543
 30
0.0
 10
8.8059313167
 20
9.0125494242
 30
0.0
 10
8.8008290676
 20
9.0130730833
 30
0.0
 10
8.7955130391
 20
9.0136011484
 30
0.0
 10
8.7881454623
 20
9.014310316
 30
0.0
 10
8.7825536993
 20
9.0148239542
 30
0.0
 10
8.7787940507
 20
9.0151588792
 30
0.0
  0
SPLINE
  5
46C
100
AcDbEntity
  8
0
100
AcDbSpline
 62
9
  6
CONTINUOUS
 70
0
 71
3
 72
42
 73
38
 74
0
 42
0.0000001
 43
0.0000001
 44
0.0000000001
 40
0.0
 40
0.0
 40
0.0
 40
0.0
 40
0.0385769566
 40
0.0770242038
 40
0.0961623754
 40
0.1152227682
 40
0.1341919435
 40
0.1530572201
 40
0.1904283267
 40
0.2089178989
 40
0.2272645428
 40
0.263500158
 40
0.2990967514
 40
0.3340296297
 40
0.3682881127
 40
0.401873283
 40
0.4347962598
 40
0.4670754576
 40
0.4987347789
 40
0.529802637
 40
0.5603103237
 40
0.5902907185
 40
0.6197779105
 40
0.6488069183
 40
0.677412843
 40
0.7056306368
 40
0.7334950988
 40
0.7610403812
 40
0.7883002421
 40
0.8153078716
 40
0.8420959065
 40
0.8686968928
 40
0.8951427286
 40
0.9214647628
 40
0.9476943993
 40
0.9738632192
 40
1.0
 40
1.0
 40
1.0
 40
1.0
 10
10.9376923427
 20
4.5501695021
 30
0.0
 10
10.9449664083
 20
4.5501692951
 30
0.0
 10
10.9594927962
 20
4.5497768979
 30
0.0
 10
10.9775757474
 20
4.5483239745
 30
0.0
 10
10.9919253039
 20
4.5465911301
 30
0.0
 10
11.0025899293
 20
4.5450123246
 30
0.0
 10
11.0131579986
 20
4.5431586096
 30
0.0
 10
11.0270570955
 20
4.5403401673
 30
0.0
 10
11.0407528495
 20
4.5369961174
 30
0.0
 10
11.054205436
 20
4.5331419653
 30
0.0
 10
11.0673482092
 20
4.5290006921
 30
0.0
 10
11.0833633929
 20
4.5232618887
 30
0.0
 10
11.1019479433
 20
4.5155000952
 30
0.0
 10
11.1197740473
 20
4.5069571628
 30
0.0
 10
11.1368101195
 20
4.497702058
 30
0.0
 10
11.1530360201
 20
4.4878004006
 30
0.0
 10
11.168438866
 20
4.4773115543
 30
0.0
 10
11.1830137197
 20
4.4662922701
 30
0.0
 10
11.1967616012
 20
4.4547954293
 30
0.0
 10
11.2096866847
 20
4.4428683613
 30
0.0
 10
11.2217961698
 20
4.4305545223
 30
0.0
 10
11.233099561
 20
4.4178939194
 30
0.0
 10
11.2436076291
 20
4.4049229641
 30
0.0
 10
11.2533313746
 20
4.3916744372
 30
0.0
 10
11.2622820728
 20
4.3781783155
 30
0.0
 10
11.2704710709
 20
4.364462166
 30
0.0
 10
11.2779090285
 20
4.3505511595
 30
0.0
 10
11.2846062711
 20
4.336468648
 30
0.0
 10
11.290572268
 20
4.322236227
 30
0.0
 10
11.2958155654
 20
4.3078739924
 30
0.0
 10
11.3003441273
 20
4.2934008219
 30
0.0
 10
11.3041643015
 20
4.2788342981
 30
0.0
 10
11.3072819536
 20
4.2641912937
 30
0.0
 10
11.3097022244
 20
4.2494880274
 30
0.0
 10
11.311428448
 20
4.23473972
 30
0.0
 10
11.3124615801
 20
4.2199620819
 30
0.0
 10
11.3126913784
 20
4.2100978498
 30
0.0
 10
11.3126923427
 20
4.2051695021
 30
0.0
  0
SPLINE
  5
46D
100
AcDbEntity
  8
0
100
AcDbSpline
 62
7
  6
CONTINUOUS
 70
0
 71
3
 72
25
 73
21
 74
0
 42
0.0000001
 43
0.0000001
 44
0.0000000001
 40
0.0
 40
0.0
 40
0.0
 40
0.0
 40
0.0038809861
 40
0.0085283467
 40
0.0145383396
 40
0.0221947415
 40
0.0316319325
 40
0.0429185977
 40
0.0560929367
 40
0.0711774325
 40
0.1071194172
 40
0.1507848245
 40
0.2021654592
 40
0.2612208424
 40
0.3278925508
 40
0.4021065389
 40
0.4837728262
 40
0.572793285
 40
0.772431477
 40
1.0
 40
1.0
 40
1.0
 40
1.0
 10
11.4861373812
 20
8.9285163368
 30
0.0
 10
11.4861383136
 20
8.9285287881
 30
0.0
 10
11.4861323326
 20
8.9285569964
 30
0.0
 10
11.4861026409
 20
8.9285943539
 30
0.0
 10
11.4860552879
 20
8.9286299274
 30
0.0
 10
11.4859894639
 20
8.9286648888
 30
0.0
 10
11.4859048708
 20
8.9286994945
 30
0.0
 10
11.4858012689
 20
8.9287337631
 30
0.0
 10
11.4856786033
 20
8.9287676721
 30
0.0
 10
11.4854775473
 20
8.9288151607
 30
0.0
 10
11.485178059
 20
8.9288717202
 30
0.0
 10
11.4847613243
 20
8.9289347405
 30
0.0
 10
11.4842692797
 20
8.9289959118
 30
0.0
 10
11.4837025359
 20
8.929055123
 30
0.0
 10
11.48306179
 20
8.9291122112
 30
0.0
 10
11.4823478711
 20
8.9291670665
 30
0.0
 10
11.4815617022
 20
8.9292195986
 30
0.0
 10
11.480372285
 20
8.929289089
 30
0.0
 10
11.4787132674
 20
8.9293678868
 30
0.0
 10
11.4773397503
 20
8.9294187373
 30
0.0
 10
11.4766080022
 20
8.9294429548
 30
0.0
  0
SPLINE
  5
46E
100
AcDbEntity
  8
0
100
AcDbSpline
 62
7
  6
CONTINUOUS
 70
0
 71
3
 72
28
 73
24
 74
0
 42
0.0000001
 43
0.0000001
 44
0.0000000001
 40
0.0
 40
0.0
 40
0.0
 40
0.0
 40
0.001496571
 40
0.0028561593
 40
0.0046849007
 40
0.0069977022
 40
0.0098014747
 40
0.0168944427
 40
0.0259787793
 40
0.0370591695
 40
0.0501358633
 40
0.0652056116
 40
0.1013061015
 40
0.1453147912
 40
0.1971665986
 40
0.2567855863
 40
0.3240802715
 40
0.398949476
 40
0.4812774145
 40
0.5709392335
 40
0.6677959628
 40
0.77170028
 40
1.0
 40
1.0
 40
1.0
 40
1.0
 10
10.5193885713
 20
8.9127184963
 30
0.0
 10
10.5193889844
 20
8.9127240028
 30
0.0
 10
10.5193784648
 20
8.9127322993
 30
0.0
 10
10.5193636107
 20
8.9127390094
 30
0.0
 10
10.519344087
 20
8.9127458482
 30
0.0
 10
10.5193194782
 20
8.9127525381
 30
0.0
 10
10.5192754916
 20
8.9127625983
 30
0.0
 10
10.5192065557
 20
8.9127749056
 30
0.0
 10
10.5191070056
 20
8.912789386
 30
0.0
 10
10.5189852633
 20
8.912804326
 30
0.0
 10
10.518841343
 20
8.9128197388
 30
0.0
 10
10.518605354
 20
8.9128422391
 30
0.0
 10
10.5182553112
 20
8.9128707522
 30
0.0
 10
10.517769603
 20
8.9129049362
 30
0.0
 10
10.5171970301
 20
8.9129406771
 30
0.0
 10
10.5165384765
 20
8.9129779016
 30
0.0
 10
10.5157949459
 20
8.913016523
 30
0.0
 10
10.5149675866
 20
8.9130564682
 30
0.0
 10
10.5140576668
 20
8.9130976674
 30
0.0
 10
10.513066592
 20
8.9131400491
 30
0.0
 10
10.5119958831
 20
8.9131835463
 30
0.0
 10
10.5104139387
 20
8.9132448808
 30
0.0
 10
10.5091889886
 20
8.9132893313
 30
0.0
 10
10.5083471353
 20
8.9133188814
 30
0.0
  0
SPLINE
  5
46F
100
AcDbEntity
  8
0
100
AcDbSpline
 62
7
  6
CONTINUOUS
 70
0
 71
3
 72
27
 73
23
 74
0
 42
0.0000001
 43
0.0000001
 44
0.0000000001
 40
0.0
 40
0.0
 40
0.0
 40
0.0
 40
0.0018936569
 40
0.0039010978
 40
0.0061347681
 40
0.0086770611
 40
0.0148855423
 40
0.0227997145
 40
0.0325395789
 40
0.0441645068
 40
0.0577059479
 40
0.0731808493
 40
0.1099493263
 40
0.1544687096
 40
0.2066793133
 40
0.2664893054
 40
0.3337781182
 40
0.4084050923
 40
0.4902086876
 40
0.5790088485
 40
0.7767956883
 40
1.0
 40
1.0
 40
1.0
 40
1.0
 10
10.0892635677
 20
8.9462725077
 30
0.0
 10
10.0892643385
 20
8.9462827724
 30
0.0
 10
10.0892629816
 20
8.9463042411
 30
0.0
 10
10.089252215
 20
8.9463361255
 30
0.0
 10
10.08923309
 20
8.9463679165
 30
0.0
 10
10.089194028
 20
8.9464133516
 30
0.0
 10
10.0891220629
 20
8.9464695243
 30
0.0
 10
10.0890092732
 20
8.9465339388
 30
0.0
 10
10.088864088
 20
8.9465996092
 30
0.0
 10
10.0886864353
 20
8.9466664889
 30
0.0
 10
10.0884761892
 20
8.9467345391
 30
0.0
 10
10.088132192
 20
8.9468324204
 30
0.0
 10
10.0876203514
 20
8.9469545043
 30
0.0
 10
10.0869089226
 20
8.9470980049
 30
0.0
 10
10.0860707078
 20
8.9472449848
 30
0.0
 10
10.0851075847
 20
8.9473950346
 30
0.0
 10
10.0840216782
 20
8.9475476941
 30
0.0
 10
10.0828154496
 20
8.947702556
 30
0.0
 10
10.0814916326
 20
8.9478592351
 30
0.0
 10
10.0795010807
 20
8.9480779894
 30
0.0
 10
10.0767432803
 20
8.9483504961
 30
0.0
 10
10.0744636027
 20
8.9485510495
 30
0.0
 10
10.0732545352
 20
8.9486523749
 30
0.0
  0
SPLINE
  5
470
100
AcDbEntity
  8
0
100
AcDbSpline
 62
7
  6
CONTINUOUS
 70
0
 71
3
 72
34
 73
30
 74
0
 42
0.0000001
 43
0.0000001
 44
0.0000000001
 40
0.0
 40
0.0
 40
0.0
 40
0.0
 40
0.000360604
 40
0.0007761752
 40
0.001286736
 40
0.0019143796
 40
0.0035616664
 40
0.0057660245
 40
0.0085443357
 40
0.0119038539
 40
0.0158472169
 40
0.0203750583
 40
0.0254867785
 40
0.0311804064
 40
0.0443027144
 40
0.0597155631
 40
0.0773846612
 40
0.0972689187
 40
0.1193218485
 40
0.1697183054
 40
0.2280934271
 40
0.2938887406
 40
0.3664744923
 40
0.4451559973
 40
0.5291811071
 40
0.6177467421
 40
0.7100060862
 40
0.8050777838
 40
1.0
 40
1.0
 40
1.0
 40
1.0
 10
9.7744423598
 20
8.9455270249
 30
0.0
 10
9.7744428825
 20
8.9455339903
 30
0.0
 10
9.7744405261
 20
8.9455493526
 30
0.0
 10
9.7744277009
 20
8.9455711603
 30
0.0
 10
9.7744065197
 20
8.9455927972
 30
0.0
 10
9.7743629711
 20
8.9456249044
 30
0.0
 10
9.7742851635
 20
8.9456642642
 30
0.0
 10
9.7741652242
 20
8.9457102881
 30
0.0
 10
9.7740107873
 20
8.9457582001
 30
0.0
 10
9.7738219282
 20
8.9458079602
 30
0.0
 10
9.773598588
 20
8.9458594386
 30
0.0
 10
9.7733408861
 20
8.9459125688
 30
0.0
 10
9.7730489482
 20
8.9459672886
 30
0.0
 10
9.7725921968
 20
8.9460460854
 30
0.0
 10
9.7719368363
 20
8.9461469199
 30
0.0
 10
9.7710501532
 20
8.9462687565
 30
0.0
 10
9.7700320834
 20
8.9463960154
 30
0.0
 10
9.7688850885
 20
8.9465283666
 30
0.0
 10
9.7671068125
 20
8.9467197528
 30
0.0
 10
9.7645846814
 20
8.9469664462
 30
0.0
 10
9.7612165128
 20
8.9472657825
 30
0.0
 10
9.7574179802
 20
8.9475769232
 30
0.0
 10
9.7532255782
 20
8.9478967938
 30
0.0
 10
9.7486795096
 20
8.9482222114
 30
0.0
 10
9.7438233266
 20
8.9485500036
 30
0.0
 10
9.7387035189
 20
8.9488769862
 30
0.0
 10
9.733369076
 20
8.9492000076
 30
0.0
 10
9.7259768972
 20
8.9496247678
 30
0.0
 10
9.7203674689
 20
8.9499222951
 30
0.0
 10
9.7165965234
 20
8.9501117949
 30
0.0
  0
LINE
  5
471
100
AcDbEntity
  8
0
100
AcDbLine
 62
7
  6
CONTINUOUS
 10
9.2016828337
 20
8.9749052192
 11
9.1603888224
 21
8.9782670321
  0
SPLINE
  5
472
100
AcDbEntity
  8
0
100
AcDbSpline
 62
7
  6
CONTINUOUS
 70
0
 71
3
 72
39
 73
35
 74
0
 42
0.0000001
 43
0.0000001
 44
0.0000000001
 40
0.0
 40
0.0
 40
0.0
 40
0.0
 40
0.0001313555
 40
0.0002349032
 40
0.0003712397
 40
0.0007494997
 40
0.0012737955
 40
0.0019465019
 40
0.0027686693
 40
0.0048631424
 40
0.0075585058
 40
0.0108540285
 40
0.0147484484
 40
0.0192398145
 40
0.0243253073
 40
0.0300019639
 40
0.0431151448
 40
0.058546797
 40
0.0762589839
 40
0.0962075856
 40
0.1183427514
 40
0.1426096334
 40
0.1689474395
 40
0.1972909413
 40
0.2275695607
 40
0.2936273838
 40
0.3664679606
 40
0.4453744502
 40
0.5295737676
 40
0.6182448129
 40
0.7105263585
 40
0.8055262813
 40
0.902326698
 40
1.0
 40
1.0
 40
1.0
 40
1.0
 10
13.253731903
 20
9.0189138587
 30
0.0
 10
13.2537320951
 20
9.0189164212
 30
0.0
 10
13.2537285674
 20
9.0189207146
 30
0.0
 10
13.2537222263
 20
9.0189238762
 30
0.0
 10
13.2537107674
 20
9.0189280782
 30
0.0
 10
13.2536908306
 20
9.0189321027
 30
0.0
 10
13.2536602511
 20
9.0189360931
 30
0.0
 10
13.253620867
 20
9.018939249
 30
0.0
 10
13.2535507271
 20
9.0189427448
 30
0.0
 10
13.2534409271
 20
9.0189444891
 30
0.0
 10
13.2532827496
 20
9.0189434132
 30
0.0
 10
13.253089401
 20
9.0189390962
 30
0.0
 10
13.2528609975
 20
9.0189315424
 30
0.0
 10
13.2525976739
 20
9.0189207172
 30
0.0
 10
13.2522995953
 20
9.0189066231
 30
0.0
 10
13.2518331475
 20
9.0188822634
 30
0.0
 10
13.2511647933
 20
9.0188432212
 30
0.0
 10
13.2502616877
 20
9.0187855353
 30
0.0
 10
13.2492254113
 20
9.0187150669
 30
0.0
 10
13.2480585536
 20
9.0186319809
 30
0.0
 10
13.2467640289
 20
9.0185364661
 30
0.0
 10
13.2453450735
 20
9.0184287527
 30
0.0
 10
13.2438052214
 20
9.0183091039
 30
0.0
 10
13.2421483115
 20
9.0181778149
 30
0.0
 10
13.2397170307
 20
9.0179819083
 30
0.0
 10
13.2364185297
 20
9.017710163
 30
0.0
 10
13.2321725759
 20
9.0173523941
 30
0.0
 10
13.2275735809
 20
9.0169576056
 30
0.0
 10
13.2226666007
 20
9.0165296601
 30
0.0
 10
13.2174994983
 20
9.0160727245
 30
0.0
 10
13.2121224499
 20
9.015591235
 30
0.0
 10
13.2065875116
 20
9.0150898529
 30
0.0
 10
13.2009480273
 20
9.0145734123
 30
0.0
 10
13.1971596512
 20
9.0142228375
 30
0.0
 10
13.1952570452
 20
9.0140458617
 30
0.0
  0
SPLINE
  5
473
100
AcDbEntity
  8
0
100
AcDbSpline
 62
7
  6
CONTINUOUS
 70
0
 71
3
 72
32
 73
28
 74
0
 42
0.0000001
 43
0.0000001
 44
0.0000000001
 40
0.0
 40
0.0
 40
0.0
 40
0.0
 40
0.1934946807
 40
0.2878826567
 40
0.3794664349
 40
0.4673603595
 40
0.5507185369
 40
0.6287450067
 40
0.7007019209
 40
0.7659180496
 40
0.8237971287
 40
0.8498225309
 40
0.873829605
 40
0.895769712
 40
0.9156025314
 40
0.9332963393
 40
0.9488308669
 40
0.9622016479
 40
0.9734270683
 40
0.9782535722
 40
0.9825714355
 40
0.9864011223
 40
0.9897734553
 40
0.9927345497
 40
0.995353597
 40
0.9977310263
 40
1.0
 40
1.0
 40
1.0
 40
1.0
 10
10.9376923427
 20
9.0189440147
 30
0.0
 10
10.9338913083
 20
9.0189440147
 30
0.0
 10
10.9282358986
 20
9.018892697
 30
0.0
 10
10.9207835755
 20
9.0187179651
 30
0.0
 10
10.9154066366
 20
9.0185378173
 30
0.0
 10
10.9102484015
 20
9.0183094395
 30
0.0
 10
10.9053590994
 20
9.0180351859
 30
0.0
 10
10.9007861508
 20
9.0177179161
 30
0.0
 10
10.8965736362
 20
9.0173610011
 30
0.0
 10
10.89276197
 20
9.0169681527
 30
0.0
 10
10.8898551194
 20
9.0166028238
 30
0.0
 10
10.8877582815
 20
9.0162908933
 30
0.0
 10
10.886363536
 20
9.0160588203
 30
0.0
 10
10.8850933336
 20
9.0158208866
 30
0.0
 10
10.8839506002
 20
9.0155777308
 30
0.0
 10
10.8829379272
 20
9.0153300262
 30
0.0
 10
10.8820574312
 20
9.0150785131
 30
0.0
 10
10.8813109715
 20
9.0148238913
 30
0.0
 10
10.880777254
 20
9.0145999277
 30
0.0
 10
10.8804215927
 20
9.0144161009
 30
0.0
 10
10.8802029559
 20
9.0142847104
 30
0.0
 10
10.8800187077
 20
9.0141527969
 30
0.0
 10
10.8798688215
 20
9.0140202384
 30
0.0
 10
10.8797533081
 20
9.0138867527
 30
0.0
 10
10.8796724663
 20
9.0137517763
 30
0.0
 10
10.8796272462
 20
9.0136150024
 30
0.0
 10
10.8796218293
 20
9.0135226197
 30
0.0
 10
10.8796251618
 20
9.0134781724
 30
0.0
  0
SPLINE
  5
474
100
AcDbEntity
  8
0
100
AcDbSpline
 62
7
  6
CONTINUOUS
 70
0
 71
3
 72
34
 73
30
 74
0
 42
0.0000001
 43
0.0000001
 44
0.0000000001
 40
0.0
 40
0.0
 40
0.0
 40
0.0
 40
0.1946003584
 40
0.2896341819
 40
0.381918929
 40
0.4705543088
 40
0.5546721373
 40
0.6334467338
 40
0.7061037996
 40
0.771929566
 40
0.8302793557
 40
0.8564703989
 40
0.8805866216
 40
0.9025704356
 40
0.9223710553
 40
0.9399438168
 40
0.9552515629
 40
0.9682661954
 40
0.9739078236
 40
0.9789710865
 40
0.9834567656
 40
0.9873673491
 40
0.9907087883
 40
0.9934924731
 40
0.9957395919
 40
0.9974928801
 40
0.9988447834
 40
0.9994305117
 40
1.0
 40
1.0
 40
1.0
 40
1.0
 10
8.9718146761
 20
9.0162013255
 30
0.0
 10
8.9680219933
 20
9.0165094123
 30
0.0
 10
8.9623750278
 20
9.0169425836
 30
0.0
 10
8.9549250437
 20
9.0174607889
 30
0.0
 10
8.9495402805
 20
9.0178084148
 30
0.0
 10
8.944366816
 20
9.018114717
 30
0.0
 10
8.9394554432
 20
9.0183766904
 30
0.0
 10
8.9348545449
 20
9.0185917877
 30
0.0
 10
8.9306095394
 20
9.018757977
 30
0.0
 10
8.9267623977
 20
9.018873693
 30
0.0
 10
8.9238225917
 20
9.018929301
 30
0.0
 10
8.9216979725
 20
9.0189452854
 30
0.0
 10
8.9202843877
 20
9.0189436524
 30
0.0
 10
8.9189958365
 20
9.0189289132
 30
0.0
 10
8.9178354749
 20
9.0189011436
 30
0.0
 10
8.9168061043
 20
9.0188605075
 30
0.0
 10
8.9159102027
 20
9.0188071635
 30
0.0
 10
8.9152483946
 20
9.0187501272
 30
0.0
 10
8.9147876679
 20
9.0186964673
 30
0.0
 10
8.9144934985
 20
9.0186550715
 30
0.0
 10
8.9142340386
 20
9.0186106567
 30
0.0
 10
8.914009392
 20
9.0185632811
 30
0.0
 10
8.9138195844
 20
9.0185129995
 30
0.0
 10
8.91366452
 20
9.0184599666
 30
0.0
 10
8.9135438168
 20
9.0184039752
 30
0.0
 10
8.9134566716
 20
9.0183450681
 30
0.0
 10
8.9134091778
 20
9.0182880974
 30
0.0
 10
8.9133932653
 20
9.0182411627
 30
0.0
 10
8.9133919864
 20
9.0182182898
 30
0.0
 10
8.913392819
 20
9.0182071853
 30
0.0
  0
SPLINE
  5
475
100
AcDbEntity
  8
0
100
AcDbSpline
 62
7
  6
CONTINUOUS
 70
0
 71
3
 72
34
 73
30
 74
0
 42
0.0000001
 43
0.0000001
 44
0.0000000001
 40
0.0
 40
0.0
 40
0.0
 40
0.0
 40
0.0003523413
 40
0.0007429003
 40
0.0012192175
 40
0.0018083871
 40
0.0025247778
 40
0.0033763142
 40
0.0055010693
 40
0.0082032652
 40
0.0114908328
 40
0.0153673031
 40
0.0198336515
 40
0.0248890103
 40
0.0305317959
 40
0.0435696693
 40
0.0589205987
 40
0.0765503252
 40
0.1184734949
 40
0.16893483
 40
0.2274391719
 40
0.2934093885
 40
0.3661942102
 40
0.4450761264
 40
0.5292795026
 40
0.6179792973
 40
0.7103094921
 40
0.8053729592
 40
1.0
 40
1.0
 40
1.0
 40
1.0
 10
13.1550475535
 20
9.0186746727
 30
0.0
 10
13.1550480685
 20
9.018681542
 30
0.0
 10
13.1550458797
 20
9.0186964524
 30
0.0
 10
13.1550327506
 20
9.0187169325
 30
0.0
 10
13.1550111178
 20
9.0187357839
 30
0.0
 10
13.1549810531
 20
9.0187536217
 30
0.0
 10
13.1549423951
 20
9.0187706483
 30
0.0
 10
13.1548740424
 20
9.0187940734
 30
0.0
 10
13.1547658833
 20
9.0188199705
 30
0.0
 10
13.1546094141
 20
9.0188464391
 30
0.0
 10
13.1544178901
 20
9.0188698624
 30
0.0
 10
13.1541913927
 20
9.0188902011
 30
0.0
 10
13.1539299884
 20
9.0189073605
 30
0.0
 10
13.1536338244
 20
9.0189213137
 30
0.0
 10
13.1531699924
 20
9.0189363028
 30
0.0
 10
13.1525046553
 20
9.0189454814
 30
0.0
 10
13.1516049293
 20
9.0189432451
 30
0.0
 10
13.1501406227
 20
9.0189215031
 30
0.0
 10
13.1479905859
 20
9.0188578595
 30
0.0
 10
13.1450430927
 20
9.0187349444
 30
0.0
 10
13.1416272785
 20
9.0185618974
 30
0.0
 10
13.1377770243
 20
9.0183403293
 30
0.0
 10
13.1335304577
 20
9.0180722448
 30
0.0
 10
13.1289295344
 20
9.0177602326
 30
0.0
 10
13.1240195603
 20
9.0174073208
 30
0.0
 10
13.1188487095
 20
9.0170169537
 30
0.0
 10
13.1134674989
 20
9.016592946
 30
0.0
 10
13.1060235479
 20
9.015983442
 30
0.0
 10
13.100380762
 20
9.0154965194
 30
0.0
 10
13.0965906347
 20
9.0151588792
 30
0.0
  0
SPLINE
  5
476
100
AcDbEntity
  8
0
100
AcDbSpline
 62
7
  6
CONTINUOUS
 70
0
 71
3
 72
34
 73
30
 74
0
 42
0.0000001
 43
0.0000001
 44
0.0000000001
 40
0.0
 40
0.0
 40
0.0
 40
0.0
 40
0.0005694883
 40
0.0011552166
 40
0.0025071199
 40
0.0042604081
 40
0.0065075268
 40
0.0092912115
 40
0.0126326506
 40
0.0165432342
 40
0.0210289135
 40
0.0260921765
 40
0.0317338047
 40
0.044748437
 40
0.060056183
 40
0.0776289448
 40
0.0974295646
 40
0.1194133784
 40
0.1435296013
 40
0.1697206444
 40
0.2280704337
 40
0.2938961999
 40
0.366553265
 40
0.4453278628
 40
0.5294456914
 40
0.6180810726
 40
0.7103658197
 40
0.8053996427
 40
1.0
 40
1.0
 40
1.0
 40
1.0
 10
12.9619918665
 20
9.0182071853
 30
0.0
 10
12.961992699
 20
9.0182182898
 30
0.0
 10
12.9619914202
 20
9.0182411627
 30
0.0
 10
12.9619755077
 20
9.0182880974
 30
0.0
 10
12.9619280138
 20
9.0183450681
 30
0.0
 10
12.9618408687
 20
9.0184039752
 30
0.0
 10
12.9617201655
 20
9.0184599666
 30
0.0
 10
12.961565101
 20
9.0185129995
 30
0.0
 10
12.9613752935
 20
9.0185632811
 30
0.0
 10
12.9611506469
 20
9.0186106567
 30
0.0
 10
12.960891187
 20
9.0186550715
 30
0.0
 10
12.9605970176
 20
9.0186964673
 30
0.0
 10
12.9601362909
 20
9.0187501272
 30
0.0
 10
12.9594744828
 20
9.0188071635
 30
0.0
 10
12.9585785811
 20
9.0188605075
 30
0.0
 10
12.9575492105
 20
9.0189011436
 30
0.0
 10
12.956388849
 20
9.0189289132
 30
0.0
 10
12.9551002978
 20
9.0189436524
 30
0.0
 10
12.9536867129
 20
9.0189452854
 30
0.0
 10
12.9515620938
 20
9.018929301
 30
0.0
 10
12.9486222878
 20
9.018873693
 30
0.0
 10
12.9447751461
 20
9.018757977
 30
0.0
 10
12.9405301406
 20
9.0185917877
 30
0.0
 10
12.9359292423
 20
9.0183766904
 30
0.0
 10
12.9310178694
 20
9.018114717
 30
0.0
 10
12.9258444049
 20
9.0178084148
 30
0.0
 10
12.9204596417
 20
9.0174607889
 30
0.0
 10
12.9130096576
 20
9.0169425836
 30
0.0
 10
12.9073626922
 20
9.0165094123
 30
0.0
 10
12.9035700093
 20
9.0162013255
 30
0.0
  0
SPLINE
  5
477
100
AcDbEntity
  8
0
100
AcDbSpline
 62
7
  6
CONTINUOUS
 70
0
 71
3
 72
31
 73
27
 74
0
 42
0.0000001
 43
0.0000001
 44
0.0000000001
 40
0.0
 40
0.0
 40
0.0
 40
0.0
 40
0.1944416706
 40
0.3815471363
 40
0.4700520474
 40
0.5540234068
 40
0.6326381307
 40
0.7051267499
 40
0.7707828662
 40
0.8289720092
 40
0.8550903946
 40
0.879141747
 40
0.901071008
 40
0.9208304919
 40
0.9383794577
 40
0.9536859454
 40
0.9667292626
 40
0.9775034588
 40
0.9820457659
 40
0.9860319394
 40
0.9894734144
 40
0.992389686
 40
0.9948140884
 40
0.9968064366
 40
0.9984752088
 40
1.0
 40
1.0
 40
1.0
 40
1.0
 10
9.2507535889
 20
9.0171268738
 30
0.0
 10
9.2469579383
 20
9.0173917783
 30
0.0
 10
9.2395066271
 20
9.0178665344
 30
0.0
 10
9.2303202464
 20
9.0183364299
 30
0.0
 10
9.223289502
 20
9.0186196252
 30
0.0
 10
9.2183786093
 20
9.0187787311
 30
0.0
 10
9.2137798181
 20
9.0188870873
 30
0.0
 10
9.2095385026
 20
9.0189437457
 30
0.0
 10
9.2056964921
 20
9.0189482786
 30
0.0
 10
9.202762076
 20
9.0189077354
 30
0.0
 10
9.2006425427
 20
9.0188459964
 30
0.0
 10
9.1992328262
 20
9.0187884815
 30
0.0
 10
9.1979482753
 20
9.0187182967
 30
0.0
 10
9.1967919766
 20
9.0186356791
 30
0.0
 10
9.1957666773
 20
9.018540915
 30
0.0
 10
9.1948746979
 20
9.018434421
 30
0.0
 10
9.1941180662
 20
9.0183165723
 30
0.0
 10
9.1935741757
 20
9.0182041581
 30
0.0
 10
9.1932094365
 20
9.0181055361
 30
0.0
 10
9.1929865393
 20
9.0180331544
 30
0.0
 10
9.1927983249
 20
9.0179581747
 30
0.0
 10
9.1926446468
 20
9.0178805819
 30
0.0
 10
9.1925251809
 20
9.0178001567
 30
0.0
 10
9.1924395031
 20
9.0177160629
 30
0.0
 10
9.1923882989
 20
9.0176263215
 30
0.0
 10
9.1923800939
 20
9.0175623675
 30
0.0
 10
9.1923823247
 20
9.0175326135
 30
0.0
  0
SPLINE
  5
478
100
AcDbEntity
  8
0
100
AcDbSpline
 62
7
  6
CONTINUOUS
 70
0
 71
3
 72
38
 73
34
 74
0
 42
0.0000001
 43
0.0000001
 44
0.0000000001
 40
0.0
 40
0.0
 40
0.0
 40
0.0
 40
0.0978191055
 40
0.1947460248
 40
0.2898483405
 40
0.38220395
 40
0.4709175785
 40
0.5551262509
 40
0.6340088716
 40
0.7067942804
 40
0.7727694746
 40
0.8312871554
 40
0.8575668317
 40
0.8817730076
 40
0.9038460478
 40
0.9237323972
 40
0.9413835809
 40
0.9567571412
 40
0.9698170839
 40
0.9754697831
 40
0.9805336155
 40
0.9850062222
 40
0.9888855934
 40
0.9921709187
 40
0.9948628618
 40
0.9959871466
 40
0.9969644576
 40
0.9977960877
 40
0.9984843148
 40
0.9990332608
 40
0.9994512541
 40
0.9997575884
 40
1.0
 40
1.0
 40
1.0
 40
1.0
 10
9.1603888224
 20
8.9782670321
 30
0.0
 10
9.1584892226
 20
8.9784060366
 30
0.0
 10
9.1547070838
 20
8.9786791688
 30
0.0
 10
9.1490772028
 20
8.9790748424
 30
0.0
 10
9.1435526837
 20
8.9794521154
 30
0.0
 10
9.1381869671
 20
8.9798073371
 30
0.0
 10
9.1330321541
 20
8.9801370619
 30
0.0
 10
9.128138394
 20
8.9804380912
 30
0.0
 10
9.123553437
 20
8.9807075031
 30
0.0
 10
9.1193221331
 20
8.9809427018
 30
0.0
 10
9.1154859741
 20
8.9811414124
 30
0.0
 10
9.1125534561
 20
8.9812796619
 30
0.0
 10
9.1104329017
 20
8.9813695691
 30
0.0
 10
9.1090211334
 20
8.9814243242
 30
0.0
 10
9.1077335562
 20
8.9814687545
 30
0.0
 10
9.1065733448
 20
8.9815027658
 30
0.0
 10
9.105543349
 20
8.9815263143
 30
0.0
 10
9.1046460977
 20
8.9815393664
 30
0.0
 10
9.1039823708
 20
8.9815417136
 30
0.0
 10
9.1035194213
 20
8.9815375638
 30
0.0
 10
9.1032237137
 20
8.9815319628
 30
0.0
 10
9.1029626097
 20
8.981523753
 30
0.0
 10
9.1027362566
 20
8.9815129673
 30
0.0
 10
9.1025447823
 20
8.9814996286
 30
0.0
 10
9.1024071549
 20
8.9814858021
 30
0.0
 10
9.1023146988
 20
8.9814729177
 30
0.0
 10
9.1022584034
 20
8.9814632141
 30
0.0
 10
9.1022108611
 20
8.9814529041
 30
0.0
 10
9.1021720577
 20
8.9814420014
 30
0.0
 10
9.1021418416
 20
8.981430534
 30
0.0
 10
9.1021201276
 20
8.9814184185
 30
0.0
 10
9.1021060664
 20
8.9814052214
 30
0.0
 10
9.1021029396
 20
8.9813941985
 30
0.0
 10
9.1021032923
 20
8.9813894916
 30
0.0
  0
LINE
  5
479
100
AcDbEntity
  8
0
100
AcDbLine
 62
7
  6
CONTINUOUS
 10
9.1024501474
 20
8.976770608
 11
9.0976923427
 21
8.9771304964
  0
LINE
  5
47A
100
AcDbEntity
  8
0
100
AcDbLine
 62
7
  6
CONTINUOUS
 10
9.0976923427
 20
8.9771304964
 11
9.0393954791
 21
8.9815406038
  0
SPLINE
  5
47B
100
AcDbEntity
  8
0
100
AcDbSpline
 62
7
  6
CONTINUOUS
 70
0
 71
3
 72
32
 73
28
 74
0
 42
0.0000001
 43
0.0000001
 44
0.0000000001
 40
0.0
 40
0.0
 40
0.0
 40
0.0
 40
0.1941983509
 40
0.2889922728
 40
0.3810072284
 40
0.4693433354
 40
0.5531362665
 40
0.631568232
 40
0.7038772065
 40
0.7693664074
 40
0.8274133257
 40
0.8534745141
 40
0.8774807299
 40
0.8993794892
 40
0.9191261651
 40
0.9366838692
 40
0.9520257166
 40
0.9651381736
 40
0.9760261901
 40
0.9806477828
 40
0.9847322278
 40
0.988295578
 40
0.9913635986
 40
0.9939777633
 40
0.9962064387
 40
0.9981601539
 40
1.0
 40
1.0
 40
1.0
 40
1.0
 10
9.60341982
 20
9.0178940812
 30
0.0
 10
9.5996212451
 20
9.0181039805
 30
0.0
 10
9.5939660565
 20
9.0183750074
 30
0.0
 10
9.5865069413
 20
9.0186459225
 30
0.0
 10
9.581118892
 20
9.0187978768
 30
0.0
 10
9.5759451936
 20
9.0188988233
 30
0.0
 10
9.5710368334
 20
9.0189478054
 30
0.0
 10
9.5664421887
 20
9.0189444372
 30
0.0
 10
9.5622064443
 20
9.0188889484
 30
0.0
 10
9.5583711532
 20
9.0187820648
 30
0.0
 10
9.5554433791
 20
9.0186472038
 30
0.0
 10
9.5533297614
 20
9.0185105708
 30
0.0
 10
9.5519242386
 20
9.018399795
 30
0.0
 10
9.5506438851
 20
9.0182773604
 30
0.0
 10
9.5494917234
 20
9.0181436387
 30
0.0
 10
9.5484704344
 20
9.0179990512
 30
0.0
 10
9.5475822396
 20
9.0178441373
 30
0.0
 10
9.5468290821
 20
9.0176793963
 30
0.0
 10
9.5462887049
 20
9.0175275097
 30
0.0
 10
9.5459272555
 20
9.0173978193
 30
0.0
 10
9.5457059277
 20
9.0173036526
 30
0.0
 10
9.545519165
 20
9.0172072577
 30
0.0
 10
9.545366844
 20
9.0171085443
 30
0.0
 10
9.5452487746
 20
9.0170072031
 30
0.0
 10
9.5451649486
 20
9.0169023795
 30
0.0
 10
9.5451165223
 20
9.0167930022
 30
0.0
 10
9.545109699
 20
9.0167173828
 30
0.0
 10
9.5451123938
 20
9.0166814409
 30
0.0
  0
SPLINE
  5
47C
100
AcDbEntity
  8
0
100
AcDbSpline
 62
7
  6
CONTINUOUS
 70
0
 71
3
 72
31
 73
27
 74
0
 42
0.0000001
 43
0.0000001
 44
0.0000000001
 40
0.0
 40
0.0
 40
0.0
 40
0.0
 40
0.001524791
 40
0.0031935627
 40
0.005185911
 40
0.0076103145
 40
0.010526587
 40
0.0139680625
 40
0.0179542355
 40
0.0224965413
 40
0.0332707369
 40
0.0463140579
 40
0.0616205462
 40
0.0791695091
 40
0.098928996
 40
0.1208582614
 40
0.1449096115
 40
0.1710279962
 40
0.2292171454
 40
0.2948732626
 40
0.3673618851
 40
0.4459766057
 40
0.5299479683
 40
0.6184528749
 40
0.8055583378
 40
1.0
 40
1.0
 40
1.0
 40
1.0
 10
12.6830023608
 20
9.0175326135
 30
0.0
 10
12.6830045916
 20
9.0175623675
 30
0.0
 10
12.6829963866
 20
9.0176263215
 30
0.0
 10
12.6829451824
 20
9.0177160629
 30
0.0
 10
12.6828595046
 20
9.0178001567
 30
0.0
 10
12.6827400387
 20
9.0178805818
 30
0.0
 10
12.6825863606
 20
9.0179581747
 30
0.0
 10
12.6823981461
 20
9.0180331544
 30
0.0
 10
12.6821752489
 20
9.0181055361
 30
0.0
 10
12.6818105098
 20
9.0182041581
 30
0.0
 10
12.6812666192
 20
9.0183165723
 30
0.0
 10
12.6805099875
 20
9.018434421
 30
0.0
 10
12.6796180081
 20
9.018540915
 30
0.0
 10
12.6785927088
 20
9.0186356791
 30
0.0
 10
12.6774364099
 20
9.0187182967
 30
0.0
 10
12.6761518589
 20
9.0187884815
 30
0.0
 10
12.6747421424
 20
9.0188459964
 30
0.0
 10
12.672622609
 20
9.0189077354
 30
0.0
 10
12.6696881928
 20
9.0189482786
 30
0.0
 10
12.6658461821
 20
9.0189437457
 30
0.0
 10
12.6616048666
 20
9.0188870873
 30
0.0
 10
12.6570060753
 20
9.0187787311
 30
0.0
 10
12.6520951827
 20
9.0186196252
 30
0.0
 10
12.6450644384
 20
9.0183364298
 30
0.0
 10
12.6358780579
 20
9.0178665343
 30
0.0
 10
12.628426747
 20
9.0173917783
 30
0.0
 10
12.6246310966
 20
9.0171268738
 30
0.0
  0
SPLINE
  5
47D
100
AcDbEntity
  8
0
100
AcDbSpline
 62
7
  6
CONTINUOUS
 70
0
 71
3
 72
32
 73
28
 74
0
 42
0.0000001
 43
0.0000001
 44
0.0000000001
 40
0.0
 40
0.0
 40
0.0
 40
0.0
 40
0.1939258995
 40
0.2885637379
 40
0.3804109069
 40
0.4685709513
 40
0.5521848379
 40
0.6304418488
 40
0.7025886726
 40
0.7679386804
 40
0.8258809282
 40
0.8519069297
 40
0.8758917801
 40
0.8977851339
 40
0.9175448491
 40
0.9351371241
 40
0.9505390767
 40
0.9637427559
 40
0.9747614537
 40
0.9794673457
 40
0.9836516002
 40
0.9873333329
 40
0.9905420927
 40
0.9933235052
 40
0.9957487268
 40
0.9979252739
 40
1.0
 40
1.0
 40
1.0
 40
1.0
 10
10.014400163
 20
9.0184683726
 30
0.0
 10
10.0105993079
 20
9.018613817
 30
0.0
 10
10.0049416338
 20
9.0187834363
 30
0.0
 10
9.9974812952
 20
9.0189092227
 30
0.0
 10
9.9920945164
 20
9.0189506052
 30
0.0
 10
9.98692381
 20
9.0189395122
 30
0.0
 10
9.9820200391
 20
9.0188761236
 30
0.0
 10
9.9774313597
 20
9.0187612004
 30
0.0
 10
9.9732026445
 20
9.0185961167
 30
0.0
 10
9.9693750807
 20
9.0183827142
 30
0.0
 10
9.9664545574
 20
9.018159713
 30
0.0
 10
9.9643470804
 20
9.0179544508
 30
0.0
 10
9.9629456808
 20
9.017795459
 30
0.0
 10
9.9616693346
 20
9.0176263358
 30
0.0
 10
9.9605210119
 20
9.017447566
 30
0.0
 10
9.9595033409
 20
9.0172596813
 30
0.0
 10
9.9586184729
 20
9.0170633114
 30
0.0
 10
9.9578682902
 20
9.0168590485
 30
0.0
 10
9.9573309522
 20
9.0166745406
 30
0.0
 10
9.9569722696
 20
9.0165196846
 30
0.0
 10
9.956752235
 20
9.0164079424
 30
0.0
 10
9.9565666868
 20
9.0162944495
 30
0.0
 10
9.956415546
 20
9.0161790827
 30
0.0
 10
9.9562987376
 20
9.0160615191
 30
0.0
 10
9.956216475
 20
9.0159410371
 30
0.0
 10
9.956169882
 20
9.0158170666
 30
0.0
 10
9.956163909
 20
9.0157324884
 30
0.0
 10
9.9561669516
 20
9.0156919089
 30
0.0
  0
SPLINE
  5
47E
100
AcDbEntity
  8
0
100
AcDbSpline
 62
7
  6
CONTINUOUS
 70
0
 71
3
 72
32
 73
28
 74
0
 42
0.0000001
 43
0.0000001
 44
0.0000000001
 40
0.0
 40
0.0
 40
0.0
 40
0.0
 40
0.0018398462
 40
0.0037935615
 40
0.0060222369
 40
0.0086364014
 40
0.0117044219
 40
0.0152677719
 40
0.019352217
 40
0.02397381
 40
0.0348618268
 40
0.0479742831
 40
0.0633161304
 40
0.0808738351
 40
0.1006205107
 40
0.1225192693
 40
0.1465254855
 40
0.172586674
 40
0.2306335916
 40
0.2961227925
 40
0.3684317666
 40
0.4468637309
 40
0.5306566608
 40
0.6189927667
 40
0.7110077224
 40
0.8058016456
 40
1.0
 40
1.0
 40
1.0
 40
1.0
 10
12.3302722917
 20
9.0166814409
 30
0.0
 10
12.3302749865
 20
9.0167173828
 30
0.0
 10
12.3302681632
 20
9.0167930022
 30
0.0
 10
12.3302197369
 20
9.0169023795
 30
0.0
 10
12.3301359109
 20
9.0170072031
 30
0.0
 10
12.3300178415
 20
9.0171085443
 30
0.0
 10
12.3298655205
 20
9.0172072577
 30
0.0
 10
12.3296787578
 20
9.0173036526
 30
0.0
 10
12.3294574299
 20
9.0173978193
 30
0.0
 10
12.3290959806
 20
9.0175275097
 30
0.0
 10
12.3285556033
 20
9.0176793963
 30
0.0
 10
12.3278024458
 20
9.0178441373
 30
0.0
 10
12.3269142511
 20
9.0179990512
 30
0.0
 10
12.325892962
 20
9.0181436387
 30
0.0
 10
12.3247408004
 20
9.0182773604
 30
0.0
 10
12.3234604469
 20
9.018399795
 30
0.0
 10
12.3220549241
 20
9.0185105708
 30
0.0
 10
12.3199413064
 20
9.0186472038
 30
0.0
 10
12.3170135323
 20
9.0187820648
 30
0.0
 10
12.3131782412
 20
9.0188889484
 30
0.0
 10
12.3089424969
 20
9.0189444372
 30
0.0
 10
12.3043478523
 20
9.0189478054
 30
0.0
 10
12.2994394921
 20
9.0188988233
 30
0.0
 10
12.2942657937
 20
9.0187978768
 30
0.0
 10
12.2888777444
 20
9.0186459225
 30
0.0
 10
12.2814186292
 20
9.0183750074
 30
0.0
 10
12.2757634404
 20
9.0181039805
 30
0.0
 10
12.2719648654
 20
9.0178940812
 30
0.0
  0
SPLINE
  5
47F
100
AcDbEntity
  8
0
100
AcDbSpline
 62
7
  6
CONTINUOUS
 70
0
 71
3
 72
32
 73
28
 74
0
 42
0.0000001
 43
0.0000001
 44
0.0000000001
 40
0.0
 40
0.0
 40
0.0
 40
0.0
 40
0.1936759378
 40
0.2881704362
 40
0.3798657999
 40
0.4678705633
 40
0.5513321724
 40
0.6294475919
 40
0.7014720156
 40
0.7667278019
 40
0.8246132255
 40
0.8506278814
 40
0.8746143604
 40
0.8965236628
 40
0.9163151494
 40
0.9339568235
 40
0.9494280971
 40
0.9627241553
 40
0.9738628879
 40
0.9786413768
 40
0.9829080532
 40
0.986683445
 40
0.9899986337
 40
0.9929004759
 40
0.9954598836
 40
0.9977804942
 40
1.0
 40
1.0
 40
1.0
 40
1.0
 10
10.4657328046
 20
9.0188237349
 30
0.0
 10
10.4619309486
 20
9.0188981363
 30
0.0
 10
10.4562729876
 20
9.0189586418
 30
0.0
 10
10.4488147614
 20
9.0189335585
 30
0.0
 10
10.4434316641
 20
9.0188625097
 30
0.0
 10
10.4382661659
 20
9.0187399287
 30
0.0
 10
10.4333688662
 20
9.0185671207
 30
0.0
 10
10.4287875867
 20
9.0183459494
 30
0.0
 10
10.4245668132
 20
9.0180788544
 30
0.0
 10
10.4207473344
 20
9.0177686891
 30
0.0
 10
10.4178339909
 20
9.0174677195
 30
0.0
 10
10.415732277
 20
9.0172031684
 30
0.0
 10
10.4143345649
 20
9.0170031531
 30
0.0
 10
10.4130616889
 20
9.016794971
 30
0.0
 10
10.4119165859
 20
9.0165791959
 30
0.0
 10
10.4109018532
 20
9.0163564438
 30
0.0
 10
10.4100196072
 20
9.0161274091
 30
0.0
 10
10.4092717024
 20
9.0158927497
 30
0.0
 10
10.4087366483
 20
9.015683884
 30
0.0
 10
10.408379946
 20
9.015510758
 30
0.0
 10
10.4081608305
 20
9.015386431
 30
0.0
 10
10.4079761465
 20
9.0152609306
 30
0.0
 10
10.40782585
 20
9.0151341276
 30
0.0
 10
10.407709932
 20
9.0150057184
 30
0.0
 10
10.4076286851
 20
9.014875091
 30
0.0
 10
10.4075831312
 20
9.0147418909
 30
0.0
 10
10.4075776159
 20
9.0146516192
 30
0.0
 10
10.4075808741
 20
9.014608164
 30
0.0
  0
SPLINE
  5
480
100
AcDbEntity
  8
0
100
AcDbSpline
 62
7
  6
CONTINUOUS
 70
0
 71
3
 72
19
 73
15
 74
0
 42
0.0000001
 43
0.0000001
 44
0.0000000001
 40
0.0
 40
0.0
 40
0.0
 40
0.0
 40
0.2165782666
 40
0.4061868
 40
0.5685798887
 40
0.7037345421
 40
0.7612009167
 40
0.8120388834
 40
0.856412109
 40
0.8945942036
 40
0.9270322887
 40
0.9544725347
 40
0.9781597815
 40
1.0
 40
1.0
 40
1.0
 40
1.0
 10
10.8844067424
 20
8.9788817361
 30
0.0
 10
10.884039146
 20
8.9788168074
 30
0.0
 10
10.883351051
 20
8.9786872822
 30
0.0
 10
10.8823937252
 20
8.9784767809
 30
0.0
 10
10.8815813768
 20
8.9782634882
 30
0.0
 10
10.8809984679
 20
8.9780754962
 30
0.0
 10
10.8806083336
 20
8.9779205642
 30
0.0
 10
10.8803692134
 20
8.9778103194
 30
0.0
 10
10.8801673823
 20
8.9776997181
 30
0.0
 10
10.8800027462
 20
8.9775887016
 30
0.0
 10
10.8798750994
 20
8.9774770153
 30
0.0
 10
10.8797843535
 20
8.9773638307
 30
0.0
 10
10.8797314393
 20
8.9772478959
 30
0.0
 10
10.8797234258
 20
8.9771680341
 30
0.0
 10
10.879726239
 20
8.9771304964
 30
0.0
  0
SPLINE
  5
481
100
AcDbEntity
  8
0
100
AcDbSpline
 62
7
  6
CONTINUOUS
 70
0
 71
3
 72
21
 73
17
 74
0
 42
0.0000001
 43
0.0000001
 44
0.0000000001
 40
0.0
 40
0.0
 40
0.0
 40
0.0
 40
0.2213028027
 40
0.4153683467
 40
0.5814747331
 40
0.6538811546
 40
0.7191329386
 40
0.7772187832
 40
0.8281586034
 40
0.872027119
 40
0.9089756477
 40
0.9393053328
 40
0.9636028283
 40
0.9830452087
 40
0.9916516243
 40
1.0
 40
1.0
 40
1.0
 40
1.0
 10
10.4115198506
 20
8.9802920012
 30
0.0
 10
10.410891147
 20
8.9802268324
 30
0.0
 10
10.4097121198
 20
8.9800942609
 30
0.0
 10
10.4080663994
 20
8.9798699812
 30
0.0
 10
10.4068475766
 20
8.9796656091
 30
0.0
 10
10.4059972402
 20
8.9794930069
 30
0.0
 10
10.4054524597
 20
8.9793670351
 30
0.0
 10
10.4049713915
 20
8.9792387606
 30
0.0
 10
10.404554454
 20
8.9791083578
 30
0.0
 10
10.4042018927
 20
8.9789760222
 30
0.0
 10
10.4039136865
 20
8.9788419723
 30
0.0
 10
10.403689392
 20
8.9787058694
 30
0.0
 10
10.4035278925
 20
8.9785673519
 30
0.0
 10
10.4034424288
 20
8.9784406103
 30
0.0
 10
10.4034141793
 20
8.9783397105
 30
0.0
 10
10.4034121727
 20
8.9782908096
 30
0.0
 10
10.4034139549
 20
8.9782670321
 30
0.0
  0
SPLINE
  5
482
100
AcDbEntity
  8
0
100
AcDbSpline
 62
7
  6
CONTINUOUS
 70
0
 71
3
 72
14
 73
10
 74
0
 42
0.0000001
 43
0.0000001
 44
0.0000000001
 40
0.0
 40
0.0
 40
0.0
 40
0.0
 40
0.3640263015
 40
0.5130671401
 40
0.6413341198
 40
0.7504950117
 40
0.843309538
 40
0.9242654725
 40
1.0
 40
1.0
 40
1.0
 40
1.0
 10
9.9603773749
 20
8.97995229
 30
0.0
 10
9.9602530701
 20
8.979908993
 30
0.0
 10
9.9600796389
 20
8.9798414624
 30
0.0
 10
9.9598742036
 20
8.9797333541
 30
0.0
 10
9.9597571559
 20
8.9796564794
 30
0.0
 10
9.9596664372
 20
8.9795781251
 30
0.0
 10
9.9596020081
 20
8.9794976324
 30
0.0
 10
9.9595646737
 20
8.979414141
 30
0.0
 10
9.9595592904
 20
8.9793564846
 30
0.0
 10
9.9595613371
 20
8.9793291761
 30
0.0
  0
SPLINE
  5
483
100
AcDbEntity
  8
0
100
AcDbSpline
 62
7
  6
CONTINUOUS
 70
0
 71
3
 72
32
 73
28
 74
0
 42
0.0000001
 43
0.0000001
 44
0.0000000001
 40
0.0
 40
0.0
 40
0.0
 40
0.0
 40
0.0020747261
 40
0.0042512732
 40
0.0066764949
 40
0.0094579073
 40
0.0126666671
 40
0.0163483998
 40
0.0205326543
 40
0.0252385464
 40
0.0362572442
 40
0.0494609234
 40
0.064862876
 40
0.0824551511
 40
0.1022148663
 40
0.1241082202
 40
0.1480930707
 40
0.174119072
 40
0.2320613191
 40
0.2974113265
 40
0.3695581493
 40
0.4478151602
 40
0.5314290459
 40
0.6195890904
 40
0.7114362592
 40
0.8060740985
 40
1.0
 40
1.0
 40
1.0
 40
1.0
 10
11.9192177338
 20
9.0156919089
 30
0.0
 10
11.9192207764
 20
9.0157324884
 30
0.0
 10
11.9192148035
 20
9.0158170666
 30
0.0
 10
11.9191682105
 20
9.0159410371
 30
0.0
 10
11.9190859478
 20
9.0160615191
 30
0.0
 10
11.9189691395
 20
9.0161790827
 30
0.0
 10
11.9188179987
 20
9.0162944495
 30
0.0
 10
11.9186324505
 20
9.0164079424
 30
0.0
 10
11.9184124158
 20
9.0165196846
 30
0.0
 10
11.9180537333
 20
9.0166745406
 30
0.0
 10
11.9175163953
 20
9.0168590485
 30
0.0
 10
11.9167662126
 20
9.0170633114
 30
0.0
 10
11.9158813446
 20
9.0172596813
 30
0.0
 10
11.9148636736
 20
9.017447566
 30
0.0
 10
11.9137153509
 20
9.0176263358
 30
0.0
 10
11.9124390046
 20
9.017795459
 30
0.0
 10
11.911037605
 20
9.0179544508
 30
0.0
 10
11.9089301281
 20
9.018159713
 30
0.0
 10
11.9060096048
 20
9.0183827142
 30
0.0
 10
11.902182041
 20
9.0185961167
 30
0.0
 10
11.8979533258
 20
9.0187612004
 30
0.0
 10
11.8933646465
 20
9.0188761236
 30
0.0
 10
11.8884608756
 20
9.0189395122
 30
0.0
 10
11.8832901692
 20
9.0189506052
 30
0.0
 10
11.8779033904
 20
9.0189092227
 30
0.0
 10
11.8704430517
 20
9.0187834364
 30
0.0
 10
11.8647853777
 20
9.018613817
 30
0.0
 10
11.8609845225
 20
9.0184683726
 30
0.0
  0
SPLINE
  5
484
100
AcDbEntity
  8
0
100
AcDbSpline
 62
7
  6
CONTINUOUS
 70
0
 71
3
 72
11
 73
7
 74
0
 42
0.0000001
 43
0.0000001
 44
0.0000000001
 40
0.0
 40
0.0
 40
0.0
 40
0.0
 40
0.271787191
 40
0.5348000237
 40
0.7802743886
 40
1.0
 40
1.0
 40
1.0
 40
1.0
 10
9.3442055998
 20
8.9793291761
 30
0.0
 10
9.3406955161
 20
8.9795597901
 30
0.0
 10
9.3337871051
 20
8.9799901425
 30
0.0
 10
9.3237035737
 20
8.9805474781
 30
0.0
 10
9.3142890885
 20
8.9809948832
 30
0.0
 10
9.3082724507
 20
8.9812257711
 30
0.0
 10
9.3054300636
 20
8.9813165249
 30
0.0
  0
SPLINE
  5
485
100
AcDbEntity
  8
0
100
AcDbSpline
 62
7
  6
CONTINUOUS
 70
0
 71
3
 72
39
 73
35
 74
0
 42
0.0000001
 43
0.0000001
 44
0.0000000001
 40
0.0
 40
0.0
 40
0.0
 40
0.0
 40
0.0978655353
 40
0.1948265163
 40
0.2899502742
 40
0.3823155384
 40
0.47102897
 40
0.5552305591
 40
0.6341029192
 40
0.7068790471
 40
0.7728501815
 40
0.8030800649
 40
0.8313729229
 40
0.857659499
 40
0.8818758678
 40
0.9039625199
 40
0.9238658633
 40
0.941537179
 40
0.9569334625
 40
0.9700177038
 40
0.9756825847
 40
0.9807581973
 40
0.9852416935
 40
0.9891303487
 40
0.9924222403
 40
0.9951162111
 40
0.9972116676
 40
0.9980352518
 40
0.9987100267
 40
0.9992371052
 40
0.9996189714
 40
0.9997574801
 40
0.9998634732
 40
1.0
 40
1.0
 40
1.0
 40
1.0
 10
9.549113411
 20
8.9490114375
 30
0.0
 10
9.5472116931
 20
8.9491199524
 30
0.0
 10
9.5434257283
 20
8.9493341213
 30
0.0
 10
9.5377909591
 20
8.9496472783
 30
0.0
 10
9.5322627696
 20
8.9499488641
 30
0.0
 10
9.5268945584
 20
8.9502359668
 30
0.0
 10
9.5217383154
 20
8.9505058101
 30
0.0
 10
9.5168440156
 20
8.9507557844
 30
0.0
 10
9.5122591828
 20
8.9509834757
 30
0.0
 10
9.5080284061
 20
8.9511866814
 30
0.0
 10
9.5047429952
 20
8.9513381187
 30
0.0
 10
9.5023222676
 20
8.9514451853
 30
0.0
 10
9.5006730891
 20
8.951515846
 30
0.0
 10
9.4991407456
 20
8.9515790722
 30
0.0
 10
9.497728989
 20
8.9516347133
 30
0.0
 10
9.496441268
 20
8.9516826394
 30
0.0
 10
9.4952807378
 20
8.9517227432
 30
0.0
 10
9.4942502354
 20
8.9517549465
 30
0.0
 10
9.4933522805
 20
8.9517791833
 30
0.0
 10
9.4926878349
 20
8.9517933727
 30
0.0
 10
9.4922241711
 20
8.9518003113
 30
0.0
 10
9.491927871
 20
8.9518032342
 30
0.0
 10
9.4916661288
 20
8.951804148
 30
0.0
 10
9.491439105
 20
8.951803057
 30
0.0
 10
9.4912469288
 20
8.9518000011
 30
0.0
 10
9.4910897131
 20
8.9517949814
 30
0.0
 10
9.4909806058
 20
8.9517889387
 30
0.0
 10
9.490910934
 20
8.9517826398
 30
0.0
 10
9.4908717918
 20
8.9517778719
 30
0.0
 10
9.4908414
 20
8.9517725974
 30
0.0
 10
9.4908215968
 20
8.9517676764
 30
0.0
 10
9.4908102447
 20
8.9517629432
 30
0.0
 10
9.4908039202
 20
8.9517594012
 30
0.0
 10
9.4908004726
 20
8.9517549424
 30
0.0
 10
9.4908006709
 20
8.9517522925
 30
0.0
  0
SPLINE
  5
486
100
AcDbEntity
  8
0
100
AcDbSpline
 62
7
  6
CONTINUOUS
 70
0
 71
3
 72
18
 73
14
 74
0
 42
0.0000001
 43
0.0000001
 44
0.0000000001
 40
0.0
 40
0.0
 40
0.0
 40
0.0
 40
0.0191209928
 40
0.0404473107
 40
0.0660247356
 40
0.0970679005
 40
0.1342575979
 40
0.1779814363
 40
0.2858355741
 40
0.4216848713
 40
0.5859335828
 40
0.7787050881
 40
1.0
 40
1.0
 40
1.0
 40
1.0
 10
10.9960492634
 20
8.9273414032
 30
0.0
 10
10.9960501896
 20
8.9273537721
 30
0.0
 10
10.9960466788
 20
8.92738057
 30
0.0
 10
10.9960258042
 20
8.9274187332
 30
0.0
 10
10.9959908696
 20
8.9274557749
 30
0.0
 10
10.9959420248
 20
8.9274923958
 30
0.0
 10
10.9958791142
 20
8.9275289116
 30
0.0
 10
10.9957683106
 20
8.9275812767
 30
0.0
 10
10.9955925278
 20
8.927644469
 30
0.0
 10
10.9953377244
 20
8.9277162642
 30
0.0
 10
10.9950260527
 20
8.9277880087
 30
0.0
 10
10.9946577568
 20
8.9278596098
 30
0.0
 10
10.9943928318
 20
8.9279040612
 30
0.0
 10
10.9942510432
 20
8.927926489
 30
0.0
  0
SPLINE
  5
487
100
AcDbEntity
  8
0
100
AcDbSpline
 62
7
  6
CONTINUOUS
 70
0
 71
3
 72
32
 73
28
 74
0
 42
0.0000001
 43
0.0000001
 44
0.0000000001
 40
0.0
 40
0.0
 40
0.0
 40
0.0
 40
0.0022195058
 40
0.0045401164
 40
0.0070995241
 40
0.0100013663
 40
0.013316555
 40
0.0170919469
 40
0.0213586233
 40
0.0261371121
 40
0.0372758446
 40
0.0505719034
 40
0.0660431771
 40
0.0836848509
 40
0.103476338
 40
0.1253856412
 40
0.1493721199
 40
0.1753867754
 40
0.233272199
 40
0.2985279846
 40
0.3705524079
 40
0.4486678273
 40
0.5321294365
 40
0.6201341998
 40
0.7118295636
 40
0.8063240621
 40
1.0
 40
1.0
 40
1.0
 40
1.0
 10
11.4678038113
 20
9.014608164
 30
0.0
 10
11.4678070696
 20
9.0146516192
 30
0.0
 10
11.4678015543
 20
9.0147418909
 30
0.0
 10
11.4677560004
 20
9.014875091
 30
0.0
 10
11.4676747534
 20
9.0150057184
 30
0.0
 10
11.4675588355
 20
9.0151341276
 30
0.0
 10
11.467408539
 20
9.0152609306
 30
0.0
 10
11.4672238549
 20
9.015386431
 30
0.0
 10
11.4670047395
 20
9.015510758
 30
0.0
 10
11.4666480372
 20
9.015683884
 30
0.0
 10
11.4661129831
 20
9.0158927497
 30
0.0
 10
11.4653650782
 20
9.0161274091
 30
0.0
 10
11.4644828323
 20
9.0163564438
 30
0.0
 10
11.4634680996
 20
9.0165791959
 30
0.0
 10
11.4623229965
 20
9.016794971
 30
0.0
 10
11.4610501205
 20
9.0170031531
 30
0.0
 10
11.4596524084
 20
9.0172031684
 30
0.0
 10
11.4575506945
 20
9.0174677195
 30
0.0
 10
11.454637351
 20
9.0177686891
 30
0.0
 10
11.4508178722
 20
9.0180788544
 30
0.0
 10
11.4465970988
 20
9.0183459494
 30
0.0
 10
11.4420158193
 20
9.0185671207
 30
0.0
 10
11.4371185196
 20
9.0187399287
 30
0.0
 10
11.4319530214
 20
9.0188625097
 30
0.0
 10
11.4265699241
 20
9.0189335585
 30
0.0
 10
11.4191116979
 20
9.0189586418
 30
0.0
 10
11.4134537369
 20
9.0188981363
 30
0.0
 10
11.4096518809
 20
9.0188237349
 30
0.0
  0
LINE
  5
488
100
AcDbEntity
  8
0
100
AcDbLine
 62
7
  6
CONTINUOUS
 10
11.9762257772
 20
8.9296948817
 11
11.9176923427
 21
8.9273414032
  0
SPLINE
  5
489
100
AcDbEntity
  8
0
100
AcDbSpline
 62
7
  6
CONTINUOUS
 70
0
 71
3
 72
18
 73
14
 74
0
 42
0.0000001
 43
0.0000001
 44
0.0000000001
 40
0.0
 40
0.0
 40
0.0
 40
0.0
 40
0.2155250009
 40
0.403827633
 40
0.5649459772
 40
0.6991280586
 40
0.8069779502
 40
0.8514545632
 40
0.889999436
 40
0.9231037868
 40
0.9515547816
 40
0.9765906054
 40
1.0
 40
1.0
 40
1.0
 40
1.0
 10
10.8819290325
 20
8.9493787736
 30
0.0
 10
10.8817471226
 20
8.9493424789
 30
0.0
 10
10.8814070525
 20
8.9492704311
 30
0.0
 10
10.8809348006
 20
8.9491542814
 30
0.0
 10
10.8805350588
 20
8.9490375966
 30
0.0
 10
10.880208195
 20
8.9489205888
 30
0.0
 10
10.8799834778
 20
8.9488174935
 30
0.0
 10
10.879842705
 20
8.9487324578
 30
0.0
 10
10.8797623694
 20
8.9486726594
 30
0.0
 10
10.8797002173
 20
8.9486125449
 30
0.0
 10
10.8796562717
 20
8.9485517026
 30
0.0
 10
10.8796310311
 20
8.9484896772
 30
0.0
 10
10.8796274801
 20
8.9484473325
 30
0.0
 10
10.8796289854
 20
8.9484272411
 30
0.0
  0
SPLINE
  5
48A
100
AcDbEntity
  8
0
100
AcDbSpline
 62
7
  6
CONTINUOUS
 70
0
 71
3
 72
24
 73
20
 74
0
 42
0.0000001
 43
0.0000001
 44
0.0000000001
 40
0.0
 40
0.0
 40
0.0
 40
0.0
 40
0.2249291533
 40
0.4219932059
 40
0.5098195864
 40
0.590394409
 40
0.6636448187
 40
0.7295146829
 40
0.7879670445
 40
0.8389846606
 40
0.882590052
 40
0.9188561753
 40
0.9479599071
 40
0.9599457908
 40
0.9703238145
 40
0.9792321609
 40
0.9868920646
 40
0.9936494307
 40
1.0
 40
1.0
 40
1.0
 40
1.0
 10
10.4054136783
 20
8.951042171
 30
0.0
 10
10.4047859471
 20
8.9509969998
 30
0.0
 10
10.40360878
 20
8.9509045847
 30
0.0
 10
10.402188725
 20
8.9507681547
 30
0.0
 10
10.4011727591
 20
8.9506518368
 30
0.0
 10
10.4005021173
 20
8.9505655507
 30
0.0
 10
10.39989379
 20
8.9504769622
 30
0.0
 10
10.3993484365
 20
8.9503861928
 30
0.0
 10
10.3988666179
 20
8.9502934031
 30
0.0
 10
10.3984488144
 20
8.9501987386
 30
0.0
 10
10.3980952853
 20
8.9501024378
 30
0.0
 10
10.3978062935
 20
8.9500046449
 30
0.0
 10
10.3976075714
 20
8.9499174044
 30
0.0
 10
10.3974830851
 20
8.9498446734
 30
0.0
 10
10.3974120786
 20
8.9497932282
 30
0.0
 10
10.3973571382
 20
8.9497411766
 30
0.0
 10
10.3973182807
 20
8.9496881427
 30
0.0
 10
10.3972959843
 20
8.9496337143
 30
0.0
 10
10.3972928916
 20
8.9495964587
 30
0.0
 10
10.3972942191
 20
8.9495787394
 30
0.0
  0
LINE
  5
48B
100
AcDbEntity
  8
0
100
AcDbLine
 62
9
  6
CONTINUOUS
 10
10.0890950833
 20
8.9452522149
 11
10.3975613284
 21
8.9452503592
  0
SPLINE
  5
48C
100
AcDbEntity
  8
0
100
AcDbSpline
 62
7
  6
CONTINUOUS
 70
0
 71
3
 72
32
 73
28
 74
0
 42
0.0000001
 43
0.0000001
 44
0.0000000001
 40
0.0
 40
0.0
 40
0.0
 40
0.0
 40
0.0022689732
 40
0.0046464019
 40
0.0072654489
 40
0.0102265436
 40
0.0135988768
 40
0.0174285637
 40
0.0217464266
 40
0.0265729297
 40
0.0377983494
 40
0.0511691323
 40
0.0667036599
 40
0.0843974657
 40
0.1042302862
 40
0.1261703951
 40
0.1501774677
 40
0.1762028686
 40
0.234081949
 40
0.2992980762
 40
0.3712549907
 40
0.4492814591
 40
0.5326396376
 40
0.6205335607
 40
0.7121173401
 40
0.8065053171
 40
1.0
 40
1.0
 40
1.0
 40
1.0
 10
10.9957595237
 20
9.0134781724
 30
0.0
 10
10.9957628562
 20
9.0135226197
 30
0.0
 10
10.9957574394
 20
9.0136150024
 30
0.0
 10
10.9957122192
 20
9.0137517762
 30
0.0
 10
10.9956313774
 20
9.0138867526
 30
0.0
 10
10.995515864
 20
9.0140202383
 30
0.0
 10
10.9953659778
 20
9.0141527968
 30
0.0
 10
10.9951817296
 20
9.0142847103
 30
0.0
 10
10.9949630929
 20
9.0144161009
 30
0.0
 10
10.9946074316
 20
9.0145999276
 30
0.0
 10
10.9940737141
 20
9.0148238912
 30
0.0
 10
10.9933272544
 20
9.015078513
 30
0.0
 10
10.9924467584
 20
9.0153300262
 30
0.0
 10
10.9914340854
 20
9.0155777308
 30
0.0
 10
10.990291352
 20
9.0158208866
 30
0.0
 10
10.9890211496
 20
9.0160588203
 30
0.0
 10
10.9876264041
 20
9.0162908933
 30
0.0
 10
10.9855295662
 20
9.0166028238
 30
0.0
 10
10.9826227156
 20
9.0169681527
 30
0.0
 10
10.9788110494
 20
9.0173610011
 30
0.0
 10
10.9745985349
 20
9.0177179161
 30
0.0
 10
10.9700255862
 20
9.0180351858
 30
0.0
 10
10.9651362842
 20
9.0183094395
 30
0.0
 10
10.9599780491
 20
9.0185378173
 30
0.0
 10
10.9546011102
 20
9.0187179651
 30
0.0
 10
10.947148787
 20
9.018892697
 30
0.0
 10
10.9414933772
 20
9.0189440147
 30
0.0
 10
10.9376923427
 20
9.0189440147
 30
0.0
  0
LINE
  5
48D
100
AcDbEntity
  8
0
100
AcDbLine
 62
7
  6
CONTINUOUS
 10
9.6930241135
 20
8.9511518749
 11
9.6926395642
 21
8.9511662193
  0
LINE
  5
48E
100
AcDbEntity
  8
0
100
AcDbLine
 62
7
  6
CONTINUOUS
 10
9.9576923427
 20
8.9273414032
 11
9.8991589083
 21
8.9296948817
  0
SPLINE
  5
48F
100
AcDbEntity
  8
0
100
AcDbSpline
 62
7
  6
CONTINUOUS
 70
0
 71
3
 72
32
 73
28
 74
0
 42
0.0000001
 43
0.0000001
 44
0.0000000001
 40
0.0
 40
0.0
 40
0.0
 40
0.0
 40
0.0022220358
 40
0.0045665531
 40
0.007166351
 40
0.0101196054
 40
0.0134928724
 40
0.0173300427
 40
0.0216602229
 40
0.0265025428
 40
0.0377666147
 40
0.0511809396
 40
0.0667605323
 40
0.0844985927
 40
0.1043732747
 40
0.1263516116
 40
0.1503924161
 40
0.1764464257
 40
0.2343658435
 40
0.2995988752
 40
0.3715502964
 40
0.449551828
 40
0.5328700677
 40
0.6207144599
 40
0.7122449997
 40
0.8065818026
 40
1.0
 40
1.0
 40
1.0
 40
1.0
 10
10.5237154866
 20
9.0123515223
 30
0.0
 10
10.5237187493
 20
9.0123950415
 30
0.0
 10
10.5237130747
 20
9.0124858467
 30
0.0
 10
10.5236675241
 20
9.0126204172
 30
0.0
 10
10.5235864855
 20
9.012753829
 30
0.0
 10
10.5234708704
 20
9.0128864629
 30
0.0
 10
10.5233209356
 20
9.0130188912
 30
0.0
 10
10.5231366739
 20
9.0131513806
 30
0.0
 10
10.5229180584
 20
9.0132840396
 30
0.0
 10
10.5225624597
 20
9.0134706301
 30
0.0
 10
10.5220290615
 20
9.0136998607
 30
0.0
 10
10.5212831666
 20
9.0139631975
 30
0.0
 10
10.5204034829
 20
9.0142260883
 30
0.0
 10
10.5193919037
 20
9.0144878132
 30
0.0
 10
10.5182505758
 20
9.014747603
 30
0.0
 10
10.5169821081
 20
9.0150047534
 30
0.0
 10
10.5155894375
 20
9.0152585852
 30
0.0
 10
10.5134962411
 20
9.0156040173
 30
0.0
 10
10.5105947279
 20
9.0160173639
 30
0.0
 10
10.5067900721
 20
9.0164752337
 30
0.0
 10
10.5025855639
 20
9.0169058288
 30
0.0
 10
10.4980213153
 20
9.0173047648
 30
0.0
 10
10.4931410372
 20
9.0176679147
 30
0.0
 10
10.4879917351
 20
9.0179915774
 30
0.0
 10
10.4826232106
 20
9.0182724821
 30
0.0
 10
10.4751805791
 20
9.0185887289
 30
0.0
 10
10.4695308616
 20
9.0187494078
 30
0.0
 10
10.4657328046
 20
9.0188237349
 30
0.0
  0
SPLINE
  5
490
100
AcDbEntity
  8
0
100
AcDbSpline
 62
7
  6
CONTINUOUS
 70
0
 71
3
 72
18
 73
14
 74
0
 42
0.0000001
 43
0.0000001
 44
0.0000000001
 40
0.0
 40
0.0
 40
0.0
 40
0.0
 40
0.2212953125
 40
0.4140671761
 40
0.5783161533
 40
0.7141656029
 40
0.8220198031
 40
0.8657436023
 40
0.9029331931
 40
0.9339761946
 40
0.9595533885
 40
0.9808793906
 40
1.0
 40
1.0
 40
1.0
 40
1.0
 10
10.8811337273
 20
8.9279265025
 30
0.0
 10
10.880991932
 20
8.9279040742
 30
0.0
 10
10.8807269947
 20
8.9278596218
 30
0.0
 10
10.8803586815
 20
8.927788019
 30
0.0
 10
10.8800469952
 20
8.9277162729
 30
0.0
 10
10.8797921798
 20
8.9276444761
 30
0.0
 10
10.8796163887
 20
8.9275812824
 30
0.0
 10
10.8795055797
 20
8.9275289161
 30
0.0
 10
10.8794426661
 20
8.9274923994
 30
0.0
 10
10.879393819
 20
8.9274557776
 30
0.0
 10
10.8793588826
 20
8.9274187352
 30
0.0
 10
10.8793380069
 20
8.9273805711
 30
0.0
 10
10.8793344958
 20
8.9273537724
 30
0.0
 10
10.8793354221
 20
8.9273414032
 30
0.0
  0
SPLINE
  5
491
100
AcDbEntity
  8
0
100
AcDbSpline
 62
7
  6
CONTINUOUS
 70
0
 71
3
 72
25
 73
21
 74
0
 42
0.0000001
 43
0.0000001
 44
0.0000000001
 40
0.0
 40
0.0
 40
0.0
 40
0.0
 40
0.2275685571
 40
0.4272067498
 40
0.5162271922
 40
0.5978934572
 40
0.672107422
 40
0.738779123
 40
0.7978345151
 40
0.8492151634
 40
0.8928805728
 40
0.9288225577
 40
0.943907054
 40
0.9570813903
 40
0.9683680524
 40
0.9778052425
 40
0.9854616479
 40
0.9914716443
 40
0.9961190084
 40
1.0
 40
1.0
 40
1.0
 40
1.0
 10
10.3987766473
 20
8.9294429536
 30
0.0
 10
10.3980449018
 20
8.9294187361
 30
0.0
 10
10.3966713897
 20
8.9293678856
 30
0.0
 10
10.3950123783
 20
8.9292890878
 30
0.0
 10
10.3938229656
 20
8.9292195975
 30
0.0
 10
10.3930367998
 20
8.9291670655
 30
0.0
 10
10.3923228838
 20
8.9291122102
 30
0.0
 10
10.3916821404
 20
8.9290551221
 30
0.0
 10
10.3911153986
 20
8.928995911
 30
0.0
 10
10.3906233558
 20
8.9289347398
 30
0.0
 10
10.3902066226
 20
8.9288717196
 30
0.0
 10
10.3899071355
 20
8.9288151601
 30
0.0
 10
10.3897060803
 20
8.9287676717
 30
0.0
 10
10.3895834152
 20
8.9287337627
 30
0.0
 10
10.3894798137
 20
8.9286994941
 30
0.0
 10
10.3893952209
 20
8.9286648885
 30
0.0
 10
10.3893293972
 20
8.9286299271
 30
0.0
 10
10.3892820444
 20
8.9285943538
 30
0.0
 10
10.3892523528
 20
8.9285569963
 30
0.0
 10
10.3892463719
 20
8.9285287881
 30
0.0
 10
10.3892473042
 20
8.9285163368
 30
0.0
  0
LINE
  5
492
100
AcDbEntity
  8
0
100
AcDbLine
 62
7
  6
CONTINUOUS
 10
10.088987447
 20
8.9285163369
 11
10.087934035
 21
8.9285528815
  0
LINE
  5
493
100
AcDbEntity
  8
0
100
AcDbLine
 62
7
  6
CONTINUOUS
 10
9.9749461171
 20
8.926647717
 11
9.9576923427
 21
8.9273414032
  0
LINE
  5
494
100
AcDbEntity
  8
0
100
AcDbLine
 62
7
  6
CONTINUOUS
 10
10.9957875181
 20
8.9138514338
 11
10.9950541111
 21
8.9140611847
  0
LINE
  5
495
100
AcDbEntity
  8
0
100
AcDbLine
 62
7
  6
CONTINUOUS
 10
10.880330823
 20
8.9140612196
 11
10.8795971674
 21
8.9138514338
  0
SPLINE
  5
496
100
AcDbEntity
  8
0
100
AcDbSpline
 62
7
  6
CONTINUOUS
 70
0
 71
3
 72
32
 73
28
 74
0
 42
0.0000001
 43
0.0000001
 44
0.0000000001
 40
0.0
 40
0.0
 40
0.0
 40
0.0
 40
0.0020813472
 40
0.0043058781
 40
0.0068098767
 40
0.0096897551
 40
0.0130083302
 40
0.0168058105
 40
0.0211082485
 40
0.0259323251
 40
0.0371817811
 40
0.050601953
 40
0.0662012795
 40
0.0839683889
 40
0.1038782724
 40
0.1258954607
 40
0.1499769053
 40
0.1760718695
 40
0.2340697843
 40
0.2993715421
 40
0.3713786173
 40
0.4494220071
 40
0.5327697053
 40
0.6206342432
 40
0.7121799054
 40
0.8065317731
 40
1.0
 40
1.0
 40
1.0
 40
1.0
 10
10.0723022724
 20
9.0112772239
 30
0.0
 10
10.072305325
 20
9.0113179437
 30
0.0
 10
10.0722990227
 20
9.0114035757
 30
0.0
 10
10.0722524888
 20
9.0115302495
 30
0.0
 10
10.072170701
 20
9.0116562547
 30
0.0
 10
10.0720545261
 20
9.0117821735
 30
0.0
 10
10.0719041231
 20
9.0119086278
 30
0.0
 10
10.0717194329
 20
9.0120358679
 30
0.0
 10
10.0715004142
 20
9.0121639816
 30
0.0
 10
10.0711439594
 20
9.0123453281
 30
0.0
 10
10.0706099177
 20
9.012569843
 30
0.0
 10
10.0698637553
 20
9.0128303458
 30
0.0
 10
10.0689839883
 20
9.0130930988
 30
0.0
 10
10.0679725651
 20
9.0133573853
 30
0.0
 10
10.0668316868
 20
9.0136224252
 30
0.0
 10
10.0655639983
 20
9.0138875097
 30
0.0
 10
10.0641724657
 20
9.0141519436
 30
0.0
 10
10.0620815244
 20
9.01451568
 30
0.0
 10
10.059183923
 20
9.0149587616
 30
0.0
 10
10.0553851031
 20
9.0154612884
 30
0.0
 10
10.0511878691
 20
9.0159463038
 30
0.0
 10
10.0466321347
 20
9.0164089545
 30
0.0
 10
10.0417613183
 20
9.0168445558
 30
0.0
 10
10.0366220487
 20
9.0172487526
 30
0.0
 10
10.0312636957
 20
9.0176175296
 30
0.0
 10
10.0238340482
 20
9.0180606989
 30
0.0
 10
10.0181930438
 20
9.0183232334
 30
0.0
 10
10.014400163
 20
9.0184683726
 30
0.0
  0
SPLINE
  5
497
100
AcDbEntity
  8
0
100
AcDbSpline
 62
7
  6
CONTINUOUS
 70
0
 71
3
 72
31
 73
27
 74
0
 42
0.0000001
 43
0.0000001
 44
0.0000000001
 40
0.0
 40
0.0
 40
0.0
 40
0.0
 40
0.0018531299
 40
0.0038784177
 40
0.0062190525
 40
0.0089688448
 40
0.0121849033
 40
0.0159019689
 40
0.0201416786
 40
0.0249172734
 40
0.0361032624
 40
0.0494926791
 40
0.0650850583
 40
0.0828629161
 40
0.1027970041
 40
0.1248485287
 40
0.1489718911
 40
0.1751143223
 40
0.2332174009
 40
0.2986294673
 40
0.3707451518
 40
0.4488914307
 40
0.5323346879
 40
0.6202879399
 40
0.8063510688
 40
1.0
 40
1.0
 40
1.0
 40
1.0
 10
9.6612487583
 20
9.0103016105
 30
0.0
 10
9.6612514704
 20
9.0103377924
 30
0.0
 10
9.6612441254
 20
9.0104149475
 30
0.0
 10
9.6611959421
 20
9.0105282966
 30
0.0
 10
9.661112957
 20
9.0106413185
 30
0.0
 10
9.6609958757
 20
9.0107549564
 30
0.0
 10
9.6608446777
 20
9.0108698831
 30
0.0
 10
9.6606592228
 20
9.0109863137
 30
0.0
 10
9.66043945
 20
9.0111043016
 30
0.0
 10
9.660081362
 20
9.011272623
 30
0.0
 10
9.6595458712
 20
9.0114826993
 30
0.0
 10
9.6587987356
 20
9.0117290257
 30
0.0
 10
9.6579181214
 20
9.0119802111
 30
0.0
 10
9.6569060444
 20
9.0122355668
 30
0.0
 10
9.6557647763
 20
9.012494327
 30
0.0
 10
9.6544970096
 20
9.0127558038
 30
0.0
 10
9.6531057512
 20
9.0130193131
 30
0.0
 10
9.6510157202
 20
9.0133855001
 30
0.0
 10
9.6481205441
 20
9.0138389201
 30
0.0
 10
9.6443261921
 20
9.0143639895
 30
0.0
 10
9.6401351515
 20
9.014881976
 30
0.0
 10
9.6355872511
 20
9.0153877612
 30
0.0
 10
9.630725721
 20
9.0158763359
 30
0.0
 10
9.6237555037
 20
9.0165102683
 30
0.0
 10
9.6146259796
 20
9.0172204241
 30
0.0
 10
9.607205604
 20
9.0176848887
 30
0.0
 10
9.60341982
 20
9.0178940812
 30
0.0
  0
SPLINE
  5
498
100
AcDbEntity
  8
0
100
AcDbSpline
 62
7
  6
CONTINUOUS
 70
0
 71
3
 72
39
 73
35
 74
0
 42
0.0000001
 43
0.0000001
 44
0.0000000001
 40
0.0
 40
0.0
 40
0.0
 40
0.0
 40
0.097673302
 40
0.1944737187
 40
0.2894736417
 40
0.3817551874
 40
0.4704262319
 40
0.5546255499
 40
0.6335320388
 40
0.7063726163
 40
0.7724304397
 40
0.8027090593
 40
0.8310525615
 40
0.8573903675
 40
0.8816572494
 40
0.9037924153
 40
0.9237410168
 40
0.9414532035
 40
0.9568848556
 40
0.9699980366
 40
0.975674693
 40
0.9807601857
 40
0.9852515517
 40
0.9891459714
 40
0.9924414942
 40
0.9951368576
 40
0.9972313309
 40
0.9980534983
 40
0.9987262046
 40
0.9992505005
 40
0.9996287605
 40
0.9997650969
 40
0.9998686445
 40
1.0
 40
1.0
 40
1.0
 40
1.0
 10
8.6801276403
 20
9.0140458617
 30
0.0
 10
8.6782250342
 20
9.0142228375
 30
0.0
 10
8.6744366581
 20
9.0145734123
 30
0.0
 10
8.6687971739
 20
9.0150898529
 30
0.0
 10
8.6632622355
 20
9.015591235
 30
0.0
 10
8.6578851872
 20
9.0160727245
 30
0.0
 10
8.6527180848
 20
9.0165296601
 30
0.0
 10
8.6478111046
 20
9.0169576056
 30
0.0
 10
8.6432121096
 20
9.0173523941
 30
0.0
 10
8.6389661558
 20
9.017710163
 30
0.0
 10
8.6356676547
 20
9.0179819083
 30
0.0
 10
8.633236374
 20
9.0181778149
 30
0.0
 10
8.631579464
 20
9.0183091039
 30
0.0
 10
8.6300396119
 20
9.0184287527
 30
0.0
 10
8.6286206565
 20
9.0185364661
 30
0.0
 10
8.6273261318
 20
9.0186319809
 30
0.0
 10
8.6261592741
 20
9.0187150669
 30
0.0
 10
8.6251229977
 20
9.0187855353
 30
0.0
 10
8.6242198921
 20
9.0188432212
 30
0.0
 10
8.6235515379
 20
9.0188822634
 30
0.0
 10
8.6230850901
 20
9.0189066231
 30
0.0
 10
8.6227870115
 20
9.0189207172
 30
0.0
 10
8.622523688
 20
9.0189315424
 30
0.0
 10
8.6222952845
 20
9.0189390962
 30
0.0
 10
8.6221019359
 20
9.0189434132
 30
0.0
 10
8.6219437584
 20
9.0189444891
 30
0.0
 10
8.6218339584
 20
9.0189427448
 30
0.0
 10
8.6217638185
 20
9.018939249
 30
0.0
 10
8.6217244344
 20
9.0189360931
 30
0.0
 10
8.6216938549
 20
9.0189321027
 30
0.0
 10
8.6216739181
 20
9.0189280782
 30
0.0
 10
8.6216624592
 20
9.0189238762
 30
0.0
 10
8.621656118
 20
9.0189207146
 30
0.0
 10
8.6216525904
 20
9.0189164212
 30
0.0
 10
8.6216527825
 20
9.0189138587
 30
0.0
  0
LINE
  5
499
100
AcDbEntity
  8
0
100
AcDbLine
 62
7
  6
CONTINUOUS
 10
12.7776923427
 20
8.9771304964
 11
12.7729345378
 21
8.976770608
  0
SPLINE
  5
49A
100
AcDbEntity
  8
0
100
AcDbSpline
 62
7
  6
CONTINUOUS
 70
0
 71
3
 72
31
 73
27
 74
0
 42
0.0000001
 43
0.0000001
 44
0.0000000001
 40
0.0
 40
0.0
 40
0.0
 40
0.0
 40
0.001547327
 40
0.0033082977
 40
0.0054348676
 40
0.0080145566
 40
0.0110953199
 40
0.014704203
 40
0.0188570919
 40
0.0235629941
 40
0.0346498852
 40
0.0479800788
 40
0.0635430096
 40
0.0813144446
 40
0.1012604387
 40
0.1233386008
 40
0.1475005086
 40
0.1736911475
 40
0.2319122898
 40
0.2974610681
 40
0.3697230388
 40
0.4480187271
 40
0.5316104272
 40
0.6197092319
 40
0.8060572533
 40
1.0
 40
1.0
 40
1.0
 40
1.0
 10
9.308519888
 20
9.0094664219
 30
0.0
 10
9.3085221457
 20
9.0094965473
 30
0.0
 10
9.3085131993
 20
9.0095624151
 30
0.0
 10
9.3084626795
 20
9.0096573647
 30
0.0
 10
9.3083782748
 20
9.0097522985
 30
0.0
 10
9.3082601132
 20
9.0098486431
 30
0.0
 10
9.3081079245
 20
9.0099470375
 30
0.0
 10
9.3079214724
 20
9.0100476146
 30
0.0
 10
9.30770069
 20
9.0101503747
 30
0.0
 10
9.3073403977
 20
9.010298416
 30
0.0
 10
9.3068028774
 20
9.010484994
 30
0.0
 10
9.3060542359
 20
9.0107064963
 30
0.0
 10
9.3051721996
 20
9.0109352548
 30
0.0
 10
9.304158854
 20
9.0111706369
 30
0.0
 10
9.3030165501
 20
9.0114119238
 30
0.0
 10
9.3017480301
 20
9.0116584751
 30
0.0
 10
9.3003563456
 20
9.0119096463
 30
0.0
 10
9.298266085
 20
9.0122624325
 30
0.0
 10
9.2953719736
 20
9.012706507
 30
0.0
 10
9.2915806995
 20
9.0132312291
 30
0.0
 10
9.2873945669
 20
9.0137595162
 30
0.0
 10
9.2828534254
 20
9.0142862001
 30
0.0
 10
9.2780004265
 20
9.0148061293
 30
0.0
 10
9.2710442255
 20
9.0154965487
 30
0.0
 10
9.2619346423
 20
9.0163017138
 30
0.0
 10
9.2545309265
 20
9.0168632474
 30
0.0
 10
9.2507535889
 20
9.0171268738
 30
0.0
  0
LINE
  5
49B
100
AcDbEntity
  8
0
100
AcDbLine
 62
7
  6
CONTINUOUS
 10
12.7149958631
 20
8.9782670321
 11
12.6737018074
 21
8.9749052151
  0
SPLINE
  5
49C
100
AcDbEntity
  8
0
100
AcDbSpline
 62
7
  6
CONTINUOUS
 70
0
 71
3
 72
34
 73
30
 74
0
 42
0.0000001
 43
0.0000001
 44
0.0000000001
 40
0.0
 40
0.0
 40
0.0
 40
0.0
 40
0.1946580171
 40
0.2895917553
 40
0.3817157259
 40
0.4701539323
 40
0.5540647156
 40
0.6326495586
 40
0.705160473
 40
0.7709062402
 40
0.8292595044
 40
0.8796640397
 40
0.9017330897
 40
0.9216420406
 40
0.9393450275
 40
0.9548019258
 40
0.967980275
 40
0.9737073368
 40
0.9788568431
 40
0.9834276408
 40
0.9874203031
 40
0.9908373435
 40
0.9936843372
 40
0.9959734466
 40
0.9977305685
 40
0.9984276368
 40
0.9990205174
 40
0.9995326875
 40
1.0
 40
1.0
 40
1.0
 40
1.0
 10
12.5311790857
 20
8.9793291761
 30
0.0
 10
12.5274158995
 20
8.9790819331
 30
0.0
 10
12.5218187271
 20
8.978693815
 30
0.0
 10
12.5144441392
 20
8.9781398636
 30
0.0
 10
12.509123316
 20
8.9777186798
 30
0.0
 10
12.5040171705
 20
8.9772923882
 30
0.0
 10
12.4991743799
 20
8.9768650837
 30
0.0
 10
12.4946411471
 20
8.9764409023
 30
0.0
 10
12.4904607758
 20
8.9760239652
 30
0.0
 10
12.4866732677
 20
8.9756184074
 30
0.0
 10
12.4833149818
 20
8.9752282261
 30
0.0
 10
12.4808007281
 20
8.9749066905
 30
0.0
 10
12.4790283525
 20
8.9746572641
 30
0.0
 10
12.4778850164
 20
8.9744847342
 30
0.0
 10
12.4768702996
 20
8.9743188332
 30
0.0
 10
12.4759866673
 20
8.9741599892
 30
0.0
 10
12.47533395
 20
8.9740285583
 30
0.0
 10
12.4748793391
 20
8.9739258893
 30
0.0
 10
12.4745886683
 20
8.9738545446
 30
0.0
 10
12.4743321568
 20
8.9737852643
 30
0.0
 10
12.4741099212
 20
8.9737181159
 30
0.0
 10
12.4739220589
 20
8.9736531849
 30
0.0
 10
12.4737684739
 20
8.973590561
 30
0.0
 10
12.47364917
 20
8.9735303112
 30
0.0
 10
12.473572411
 20
8.9734787126
 30
0.0
 10
12.4735301651
 20
8.9734372117
 30
0.0
 10
12.4735095146
 20
8.9734087876
 30
0.0
 10
12.4734975234
 20
8.9733804121
 30
0.0
 10
12.4734956881
 20
8.9733611343
 30
0.0
 10
12.4734963655
 20
8.973352106
 30
0.0
  0
SPLINE
  5
49D
100
AcDbEntity
  8
0
100
AcDbSpline
 62
7
  6
CONTINUOUS
 70
0
 71
3
 72
30
 73
26
 74
0
 42
0.0000001
 43
0.0000001
 44
0.0000000001
 40
0.0
 40
0.0
 40
0.0
 40
0.0
 40
0.2099827036
 40
0.4028980345
 40
0.4915679458
 40
0.5743642495
 40
0.6508175912
 40
0.7204957652
 40
0.7830070267
 40
0.8380031004
 40
0.8625875555
 40
0.8851844324
 40
0.905765425
 40
0.9243051821
 40
0.9407844273
 40
0.9551888137
 40
0.9675132464
 40
0.9777642553
 40
0.9859713534
 40
0.9893313061
 40
0.9922163975
 40
0.9946564517
 40
0.9967015257
 40
0.9984368637
 40
1.0
 40
1.0
 40
1.0
 40
1.0
 10
12.2186149797
 20
8.9789674638
 30
0.0
 10
12.215954907
 20
8.9787717138
 30
0.0
 10
12.2108525973
 20
8.9783735478
 30
0.0
 10
12.2046327042
 20
8.9778230947
 30
0.0
 10
12.2000264364
 20
8.9773697687
 30
0.0
 10
12.1968947327
 20
8.9770384224
 30
0.0
 10
12.1940056076
 20
8.9767080615
 30
0.0
 10
12.1913756065
 20
8.9763806643
 30
0.0
 10
12.1890198224
 20
8.9760581917
 30
0.0
 10
12.1872354423
 20
8.9757861118
 30
0.0
 10
12.1859556118
 20
8.9755702036
 30
0.0
 10
12.1851086373
 20
8.9754167543
 30
0.0
 10
12.1843392938
 20
8.9752659249
 30
0.0
 10
12.183648679
 20
8.9751179438
 30
0.0
 10
12.1830377603
 20
8.974973092
 30
0.0
 10
12.18250738
 20
8.9748316237
 30
0.0
 10
12.1820581165
 20
8.9746938984
 30
0.0
 10
12.1816905228
 20
8.9745601519
 30
0.0
 10
12.1814373416
 20
8.9744460796
 30
0.0
 10
12.1812781196
 20
8.9743543865
 30
0.0
 10
12.1811874317
 20
8.9742912544
 30
0.0
 10
12.1811171255
 20
8.9742290009
 30
0.0
 10
12.1810670878
 20
8.9741671959
 30
0.0
 10
12.1810376183
 20
8.9741050922
 30
0.0
 10
12.1810328204
 20
8.9740624391
 30
0.0
 10
12.1810343068
 20
8.9740426394
 30
0.0
  0
SPLINE
  5
49E
100
AcDbEntity
  8
0
100
AcDbSpline
 62
7
  6
CONTINUOUS
 70
0
 71
3
 72
23
 73
19
 74
0
 42
0.0000001
 43
0.0000001
 44
0.0000000001
 40
0.0
 40
0.0
 40
0.0
 40
0.0
 40
0.2218485701
 40
0.416798287
 40
0.5039050159
 40
0.5839712244
 40
0.6569189618
 40
0.7226850796
 40
0.7812303145
 40
0.8325381382
 40
0.8766359384
 40
0.9136093983
 40
0.9436594363
 40
0.9672140888
 40
0.9768429996
 40
0.9852886029
 40
0.9928641862
 40
1.0
 40
1.0
 40
1.0
 40
1.0
 10
11.8089398326
 20
8.9773426875
 30
0.0
 10
11.8082410293
 20
8.9772442574
 30
0.0
 10
11.8069294885
 20
8.9770496086
 30
0.0
 10
11.8053487156
 20
8.9767830792
 30
0.0
 10
11.804216946
 20
8.9765683904
 30
0.0
 10
11.8034687834
 20
8.9764143195
 30
0.0
 10
11.8027898213
 20
8.9762613169
 30
0.0
 10
11.8021808918
 20
8.9761095889
 30
0.0
 10
11.8016427249
 20
8.9759593917
 30
0.0
 10
11.8011758951
 20
8.9758109529
 30
0.0
 10
11.8007808706
 20
8.9756645705
 30
0.0
 10
11.8004576495
 20
8.9755204437
 30
0.0
 10
11.8002063011
 20
8.9753788055
 30
0.0
 10
11.8000457128
 20
8.9752551071
 30
0.0
 10
11.7999584378
 20
8.975154899
 30
0.0
 10
11.7999156955
 20
8.9750848043
 30
0.0
 10
11.7998915791
 20
8.975014476
 30
0.0
 10
11.7998884923
 20
8.9749670884
 30
0.0
 10
11.7998901908
 20
8.974944453
 30
0.0
  0
SPLINE
  5
49F
100
AcDbEntity
  8
0
100
AcDbSpline
 62
7
  6
CONTINUOUS
 70
0
 71
3
 72
16
 73
12
 74
0
 42
0.0000001
 43
0.0000001
 44
0.0000000001
 40
0.0
 40
0.0
 40
0.0
 40
0.0
 40
0.2039586918
 40
0.3832992054
 40
0.5383167889
 40
0.6695814059
 40
0.7781873989
 40
0.8661860214
 40
0.9375544956
 40
0.9693070237
 40
1.0
 40
1.0
 40
1.0
 40
1.0
 10
11.3578260769
 20
8.9770995188
 30
0.0
 10
11.3576832091
 20
8.977055681
 30
0.0
 10
11.3574160108
 20
8.9769689337
 30
0.0
 10
11.3570463896
 20
8.976830818
 30
0.0
 10
11.3567339206
 20
8.9766932455
 30
0.0
 10
11.3564785813
 20
8.976556363
 30
0.0
 10
11.356280009
 20
8.9764198695
 30
0.0
 10
11.356137405
 20
8.9762833113
 30
0.0
 10
11.3560627747
 20
8.9761615383
 30
0.0
 10
11.3560382124
 20
8.9760659298
 30
0.0
 10
11.3560365856
 20
8.9760197725
 30
0.0
 10
11.3560382668
 20
8.9759973465
 30
0.0
  0
SPLINE
  5
4A0
100
AcDbEntity
  8
0
100
AcDbSpline
 62
7
  6
CONTINUOUS
 70
0
 71
3
 72
33
 73
29
 74
0
 42
0.0000001
 43
0.0000001
 44
0.0000000001
 40
0.0
 40
0.0
 40
0.0
 40
0.0
 40
0.0011785344
 40
0.0018621442
 40
0.0026391175
 40
0.0045285581
 40
0.0069238381
 40
0.0098588135
 40
0.0133506284
 40
0.0174084916
 40
0.0220368261
 40
0.0330093469
 40
0.0462656982
 40
0.0617854776
 40
0.0795381074
 40
0.099485208
 40
0.1215810846
 40
0.1457746954
 40
0.1720089078
 40
0.2303458869
 40
0.2960386668
 40
0.3684631966
 40
0.4469324062
 40
0.5307028938
 40
0.6189820022
 40
0.7109344816
 40
0.805690712
 40
1.0
 40
1.0
 40
1.0
 40
1.0
 10
9.0295315289
 20
9.0088071359
 30
0.0
 10
9.0295332423
 20
9.0088300029
 30
0.0
 10
9.0295251378
 20
9.0088671912
 30
0.0
 10
9.0294994829
 20
9.0089117575
 30
0.0
 10
9.0294584003
 20
9.0089627084
 30
0.0
 10
9.0293826047
 20
9.0090266592
 30
0.0
 10
9.0292635303
 20
9.0091015578
 30
0.0
 10
9.0291102379
 20
9.009179231
 30
0.0
 10
9.0289226678
 20
9.0092596665
 30
0.0
 10
9.0287007073
 20
9.0093428046
 30
0.0
 10
9.0283378928
 20
9.0094641382
 30
0.0
 10
9.0277980111
 20
9.0096192047
 30
0.0
 10
9.0270475109
 20
9.0098063802
 30
0.0
 10
9.0261636838
 20
9.0100028783
 30
0.0
 10
9.0251486775
 20
9.0102081523
 30
0.0
 10
9.0240049194
 20
9.0104215712
 30
0.0
 10
9.0227351956
 20
9.0106425697
 30
0.0
 10
9.0213425987
 20
9.0108705712
 30
0.0
 10
9.0192512813
 20
9.0111947489
 30
0.0
 10
9.0163571371
 20
9.0116103139
 30
0.0
 10
9.0125676673
 20
9.0121119824
 30
0.0
 10
9.0083850902
 20
9.0126276486
 30
0.0
 10
9.0038493563
 20
9.0131523037
 30
0.0
 10
8.9990036368
 20
9.0136808455
 30
0.0
 10
8.9938939742
 20
9.0142081883
 30
0.0
 10
8.9885688545
 20
9.0147292855
 30
0.0
 10
8.9811869997
 20
9.0154147881
 30
0.0
 10
8.9755830048
 20
9.0158952171
 30
0.0
 10
8.9718146761
 20
9.0162013255
 30
0.0
  0
SPLINE
  5
4A1
100
AcDbEntity
  8
0
100
AcDbSpline
 62
7
  6
CONTINUOUS
 70
0
 71
3
 72
34
 73
30
 74
0
 42
0.0000001
 43
0.0000001
 44
0.0000000001
 40
0.0
 40
0.0
 40
0.0
 40
0.0
 40
0.1949222444
 40
0.2899939234
 40
0.3822532298
 40
0.4708187799
 40
0.5548439483
 40
0.6335256267
 40
0.7061113532
 40
0.771906674
 40
0.8302818013
 40
0.8806781709
 40
0.9027310774
 40
0.9226153421
 40
0.9402844521
 40
0.9556972878
 40
0.9688195813
 40
0.9745132055
 40
0.9796249225
 40
0.984152763
 40
0.9880961278
 40
0.9914556477
 40
0.9942339607
 40
0.996438324
 40
0.9980856168
 40
0.9987132626
 40
0.9992238246
 40
0.9996393961
 40
1.0
 40
1.0
 40
1.0
 40
1.0
 10
12.1587881621
 20
8.9501117949
 30
0.0
 10
12.155017216
 20
8.9499222951
 30
0.0
 10
12.1494077875
 20
8.9496247678
 30
0.0
 10
12.1420156092
 20
8.9492000076
 30
0.0
 10
12.1366811691
 20
8.9488769864
 30
0.0
 10
12.1315613626
 20
8.9485500038
 30
0.0
 10
12.1267051768
 20
8.9482222114
 30
0.0
 10
12.1221591042
 20
8.9478967936
 30
0.0
 10
12.1179666991
 20
8.9475769227
 30
0.0
 10
12.1141681668
 20
8.947265782
 30
0.0
 10
12.1107999997
 20
8.9469664458
 30
0.0
 10
12.1082778706
 20
8.9467197525
 30
0.0
 10
12.1064995965
 20
8.9465283665
 30
0.0
 10
12.1053526018
 20
8.9463960154
 30
0.0
 10
12.1043345318
 20
8.9462687564
 30
0.0
 10
12.103447849
 20
8.9461469199
 30
0.0
 10
12.1027924892
 20
8.9460460855
 30
0.0
 10
12.1023357381
 20
8.9459672888
 30
0.0
 10
12.1020438003
 20
8.9459125689
 30
0.0
 10
12.1017860985
 20
8.9458594388
 30
0.0
 10
12.1015627583
 20
8.9458079604
 30
0.0
 10
12.1013738991
 20
8.9457582004
 30
0.0
 10
12.101219462
 20
8.9457102883
 30
0.0
 10
12.1010995224
 20
8.9456642643
 30
0.0
 10
12.1010217145
 20
8.9456249044
 30
0.0
 10
12.1009781658
 20
8.9455927973
 30
0.0
 10
12.1009569845
 20
8.9455711603
 30
0.0
 10
12.1009441593
 20
8.9455493526
 30
0.0
 10
12.1009418029
 20
8.9455339903
 30
0.0
 10
12.1009423255
 20
8.9455270249
 30
0.0
  0
SPLINE
  5
4A2
100
AcDbEntity
  8
0
100
AcDbSpline
 62
7
  6
CONTINUOUS
 70
0
 71
3
 72
34
 73
30
 74
0
 42
0.0000001
 43
0.0000001
 44
0.0000000001
 40
0.0
 40
0.0
 40
0.0
 40
0.0
 40
0.1946270411
 40
0.2896905083
 40
0.3820207033
 40
0.4707204967
 40
0.5549238734
 40
0.6338057883
 40
0.7065906109
 40
0.7725608276
 40
0.8310651699
 40
0.8815265049
 40
0.9234496749
 40
0.9410794011
 40
0.9564303306
 40
0.9694682042
 40
0.9751109897
 40
0.9801663485
 40
0.9846326968
 40
0.988509167
 40
0.9917967347
 40
0.9944989307
 40
0.9966236859
 40
0.9974752222
 40
0.998191613
 40
0.9987807826
 40
0.9992570997
 40
0.9996476587
 40
1.0
 40
1.0
 40
1.0
 40
1.0
 10
8.7787940507
 20
9.0151588792
 30
0.0
 10
8.7750039234
 20
9.0154965194
 30
0.0
 10
8.7693611376
 20
9.015983442
 30
0.0
 10
8.7619171865
 20
9.016592946
 30
0.0
 10
8.756535976
 20
9.0170169537
 30
0.0
 10
8.7513651252
 20
9.0174073208
 30
0.0
 10
8.7464551511
 20
9.0177602325
 30
0.0
 10
8.7418542278
 20
9.0180722448
 30
0.0
 10
8.7376076612
 20
9.0183403293
 30
0.0
 10
8.733757407
 20
9.0185618974
 30
0.0
 10
8.7303415928
 20
9.0187349444
 30
0.0
 10
8.7273940995
 20
9.0188578595
 30
0.0
 10
8.7252440628
 20
9.0189215031
 30
0.0
 10
8.7237797562
 20
9.0189432451
 30
0.0
 10
8.7228800301
 20
9.0189454814
 30
0.0
 10
8.7222146931
 20
9.0189363028
 30
0.0
 10
8.7217508611
 20
9.0189213137
 30
0.0
 10
8.7214546971
 20
9.0189073605
 30
0.0
 10
8.7211932927
 20
9.0188902011
 30
0.0
 10
8.7209667953
 20
9.0188698624
 30
0.0
 10
8.7207752714
 20
9.0188464391
 30
0.0
 10
8.7206188021
 20
9.0188199705
 30
0.0
 10
8.720510643
 20
9.0187940734
 30
0.0
 10
8.7204422904
 20
9.0187706483
 30
0.0
 10
8.7204036323
 20
9.0187536217
 30
0.0
 10
8.7203735676
 20
9.0187357839
 30
0.0
 10
8.7203519348
 20
9.0187169325
 30
0.0
 10
8.7203388058
 20
9.0186964524
 30
0.0
 10
8.720336617
 20
9.018681542
 30
0.0
 10
8.720337132
 20
9.0186746727
 30
0.0
  0
SPLINE
  5
4A3
100
AcDbEntity
  8
0
100
AcDbSpline
 62
7
  6
CONTINUOUS
 70
0
 71
3
 72
27
 73
23
 74
0
 42
0.0000001
 43
0.0000001
 44
0.0000000001
 40
0.0
 40
0.0
 40
0.0
 40
0.0
 40
0.2232043105
 40
0.4209911506
 40
0.5097913118
 40
0.591594907
 40
0.666221881
 40
0.733510694
 40
0.7933206864
 40
0.8455312903
 40
0.8900506736
 40
0.9268191507
 40
0.942294052
 40
0.9558354932
 40
0.9674604211
 40
0.9772002855
 40
0.9851144577
 40
0.9913229389
 40
0.9938652319
 40
0.9960989022
 40
0.9981063431
 40
1.0
 40
1.0
 40
1.0
 40
1.0
 10
11.8021301504
 20
8.9486523749
 30
0.0
 10
11.8009210829
 20
8.9485510495
 30
0.0
 10
11.7986414053
 20
8.9483504961
 30
0.0
 10
11.7958836049
 20
8.9480779894
 30
0.0
 10
11.7938930529
 20
8.9478592351
 30
0.0
 10
11.7925692359
 20
8.947702556
 30
0.0
 10
11.7913630073
 20
8.9475476941
 30
0.0
 10
11.7902771008
 20
8.9473950346
 30
0.0
 10
11.7893139777
 20
8.9472449848
 30
0.0
 10
11.7884757629
 20
8.9470980049
 30
0.0
 10
11.7877643341
 20
8.9469545043
 30
0.0
 10
11.7872524935
 20
8.9468324204
 30
0.0
 10
11.7869084962
 20
8.9467345392
 30
0.0
 10
11.7866982502
 20
8.9466664889
 30
0.0
 10
11.7865205975
 20
8.9465996092
 30
0.0
 10
11.7863754123
 20
8.9465339388
 30
0.0
 10
11.7862626226
 20
8.9464695243
 30
0.0
 10
11.7861906575
 20
8.9464133516
 30
0.0
 10
11.7861515954
 20
8.9463679165
 30
0.0
 10
11.7861324705
 20
8.9463361255
 30
0.0
 10
11.7861217038
 20
8.9463042411
 30
0.0
 10
11.786120347
 20
8.9462827724
 30
0.0
 10
11.7861211177
 20
8.9462725077
 30
0.0
  0
LINE
  5
4A4
100
AcDbEntity
  8
0
100
AcDbLine
 62
9
  6
CONTINUOUS
 10
11.4778233583
 20
8.9452503591
 11
11.7862896046
 21
8.9452522149
  0
LINE
  5
4A5
100
AcDbEntity
  8
0
100
AcDbLine
 62
7
  6
CONTINUOUS
 10
11.9176923427
 20
8.9273414032
 11
11.9004385695
 21
8.9266477171
  0
SPLINE
  5
4A6
100
AcDbEntity
  8
0
100
AcDbSpline
 62
7
  6
CONTINUOUS
 70
0
 71
3
 72
37
 73
33
 74
0
 42
0.0000001
 43
0.0000001
 44
0.0000000001
 40
0.0
 40
0.0
 40
0.0
 40
0.0
 40
0.0980310991
 40
0.1950940997
 40
0.2902603962
 40
0.3826150627
 40
0.4712729039
 40
0.5553832831
 40
0.6341393016
 40
0.7067856548
 40
0.7726252221
 40
0.802792114
 40
0.8310258573
 40
0.8572585051
 40
0.8814272067
 40
0.9034742248
 40
0.9233465907
 40
0.9409972145
 40
0.9563844447
 40
0.9694723594
 40
0.980232062
 40
0.9847317922
 40
0.988642307
 40
0.9919625259
 40
0.9946929592
 40
0.9968366439
 40
0.9976908892
 40
0.9984024911
 40
0.9989753419
 40
0.9994171203
 40
0.999744923
 40
1.0
 40
1.0
 40
1.0
 40
1.0
 10
11.7863972384
 20
8.9285163369
 30
0.0
 10
11.7844920825
 20
8.928449898
 30
0.0
 10
11.7807007135
 20
8.9283139577
 30
0.0
 10
11.7750603389
 20
8.9281005307
 30
0.0
 10
11.7695307072
 20
8.92788
 30
0.0
 10
11.7641648628
 20
8.9276544903
 30
0.0
 10
11.7590143323
 20
8.9274261823
 30
0.0
 10
11.7541285418
 20
8.9271972861
 30
0.0
 10
11.7495543923
 20
8.9269700331
 30
0.0
 10
11.7453358056
 20
8.9267466357
 30
0.0
 10
11.7420614546
 20
8.9265605111
 30
0.0
 10
11.7396498979
 20
8.9264143961
 30
0.0
 10
11.7380074101
 20
8.9263103138
 30
0.0
 10
11.7364816435
 20
8.926208767
 30
0.0
 10
11.7350762736
 20
8.9261100076
 30
0.0
 10
11.7337946885
 20
8.9260142886
 30
0.0
 10
11.7326399757
 20
8.9259218613
 30
0.0
 10
11.7316149207
 20
8.9258329754
 30
0.0
 10
11.7307219847
 20
8.9257479159
 30
0.0
 10
11.7299633181
 20
8.9256669192
 30
0.0
 10
11.7294161356
 20
8.9255997683
 30
0.0
 10
11.7290470818
 20
8.9255471049
 30
0.0
 10
11.7288218097
 20
8.925511158
 30
0.0
 10
11.7286312129
 20
8.9254764485
 30
0.0
 10
11.7284753928
 20
8.9254430036
 30
0.0
 10
11.7283675768
 20
8.9254146427
 30
0.0
 10
11.728299127
 20
8.9253917799
 30
0.0
 10
11.7282605004
 20
8.9253762929
 30
0.0
 10
11.7282304432
 20
8.9253611777
 30
0.0
 10
11.7282088761
 20
8.9253463122
 30
0.0
 10
11.728195137
 20
8.9253314067
 30
0.0
 10
11.7281919338
 20
8.9253197991
 30
0.0
 10
11.7281923046
 20
8.9253148527
 30
0.0
  0
SPLINE
  5
4A7
100
AcDbEntity
  8
0
100
AcDbSpline
 62
7
  6
CONTINUOUS
 70
0
 71
3
 72
28
 73
24
 74
0
 42
0.0000001
 43
0.0000001
 44
0.0000000001
 40
0.0
 40
0.0
 40
0.0
 40
0.0
 40
0.2282997162
 40
0.3322040366
 40
0.4290607663
 40
0.5187225844
 40
0.6010505202
 40
0.6759197224
 40
0.7432144026
 40
0.8028333878
 40
0.8546851961
 40
0.8986938926
 40
0.9347943854
 40
0.9498641355
 40
0.9629408296
 40
0.9740212192
 40
0.9831055565
 40
0.9901985255
 40
0.9930022982
 40
0.9953150994
 40
0.9971438403
 40
0.9985034286
 40
1.0
 40
1.0
 40
1.0
 40
1.0
 10
11.3670375508
 20
8.9133188814
 30
0.0
 10
11.3661956975
 20
8.9132893313
 30
0.0
 10
11.3649707474
 20
8.9132448808
 30
0.0
 10
11.3633888029
 20
8.9131835463
 30
0.0
 10
11.3623180938
 20
8.9131400491
 30
0.0
 10
11.361327019
 20
8.9130976674
 30
0.0
 10
11.3604170991
 20
8.9130564682
 30
0.0
 10
11.3595897399
 20
8.913016523
 30
0.0
 10
11.3588462092
 20
8.9129779016
 30
0.0
 10
11.3581876556
 20
8.9129406771
 30
0.0
 10
11.3576150827
 20
8.9129049363
 30
0.0
 10
11.3571293744
 20
8.9128707522
 30
0.0
 10
11.3567793316
 20
8.9128422391
 30
0.0
 10
11.3565433425
 20
8.9128197388
 30
0.0
 10
11.3563994222
 20
8.912804326
 30
0.0
 10
11.3562776799
 20
8.912789386
 30
0.0
 10
11.3561781298
 20
8.9127749056
 30
0.0
 10
11.3561091939
 20
8.9127625983
 30
0.0
 10
11.3560652072
 20
8.9127525381
 30
0.0
 10
11.3560405985
 20
8.9127458482
 30
0.0
 10
11.3560210748
 20
8.9127390094
 30
0.0
 10
11.3560062207
 20
8.9127322993
 30
0.0
 10
11.3559957011
 20
8.9127240028
 30
0.0
 10
11.3559961142
 20
8.9127184963
 30
0.0
  0
SPLINE
  5
4A8
100
AcDbEntity
  8
0
100
AcDbSpline
 62
7
  6
CONTINUOUS
 70
0
 71
3
 72
32
 73
28
 74
0
 42
0.0000001
 43
0.0000001
 44
0.0000000001
 40
0.0
 40
0.0
 40
0.0
 40
0.0
 40
0.1934181966
 40
0.2877549991
 40
0.3792855378
 40
0.467129929
 40
0.5504481675
 40
0.6284496983
 40
0.7004011196
 40
0.7656341516
 40
0.8235535697
 40
0.8496075797
 40
0.8736483845
 40
0.8956267214
 40
0.9155014035
 40
0.9332394644
 40
0.9488190575
 40
0.9622333827
 40
0.9734974553
 40
0.9783397757
 40
0.9826699563
 40
0.9865071268
 40
0.9898803938
 40
0.9928336483
 40
0.9954334464
 40
0.9977779639
 40
1.0
 40
1.0
 40
1.0
 40
1.0
 10
11.4096518809
 20
9.0188237349
 30
0.0
 10
11.4058538239
 20
9.0187494078
 30
0.0
 10
11.4002041065
 20
9.0185887289
 30
0.0
 10
11.392761475
 20
9.0182724821
 30
0.0
 10
11.3873929505
 20
9.0179915774
 30
0.0
 10
11.3822436485
 20
9.0176679147
 30
0.0
 10
11.3773633704
 20
9.0173047648
 30
0.0
 10
11.3727991219
 20
9.0169058288
 30
0.0
 10
11.3685946137
 20
9.0164752337
 30
0.0
 10
11.3647899578
 20
9.0160173639
 30
0.0
 10
11.3618884446
 20
9.0156040173
 30
0.0
 10
11.3597952482
 20
9.0152585852
 30
0.0
 10
11.3584025776
 20
9.0150047535
 30
0.0
 10
11.3571341099
 20
9.014747603
 30
0.0
 10
11.355992782
 20
9.0144878133
 30
0.0
 10
11.3549812028
 20
9.0142260884
 30
0.0
 10
11.354101519
 20
9.0139631975
 30
0.0
 10
11.3533556242
 20
9.0136998608
 30
0.0
 10
11.3528222259
 20
9.0134706301
 30
0.0
 10
11.3524666272
 20
9.0132840396
 30
0.0
 10
11.3522480116
 20
9.0131513806
 30
0.0
 10
11.3520637499
 20
9.0130188913
 30
0.0
 10
11.3519138151
 20
9.012886463
 30
0.0
 10
11.3517982
 20
9.012753829
 30
0.0
 10
11.3517171614
 20
9.0126204172
 30
0.0
 10
11.3516716108
 20
9.0124858467
 30
0.0
 10
11.3516659362
 20
9.0123950416
 30
0.0
 10
11.3516691988
 20
9.0123515223
 30
0.0
  0
SPLINE
  5
4A9
100
AcDbEntity
  8
0
100
AcDbSpline
 62
7
  6
CONTINUOUS
 70
0
 71
3
 72
32
 73
28
 74
0
 42
0.0000001
 43
0.0000001
 44
0.0000000001
 40
0.0
 40
0.0
 40
0.0
 40
0.0
 40
0.1934682271
 40
0.2878200948
 40
0.3793657569
 40
0.4672302943
 40
0.5505779924
 40
0.6286213817
 40
0.7006284573
 40
0.7659302154
 40
0.8239281305
 40
0.8500230948
 40
0.8741045394
 40
0.8961217276
 40
0.916031611
 40
0.9337987205
 40
0.949398047
 40
0.9628182189
 40
0.9740676749
 40
0.9788917515
 40
0.9831941895
 40
0.9869916698
 40
0.9903102449
 40
0.9931901233
 40
0.9956941219
 40
0.9979186528
 40
1.0
 40
1.0
 40
1.0
 40
1.0
 10
11.8609845225
 20
9.0184683726
 30
0.0
 10
11.8571916417
 20
9.0183232334
 30
0.0
 10
11.8515506372
 20
9.0180606989
 30
0.0
 10
11.8441209898
 20
9.0176175296
 30
0.0
 10
11.8387626367
 20
9.0172487526
 30
0.0
 10
11.8336233672
 20
9.0168445558
 30
0.0
 10
11.8287525509
 20
9.0164089545
 30
0.0
 10
11.8241968164
 20
9.0159463038
 30
0.0
 10
11.8199995824
 20
9.0154612885
 30
0.0
 10
11.8162007625
 20
9.0149587616
 30
0.0
 10
11.8133031611
 20
9.01451568
 30
0.0
 10
11.8112122198
 20
9.0141519436
 30
0.0
 10
11.8098206872
 20
9.0138875097
 30
0.0
 10
11.8085529987
 20
9.0136224252
 30
0.0
 10
11.8074121203
 20
9.0133573853
 30
0.0
 10
11.8064006972
 20
9.0130930988
 30
0.0
 10
11.8055209302
 20
9.0128303458
 30
0.0
 10
11.8047747678
 20
9.012569843
 30
0.0
 10
11.8042407261
 20
9.0123453281
 30
0.0
 10
11.8038842713
 20
9.0121639816
 30
0.0
 10
11.8036652526
 20
9.0120358679
 30
0.0
 10
11.8034805623
 20
9.0119086278
 30
0.0
 10
11.8033301593
 20
9.0117821735
 30
0.0
 10
11.8032139845
 20
9.0116562547
 30
0.0
 10
11.8031321966
 20
9.0115302495
 30
0.0
 10
11.8030856628
 20
9.0114035757
 30
0.0
 10
11.8030793605
 20
9.0113179437
 30
0.0
 10
11.8030824131
 20
9.0112772239
 30
0.0
  0
SPLINE
  5
4AA
100
AcDbEntity
  8
0
100
AcDbSpline
 62
7
  6
CONTINUOUS
 70
0
 71
3
 72
31
 73
27
 74
0
 42
0.0000001
 43
0.0000001
 44
0.0000000001
 40
0.0
 40
0.0
 40
0.0
 40
0.0
 40
0.193648932
 40
0.3797120618
 40
0.4676653132
 40
0.551108571
 40
0.6292548493
 40
0.7013705346
 40
0.7667826013
 40
0.8248856801
 40
0.8510281112
 40
0.8751514735
 40
0.897202998
 40
0.9171370857
 40
0.9349149431
 40
0.9505073219
 40
0.9638967386
 40
0.9750827272
 40
0.9798583218
 40
0.9840980313
 40
0.9878150968
 40
0.9910311554
 40
0.9937809477
 40
0.9961215824
 40
0.9981468701
 40
1.0
 40
1.0
 40
1.0
 40
1.0
 10
12.2719648654
 20
9.0178940812
 30
0.0
 10
12.2681790815
 20
9.0176848887
 30
0.0
 10
12.2607587058
 20
9.0172204241
 30
0.0
 10
12.2516291817
 20
9.0165102683
 30
0.0
 10
12.2446589643
 20
9.0158763359
 30
0.0
 10
12.2397974343
 20
9.0153877612
 30
0.0
 10
12.2352495339
 20
9.014881976
 30
0.0
 10
12.2310584932
 20
9.0143639895
 30
0.0
 10
12.2272641412
 20
9.0138389201
 30
0.0
 10
12.2243689651
 20
9.0133855001
 30
0.0
 10
12.2222789342
 20
9.0130193131
 30
0.0
 10
12.2208876757
 20
9.0127558038
 30
0.0
 10
12.2196199091
 20
9.012494327
 30
0.0
 10
12.218478641
 20
9.0122355668
 30
0.0
 10
12.2174665639
 20
9.011980211
 30
0.0
 10
12.2165859498
 20
9.0117290257
 30
0.0
 10
12.2158388142
 20
9.0114826993
 30
0.0
 10
12.2153033234
 20
9.011272623
 30
0.0
 10
12.2149452355
 20
9.0111043016
 30
0.0
 10
12.2147254627
 20
9.0109863137
 30
0.0
 10
12.2145400078
 20
9.0108698831
 30
0.0
 10
12.2143888098
 20
9.0107549564
 30
0.0
 10
12.2142717284
 20
9.0106413185
 30
0.0
 10
12.2141887434
 20
9.0105282966
 30
0.0
 10
12.2141405601
 20
9.0104149475
 30
0.0
 10
12.2141332151
 20
9.0103377924
 30
0.0
 10
12.2141359272
 20
9.0103016105
 30
0.0
  0
LINE
  5
4AB
100
AcDbEntity
  8
0
100
AcDbLine
 62
7
  6
CONTINUOUS
 10
11.7874506504
 20
8.9285528815
 11
11.7863972384
 21
8.9285163369
  0
SPLINE
  5
4AC
100
AcDbEntity
  8
0
100
AcDbSpline
 62
7
  6
CONTINUOUS
 70
0
 71
3
 72
31
 73
27
 74
0
 42
0.0000001
 43
0.0000001
 44
0.0000000001
 40
0.0
 40
0.0
 40
0.0
 40
0.0
 40
0.1939427422
 40
0.3802907581
 40
0.4683895623
 40
0.5519812583
 40
0.630276947
 40
0.7025389171
 40
0.7680876966
 40
0.8263088384
 40
0.8524994793
 40
0.8766613889
 40
0.8987395515
 40
0.9186855469
 40
0.9364569846
 40
0.9520199181
 40
0.9653501112
 40
0.976437004
 40
0.9811429069
 40
0.9852957975
 40
0.9889046806
 40
0.9919854428
 40
0.9945651317
 40
0.9966917019
 40
0.9984526727
 40
1.0
 40
1.0
 40
1.0
 40
1.0
 10
12.6246310966
 20
9.0171268738
 30
0.0
 10
12.6208537591
 20
9.0168632474
 30
0.0
 10
12.6134500435
 20
9.0163017138
 30
0.0
 10
12.6043404604
 20
9.0154965487
 30
0.0
 10
12.5973842596
 20
9.0148061294
 30
0.0
 10
12.5925312609
 20
9.0142862002
 30
0.0
 10
12.5879901195
 20
9.0137595163
 30
0.0
 10
12.5838039868
 20
9.0132312292
 30
0.0
 10
12.5800127127
 20
9.0127065071
 30
0.0
 10
12.5771186012
 20
9.0122624326
 30
0.0
 10
12.5750283406
 20
9.0119096464
 30
0.0
 10
12.5736366561
 20
9.0116584752
 30
0.0
 10
12.5723681359
 20
9.0114119239
 30
0.0
 10
12.571225832
 20
9.011170637
 30
0.0
 10
12.5702124862
 20
9.0109352549
 30
0.0
 10
12.5693304498
 20
9.0107064964
 30
0.0
 10
12.5685818082
 20
9.010484994
 30
0.0
 10
12.5680442879
 20
9.0102984161
 30
0.0
 10
12.5676839955
 20
9.0101503747
 30
0.0
 10
12.5674632131
 20
9.0100476146
 30
0.0
 10
12.5672767609
 20
9.0099470375
 30
0.0
 10
12.5671245723
 20
9.0098486431
 30
0.0
 10
12.5670064107
 20
9.0097522985
 30
0.0
 10
12.566922006
 20
9.0096573648
 30
0.0
 10
12.5668714862
 20
9.0095624151
 30
0.0
 10
12.5668625398
 20
9.0094965473
 30
0.0
 10
12.5668647976
 20
9.0094664219
 30
0.0
  0
SPLINE
  5
4AD
100
AcDbEntity
  8
0
100
AcDbSpline
 62
7
  6
CONTINUOUS
 70
0
 71
3
 72
33
 73
29
 74
0
 42
0.0000001
 43
0.0000001
 44
0.0000000001
 40
0.0
 40
0.0
 40
0.0
 40
0.0
 40
0.1943092821
 40
0.2890655098
 40
0.3810179882
 40
0.4692970921
 40
0.5530675793
 40
0.631536784
 40
0.7039613182
 40
0.7696541001
 40
0.8279910835
 40
0.8542252965
 40
0.8784189072
 40
0.9005147855
 40
0.9204618881
 40
0.9382145177
 40
0.9537342976
 40
0.9669906507
 40
0.9779631722
 40
0.9825915067
 40
0.9866493701
 40
0.9901411852
 40
0.9930761611
 40
0.9954714416
 40
0.9973608824
 40
0.9981378557
 40
0.9988214655
 40
1.0
 40
1.0
 40
1.0
 40
1.0
 10
12.9035700093
 20
9.0162013255
 30
0.0
 10
12.8998016808
 20
9.0158952171
 30
0.0
 10
12.894197686
 20
9.0154147882
 30
0.0
 10
12.8868158314
 20
9.0147292856
 30
0.0
 10
12.8814907119
 20
9.0142081883
 30
0.0
 10
12.8763810494
 20
9.0136808456
 30
0.0
 10
12.8715353301
 20
9.0131523038
 30
0.0
 10
12.8669995963
 20
9.0126276487
 30
0.0
 10
12.8628170191
 20
9.0121119825
 30
0.0
 10
12.8590275491
 20
9.011610314
 30
0.0
 10
12.8561334047
 20
9.011194749
 30
0.0
 10
12.8540420873
 20
9.0108705713
 30
0.0
 10
12.8526494904
 20
9.0106425698
 30
0.0
 10
12.8513797665
 20
9.0104215713
 30
0.0
 10
12.8502360083
 20
9.0102081523
 30
0.0
 10
12.8492210019
 20
9.0100028784
 30
0.0
 10
12.8483371748
 20
9.0098063802
 30
0.0
 10
12.8475866746
 20
9.0096192048
 30
0.0
 10
12.8470467928
 20
9.0094641383
 30
0.0
 10
12.8466839783
 20
9.0093428046
 30
0.0
 10
12.8464620178
 20
9.0092596666
 30
0.0
 10
12.8462744477
 20
9.009179231
 30
0.0
 10
12.8461211552
 20
9.0091015579
 30
0.0
 10
12.8460020808
 20
9.0090266592
 30
0.0
 10
12.8459262852
 20
9.0089627084
 30
0.0
 10
12.8458852026
 20
9.0089117575
 30
0.0
 10
12.8458595477
 20
9.0088671912
 30
0.0
 10
12.8458514432
 20
9.0088300029
 30
0.0
 10
12.8458531566
 20
9.0088071359
 30
0.0
  0
SPLINE
  5
4AE
100
AcDbEntity
  8
0
100
AcDbSpline
 62
7
  6
CONTINUOUS
 70
0
 71
3
 72
37
 73
33
 74
0
 42
0.0000001
 43
0.0000001
 44
0.0000000001
 40
0.0
 40
0.0
 40
0.0
 40
0.0
 40
0.0002550785
 40
0.0005828846
 40
0.0010246675
 40
0.0015975225
 40
0.0023091265
 40
0.0031633764
 40
0.0053070851
 40
0.008037542
 40
0.0113577646
 40
0.0152682967
 40
0.019768051
 40
0.0305277908
 40
0.043615763
 40
0.0590030586
 40
0.0766537199
 40
0.0965261283
 40
0.1185731467
 40
0.1427418475
 40
0.1689745189
 40
0.1972082171
 40
0.2273749999
 40
0.2932142302
 40
0.3658605029
 40
0.4446165205
 40
0.5287267272
 40
0.6173845713
 40
0.7097393771
 40
0.8049056725
 40
0.9019687389
 40
1.0
 40
1.0
 40
1.0
 40
1.0
 10
10.147192381
 20
8.9253148527
 30
0.0
 10
10.1471927518
 20
8.9253197991
 30
0.0
 10
10.1471895485
 20
8.9253314068
 30
0.0
 10
10.1471758092
 20
8.9253463123
 30
0.0
 10
10.1471542418
 20
8.9253611779
 30
0.0
 10
10.1471241844
 20
8.9253762931
 30
0.0
 10
10.1470855577
 20
8.9253917803
 30
0.0
 10
10.1470171073
 20
8.9254146432
 30
0.0
 10
10.1469092902
 20
8.9254430041
 30
0.0
 10
10.1467534691
 20
8.925476449
 30
0.0
 10
10.1465628715
 20
8.9255111589
 30
0.0
 10
10.1463375985
 20
8.9255471057
 30
0.0
 10
10.1459685431
 20
8.9255997691
 30
0.0
 10
10.1454213583
 20
8.9256669203
 30
0.0
 10
10.1446626886
 20
8.9257479172
 30
0.0
 10
10.1437697495
 20
8.9258329768
 30
0.0
 10
10.1427446917
 20
8.9259218628
 30
0.0
 10
10.1415899773
 20
8.9260142901
 30
0.0
 10
10.1403083914
 20
8.9261100091
 30
0.0
 10
10.138903021
 20
8.9262087685
 30
0.0
 10
10.1373772549
 20
8.926310315
 30
0.0
 10
10.1357347696
 20
8.9264143972
 30
0.0
 10
10.1333232224
 20
8.9265605116
 30
0.0
 10
10.1300488817
 20
8.9267466356
 30
0.0
 10
10.125830303
 20
8.9269700326
 30
0.0
 10
10.1212561584
 20
8.9271972854
 30
0.0
 10
10.1163703713
 20
8.9274261815
 30
0.0
 10
10.1112198414
 20
8.9276544895
 30
0.0
 10
10.1058539943
 20
8.9278799994
 30
0.0
 10
10.1003243586
 20
8.9281005302
 30
0.0
 10
10.0946839796
 20
8.9283139574
 30
0.0
 10
10.0908926061
 20
8.9284498979
 30
0.0
 10
10.088987447
 20
8.9285163369
 30
0.0
  0
SPLINE
  5
4AF
100
AcDbEntity
  8
0
100
AcDbSpline
 62
7
  6
CONTINUOUS
 70
0
 71
3
 72
34
 73
30
 74
0
 42
0.0000001
 43
0.0000001
 44
0.0000000001
 40
0.0
 40
0.0
 40
0.0
 40
0.0
 40
0.1946844285
 40
0.2896260776
 40
0.3817634357
 40
0.4702254045
 40
0.5541735906
 40
0.6328106186
 40
0.705387034
 40
0.7712085979
 40
0.8296429812
 40
0.8801266356
 40
0.9022313651
 40
0.922172042
 40
0.9399005137
 40
0.9553749889
 40
0.9685600556
 40
0.9742849644
 40
0.9794277236
 40
0.983986545
 40
0.9879602522
 40
0.9913491949
 40
0.9941561718
 40
0.9963877573
 40
0.9980596258
 40
0.9986979729
 40
0.9992174161
 40
0.9996386999
 40
1.0
 40
1.0
 40
1.0
 40
1.0
 10
13.0965906347
 20
9.0151588792
 30
0.0
 10
13.0928309861
 20
9.0148239542
 30
0.0
 10
13.087239223
 20
9.014310316
 30
0.0
 10
13.0798716462
 20
9.0136011483
 30
0.0
 10
13.0745556176
 20
9.0130730833
 30
0.0
 10
13.0694533685
 20
9.0125494242
 30
0.0
 10
13.0646133043
 20
9.0120351543
 30
0.0
 10
13.0600814758
 20
9.0115352015
 30
0.0
 10
13.05590115
 20
9.0110543797
 30
0.0
 10
13.0521124036
 20
9.0105973968
 30
0.0
 10
13.0487517578
 20
9.0101687221
 30
0.0
 10
13.0462347677
 20
9.009825223
 30
0.0
 10
13.0444596882
 20
9.0095656014
 30
0.0
 10
13.0433142835
 20
9.0093892074
 30
0.0
 10
13.0422974325
 20
9.0092228591
 30
0.0
 10
13.0414116489
 20
9.00906699
 30
0.0
 10
13.0407569604
 20
9.008941039
 30
0.0
 10
13.0403006603
 20
9.0088447645
 30
0.0
 10
13.0400089095
 20
9.0087788631
 30
0.0
 10
13.0397513476
 20
9.008715875
 30
0.0
 10
13.03952811
 20
9.0086558624
 30
0.0
 10
13.0393393219
 20
9.0085988927
 30
0.0
 10
13.0391849299
 20
9.0085451008
 30
0.0
 10
13.0390650123
 20
9.0084945302
 30
0.0
 10
13.0389872976
 20
9.0084522649
 30
0.0
 10
13.0389438118
 20
9.0084185873
 30
0.0
 10
13.038922662
 20
9.0083962171
 30
0.0
 10
13.0389098484
 20
9.0083740645
 30
0.0
 10
13.038907424
 20
9.0083585781
 30
0.0
 10
13.0389079473
 20
9.0083515928
 30
0.0
  0
LINE
  5
4B0
100
AcDbEntity
  8
0
100
AcDbLine
 62
7
  6
CONTINUOUS
 10
12.8359892064
 20
8.9815406038
 11
12.7776923427
 21
8.9771304964
  0
SPLINE
  5
4B1
100
AcDbEntity
  8
0
100
AcDbSpline
 62
7
  6
CONTINUOUS
 70
0
 71
3
 72
38
 73
34
 74
0
 42
0.0000001
 43
0.0000001
 44
0.0000000001
 40
0.0
 40
0.0
 40
0.0
 40
0.0
 40
0.0002424116
 40
0.000548746
 40
0.0009667392
 40
0.0015156853
 40
0.0022039124
 40
0.0030355425
 40
0.0040128535
 40
0.0051371382
 40
0.0078290812
 40
0.0111144065
 40
0.0149937777
 40
0.0194663846
 40
0.024530217
 40
0.0301829162
 40
0.0432428587
 40
0.058616419
 40
0.0762676029
 40
0.0961539522
 40
0.1182269923
 40
0.1424331682
 40
0.1687128445
 40
0.2272305248
 40
0.2932057188
 40
0.3659911269
 40
0.4448737486
 40
0.5290824206
 40
0.6177960503
 40
0.7101516596
 40
0.8052539751
 40
0.9021808944
 40
1.0
 40
1.0
 40
1.0
 40
1.0
 10
12.7732813932
 20
8.9813894916
 30
0.0
 10
12.7732817458
 20
8.9813941985
 30
0.0
 10
12.7732786191
 20
8.9814052214
 30
0.0
 10
12.7732645579
 20
8.9814184185
 30
0.0
 10
12.7732428439
 20
8.981430534
 30
0.0
 10
12.7732126278
 20
8.9814420014
 30
0.0
 10
12.7731738243
 20
8.9814529041
 30
0.0
 10
12.7731262821
 20
8.9814632141
 30
0.0
 10
12.7730699867
 20
8.9814729177
 30
0.0
 10
12.7729775305
 20
8.9814858021
 30
0.0
 10
12.7728399032
 20
8.9814996286
 30
0.0
 10
12.7726484288
 20
8.9815129673
 30
0.0
 10
12.7724220758
 20
8.981523753
 30
0.0
 10
12.7721609718
 20
8.9815319628
 30
0.0
 10
12.7718652642
 20
8.9815375638
 30
0.0
 10
12.7714023147
 20
8.9815417136
 30
0.0
 10
12.7707385878
 20
8.9815393664
 30
0.0
 10
12.7698413365
 20
8.9815263143
 30
0.0
 10
12.7688113407
 20
8.9815027658
 30
0.0
 10
12.7676511293
 20
8.9814687545
 30
0.0
 10
12.7663635521
 20
8.9814243242
 30
0.0
 10
12.7649517838
 20
8.9813695691
 30
0.0
 10
12.7628312294
 20
8.9812796619
 30
0.0
 10
12.7598987114
 20
8.9811414124
 30
0.0
 10
12.7560625524
 20
8.9809427018
 30
0.0
 10
12.7518312485
 20
8.9807075031
 30
0.0
 10
12.7472462915
 20
8.9804380912
 30
0.0
 10
12.7423525314
 20
8.9801370619
 30
0.0
 10
12.7371977184
 20
8.9798073371
 30
0.0
 10
12.7318320018
 20
8.9794521154
 30
0.0
 10
12.7263074826
 20
8.9790748424
 30
0.0
 10
12.7206776017
 20
8.9786791688
 30
0.0
 10
12.7168954629
 20
8.9784060366
 30
0.0
 10
12.7149958631
 20
8.9782670321
 30
0.0
  0
SPLINE
  5
4B2
100
AcDbEntity
  8
0
100
AcDbSpline
 62
7
  6
CONTINUOUS
 70
0
 71
3
 72
39
 73
35
 74
0
 42
0.0000001
 43
0.0000001
 44
0.0000000001
 40
0.0
 40
0.0
 40
0.0
 40
0.0
 40
0.0001365269
 40
0.0002425199
 40
0.0003810287
 40
0.0007628949
 40
0.0012899733
 40
0.0019647483
 40
0.0027883324
 40
0.0048837889
 40
0.0075777596
 40
0.0108696513
 40
0.0147583066
 40
0.0192418029
 40
0.0243174155
 40
0.0299822964
 40
0.0430665375
 40
0.0584628211
 40
0.076134137
 40
0.0960374804
 40
0.1181241323
 40
0.1423405012
 40
0.1686270773
 40
0.196919935
 40
0.2271498182
 40
0.2931209525
 40
0.3658970796
 40
0.4447694406
 40
0.5289710293
 40
0.617684462
 40
0.7100497261
 40
0.8051734838
 40
0.9021344646
 40
1.0
 40
1.0
 40
1.0
 40
1.0
 10
12.3845840146
 20
8.9517522925
 30
0.0
 10
12.3845842129
 20
8.9517549424
 30
0.0
 10
12.3845807653
 20
8.9517594012
 30
0.0
 10
12.3845744407
 20
8.9517629432
 30
0.0
 10
12.3845630887
 20
8.9517676764
 30
0.0
 10
12.3845432854
 20
8.9517725974
 30
0.0
 10
12.3845128937
 20
8.9517778719
 30
0.0
 10
12.3844737515
 20
8.9517826398
 30
0.0
 10
12.3844040797
 20
8.9517889387
 30
0.0
 10
12.3842949723
 20
8.9517949814
 30
0.0
 10
12.3841377566
 20
8.9518000011
 30
0.0
 10
12.3839455805
 20
8.951803057
 30
0.0
 10
12.3837185566
 20
8.951804148
 30
0.0
 10
12.3834568144
 20
8.9518032342
 30
0.0
 10
12.3831605144
 20
8.9518003113
 30
0.0
 10
12.3826968506
 20
8.9517933727
 30
0.0
 10
12.3820324049
 20
8.9517791833
 30
0.0
 10
12.3811344501
 20
8.9517549465
 30
0.0
 10
12.3801039476
 20
8.9517227432
 30
0.0
 10
12.3789434174
 20
8.9516826394
 30
0.0
 10
12.3776556964
 20
8.9516347133
 30
0.0
 10
12.3762439398
 20
8.9515790722
 30
0.0
 10
12.3747115964
 20
8.951515846
 30
0.0
 10
12.3730624179
 20
8.9514451853
 30
0.0
 10
12.3706416902
 20
8.9513381187
 30
0.0
 10
12.3673562794
 20
8.9511866814
 30
0.0
 10
12.3631255028
 20
8.9509834757
 30
0.0
 10
12.35854067
 20
8.9507557844
 30
0.0
 10
12.3536463701
 20
8.9505058101
 30
0.0
 10
12.3484901271
 20
8.9502359668
 30
0.0
 10
12.3431219158
 20
8.9499488641
 30
0.0
 10
12.3375937264
 20
8.9496472783
 30
0.0
 10
12.3319589572
 20
8.9493341213
 30
0.0
 10
12.3281729924
 20
8.9491199524
 30
0.0
 10
12.3262712745
 20
8.9490114375
 30
0.0
  0
SPLINE
  5
4B3
100
AcDbEntity
  8
0
100
AcDbSpline
 62
7
  6
CONTINUOUS
 70
0
 71
3
 72
11
 73
7
 74
0
 42
0.0000001
 43
0.0000001
 44
0.0000000001
 40
0.0
 40
0.0
 40
0.0
 40
0.0
 40
0.2197256092
 40
0.4651999756
 40
0.7282128084
 40
1.0
 40
1.0
 40
1.0
 40
1.0
 10
12.5699546236
 20
8.9813165249
 30
0.0
 10
12.5671122364
 20
8.9812257712
 30
0.0
 10
12.5610955983
 20
8.9809948833
 30
0.0
 10
12.5516811128
 20
8.9805474781
 30
0.0
 10
12.5415975809
 20
8.9799901425
 30
0.0
 10
12.5346891695
 20
8.9795597901
 30
0.0
 10
12.5311790857
 20
8.9793291761
 30
0.0
  0
ENDSEC
  0
SECTION
  2
OBJECTS
  0
DICTIONARY
  5
C
100
AcDbDictionary
280
0
281
1
  3
ACAD_GROUP
350
D
  3
ACAD_MLINESTYLE
350
17
  3
ACAD_LAYOUT
350
1A
  3
ACAD_PLOTSETTINGS
350
19
  3
ACAD_PLOTSTYLENAME
350
E
  0
DICTIONARY
  5
D
102
{ACAD_REACTORS
330
C
102
}
100
AcDbDictionary
280
0
281
1
  0
ACDBDICTIONARYWDFLT
  5
E
102
{ACAD_REACTORS
330
C
102
}
100
AcDbDictionary
281
1
  3
Normal
350
F
100
AcDbDictionaryWithDefault
340
F
  0
DICTIONARY
  5
17
102
{ACAD_REACTORS
330
C
102
}
100
AcDbDictionary
280
0
281
1
  3
Standard
350
18
  0
DICTIONARY
  5
19
102
{ACAD_REACTORS
330
C
102
}
100
AcDbDictionary
281
1
  0
DICTIONARY
  5
1A
102
{ACAD_REACTORS
330
C
102
}
100
AcDbDictionary
281
1
  3
Model
350
4B4
  3
Layout1
350
4B5
  0
ACDBPLACEHOLDER
  5
F
102
{ACAD_REACTORS
330
E
102
}
  0
MLINESTYLE
  5
18
102
{ACAD_REACTORS
330
17
102
}
100
AcDbMlineStyle
  2
STANDARD
 70
0
  3

 62
256
 51
90.0
 52
90.0
 71
2
 49
0.5
 62
256
  6
BYLAYER
 49
-0.5
 62
256
  6
BYLAYER
  0
LAYOUT
  5
4B4
102
{ACAD_REACTORS
330
1A
102
}
100
AcDbPlotSettings
  1

  2
none_device
  4
ANSI_C_(22.00_x_17.00_Inches)
  6

 40
0.0
 41
0.0
 42
0.0
 43
0.0
 44
558.8
 45
431.8
 46
0.0
 47
0.0
 48
0.0
 49
0.0
140
0.0
141
0.0
142
1.0
143
1.0
 70
1024
 72
0
 73
0
 74
0
  7

 75
0
147
1.0
148
0.0
149
0.0
100
AcDbLayout
  1
Model
 70
0
 71
0
 10
0.0
 20
0.0
 11
22.0
 21
17.0
 12
0.0
 22
0.0
 32
0.0
 14
0.0
 24
0.0
 34
0.0
 15
0.0
 25
0.0
 35
0.0
146
0.0
 13
0.0
 23
0.0
 33
0.0
 16
1.0
 26
0.0
 36
0.0
 17
0.0
 27
1.0
 37
0.0
 76
0
330
205
345
0
346
0
  0
LAYOUT
  5
4B5
102
{ACAD_REACTORS
330
1A
102
}
100
AcDbPlotSettings
  1

  2
none_device
  4
ANSI_C_(22.00_x_17.00_Inches)
  6

 40
0.0
 41
0.0
 42
0.0
 43
0.0
 44
558.8
 45
431.8
 46
0.0
 47
0.0
 48
0.0
 49
0.0
140
0.0
141
0.0
142
1.0
143
1.0
 70
0
 72
0
 73
0
 74
0
  7

 75
0
147
1.0
148
0.0
149
0.0
100
AcDbLayout
  1
Layout1
 70
0
 71
1
 10
0.0
 20
0.0
 11
22.0
 21
17.0
 12
0.0
 22
0.0
 32
0.0
 14
0.0
 24
0.0
 34
0.0
 15
0.0
 25
0.0
 35
0.0
146
0.0
 13
0.0
 23
0.0
 33
0.0
 16
1.0
 26
0.0
 36
0.0
 17
0.0
 27
1.0
 37
0.0
 76
0
330
206
345
0
346
0
  0
ENDSEC
  0
EOF
