999
DXF file: E:\BT Custom\CADOUTPUT\_TOP.dxf
999
Pro/ENGINEER 2018400 by Parametric Technology Corporation
  0
SECTION
  2
HEADER
  9
$ACADVER
  1
AC1018
  9
$DWGCODEPAGE
  3
ANSI_1252
  9
$EXTMAX
 10
22.0
 20
17.0
 30
0.0
  9
$EXTMIN
 10
0.0
 20
0.0
 30
0.0
  9
$LIMMIN
 10
0.0
 20
0.0
  9
$LIMMAX
 10
22.0
 20
17.0
  9
$VIEWCTR
 10
11.0
 20
8.5
  9
$VIEWSIZE
 40
17.0
  9
$CLAYER
  8
0
  9
$LTSCALE
 40
1.21
  9
$CELTYPE
  6
BYLAYER
  9
$DIMSCALE
 40
1.0
  9
$DIMASZ
 40
0.1
  9
$DIMEXO
 40
0.0625
  9
$DIMDLI
 40
0.836
  9
$DIMEXE
 40
0.125
  9
$DIMCEN
 40
0.198
  9
$DIMLFAC
 40
1.0
  9
$DIMBLK
  1
_FILLED
  9
$DIMALT
 70
1
  9
$DIMALTD
 70
2
  9
$DIMALTTD
 70
2
  9
$DIMALTF
 40
25.4
  9
$DIMTXT
 40
0.08
  9
$DIMTOL
 70
1
  9
$DIMLIM
 70
0
  9
$DIMTFAC
 40
1.0
  9
$DIMTP
 40
0.001
  9
$DIMTM
 40
0.001
  9
$DIMGAP
 40
0.09
  9
$DIMDSEP
 70
46
  9
$AUNITS
 70
0
  9
$PDMODE
 70
3
  9
$PDSIZE
 40
0.06
  9
$HANDSEED
  5
232
  9
$TILEMODE
 70
1
  9
$MEASUREMENT
 70
0
  9
$INSUNITS
 70
1
  0
ENDSEC
  0
SECTION
  2
CLASSES
  0
CLASS
  1
ACDBDICTIONARYWDFLT
  2
AcDbDictionaryWithDefault
  3
AutoCAD 2000
 90
0
 91
1
280
0
281
0
  0
CLASS
  1
ACDBPLACEHOLDER
  2
AcDbPlaceHolder
  3
AutoCAD 2000
 90
0
 91
1
280
0
281
0
  0
CLASS
  1
LAYOUT
  2
AcDbLayout
  3
AutoCAD 2000
 90
0
 91
0
280
0
281
0
  0
ENDSEC
  0
SECTION
  2
TABLES
  0
TABLE
  2
VPORT
  5
8
100
AcDbSymbolTable
 70
2
  0
VPORT
  5
1F4
100
AcDbSymbolTableRecord
100
AcDbViewportTableRecord
  2
*ACTIVE
 70
0
 10
0.0
 20
0.0
 11
1.0
 21
1.0
 12
11.0
 22
8.5
 13
0.0
 23
0.0
 14
1.0
 24
1.0
 15
0.0
 25
0.0
 16
0.0
 26
0.0
 36
1.0
 17
0.0
 27
0.0
 37
0.0
 40
17.0
 41
1.2941176471
 42
50.0
 43
0.0
 44
0.0
 50
0.0
 51
0.0
 71
0
 72
100
 73
1
 74
1
 75
0
 76
0
 77
0
 78
0
  0
ENDTAB
  0
TABLE
  2
LTYPE
  5
5
100
AcDbSymbolTable
 70
6
  0
LTYPE
  5
14
100
AcDbSymbolTableRecord
100
AcDbLinetypeTableRecord
  2
BYBLOCK
 70
0
  3

 72
65
 73
0
 40
0.0
  0
LTYPE
  5
15
100
AcDbSymbolTableRecord
100
AcDbLinetypeTableRecord
  2
BYLAYER
 70
0
  3

 72
65
 73
0
 40
0.0
  0
LTYPE
  5
16
100
AcDbSymbolTableRecord
100
AcDbLinetypeTableRecord
  2
CONTINUOUS
 70
64
  3
Solid line
 72
65
 73
0
 40
0.0
  0
LTYPE
  5
1F5
100
AcDbSymbolTableRecord
100
AcDbLinetypeTableRecord
  2
CENTER
 70
64
  3
____ _ ____ _ ____ _ ____ _ ____ _ ____ _ ____
 72
65
 73
4
 40
0.6
 49
0.375
 74
0
 49
-0.075
 74
0
 49
0.075
 74
0
 49
-0.075
 74
0
  0
LTYPE
  5
1F6
100
AcDbSymbolTableRecord
100
AcDbLinetypeTableRecord
  2
HIDDEN
 70
64
  3
- - - - - - - - - - - - - - - - - - - -
 72
65
 73
2
 40
0.2
 49
0.1
 74
0
 49
-0.1
 74
0
  0
LTYPE
  5
1F7
100
AcDbSymbolTableRecord
100
AcDbLinetypeTableRecord
  2
PHANTOM
 70
64
  3
_____ _ _ _____ _ _ _____ _ _ _____
 72
65
 73
6
 40
0.8
 49
0.45
 74
0
 49
-0.05
 74
0
 49
0.1
 74
0
 49
-0.05
 74
0
 49
0.1
 74
0
 49
-0.05
 74
0
  0
LTYPE
  5
1F8
100
AcDbSymbolTableRecord
100
AcDbLinetypeTableRecord
  2
DOT
 70
64
  3
. . . . . . . . . . . . . . . . . . . .
 72
65
 73
2
 40
0.2
 49
0.1
 74
0
 49
-0.1
 74
0
  0
LTYPE
  5
1F9
100
AcDbSymbolTableRecord
100
AcDbLinetypeTableRecord
  2
DASHED
 70
64
  3
- - - - - - - - - - - - - - - - - - - -
 72
65
 73
2
 40
0.2
 49
0.1
 74
0
 49
-0.1
 74
0
  0
ENDTAB
  0
TABLE
  2
LAYER
  5
2
100
AcDbSymbolTable
 70
36
  0
LAYER
  5
10
100
AcDbSymbolTableRecord
100
AcDbLayerTableRecord
  2
0
 70
0
 62
7
  6
CONTINUOUS
370
-3
390
F
  0
LAYER
  5
1FA
100
AcDbSymbolTableRecord
100
AcDbLayerTableRecord
  2
DEFAULT_1
 70
0
 62
7
  6
CENTER
370
-3
390
F
  0
LAYER
  5
1FB
100
AcDbSymbolTableRecord
100
AcDbLayerTableRecord
  2
DEFAULT_2
 70
0
 62
8
  6
HIDDEN
370
-3
390
F
  0
LAYER
  5
1FC
100
AcDbSymbolTableRecord
100
AcDbLayerTableRecord
  2
DEFAULT_3
 70
0
 62
7
  6
PHANTOM
370
-3
390
F
  0
LAYER
  5
1FD
100
AcDbSymbolTableRecord
100
AcDbLayerTableRecord
  2
ALL_FEATURES
 70
0
 62
7
  6
CONTINUOUS
370
-3
390
F
  0
LAYER
  5
1FE
100
AcDbSymbolTableRecord
100
AcDbLayerTableRecord
  2
AXES_FEATURES
 70
0
 62
7
  6
CONTINUOUS
370
-3
390
F
  0
LAYER
  5
1FF
100
AcDbSymbolTableRecord
100
AcDbLayerTableRecord
  2
DIMENSIONS
 70
0
 62
7
  6
CONTINUOUS
370
-3
390
F
  0
ENDTAB
  0
TABLE
  2
STYLE
  5
3
100
AcDbSymbolTable
 70
1
  0
STYLE
  5
11
100
AcDbSymbolTableRecord
100
AcDbTextStyleTableRecord
  2
STANDARD
 70
0
 40
0.0
 41
0.8
 50
0.0
 71
0
 42
0.2
  3
txt
  4

  0
STYLE
  5
200
100
AcDbSymbolTableRecord
100
AcDbTextStyleTableRecord
  2
TEXTSTYLE_1
 70
0
 40
0.0
 41
0.8
 50
0.0
 71
0
 42
0.2
  3
gdt
  4

  0
ENDTAB
  0
TABLE
  2
VIEW
  5
6
100
AcDbSymbolTable
 70
0
  0
ENDTAB
  0
TABLE
  2
UCS
  5
7
100
AcDbSymbolTable
 70
0
  0
ENDTAB
  0
TABLE
  2
APPID
  5
9
100
AcDbSymbolTable
 70
1
  0
APPID
  5
201
100
AcDbSymbolTableRecord
100
AcDbRegAppTableRecord
  2
ACAD
 70
0
  0
ENDTAB
  0
TABLE
  2
BLOCK_RECORD
  5
1
100
AcDbSymbolTable
 70
0
  0
BLOCK_RECORD
  5
202
100
AcDbSymbolTableRecord
100
AcDbBlockTableRecord
  2
*Model_Space
  0
BLOCK_RECORD
  5
203
100
AcDbSymbolTableRecord
100
AcDbBlockTableRecord
  2
*Paper_Space
  0
BLOCK_RECORD
  5
204
100
AcDbSymbolTableRecord
100
AcDbBlockTableRecord
  2
_FILLED
  0
ENDTAB
  0
TABLE
  2
DIMSTYLE
  5
A
100
AcDbSymbolTable
 70
1
100
AcDbDimStyleTable
 71
0
  0
DIMSTYLE
105
205
100
AcDbSymbolTableRecord
100
AcDbDimStyleTableRecord
  2
STANDARD
 70
0
  3

  4

 40
1.0
 41
0.1
 42
0.0625
 43
0.38
 44
0.125
 45
0.0
 46
0.0
 47
0.001
 48
0.001
140
0.08
141
0.09
142
0.0
143
25.4
144
1.0
145
0.0
146
1.0
147
0.09
 71
1.0
 72
0.0
 73
1
 74
1
 75
0
 76
0
 77
0
 78
4
 79
1
170
1
171
2
172
0
173
0
174
0
175
0
176
0
177
0
178
0
270
2
179
3
271
3
272
3
273
2
274
2
275
0
280
0
281
0
282
0
283
1
284
4
285
0
286
0
287
3
288
0
340
11
278
46
341
204
342
204
343
204
344
204
  0
ENDTAB
  0
ENDSEC
  0
SECTION
  2
BLOCKS
  0
BLOCK
  5
20
100
AcDbEntity
  8
0
100
AcDbBlockBegin
  2
*Model_Space
 70
0
 10
0.0
 20
0.0
 30
0.0
  3
*Model_Space
  1

  0
ENDBLK
  5
21
100
AcDbEntity
  8
0
100
AcDbBlockEnd
  0
BLOCK
  5
1C
100
AcDbEntity
  8
0
100
AcDbBlockBegin
  2
*Paper_Space
 70
0
 10
0.0
 20
0.0
 30
0.0
  3
*Paper_Space
  1

  0
ENDBLK
  5
1D
100
AcDbEntity
  8
0
100
AcDbBlockEnd
  0
BLOCK
  5
206
100
AcDbEntity
  8
0
100
AcDbBlockBegin
  2
_FILLED
 70
64
 10
0.0
 20
0.0
  3
_FILLED
  1

  0
SOLID
  5
207
100
AcDbEntity
  8
0
  6
BYBLOCK
 62
0
100
AcDbTrace
 10
0.0
 20
0.0
 11
-1.0
 21
0.2
 12
-1.0
 22
-0.2
 13
-1.0
 23
-0.2
  0
ENDBLK
  5
208
100
AcDbEntity
  8
0
  6
BYBLOCK
 62
0
100
AcDbBlockEnd
  0
ENDSEC
  0
SECTION
  2
ENTITIES
  0
LINE
  5
209
100
AcDbEntity
  8
0
100
AcDbLine
 62
7
  6
CONTINUOUS
 10
4.0473183383
 20
11.5798207774
 11
4.0473183383
 21
10.8699000172
  0
LINE
  5
20A
100
AcDbEntity
  8
0
100
AcDbLine
 62
9
  6
CONTINUOUS
 10
4.0673183383
 20
11.5999000172
 11
4.0673183383
 21
10.8499000172
  0
LINE
  5
20B
100
AcDbEntity
  8
0
100
AcDbLine
 62
7
  6
CONTINUOUS
 10
10.5473183383
 20
11.2249000172
 11
10.5473183383
 21
3.3099000172
  0
LINE
  5
20C
100
AcDbEntity
  8
0
100
AcDbLine
 62
7
  6
CONTINUOUS
 10
11.5473183383
 20
11.2249000172
 11
11.5473183383
 21
3.3099000172
  0
LINE
  5
20D
100
AcDbEntity
  8
0
100
AcDbLine
 62
7
  6
CONTINUOUS
 10
7.0473157573
 20
10.8499000172
 11
4.0673183383
 21
10.8499000172
  0
LINE
  5
20E
100
AcDbEntity
  8
0
100
AcDbLine
 62
7
  6
CONTINUOUS
 10
15.0473180258
 20
10.8499000172
 11
18.0273183383
 21
10.8499000172
  0
LINE
  5
20F
100
AcDbEntity
  8
0
100
AcDbLine
 62
9
  6
CONTINUOUS
 10
14.7023183383
 20
11.2249000127
 11
14.6723183383
 21
11.2249000127
  0
LINE
  5
210
100
AcDbEntity
  8
0
100
AcDbLine
 62
9
  6
CONTINUOUS
 10
7.3923183383
 20
11.2249000218
 11
7.4223183383
 21
11.2249000218
  0
LINE
  5
211
100
AcDbEntity
  8
0
100
AcDbLine
 62
7
  6
CONTINUOUS
 10
7.0473186508
 20
11.5999000172
 11
4.0673183383
 21
11.5999000172
  0
LINE
  5
212
100
AcDbEntity
  8
0
100
AcDbLine
 62
7
  6
CONTINUOUS
 10
15.0473209192
 20
11.5999000172
 11
18.0273183383
 21
11.5999000172
  0
LINE
  5
213
100
AcDbEntity
  8
0
100
AcDbLine
 62
9
  6
CONTINUOUS
 10
18.0273183383
 20
10.8499000172
 11
18.0273183383
 21
11.5999000172
  0
LINE
  5
214
100
AcDbEntity
  8
0
100
AcDbLine
 62
7
  6
CONTINUOUS
 10
18.0473183383
 20
10.8699000172
 11
18.0473183383
 21
11.5799000172
  0
ARC
  5
215
100
AcDbEntity
  8
0
100
AcDbCircle
 62
7
  6
CONTINUOUS
 10
11.0384695573
 20
3.379446437
 40
0.491146701
100
AcDbArc
 50
179.9950279306
 51
187.1544197678
  0
ARC
  5
216
100
AcDbEntity
  8
0
100
AcDbCircle
 62
7
  6
CONTINUOUS
 10
11.0367956027
 20
3.3792623238
 40
0.4894628502
100
AcDbArc
 50
187.1574400164
 51
187.9937897184
  0
ARC
  5
217
100
AcDbEntity
  8
0
100
AcDbCircle
 62
7
  6
CONTINUOUS
 10
7.0473183383
 20
11.2249000172
 40
0.925
100
AcDbArc
 50
203.9831533134
 51
156.0135326033
  0
ARC
  5
218
100
AcDbEntity
  8
0
100
AcDbCircle
 62
9
  6
CONTINUOUS
 10
7.0473183383
 20
11.2249000172
 40
0.905
100
AcDbArc
 50
204.5488874822
 51
155.4504890145
  0
ARC
  5
219
100
AcDbEntity
  8
0
100
AcDbCircle
 62
7
  6
CONTINUOUS
 10
7.0473183383
 20
11.2249000172
 40
0.43
100
AcDbArc
 50
241.1913493547
 51
118.802595876
  0
ARC
  5
21A
100
AcDbEntity
  8
0
100
AcDbCircle
 62
7
  6
CONTINUOUS
 10
7.0473183383
 20
11.2249000172
 40
0.375
100
AcDbArc
 50
269.9993445053
 51
90.0006444528
  0
ARC
  5
21B
100
AcDbEntity
  8
0
100
AcDbCircle
 62
7
  6
CONTINUOUS
 10
4.0673183383
 20
11.5799000172
 40
0.02
100
AcDbArc
 50
90.0
 51
180.0
  0
ARC
  5
21C
100
AcDbEntity
  8
0
100
AcDbCircle
 62
7
  6
CONTINUOUS
 10
4.0673183383
 20
10.8699000172
 40
0.02
100
AcDbArc
 50
180.0
 51
270.0
  0
ARC
  5
21D
100
AcDbEntity
  8
0
100
AcDbCircle
 62
7
  6
CONTINUOUS
 10
11.0561913827
 20
3.37944051
 40
0.4911224384
100
AcDbArc
 50
353.2036327262
 51
0.0056633767
  0
ARC
  5
21E
100
AcDbEntity
  8
0
100
AcDbCircle
 62
7
  6
CONTINUOUS
 10
11.0576247194
 20
3.3792949537
 40
0.4896819491
100
AcDbArc
 50
352.0054263607
 51
353.200697157
  0
ARC
  5
21F
100
AcDbEntity
  8
0
100
AcDbCircle
 62
7
  6
CONTINUOUS
 10
15.0473183383
 20
11.2249000172
 40
0.925
100
AcDbArc
 50
23.9831533134
 51
336.0135326033
  0
ARC
  5
220
100
AcDbEntity
  8
0
100
AcDbCircle
 62
7
  6
CONTINUOUS
 10
11.0473183383
 20
11.2249000172
 40
0.925
100
AcDbArc
 50
302.8763953312
 51
237.1236046688
  0
ARC
  5
221
100
AcDbEntity
  8
0
100
AcDbCircle
 62
9
  6
CONTINUOUS
 10
15.0473183383
 20
11.2249000172
 40
0.905
100
AcDbArc
 50
24.5488874822
 51
335.4504890145
  0
ARC
  5
222
100
AcDbEntity
  8
0
100
AcDbCircle
 62
9
  6
CONTINUOUS
 10
11.0473183383
 20
11.2249000172
 40
0.905
100
AcDbArc
 50
303.7232176174
 51
236.2821094378
  0
ARC
  5
223
100
AcDbEntity
  8
0
100
AcDbCircle
 62
7
  6
CONTINUOUS
 10
11.0473183383
 20
11.2249000172
 40
0.5
100
AcDbArc
 50
0.0
 51
180.0
  0
ARC
  5
224
100
AcDbEntity
  8
0
100
AcDbCircle
 62
7
  6
CONTINUOUS
 10
15.0473183383
 20
11.2249000172
 40
0.43
100
AcDbArc
 50
61.1913493547
 51
298.802595876
  0
ARC
  5
225
100
AcDbEntity
  8
0
100
AcDbCircle
 62
7
  6
CONTINUOUS
 10
15.0473183383
 20
11.2249000172
 40
0.375
100
AcDbArc
 50
89.9993445053
 51
270.0006444528
  0
ARC
  5
226
100
AcDbEntity
  8
0
100
AcDbCircle
 62
7
  6
CONTINUOUS
 10
18.0273183383
 20
10.8699000172
 40
0.02
100
AcDbArc
 50
270.0
 51
360.0
  0
ARC
  5
227
100
AcDbEntity
  8
0
100
AcDbCircle
 62
7
  6
CONTINUOUS
 10
18.0273183383
 20
11.5799000172
 40
0.02
100
AcDbArc
 50
0.0
 51
90.0
  0
SPLINE
  5
228
100
AcDbEntity
  8
0
100
AcDbSpline
 62
9
  6
CONTINUOUS
 70
0
 71
3
 72
23
 73
19
 74
0
 42
0.0000001
 43
0.0000001
 44
0.0000000001
 40
0.0
 40
0.0
 40
0.0
 40
0.0
 40
0.0770265245
 40
0.1530531977
 40
0.2272587423
 40
0.299091684
 40
0.368283655
 40
0.4347923425
 40
0.4987310828
 40
0.5603067255
 40
0.6197743539
 40
0.6774093033
 40
0.7334914946
 40
0.7882967695
 40
0.8420925764
 40
0.8951375726
 40
0.9476934521
 40
1.0
 40
1.0
 40
1.0
 40
1.0
 10
14.7023183383
 20
11.2249000172
 30
0.0
 10
14.7023183896
 20
11.2103803742
 30
0.0
 10
14.703862263
 20
11.1815055907
 30
0.0
 10
14.7106970697
 20
11.1391379793
 30
0.0
 10
14.7216972737
 20
11.098668799
 30
0.0
 10
14.7363732147
 20
11.0607677371
 30
0.0
 10
14.7541824741
 20
11.0258606051
 30
0.0
 10
14.7745990618
 20
10.9941736042
 30
0.0
 10
14.7971525197
 20
10.9657875624
 30
0.0
 10
14.8214402017
 20
10.9406916606
 30
0.0
 10
14.8471248819
 20
10.9188238335
 30
0.0
 10
14.8739272095
 20
10.9000997786
 30
0.0
 10
14.9016150942
 20
10.8844308705
 30
0.0
 10
14.929992991
 20
10.8717338484
 30
0.0
 10
14.9588923357
 20
10.8619364397
 30
0.0
 10
14.9881675878
 20
10.8549779956
 30
0.0
 10
15.0176837167
 20
10.8508231955
 30
0.0
 10
15.0374626749
 20
10.8499019834
 30
0.0
 10
15.0473225562
 20
10.8499000172
 30
0.0
  0
SPLINE
  5
229
100
AcDbEntity
  8
0
100
AcDbSpline
 62
9
  6
CONTINUOUS
 70
0
 71
3
 72
25
 73
21
 74
0
 42
0.0000001
 43
0.0000001
 44
0.0000000001
 40
0.0
 40
0.0
 40
0.0
 40
0.0
 40
0.0385866156
 40
0.0770501311
 40
0.1152559412
 40
0.1530993525
 40
0.22730096
 40
0.29913037
 40
0.3683185638
 40
0.4348237863
 40
0.4987594569
 40
0.5603318022
 40
0.6197964007
 40
0.67742871
 40
0.7335079532
 40
0.7883108016
 40
0.8421038075
 40
0.8951464787
 40
0.9476983458
 40
1.0
 40
1.0
 40
1.0
 40
1.0
 10
14.7023183383
 20
11.2249000172
 30
0.0
 10
14.7023185452
 20
11.2321740369
 30
0.0
 10
14.7027120859
 20
11.2467018025
 30
0.0
 10
14.7044531346
 20
11.2683685492
 30
0.0
 10
14.7073256879
 20
11.2897745974
 30
0.0
 10
14.7125905739
 20
11.3176159447
 30
0.0
 10
14.7216967815
 20
11.3511327056
 30
0.0
 10
14.7363740533
 20
11.3890317221
 30
0.0
 10
14.7541822653
 20
11.42393965
 30
0.0
 10
14.7745985418
 20
11.4556268124
 30
0.0
 10
14.7971527257
 20
11.4840122689
 30
0.0
 10
14.8214398891
 20
11.5091086353
 30
0.0
 10
14.8471245913
 20
11.5309765426
 30
0.0
 10
14.873927232
 20
11.5497001878
 30
0.0
 10
14.901615029
 20
11.5653694763
 30
0.0
 10
14.9299931496
 20
11.5780661163
 30
0.0
 10
14.9588925562
 20
11.5878637244
 30
0.0
 10
14.9881676774
 20
11.5948219141
 30
0.0
 10
15.0176831587
 20
11.5989768892
 30
0.0
 10
15.0374614576
 20
11.5998981868
 30
0.0
 10
15.0473209192
 20
11.5999000172
 30
0.0
  0
SPLINE
  5
22A
100
AcDbEntity
  8
0
100
AcDbSpline
 62
9
  6
CONTINUOUS
 70
0
 71
3
 72
23
 73
19
 74
0
 42
0.0000001
 43
0.0000001
 44
0.0000000001
 40
0.0
 40
0.0
 40
0.0
 40
0.0
 40
0.0770265249
 40
0.153053197
 40
0.2272587411
 40
0.2990916836
 40
0.3682836556
 40
0.4347923433
 40
0.498731083
 40
0.5603067257
 40
0.6197743545
 40
0.677409304
 40
0.7334914951
 40
0.7882967699
 40
0.8420925767
 40
0.8951375726
 40
0.9476934522
 40
1.0
 40
1.0
 40
1.0
 40
1.0
 10
7.3923183383
 20
11.2249000172
 30
0.0
 10
7.392318287
 20
11.2394196603
 30
0.0
 10
7.3907744135
 20
11.2682944437
 30
0.0
 10
7.3839396069
 20
11.3106620549
 30
0.0
 10
7.372939403
 20
11.351131235
 30
0.0
 10
7.3582634619
 20
11.3890322972
 30
0.0
 10
7.3404542024
 20
11.4239394294
 30
0.0
 10
7.3200376145
 20
11.4556264305
 30
0.0
 10
7.2974841567
 20
11.4840124722
 30
0.0
 10
7.2731964747
 20
11.509108374
 30
0.0
 10
7.2475117944
 20
11.5309762011
 30
0.0
 10
7.2207094667
 20
11.549700256
 30
0.0
 10
7.193021582
 20
11.5653691641
 30
0.0
 10
7.1646436853
 20
11.578066186
 30
0.0
 10
7.1357443408
 20
11.5878635951
 30
0.0
 10
7.1064690884
 20
11.594822038
 30
0.0
 10
7.07695296
 20
11.5989768397
 30
0.0
 10
7.0571740016
 20
11.5998980532
 30
0.0
 10
7.0473141203
 20
11.5999000172
 30
0.0
  0
SPLINE
  5
22B
100
AcDbEntity
  8
0
100
AcDbSpline
 62
9
  6
CONTINUOUS
 70
0
 71
3
 72
25
 73
21
 74
0
 42
0.0000001
 43
0.0000001
 44
0.0000000001
 40
0.0
 40
0.0
 40
0.0
 40
0.0
 40
0.0385866167
 40
0.0770501326
 40
0.115255941
 40
0.1530993503
 40
0.2273009545
 40
0.2991303652
 40
0.3683185598
 40
0.4348237844
 40
0.4987594594
 40
0.5603318098
 40
0.6197964113
 40
0.6774287212
 40
0.7335079626
 40
0.7883108087
 40
0.8421038129
 40
0.8951464826
 40
0.9476983469
 40
1.0
 40
1.0
 40
1.0
 40
1.0
 10
7.3923183383
 20
11.2249000172
 30
0.0
 10
7.3923181314
 20
11.2176259973
 30
0.0
 10
7.3919245907
 20
11.2030982314
 30
0.0
 10
7.390183542
 20
11.1814314847
 30
0.0
 10
7.3873109886
 20
11.1600254372
 30
0.0
 10
7.3820461027
 20
11.1321840913
 30
0.0
 10
7.372939896
 20
11.098667331
 30
0.0
 10
7.3582626244
 20
11.0607683148
 30
0.0
 10
7.3404544123
 20
11.0258603862
 30
0.0
 10
7.3200381352
 20
10.9941732225
 30
0.0
 10
7.2974839502
 20
10.965787764
 30
0.0
 10
7.2731967843
 20
10.9406913967
 30
0.0
 10
7.2475120812
 20
10.9188234879
 30
0.0
 10
7.2207094395
 20
10.9000998435
 30
0.0
 10
7.1930216428
 20
10.8844305562
 30
0.0
 10
7.1646435232
 20
10.8717339165
 30
0.0
 10
7.1357441174
 20
10.8619363092
 30
0.0
 10
7.1064689972
 20
10.8549781202
 30
0.0
 10
7.0769535169
 20
10.8508231449
 30
0.0
 10
7.0571752188
 20
10.8499018477
 30
0.0
 10
7.0473157573
 20
10.8499000172
 30
0.0
  0
SPLINE
  5
22C
100
AcDbEntity
  8
0
100
AcDbSpline
 62
7
  6
CONTINUOUS
 70
0
 71
3
 72
22
 73
18
 74
0
 42
0.0000001
 43
0.0000001
 44
0.0000000001
 40
0.0
 40
0.0
 40
0.0
 40
0.0
 40
0.1254459609
 40
0.1882614289
 40
0.2510070183
 40
0.3136985649
 40
0.3763495702
 40
0.4389510583
 40
0.5014905412
 40
0.5639685712
 40
0.6263867169
 40
0.6887515958
 40
0.7510676557
 40
0.8133401632
 40
0.875580333
 40
0.9377957965
 40
1.0
 40
1.0
 40
1.0
 40
1.0
 10
11.0473183383
 20
2.8147659828
 30
0.0
 10
11.0799822155
 20
2.8147659828
 30
0.0
 10
11.1291751735
 20
2.8195747554
 30
0.0
 10
11.1926803113
 20
2.8353175651
 30
0.0
 10
11.2389616322
 20
2.8517200141
 30
0.0
 10
11.2833837163
 20
2.8725208265
 30
0.0
 10
11.3255282904
 20
2.8975479851
 30
0.0
 10
11.3650084126
 20
2.9265290616
 30
0.0
 10
11.4014241075
 20
2.9592122891
 30
0.0
 10
11.4344269324
 20
2.9952729003
 30
0.0
 10
11.4637107628
 20
3.0343582248
 30
0.0
 10
11.4889700621
 20
3.0761078909
 30
0.0
 10
11.509994389
 20
3.1201006332
 30
0.0
 10
11.5265487228
 20
3.1659287717
 30
0.0
 10
11.5384915558
 20
3.2131424265
 30
0.0
 10
11.5457103287
 20
3.2612831736
 30
0.0
 10
11.5473116619
 20
3.2937031588
 30
0.0
 10
11.5473117794
 20
3.3099000172
 30
0.0
  0
SPLINE
  5
22D
100
AcDbEntity
  8
0
100
AcDbSpline
 62
7
  6
CONTINUOUS
 70
0
 71
3
 72
21
 73
17
 74
0
 42
0.0000001
 43
0.0000001
 44
0.0000000001
 40
0.0
 40
0.0
 40
0.0
 40
0.0
 40
0.0622121042
 40
0.1244353938
 40
0.1866831554
 40
0.24896336
 40
0.311287601
 40
0.3736609666
 40
0.4984262701
 40
0.5609765645
 40
0.6235889981
 40
0.6862506485
 40
0.7489531391
 40
0.8117099496
 40
0.8745361832
 40
1.0
 40
1.0
 40
1.0
 40
1.0
 10
10.5473248972
 20
3.3099000172
 30
0.0
 10
10.5473247797
 20
3.2937035488
 30
0.0
 10
10.5489257976
 20
3.2612842771
 30
0.0
 10
10.5561454718
 20
3.2131451032
 30
0.0
 10
10.568086298
 20
3.1659319524
 30
0.0
 10
10.5846406171
 20
3.1201064875
 30
0.0
 10
10.6056665794
 20
3.0761101426
 30
0.0
 10
10.6393217357
 20
3.0204717107
 30
0.0
 10
10.6811360941
 20
2.9700446183
 30
0.0
 10
10.7296225526
 20
2.9265363351
 30
0.0
 10
10.7691060843
 20
2.897549312
 30
0.0
 10
10.8112503771
 20
2.872522142
 30
0.0
 10
10.8556738595
 20
2.851720805
 30
0.0
 10
10.9019560631
 20
2.8353176135
 30
0.0
 10
10.9654618008
 20
2.819574977
 30
0.0
 10
11.014654747
 20
2.8147659828
 30
0.0
 10
11.0473183383
 20
2.8147659828
 30
0.0
  0
SPLINE
  5
22E
100
AcDbEntity
  8
0
100
AcDbSpline
 62
7
  6
CONTINUOUS
 70
0
 71
3
 72
19
 73
15
 74
0
 42
0.0000001
 43
0.0000001
 44
0.0000000001
 40
0.0
 40
0.0
 40
0.0
 40
0.0
 40
0.1253947334
 40
0.1881931616
 40
0.2509300983
 40
0.3136161967
 40
0.3762659162
 40
0.5013274987
 40
0.626187192
 40
0.6886051542
 40
0.7509796789
 40
0.8133139312
 40
0.8756109998
 40
1.0
 40
1.0
 40
1.0
 40
1.0
 10
11.0473183383
 20
2.8839068627
 30
0.0
 10
11.0175236306
 20
2.8839063108
 30
0.0
 10
10.9726766376
 20
2.8879102446
 30
0.0
 10
10.9144605403
 20
2.9010282954
 30
0.0
 10
10.8718209263
 20
2.9147280753
 30
0.0
 10
10.8305990588
 20
2.932138298
 30
0.0
 10
10.7780131475
 20
2.9601092715
 30
0.0
 10
10.7173153284
 20
3.0036337557
 30
0.0
 10
10.665394958
 20
3.0572544735
 30
0.0
 10
10.6301676237
 20
3.1050642916
 30
0.0
 10
10.6070885977
 20
3.14313961
 30
0.0
 10
10.5875227457
 20
3.1831055832
 30
0.0
 10
10.5663772006
 20
3.2384252849
 30
0.0
 10
10.5561989232
 20
3.2819262404
 30
0.0
 10
10.5520887907
 20
3.3111947981
 30
0.0
  0
SPLINE
  5
22F
100
AcDbEntity
  8
0
100
AcDbSpline
 62
7
  6
CONTINUOUS
 70
0
 71
3
 72
19
 73
15
 74
0
 42
0.0000001
 43
0.0000001
 44
0.0000000001
 40
0.0
 40
0.0
 40
0.0
 40
0.0
 40
0.1243885381
 40
0.1866852401
 40
0.2490192771
 40
0.311393612
 40
0.373812085
 40
0.4986737568
 40
0.6237372237
 40
0.6863872646
 40
0.7490739485
 40
0.81181134
 40
0.8746094667
 40
1.0
 40
1.0
 40
1.0
 40
1.0
 10
11.5425475696
 20
3.3111903241
 30
0.0
 10
11.5384370137
 20
3.2819212584
 30
0.0
 10
11.5282611253
 20
3.2384189101
 30
0.0
 10
11.507114427
 20
3.183098443
 30
0.0
 10
11.4875504308
 20
3.1431307194
 30
0.0
 10
11.4644722698
 20
3.1050535928
 30
0.0
 10
11.4292445028
 20
3.0572417553
 30
0.0
 10
11.377324792
 20
3.0036167483
 30
0.0
 10
11.316626426
 20
2.9600881836
 30
0.0
 10
11.2640392778
 20
2.9321152183
 30
0.0
 10
11.2228165466
 20
2.9147036082
 30
0.0
 10
11.1801760511
 20
2.9010026159
 30
0.0
 10
11.1219596395
 20
2.8878841469
 30
0.0
 10
11.0771127252
 20
2.8838797706
 30
0.0
 10
11.0473183383
 20
2.8838803458
 30
0.0
  0
ENDSEC
  0
SECTION
  2
OBJECTS
  0
DICTIONARY
  5
C
100
AcDbDictionary
280
0
281
1
  3
ACAD_GROUP
350
D
  3
ACAD_MLINESTYLE
350
17
  3
ACAD_LAYOUT
350
1A
  3
ACAD_PLOTSETTINGS
350
19
  3
ACAD_PLOTSTYLENAME
350
E
  0
DICTIONARY
  5
D
102
{ACAD_REACTORS
330
C
102
}
100
AcDbDictionary
280
0
281
1
  0
ACDBDICTIONARYWDFLT
  5
E
102
{ACAD_REACTORS
330
C
102
}
100
AcDbDictionary
281
1
  3
Normal
350
F
100
AcDbDictionaryWithDefault
340
F
  0
DICTIONARY
  5
17
102
{ACAD_REACTORS
330
C
102
}
100
AcDbDictionary
280
0
281
1
  3
Standard
350
18
  0
DICTIONARY
  5
19
102
{ACAD_REACTORS
330
C
102
}
100
AcDbDictionary
281
1
  0
DICTIONARY
  5
1A
102
{ACAD_REACTORS
330
C
102
}
100
AcDbDictionary
281
1
  3
Model
350
230
  3
Layout1
350
231
  0
ACDBPLACEHOLDER
  5
F
102
{ACAD_REACTORS
330
E
102
}
  0
MLINESTYLE
  5
18
102
{ACAD_REACTORS
330
17
102
}
100
AcDbMlineStyle
  2
STANDARD
 70
0
  3

 62
256
 51
90.0
 52
90.0
 71
2
 49
0.5
 62
256
  6
BYLAYER
 49
-0.5
 62
256
  6
BYLAYER
  0
LAYOUT
  5
230
102
{ACAD_REACTORS
330
1A
102
}
100
AcDbPlotSettings
  1

  2
none_device
  4
ANSI_C_(22.00_x_17.00_Inches)
  6

 40
0.0
 41
0.0
 42
0.0
 43
0.0
 44
558.8
 45
431.8
 46
0.0
 47
0.0
 48
0.0
 49
0.0
140
0.0
141
0.0
142
1.0
143
1.0
 70
1024
 72
0
 73
0
 74
0
  7

 75
0
147
1.0
148
0.0
149
0.0
100
AcDbLayout
  1
Model
 70
0
 71
0
 10
0.0
 20
0.0
 11
22.0
 21
17.0
 12
0.0
 22
0.0
 32
0.0
 14
0.0
 24
0.0
 34
0.0
 15
0.0
 25
0.0
 35
0.0
146
0.0
 13
0.0
 23
0.0
 33
0.0
 16
1.0
 26
0.0
 36
0.0
 17
0.0
 27
1.0
 37
0.0
 76
0
330
202
345
0
346
0
  0
LAYOUT
  5
231
102
{ACAD_REACTORS
330
1A
102
}
100
AcDbPlotSettings
  1

  2
none_device
  4
ANSI_C_(22.00_x_17.00_Inches)
  6

 40
0.0
 41
0.0
 42
0.0
 43
0.0
 44
558.8
 45
431.8
 46
0.0
 47
0.0
 48
0.0
 49
0.0
140
0.0
141
0.0
142
1.0
143
1.0
 70
0
 72
0
 73
0
 74
0
  7

 75
0
147
1.0
148
0.0
149
0.0
100
AcDbLayout
  1
Layout1
 70
0
 71
1
 10
0.0
 20
0.0
 11
22.0
 21
17.0
 12
0.0
 22
0.0
 32
0.0
 14
0.0
 24
0.0
 34
0.0
 15
0.0
 25
0.0
 35
0.0
146
0.0
 13
0.0
 23
0.0
 33
0.0
 16
1.0
 26
0.0
 36
0.0
 17
0.0
 27
1.0
 37
0.0
 76
0
330
203
345
0
346
0
  0
ENDSEC
  0
EOF
