999
DXF file: E:\BT Custom\CADOUTPUT\_TOP.dxf
999
Pro/ENGINEER 2018400 by Parametric Technology Corporation
  0
SECTION
  2
HEADER
  9
$ACADVER
  1
AC1018
  9
$DWGCODEPAGE
  3
ANSI_1252
  9
$EXTMAX
 10
22.0
 20
17.0
 30
0.0
  9
$EXTMIN
 10
0.0
 20
0.0
 30
0.0
  9
$LIMMIN
 10
0.0
 20
0.0
  9
$LIMMAX
 10
22.0
 20
17.0
  9
$VIEWCTR
 10
11.0
 20
8.5
  9
$VIEWSIZE
 40
17.0
  9
$CLAYER
  8
0
  9
$LTSCALE
 40
1.21
  9
$CELTYPE
  6
BYLAYER
  9
$DIMSCALE
 40
1.0
  9
$DIMASZ
 40
0.1
  9
$DIMEXO
 40
0.0625
  9
$DIMDLI
 40
0.836
  9
$DIMEXE
 40
0.125
  9
$DIMCEN
 40
0.198
  9
$DIMLFAC
 40
1.0
  9
$DIMBLK
  1
_FILLED
  9
$DIMALT
 70
1
  9
$DIMALTD
 70
2
  9
$DIMALTTD
 70
2
  9
$DIMALTF
 40
25.4
  9
$DIMTXT
 40
0.08
  9
$DIMTOL
 70
1
  9
$DIMLIM
 70
0
  9
$DIMTFAC
 40
1.0
  9
$DIMTP
 40
0.001
  9
$DIMTM
 40
0.001
  9
$DIMGAP
 40
0.09
  9
$DIMDSEP
 70
46
  9
$AUNITS
 70
0
  9
$PDMODE
 70
3
  9
$PDSIZE
 40
0.06
  9
$HANDSEED
  5
26D
  9
$TILEMODE
 70
1
  9
$MEASUREMENT
 70
0
  9
$INSUNITS
 70
1
  0
ENDSEC
  0
SECTION
  2
CLASSES
  0
CLASS
  1
ACDBDICTIONARYWDFLT
  2
AcDbDictionaryWithDefault
  3
AutoCAD 2000
 90
0
 91
1
280
0
281
0
  0
CLASS
  1
ACDBPLACEHOLDER
  2
AcDbPlaceHolder
  3
AutoCAD 2000
 90
0
 91
1
280
0
281
0
  0
CLASS
  1
LAYOUT
  2
AcDbLayout
  3
AutoCAD 2000
 90
0
 91
0
280
0
281
0
  0
ENDSEC
  0
SECTION
  2
TABLES
  0
TABLE
  2
VPORT
  5
8
100
AcDbSymbolTable
 70
2
  0
VPORT
  5
1F4
100
AcDbSymbolTableRecord
100
AcDbViewportTableRecord
  2
*ACTIVE
 70
0
 10
0.0
 20
0.0
 11
1.0
 21
1.0
 12
11.0
 22
8.5
 13
0.0
 23
0.0
 14
1.0
 24
1.0
 15
0.0
 25
0.0
 16
0.0
 26
0.0
 36
1.0
 17
0.0
 27
0.0
 37
0.0
 40
17.0
 41
1.2941176471
 42
50.0
 43
0.0
 44
0.0
 50
0.0
 51
0.0
 71
0
 72
100
 73
1
 74
1
 75
0
 76
0
 77
0
 78
0
  0
ENDTAB
  0
TABLE
  2
LTYPE
  5
5
100
AcDbSymbolTable
 70
6
  0
LTYPE
  5
14
100
AcDbSymbolTableRecord
100
AcDbLinetypeTableRecord
  2
BYBLOCK
 70
0
  3

 72
65
 73
0
 40
0.0
  0
LTYPE
  5
15
100
AcDbSymbolTableRecord
100
AcDbLinetypeTableRecord
  2
BYLAYER
 70
0
  3

 72
65
 73
0
 40
0.0
  0
LTYPE
  5
16
100
AcDbSymbolTableRecord
100
AcDbLinetypeTableRecord
  2
CONTINUOUS
 70
64
  3
Solid line
 72
65
 73
0
 40
0.0
  0
LTYPE
  5
1F5
100
AcDbSymbolTableRecord
100
AcDbLinetypeTableRecord
  2
CENTER
 70
64
  3
____ _ ____ _ ____ _ ____ _ ____ _ ____ _ ____
 72
65
 73
4
 40
0.6
 49
0.375
 74
0
 49
-0.075
 74
0
 49
0.075
 74
0
 49
-0.075
 74
0
  0
LTYPE
  5
1F6
100
AcDbSymbolTableRecord
100
AcDbLinetypeTableRecord
  2
HIDDEN
 70
64
  3
- - - - - - - - - - - - - - - - - - - -
 72
65
 73
2
 40
0.2
 49
0.1
 74
0
 49
-0.1
 74
0
  0
LTYPE
  5
1F7
100
AcDbSymbolTableRecord
100
AcDbLinetypeTableRecord
  2
PHANTOM
 70
64
  3
_____ _ _ _____ _ _ _____ _ _ _____
 72
65
 73
6
 40
0.8
 49
0.45
 74
0
 49
-0.05
 74
0
 49
0.1
 74
0
 49
-0.05
 74
0
 49
0.1
 74
0
 49
-0.05
 74
0
  0
LTYPE
  5
1F8
100
AcDbSymbolTableRecord
100
AcDbLinetypeTableRecord
  2
DOT
 70
64
  3
. . . . . . . . . . . . . . . . . . . .
 72
65
 73
2
 40
0.2
 49
0.1
 74
0
 49
-0.1
 74
0
  0
LTYPE
  5
1F9
100
AcDbSymbolTableRecord
100
AcDbLinetypeTableRecord
  2
DASHED
 70
64
  3
- - - - - - - - - - - - - - - - - - - -
 72
65
 73
2
 40
0.2
 49
0.1
 74
0
 49
-0.1
 74
0
  0
ENDTAB
  0
TABLE
  2
LAYER
  5
2
100
AcDbSymbolTable
 70
36
  0
LAYER
  5
10
100
AcDbSymbolTableRecord
100
AcDbLayerTableRecord
  2
0
 70
0
 62
7
  6
CONTINUOUS
370
-3
390
F
  0
LAYER
  5
1FA
100
AcDbSymbolTableRecord
100
AcDbLayerTableRecord
  2
DEFAULT_1
 70
0
 62
7
  6
CENTER
370
-3
390
F
  0
LAYER
  5
1FB
100
AcDbSymbolTableRecord
100
AcDbLayerTableRecord
  2
DEFAULT_2
 70
0
 62
8
  6
HIDDEN
370
-3
390
F
  0
LAYER
  5
1FC
100
AcDbSymbolTableRecord
100
AcDbLayerTableRecord
  2
DEFAULT_3
 70
0
 62
7
  6
PHANTOM
370
-3
390
F
  0
LAYER
  5
1FD
100
AcDbSymbolTableRecord
100
AcDbLayerTableRecord
  2
ALL_FEATURES
 70
0
 62
7
  6
CONTINUOUS
370
-3
390
F
  0
LAYER
  5
1FE
100
AcDbSymbolTableRecord
100
AcDbLayerTableRecord
  2
AXES_FEATURES
 70
0
 62
7
  6
CONTINUOUS
370
-3
390
F
  0
LAYER
  5
1FF
100
AcDbSymbolTableRecord
100
AcDbLayerTableRecord
  2
DEFAULT_COORDINATE_SYSTEM
 70
0
 62
7
  6
CONTINUOUS
370
-3
390
F
  0
LAYER
  5
200
100
AcDbSymbolTableRecord
100
AcDbLayerTableRecord
  2
DEFAULT_DATUM_AXES
 70
0
 62
7
  6
CONTINUOUS
370
-3
390
F
  0
LAYER
  5
201
100
AcDbSymbolTableRecord
100
AcDbLayerTableRecord
  2
DEFAULT_DATUM_PLANES
 70
0
 62
7
  6
CONTINUOUS
370
-3
390
F
  0
LAYER
  5
202
100
AcDbSymbolTableRecord
100
AcDbLayerTableRecord
  2
DIMENSIONS
 70
0
 62
7
  6
CONTINUOUS
370
-3
390
F
  0
ENDTAB
  0
TABLE
  2
STYLE
  5
3
100
AcDbSymbolTable
 70
1
  0
STYLE
  5
11
100
AcDbSymbolTableRecord
100
AcDbTextStyleTableRecord
  2
STANDARD
 70
0
 40
0.0
 41
0.8
 50
0.0
 71
0
 42
0.2
  3
txt
  4

  0
STYLE
  5
203
100
AcDbSymbolTableRecord
100
AcDbTextStyleTableRecord
  2
TEXTSTYLE_1
 70
0
 40
0.0
 41
0.8
 50
0.0
 71
0
 42
0.2
  3
gdt
  4

  0
ENDTAB
  0
TABLE
  2
VIEW
  5
6
100
AcDbSymbolTable
 70
0
  0
ENDTAB
  0
TABLE
  2
UCS
  5
7
100
AcDbSymbolTable
 70
0
  0
ENDTAB
  0
TABLE
  2
APPID
  5
9
100
AcDbSymbolTable
 70
1
  0
APPID
  5
204
100
AcDbSymbolTableRecord
100
AcDbRegAppTableRecord
  2
ACAD
 70
0
  0
ENDTAB
  0
TABLE
  2
BLOCK_RECORD
  5
1
100
AcDbSymbolTable
 70
0
  0
BLOCK_RECORD
  5
205
100
AcDbSymbolTableRecord
100
AcDbBlockTableRecord
  2
*Model_Space
  0
BLOCK_RECORD
  5
206
100
AcDbSymbolTableRecord
100
AcDbBlockTableRecord
  2
*Paper_Space
  0
BLOCK_RECORD
  5
207
100
AcDbSymbolTableRecord
100
AcDbBlockTableRecord
  2
_FILLED
  0
ENDTAB
  0
TABLE
  2
DIMSTYLE
  5
A
100
AcDbSymbolTable
 70
1
100
AcDbDimStyleTable
 71
0
  0
DIMSTYLE
105
208
100
AcDbSymbolTableRecord
100
AcDbDimStyleTableRecord
  2
STANDARD
 70
0
  3

  4

 40
1.0
 41
0.1
 42
0.0625
 43
0.38
 44
0.125
 45
0.0
 46
0.0
 47
0.001
 48
0.001
140
0.08
141
0.09
142
0.0
143
25.4
144
1.0
145
0.0
146
1.0
147
0.09
 71
1.0
 72
0.0
 73
1
 74
1
 75
0
 76
0
 77
0
 78
4
 79
1
170
1
171
2
172
0
173
0
174
0
175
0
176
0
177
0
178
0
270
2
179
3
271
3
272
3
273
2
274
2
275
0
280
0
281
0
282
0
283
1
284
4
285
0
286
0
287
3
288
0
340
11
278
46
341
207
342
207
343
207
344
207
  0
ENDTAB
  0
ENDSEC
  0
SECTION
  2
BLOCKS
  0
BLOCK
  5
20
100
AcDbEntity
  8
0
100
AcDbBlockBegin
  2
*Model_Space
 70
0
 10
0.0
 20
0.0
 30
0.0
  3
*Model_Space
  1

  0
ENDBLK
  5
21
100
AcDbEntity
  8
0
100
AcDbBlockEnd
  0
BLOCK
  5
1C
100
AcDbEntity
  8
0
100
AcDbBlockBegin
  2
*Paper_Space
 70
0
 10
0.0
 20
0.0
 30
0.0
  3
*Paper_Space
  1

  0
ENDBLK
  5
1D
100
AcDbEntity
  8
0
100
AcDbBlockEnd
  0
BLOCK
  5
209
100
AcDbEntity
  8
0
100
AcDbBlockBegin
  2
_FILLED
 70
64
 10
0.0
 20
0.0
  3
_FILLED
  1

  0
SOLID
  5
20A
100
AcDbEntity
  8
0
  6
BYBLOCK
 62
0
100
AcDbTrace
 10
0.0
 20
0.0
 11
-1.0
 21
0.2
 12
-1.0
 22
-0.2
 13
-1.0
 23
-0.2
  0
ENDBLK
  5
20B
100
AcDbEntity
  8
0
  6
BYBLOCK
 62
0
100
AcDbBlockEnd
  0
ENDSEC
  0
SECTION
  2
ENTITIES
  0
LINE
  5
20C
100
AcDbEntity
  8
0
100
AcDbLine
 62
7
  6
CONTINUOUS
 10
-0.0151816617
 20
10.7698988776
 11
-0.0151816617
 21
11.4798988776
  0
LINE
  5
20D
100
AcDbEntity
  8
0
100
AcDbLine
 62
9
  6
CONTINUOUS
 10
0.0048183383
 20
10.7498988776
 11
0.0048183383
 21
11.4998988776
  0
LINE
  5
20E
100
AcDbEntity
  8
0
100
AcDbLine
 62
7
  6
CONTINUOUS
 10
6.4848183383
 20
11.1248988776
 11
6.4848183383
 21
3.2098988776
  0
LINE
  5
20F
100
AcDbEntity
  8
0
100
AcDbLine
 62
7
  6
CONTINUOUS
 10
7.4848183383
 20
11.1248988776
 11
7.4848183383
 21
3.2098988776
  0
LINE
  5
210
100
AcDbEntity
  8
0
100
AcDbLine
 62
9
  6
CONTINUOUS
 10
13.9648183383
 20
11.4998988776
 11
13.9648183383
 21
10.7498988776
  0
LINE
  5
211
100
AcDbEntity
  8
0
100
AcDbLine
 62
7
  6
CONTINUOUS
 10
13.9848183383
 20
11.4798988776
 11
13.9848183383
 21
10.7698988776
  0
LINE
  5
212
100
AcDbEntity
  8
0
100
AcDbLine
 62
7
  6
CONTINUOUS
 10
18.9648183383
 20
10.7498988776
 11
15.9848183383
 21
10.7498988776
  0
LINE
  5
213
100
AcDbEntity
  8
0
100
AcDbLine
 62
7
  6
CONTINUOUS
 10
13.9648183383
 20
10.7498988776
 11
10.9848183383
 21
10.7498988776
  0
LINE
  5
214
100
AcDbEntity
  8
0
100
AcDbLine
 62
7
  6
CONTINUOUS
 10
0.0048183383
 20
10.7498988776
 11
2.9848183383
 21
10.7498988776
  0
LINE
  5
215
100
AcDbEntity
  8
0
100
AcDbLine
 62
7
  6
CONTINUOUS
 10
18.9648183383
 20
11.4998988776
 11
15.9848183383
 21
11.4998988776
  0
LINE
  5
216
100
AcDbEntity
  8
0
100
AcDbLine
 62
7
  6
CONTINUOUS
 10
13.9648183383
 20
11.4998988776
 11
10.9848183383
 21
11.4998988776
  0
LINE
  5
217
100
AcDbEntity
  8
0
100
AcDbLine
 62
7
  6
CONTINUOUS
 10
0.0048183383
 20
11.4998988776
 11
2.9848183383
 21
11.4998988776
  0
LINE
  5
218
100
AcDbEntity
  8
0
100
AcDbLine
 62
9
  6
CONTINUOUS
 10
18.9648183383
 20
11.4998988776
 11
18.9648183383
 21
10.7498988776
  0
LINE
  5
219
100
AcDbEntity
  8
0
100
AcDbLine
 62
7
  6
CONTINUOUS
 10
18.9848183383
 20
11.4798988776
 11
18.9848183383
 21
10.7698988776
  0
LINE
  5
21A
100
AcDbEntity
  8
0
100
AcDbLine
 62
7
  6
CONTINUOUS
 10
20.4848183383
 20
10.5195375229
 11
20.4848183383
 21
5.0686985927
  0
LINE
  5
21B
100
AcDbEntity
  8
0
100
AcDbLine
 62
7
  6
CONTINUOUS
 10
20.4948183383
 20
10.7445131863
 11
20.4948183383
 21
10.8280755755
  0
LINE
  5
21C
100
AcDbEntity
  8
0
100
AcDbLine
 62
7
  6
CONTINUOUS
 10
20.4973183383
 20
11.1248988776
 11
20.4973183383
 21
10.8643789243
  0
LINE
  5
21D
100
AcDbEntity
  8
0
100
AcDbLine
 62
7
  6
CONTINUOUS
 10
20.5148183383
 20
10.850659418
 11
20.5148183383
 21
10.6506967145
  0
LINE
  5
21E
100
AcDbEntity
  8
0
100
AcDbLine
 62
7
  6
CONTINUOUS
 10
21.4548183383
 20
10.850659418
 11
21.4548183383
 21
10.6506991202
  0
LINE
  5
21F
100
AcDbEntity
  8
0
100
AcDbLine
 62
7
  6
CONTINUOUS
 10
21.4723183383
 20
11.1248988776
 11
21.4723183383
 21
10.864377046
  0
LINE
  5
220
100
AcDbEntity
  8
0
100
AcDbLine
 62
7
  6
CONTINUOUS
 10
21.4748183383
 20
10.7445131863
 11
21.4748183383
 21
10.8280755755
  0
LINE
  5
221
100
AcDbEntity
  8
0
100
AcDbLine
 62
7
  6
CONTINUOUS
 10
21.4848183383
 20
10.5195375229
 11
21.4848183383
 21
5.0686985927
  0
LINE
  5
222
100
AcDbEntity
  8
0
100
AcDbLine
 62
7
  6
CONTINUOUS
 10
21.4812553852
 20
11.3557809594
 11
21.4801911057
 21
11.3580539847
  0
LINE
  5
223
100
AcDbEntity
  8
0
100
AcDbLine
 62
7
  6
CONTINUOUS
 10
21.4826984668
 20
11.3526528558
 11
21.4812553852
 21
11.3557809594
  0
LINE
  5
224
100
AcDbEntity
  8
0
100
AcDbLine
 62
7
  6
CONTINUOUS
 10
21.4839831018
 20
11.3498236786
 11
21.4826984668
 21
11.3526528558
  0
LINE
  5
225
100
AcDbEntity
  8
0
100
AcDbLine
 62
7
  6
CONTINUOUS
 10
21.4854722103
 20
11.3464889461
 11
21.4839831018
 21
11.3498236786
  0
LINE
  5
226
100
AcDbEntity
  8
0
100
AcDbLine
 62
7
  6
CONTINUOUS
 10
21.4871657222
 20
11.3426234013
 11
21.4854722103
 21
11.3464889461
  0
LWPOLYLINE
  5
227
100
AcDbEntity
  8
0
100
AcDbPolyline
 62
7
  6
CONTINUOUS
 90
4
 70
0
 10
21.4906520607
 20
11.334392342
 10
21.4900046296
 20
11.3359525857
 10
21.4890187864
 20
11.3382958714
 10
21.4871657222
 20
11.3426234013
  0
LINE
  5
228
100
AcDbEntity
  8
0
100
AcDbLine
 62
7
  6
CONTINUOUS
 10
21.5040839712
 20
11.2984488455
 11
21.5032290435
 21
11.3009761003
  0
LWPOLYLINE
  5
229
100
AcDbEntity
  8
0
100
AcDbPolyline
 62
7
  6
CONTINUOUS
 90
8
 70
0
 10
21.5122775714
 20
11.2716746898
 10
21.5116449681
 20
11.2739296759
 10
21.5104066463
 20
11.2782398124
 10
21.509155459
 20
11.2824645156
 10
21.507894693
 20
11.2866004071
 10
21.5066272748
 20
11.2906453982
 10
21.5053559133
 20
11.2945962538
 10
21.5040839712
 20
11.2984488455
  0
ARC
  5
22A
100
AcDbEntity
  8
0
100
AcDbCircle
 62
7
  6
CONTINUOUS
 10
0.0048183383
 20
10.7698988776
 40
0.02
100
AcDbArc
 50
180.0
 51
270.0
  0
ARC
  5
22B
100
AcDbEntity
  8
0
100
AcDbCircle
 62
7
  6
CONTINUOUS
 10
6.9848183383
 20
11.1248988776
 40
0.925
100
AcDbArc
 50
302.7439631592
 51
237.2560368408
  0
ARC
  5
22C
100
AcDbEntity
  8
0
100
AcDbCircle
 62
7
  6
CONTINUOUS
 10
2.9848183383
 20
11.1248988776
 40
0.925
100
AcDbArc
 50
203.9295686292
 51
156.0704313709
  0
ARC
  5
22D
100
AcDbEntity
  8
0
100
AcDbCircle
 62
9
  6
CONTINUOUS
 10
6.9848183383
 20
11.1248988776
 40
0.905
100
AcDbArc
 50
303.5772137149
 51
236.4227863196
  0
ARC
  5
22E
100
AcDbEntity
  8
0
100
AcDbCircle
 62
9
  6
CONTINUOUS
 10
2.9848183383
 20
11.1248988776
 40
0.905
100
AcDbArc
 50
204.4910232211
 51
155.5089767614
  0
ARC
  5
22F
100
AcDbEntity
  8
0
100
AcDbCircle
 62
7
  6
CONTINUOUS
 10
6.9848183383
 20
11.1248988776
 40
0.5
100
AcDbArc
 50
0.0
 51
180.0
  0
ARC
  5
230
100
AcDbEntity
  8
0
100
AcDbCircle
 62
7
  6
CONTINUOUS
 10
2.9848183383
 20
11.1248988776
 40
0.43
100
AcDbArc
 50
240.7816469823
 51
119.2183530177
  0
ARC
  5
231
100
AcDbEntity
  8
0
100
AcDbCircle
 62
7
  6
CONTINUOUS
 10
2.9848183383
 20
11.1248988776
 40
0.375
100
AcDbArc
 50
269.9981322349
 51
90.0018369971
  0
ARC
  5
232
100
AcDbEntity
  8
0
100
AcDbCircle
 62
7
  6
CONTINUOUS
 10
0.0048183383
 20
11.4798988776
 40
0.02
100
AcDbArc
 50
90.0
 51
180.0
  0
ARC
  5
233
100
AcDbEntity
  8
0
100
AcDbCircle
 62
7
  6
CONTINUOUS
 10
20.8045702045
 20
10.7391417014
 40
0.3104711663
100
AcDbArc
 50
158.9496238775
 51
160.6519891693
  0
ARC
  5
234
100
AcDbEntity
  8
0
100
AcDbCircle
 62
7
  6
CONTINUOUS
 10
21.1656375611
 20
10.7393518121
 40
0.3098627197
100
AcDbArc
 50
19.3463393246
 51
21.0520476287
  0
ARC
  5
235
100
AcDbEntity
  8
0
100
AcDbCircle
 62
7
  6
CONTINUOUS
 10
20.7907837975
 20
10.8280722083
 40
0.2959654592
100
AcDbArc
 50
177.4921575598
 51
179.9993481342
  0
ARC
  5
236
100
AcDbEntity
  8
0
100
AcDbCircle
 62
7
  6
CONTINUOUS
 10
21.1789563465
 20
10.8280744739
 40
0.2958619917
100
AcDbArc
 50
0.0002133349
 51
2.5082833663
  0
ARC
  5
237
100
AcDbEntity
  8
0
100
AcDbCircle
 62
7
  6
CONTINUOUS
 10
18.9648183383
 20
10.7698988776
 40
0.02
100
AcDbArc
 50
270.0
 51
360.0
  0
ARC
  5
238
100
AcDbEntity
  8
0
100
AcDbCircle
 62
7
  6
CONTINUOUS
 10
13.9648183383
 20
10.7698988776
 40
0.02
100
AcDbArc
 50
270.0
 51
360.0
  0
ARC
  5
239
100
AcDbEntity
  8
0
100
AcDbCircle
 62
7
  6
CONTINUOUS
 10
10.9848183383
 20
11.1248988776
 40
0.925
100
AcDbArc
 50
23.9246308835
 51
336.0753691166
  0
ARC
  5
23A
100
AcDbEntity
  8
0
100
AcDbCircle
 62
9
  6
CONTINUOUS
 10
10.9848183383
 20
11.1248988776
 40
0.905
100
AcDbArc
 50
24.4819641068
 51
335.5180358629
  0
ARC
  5
23B
100
AcDbEntity
  8
0
100
AcDbCircle
 62
7
  6
CONTINUOUS
 10
10.9848183383
 20
11.1248988776
 40
0.43
100
AcDbArc
 50
60.7438983377
 51
299.2561016623
  0
ARC
  5
23C
100
AcDbEntity
  8
0
100
AcDbCircle
 62
7
  6
CONTINUOUS
 10
10.9848183383
 20
11.1248988776
 40
0.375
100
AcDbArc
 50
89.9981334997
 51
270.0018357531
  0
ARC
  5
23D
100
AcDbEntity
  8
0
100
AcDbCircle
 62
7
  6
CONTINUOUS
 10
13.9648183383
 20
11.4798988776
 40
0.02
100
AcDbArc
 50
0.0
 51
90.0
  0
ARC
  5
23E
100
AcDbEntity
  8
0
100
AcDbCircle
 62
7
  6
CONTINUOUS
 10
20.9848183383
 20
11.1248988776
 40
1.125
100
AcDbArc
 50
296.3929284586
 51
243.6070715414
  0
ARC
  5
23F
100
AcDbEntity
  8
0
100
AcDbCircle
 62
7
  6
CONTINUOUS
 10
15.9848183383
 20
11.1248988776
 40
1.125
100
AcDbArc
 50
19.4730517308
 51
340.5269482692
  0
ARC
  5
240
100
AcDbEntity
  8
0
100
AcDbCircle
 62
9
  6
CONTINUOUS
 10
20.9848183383
 20
11.1248988776
 40
1.105
100
AcDbArc
 50
296.9042067318
 51
243.0957932683
  0
ARC
  5
241
100
AcDbEntity
  8
0
100
AcDbCircle
 62
9
  6
CONTINUOUS
 10
15.9848183383
 20
11.1248988776
 40
1.105
100
AcDbArc
 50
19.8431221784
 51
340.156877815
  0
ARC
  5
242
100
AcDbEntity
  8
0
100
AcDbCircle
 62
7
  6
CONTINUOUS
 10
20.9848183383
 20
11.1248988776
 40
0.5475
100
AcDbArc
 50
332.9644643063
 51
207.0355356937
  0
ARC
  5
243
100
AcDbEntity
  8
0
100
AcDbCircle
 62
9
  6
CONTINUOUS
 10
20.9848183383
 20
11.1248988776
 40
0.5175
100
AcDbArc
 50
340.4301071549
 51
199.5698928451
  0
ARC
  5
244
100
AcDbEntity
  8
0
100
AcDbCircle
 62
7
  6
CONTINUOUS
 10
20.9848183383
 20
11.1248988776
 40
0.4875
100
AcDbArc
 50
0.0
 51
180.0
  0
ARC
  5
245
100
AcDbEntity
  8
0
100
AcDbCircle
 62
7
  6
CONTINUOUS
 10
15.9848183383
 20
11.1248988776
 40
0.43
100
AcDbArc
 50
60.7367930338
 51
299.2632069662
  0
ARC
  5
246
100
AcDbEntity
  8
0
100
AcDbCircle
 62
7
  6
CONTINUOUS
 10
15.9848183383
 20
11.1248988776
 40
0.375
100
AcDbArc
 50
89.9981334997
 51
270.0018357531
  0
ARC
  5
247
100
AcDbEntity
  8
0
100
AcDbCircle
 62
7
  6
CONTINUOUS
 10
18.9648183383
 20
11.4798988776
 40
0.02
100
AcDbArc
 50
0.0
 51
90.0
  0
SPLINE
  5
248
100
AcDbEntity
  8
0
100
AcDbSpline
 62
7
  6
CONTINUOUS
 70
0
 71
3
 72
31
 73
27
 74
0
 42
0.0000001
 43
0.0000001
 44
0.0000000001
 40
0.0
 40
0.0
 40
0.0
 40
0.0
 40
0.0311018911
 40
0.0622052439
 40
0.0933115194
 40
0.1244221807
 40
0.18664311
 40
0.2488973973
 40
0.2800494817
 40
0.3112132249
 40
0.3423894663
 40
0.3735789404
 40
0.4359811145
 40
0.4984421511
 40
0.5609630184
 40
0.6235426379
 40
0.6548628177
 40
0.686196165
 40
0.7175419422
 40
0.7488993068
 40
0.8116260401
 40
0.8743860021
 40
0.9057842639
 40
0.9371866366
 40
0.9685943086
 40
1.0
 40
1.0
 40
1.0
 40
1.0
 10
7.4848182928
 20
3.2098988776
 30
0.0
 10
7.4848182928
 20
3.201798028
 30
0.0
 10
7.4844166388
 20
3.1855930491
 30
0.0
 10
7.4826104746
 20
3.1613468065
 30
0.0
 10
7.4796048451
 20
3.1372164019
 30
0.0
 10
7.4740092436
 20
3.1052805925
 30
0.0
 10
7.4640543763
 20
3.0659252764
 30
0.0
 10
7.4502537633
 20
3.0277370618
 30
0.0
 10
7.4369926377
 20
2.9981129968
 30
0.0
 10
7.4259538281
 20
2.9763962274
 30
0.0
 10
7.4138519222
 20
2.955242193
 30
0.0
 10
7.3963387579
 20
2.9278548888
 30
0.0
 10
7.3719294868
 20
2.8952651925
 30
0.0
 10
7.338923274
 20
2.859207017
 30
0.0
 10
7.3025082944
 20
2.8265258947
 30
0.0
 10
7.269612638
 20
2.8023694713
 30
0.0
 10
7.241968797
 20
2.78503524
 30
0.0
 10
7.2206070577
 20
2.7730519897
 30
0.0
 10
7.1986773524
 20
2.762121245
 30
0.0
 10
7.1687528643
 20
2.7489857272
 30
0.0
 10
7.1301816521
 20
2.7353192704
 30
0.0
 10
7.0904538092
 20
2.7254668699
 30
0.0
 10
7.0582118466
 20
2.7199270558
 30
0.0
 10
7.033845047
 20
2.716950906
 30
0.0
 10
7.0093615961
 20
2.7151627548
 30
0.0
 10
6.9929983162
 20
2.7147648432
 30
0.0
 10
6.9848183383
 20
2.7147648432
 30
0.0
  0
SPLINE
  5
249
100
AcDbEntity
  8
0
100
AcDbSpline
 62
7
  6
CONTINUOUS
 70
0
 71
3
 72
29
 73
25
 74
0
 42
0.0000001
 43
0.0000001
 44
0.0000000001
 40
0.0
 40
0.0
 40
0.0
 40
0.0
 40
0.0272587826
 40
0.0545606721
 40
0.0819447484
 40
0.1094525686
 40
0.1371224081
 40
0.1649907513
 40
0.1930916521
 40
0.2214561733
 40
0.2501121897
 40
0.2790840927
 40
0.3380331751
 40
0.3984464293
 40
0.4603817695
 40
0.5238366606
 40
0.5887519366
 40
0.6550171201
 40
0.7224768862
 40
0.7909380884
 40
0.8254817934
 40
0.8601900178
 40
0.9299598421
 40
1.0
 40
1.0
 40
1.0
 40
1.0
 10
20.5248183383
 20
5.0622707166
 30
0.0
 10
20.5248183383
 20
5.056433214
 30
0.0
 10
20.5251921129
 20
5.0447455487
 30
0.0
 10
20.5268716908
 20
5.0272661995
 30
0.0
 10
20.5296658785
 20
5.009875434
 30
0.0
 10
20.5335665403
 20
4.9926185557
 30
0.0
 10
20.5385629409
 20
4.9755385868
 30
0.0
 10
20.5446411564
 20
4.9586782554
 30
0.0
 10
20.5517846378
 20
4.9420791202
 30
0.0
 10
20.5599741798
 20
4.9257818665
 30
0.0
 10
20.5691884804
 20
4.9098253817
 30
0.0
 10
20.5828841368
 20
4.8889389761
 30
0.0
 10
20.6025008796
 20
4.8638671924
 30
0.0
 10
20.6295523033
 20
4.8359255577
 30
0.0
 10
20.6599885861
 20
4.8101977237
 30
0.0
 10
20.6935106773
 20
4.7869191017
 30
0.0
 10
20.7297963604
 20
4.766298971
 30
0.0
 10
20.7684994333
 20
4.7485234206
 30
0.0
 10
20.8092507501
 20
4.7337538197
 30
0.0
 10
20.8444962161
 20
4.7240898832
 30
0.0
 10
20.8733502016
 20
4.7179615199
 30
0.0
 10
20.9026959156
 20
4.7129039137
 30
0.0
 10
20.9398671599
 20
4.7086780709
 30
0.0
 10
20.9698191503
 20
4.7075507172
 30
0.0
 10
20.9848183383
 20
4.7075507172
 30
0.0
  0
SPLINE
  5
24A
100
AcDbEntity
  8
0
100
AcDbSpline
 62
7
  6
CONTINUOUS
 70
0
 71
3
 72
29
 73
25
 74
0
 42
0.0000001
 43
0.0000001
 44
0.0000000001
 40
0.0
 40
0.0
 40
0.0
 40
0.0
 40
0.0700401741
 40
0.1398100086
 40
0.1745182377
 40
0.2090619459
 40
0.2775231519
 40
0.3449829184
 40
0.4112480989
 40
0.4761633692
 40
0.5396182526
 40
0.6015535839
 40
0.6619668287
 40
0.7209159025
 40
0.7498878017
 40
0.7785438151
 40
0.8069083339
 40
0.8350092332
 40
0.8628775759
 40
0.8905474161
 40
0.9180552378
 40
0.9454393167
 40
0.9727412131
 40
1.0
 40
1.0
 40
1.0
 40
1.0
 10
20.9848183383
 20
4.7075507172
 30
0.0
 10
20.9998175298
 20
4.7075507172
 30
0.0
 10
21.0297695258
 20
4.7086780712
 30
0.0
 10
21.0669407766
 20
4.712903916
 30
0.0
 10
21.0962864943
 20
4.7179615237
 30
0.0
 10
21.1251404821
 20
4.7240898883
 30
0.0
 10
21.1603859491
 20
4.7337538272
 30
0.0
 10
21.2011372657
 20
4.7485234295
 30
0.0
 10
21.2398403359
 20
4.7662989814
 30
0.0
 10
21.2761260151
 20
4.7869191117
 30
0.0
 10
21.3096481016
 20
4.8101977323
 30
0.0
 10
21.3400843792
 20
4.8359255636
 30
0.0
 10
21.3671357985
 20
4.8638671944
 30
0.0
 10
21.3867525384
 20
4.8889389745
 30
0.0
 10
21.4004481934
 20
4.9098253771
 30
0.0
 10
21.4096624932
 20
4.9257818601
 30
0.0
 10
21.4178520351
 20
4.9420791122
 30
0.0
 10
21.4249955167
 20
4.9586782463
 30
0.0
 10
21.4310737325
 20
4.9755385773
 30
0.0
 10
21.4360701336
 20
4.9926185464
 30
0.0
 10
21.4399707966
 20
5.0098754254
 30
0.0
 10
21.4427649851
 20
5.0272661933
 30
0.0
 10
21.4444445632
 20
5.0447455454
 30
0.0
 10
21.4448183383
 20
5.0564332131
 30
0.0
 10
21.4448183383
 20
5.0622707166
 30
0.0
  0
SPLINE
  5
24B
100
AcDbEntity
  8
0
100
AcDbSpline
 62
7
  6
CONTINUOUS
 70
0
 71
3
 72
11
 73
7
 74
0
 42
0.0000001
 43
0.0000001
 44
0.0000000001
 40
0.0
 40
0.0
 40
0.0
 40
0.0
 40
0.2481018677
 40
0.4969732277
 40
0.7473666905
 40
1.0
 40
1.0
 40
1.0
 40
1.0
 10
20.4948183383
 20
10.7445131863
 30
0.0
 10
20.4948183383
 20
10.7361715891
 30
0.0
 10
20.4955468704
 20
10.7194535232
 30
0.0
 10
20.498818861
 20
10.6945093047
 30
0.0
 10
20.5042543447
 20
10.6697899948
 30
0.0
 10
20.5092789908
 20
10.6536166202
 30
0.0
 10
20.5121314791
 20
10.6456159623
 30
0.0
  0
SPLINE
  5
24C
100
AcDbEntity
  8
0
100
AcDbSpline
 62
7
  6
CONTINUOUS
 70
0
 71
3
 72
11
 73
7
 74
0
 42
0.0000001
 43
0.0000001
 44
0.0000000001
 40
0.0
 40
0.0
 40
0.0
 40
0.0
 40
0.2526334723
 40
0.503026961
 40
0.7518982511
 40
1.0
 40
1.0
 40
1.0
 40
1.0
 10
21.4575040854
 20
10.6456128432
 30
0.0
 10
21.4603567549
 20
10.6536137382
 30
0.0
 10
21.4653817221
 20
10.6697876028
 30
0.0
 10
21.4708175565
 20
10.6945076916
 30
0.0
 10
21.4740897589
 20
10.719452711
 30
0.0
 10
21.4748183383
 20
10.7361713195
 30
0.0
 10
21.4748183383
 20
10.7445131863
 30
0.0
  0
SPLINE
  5
24D
100
AcDbEntity
  8
0
100
AcDbSpline
 62
7
  6
CONTINUOUS
 70
0
 71
3
 72
11
 73
7
 74
0
 42
0.0000001
 43
0.0000001
 44
0.0000000001
 40
0.0
 40
0.0
 40
0.0
 40
0.0
 40
0.2473223368
 40
0.4957384926
 40
0.7463072705
 40
1.0
 40
1.0
 40
1.0
 40
1.0
 10
21.4848183383
 20
10.5195375229
 30
0.0
 10
21.4848183383
 20
10.5302949054
 30
0.0
 10
21.4836453903
 20
10.5518752377
 30
0.0
 10
21.4783851635
 20
10.5839680992
 30
0.0
 10
21.469668792
 20
10.6155855088
 30
0.0
 10
21.4616555362
 20
10.6360508592
 30
0.0
 10
21.4571227084
 20
10.6461113212
 30
0.0
  0
SPLINE
  5
24E
100
AcDbEntity
  8
0
100
AcDbSpline
 62
7
  6
CONTINUOUS
 70
0
 71
3
 72
37
 73
33
 74
0
 42
0.0000001
 43
0.0000001
 44
0.0000000001
 40
0.0
 40
0.0
 40
0.0
 40
0.0
 40
0.0274914537
 40
0.0554445624
 40
0.0839123968
 40
0.1129335976
 40
0.1425320012
 40
0.1727167772
 40
0.2034829518
 40
0.234812187
 40
0.2989904466
 40
0.3317817512
 40
0.3649519505
 40
0.398433813
 40
0.4321544132
 40
0.466036547
 40
0.5000001584
 40
0.5339637679
 40
0.567845896
 40
0.6015664867
 40
0.6350483362
 40
0.6682185193
 40
0.7010098044
 40
0.7651880174
 40
0.7965172266
 40
0.8272833742
 40
0.8574681225
 40
0.8870664984
 40
0.9160876723
 40
0.9445554812
 40
0.9725085667
 40
1.0
 40
1.0
 40
1.0
 40
1.0
 10
21.4571227084
 20
10.6461113212
 30
0.0
 10
21.4528490916
 20
10.6555964733
 30
0.0
 10
21.4433202543
 20
10.6743292302
 30
0.0
 10
21.4263958056
 20
10.7012446799
 30
0.0
 10
21.4068366599
 20
10.7270418384
 30
0.0
 10
21.3847679586
 20
10.7515676446
 30
0.0
 10
21.3603258563
 20
10.7746823658
 30
0.0
 10
21.3336600633
 20
10.7962537613
 30
0.0
 10
21.3049291224
 20
10.8161604871
 30
0.0
 10
21.2637824199
 20
10.8405198358
 30
0.0
 10
21.2195044821
 20
10.8608555463
 30
0.0
 10
21.1729622772
 20
10.8770247429
 30
0.0
 10
21.1366820361
 20
10.8871193125
 30
0.0
 10
21.0995078952
 20
10.8950304265
 30
0.0
 10
21.0616559853
 20
10.9007141369
 30
0.0
 10
21.0233506251
 20
10.9041374161
 30
0.0
 10
20.9848177188
 20
10.9052806886
 30
0.0
 10
20.946284817
 20
10.904137342
 30
0.0
 10
20.9079794698
 20
10.9007139898
 30
0.0
 10
20.8701275814
 20
10.8950302085
 30
0.0
 10
20.8329534699
 20
10.8871190264
 30
0.0
 10
20.7966732666
 20
10.8770243898
 30
0.0
 10
20.7501311239
 20
10.8608551092
 30
0.0
 10
20.7058532601
 20
10.8405193205
 30
0.0
 10
20.6647066427
 20
10.816159902
 30
0.0
 10
20.6359757707
 20
10.7962531305
 30
0.0
 10
20.6093100511
 20
10.7746816938
 30
0.0
 10
20.5848680261
 20
10.751566936
 30
0.0
 10
20.5627994049
 20
10.7270410986
 30
0.0
 10
20.5432403413
 20
10.7012439136
 30
0.0
 10
20.5263159755
 20
10.6743284426
 30
0.0
 10
20.5167871956
 20
10.6555956751
 30
0.0
 10
20.5125136067
 20
10.6461105189
 30
0.0
  0
SPLINE
  5
24F
100
AcDbEntity
  8
0
100
AcDbSpline
 62
7
  6
CONTINUOUS
 70
0
 71
3
 72
11
 73
7
 74
0
 42
0.0000001
 43
0.0000001
 44
0.0000000001
 40
0.0
 40
0.0
 40
0.0
 40
0.0
 40
0.2536926587
 40
0.5042614184
 40
0.7526776013
 40
1.0
 40
1.0
 40
1.0
 40
1.0
 10
20.5125136067
 20
10.6461105189
 30
0.0
 10
20.5079808369
 20
10.6360501156
 30
0.0
 10
20.499967686
 20
10.6155848879
 30
0.0
 10
20.4912514287
 20
10.5839676795
 30
0.0
 10
20.485991271
 20
10.5518750262
 30
0.0
 10
20.4848183383
 20
10.5302948356
 30
0.0
 10
20.4848183383
 20
10.5195375229
 30
0.0
  0
SPLINE
  5
250
100
AcDbEntity
  8
0
100
AcDbSpline
 62
7
  6
CONTINUOUS
 70
0
 71
3
 72
51
 73
47
 74
0
 42
0.0000001
 43
0.0000001
 44
0.0000000001
 40
0.0
 40
0.0
 40
0.0
 40
0.0
 40
0.0136191651
 40
0.0272599789
 40
0.0409422108
 40
0.0546867422
 40
0.068512822
 40
0.0824388172
 40
0.096481838
 40
0.1106574918
 40
0.124979774
 40
0.1394609157
 40
0.1541113003
 40
0.1689394039
 40
0.1991429778
 40
0.2301111429
 40
0.2618423368
 40
0.2943065748
 40
0.3274482044
 40
0.3611891283
 40
0.3954323343
 40
0.4300656061
 40
0.464965278
 40
0.5000000604
 40
0.5350348419
 40
0.5699345106
 40
0.6045677773
 40
0.6388109766
 40
0.6725518918
 40
0.7056935117
 40
0.7381577385
 40
0.7698889211
 40
0.8008570742
 40
0.8310606365
 40
0.8458887345
 40
0.8605391136
 40
0.8750202503
 40
0.8893425277
 40
0.9035181772
 40
0.9175611942
 40
0.931487186
 40
0.9453132629
 40
0.9590577921
 40
0.9727400224
 40
0.9863808352
 40
1.0
 40
1.0
 40
1.0
 40
1.0
 10
20.4848183383
 20
5.0686985927
 30
0.0
 10
20.4848183383
 20
5.0623595898
 30
0.0
 10
20.4852243167
 20
5.0496677822
 30
0.0
 10
20.4870486612
 20
5.0306865493
 30
0.0
 10
20.4900837368
 20
5.0118011542
 30
0.0
 10
20.4943207686
 20
4.993060608
 30
0.0
 10
20.4997482335
 20
4.9745115174
 30
0.0
 10
20.506351135
 20
4.9562001736
 30
0.0
 10
20.5141115936
 20
4.938171663
 30
0.0
 10
20.5230089602
 20
4.9204699933
 30
0.0
 10
20.5330198753
 20
4.9031378899
 30
0.0
 10
20.5441182065
 20
4.8862168761
 30
0.0
 10
20.5562760069
 20
4.8697466346
 30
0.0
 10
20.5739628698
 20
4.848311538
 30
0.0
 10
20.5986175945
 20
4.8228497168
 30
0.0
 10
20.6316952606
 20
4.7948960959
 30
0.0
 10
20.6681317654
 20
4.7695988861
 30
0.0
 10
20.7075741441
 20
4.747189719
 30
0.0
 10
20.7496463365
 20
4.7278707493
 30
0.0
 10
20.793948232
 20
4.71181774
 30
0.0
 10
20.8400595623
 20
4.6991768554
 30
0.0
 10
20.8875432401
 20
4.6900639114
 30
0.0
 10
20.9359491522
 20
4.6845623277
 30
0.0
 10
20.9848184223
 20
4.6827229019
 30
0.0
 10
21.0336876904
 20
4.684562341
 30
0.0
 10
21.0820935971
 20
4.6900639349
 30
0.0
 10
21.1295772651
 20
4.6991768923
 30
0.0
 10
21.1756885839
 20
4.7118177827
 30
0.0
 10
21.2199904633
 20
4.7278708022
 30
0.0
 10
21.2620626403
 20
4.7471897725
 30
0.0
 10
21.3015049992
 20
4.7695989439
 30
0.0
 10
21.3379414875
 20
4.7948961493
 30
0.0
 10
21.3710191342
 20
4.8228497678
 30
0.0
 10
21.395673847
 20
4.8483115815
 30
0.0
 10
21.4133606991
 20
4.8697466733
 30
0.0
 10
21.4255184933
 20
4.88621691
 30
0.0
 10
21.4366168193
 20
4.9031379188
 30
0.0
 10
21.4466277295
 20
4.9204700175
 30
0.0
 10
21.4555250917
 20
4.9381716826
 30
0.0
 10
21.4632855474
 20
4.9562001885
 30
0.0
 10
21.4698884467
 20
4.9745115282
 30
0.0
 10
21.4753159097
 20
4.9930606152
 30
0.0
 10
21.4795529405
 20
5.0118011584
 30
0.0
 10
21.4825880157
 20
5.0306865512
 30
0.0
 10
21.4844123598
 20
5.0496677829
 30
0.0
 10
21.4848183383
 20
5.0623595898
 30
0.0
 10
21.4848183383
 20
5.0686985927
 30
0.0
  0
SPLINE
  5
251
100
AcDbEntity
  8
0
100
AcDbSpline
 62
7
  6
CONTINUOUS
 70
0
 71
3
 72
49
 73
45
 74
0
 42
0.0000001
 43
0.0000001
 44
0.0000000001
 40
0.0
 40
0.0
 40
0.0
 40
0.0
 40
0.0137138195
 40
0.0274585701
 40
0.0412527236
 40
0.0551137034
 40
0.0690581277
 40
0.0831017522
 40
0.0972591848
 40
0.1115437911
 40
0.1259675349
 40
0.1405408656
 40
0.1701600397
 40
0.200463185
 40
0.2314740939
 40
0.2631898265
 40
0.2955820085
 40
0.3285991229
 40
0.3621691373
 40
0.3962026717
 40
0.4305962595
 40
0.4652358125
 40
0.5000001301
 40
0.5347644456
 40
0.5694039924
 40
0.6037975696
 40
0.6378310904
 40
0.6714010868
 40
0.7044181813
 40
0.7368103405
 40
0.768526049
 40
0.799536933
 40
0.8298400534
 40
0.8594592038
 40
0.8740325233
 40
0.8884562566
 40
0.9027408531
 40
0.9168982769
 40
0.9309418936
 40
0.944886311
 40
0.9587472851
 40
0.9725414343
 40
0.9862861816
 40
1.0
 40
1.0
 40
1.0
 40
1.0
 10
21.4745348744
 20
10.8410225253
 30
0.0
 10
21.474265643
 20
10.8471701754
 30
0.0
 10
21.4733424258
 20
10.8594659413
 30
0.0
 10
21.4708117366
 20
10.8778140417
 30
0.0
 10
21.4671417101
 20
10.8960365604
 30
0.0
 10
21.4623432426
 20
10.9140872636
 30
0.0
 10
21.4564302021
 20
10.9319219497
 30
0.0
 10
21.4494193671
 20
10.9494973078
 30
0.0
 10
21.4413301856
 20
10.9667715533
 30
0.0
 10
21.4321848137
 20
10.9837042102
 30
0.0
 10
21.4220071022
 20
11.000256836
 30
0.0
 10
21.4070180566
 20
11.0218829045
 30
0.0
 10
21.3857806787
 20
11.0477832222
 30
0.0
 10
21.3567883785
 20
11.0765863144
 30
0.0
 10
21.3244229483
 20
11.1030479707
 30
0.0
 10
21.2889894264
 20
11.1269438898
 30
0.0
 10
21.2508132716
 20
11.1480759508
 30
0.0
 10
21.2102415837
 20
11.1662674436
 30
0.0
 10
21.1676408731
 20
11.1813661044
 30
0.0
 10
21.1233948041
 20
11.1932446007
 30
0.0
 10
21.0779014892
 20
11.2018022658
 30
0.0
 10
21.0315702751
 20
11.2069663338
 30
0.0
 10
20.9848181572
 20
11.2086925414
 30
0.0
 10
20.9380660435
 20
11.2069663049
 30
0.0
 10
20.89173484
 20
11.201802217
 30
0.0
 10
20.8462415449
 20
11.1932445215
 30
0.0
 10
20.8019954987
 20
11.1813660135
 30
0.0
 10
20.7593948202
 20
11.1662673309
 30
0.0
 10
20.718823165
 20
11.1480758321
 30
0.0
 10
20.6806470476
 20
11.1269437653
 30
0.0
 10
20.6452135649
 20
11.1030478463
 30
0.0
 10
20.6128481693
 20
11.0765862001
 30
0.0
 10
20.5838559067
 20
11.0477831171
 30
0.0
 10
20.5626185511
 20
11.0218828159
 30
0.0
 10
20.5476295249
 20
11.0002567588
 30
0.0
 10
20.5374518246
 20
10.9837041427
 30
0.0
 10
20.5283064617
 20
10.9667714958
 30
0.0
 10
20.5202172883
 20
10.9494972596
 30
0.0
 10
20.5132064606
 20
10.93192191
 30
0.0
 10
20.5072934246
 20
10.9140872321
 30
0.0
 10
20.5024949606
 20
10.8960365357
 30
0.0
 10
20.4988249369
 20
10.8778140225
 30
0.0
 10
20.4962942491
 20
10.8594659259
 30
0.0
 10
20.4953710327
 20
10.8471701619
 30
0.0
 10
20.4951018016
 20
10.8410225123
 30
0.0
  0
SPLINE
  5
252
100
AcDbEntity
  8
0
100
AcDbSpline
 62
7
  6
CONTINUOUS
 70
0
 71
3
 72
31
 73
27
 74
0
 42
0.0000001
 43
0.0000001
 44
0.0000000001
 40
0.0
 40
0.0
 40
0.0
 40
0.0
 40
0.0314056914
 40
0.0628133634
 40
0.0942157361
 40
0.1256139979
 40
0.1883739599
 40
0.2511006932
 40
0.2824580578
 40
0.313803835
 40
0.3451371823
 40
0.3764573621
 40
0.4390369816
 40
0.5015578489
 40
0.5640188855
 40
0.6264210596
 40
0.6576105337
 40
0.6887867751
 40
0.7199505183
 40
0.7511026027
 40
0.81335689
 40
0.8755778193
 40
0.9066884806
 40
0.9377947561
 40
0.9688981089
 40
1.0
 40
1.0
 40
1.0
 40
1.0
 10
6.9848183383
 20
2.7147648432
 30
0.0
 10
6.9766383604
 20
2.7147648432
 30
0.0
 10
6.9602750804
 20
2.7151627548
 30
0.0
 10
6.9357916295
 20
2.716950906
 30
0.0
 10
6.9114248299
 20
2.7199270558
 30
0.0
 10
6.8791828674
 20
2.7254668699
 30
0.0
 10
6.8394550245
 20
2.7353192704
 30
0.0
 10
6.8008838123
 20
2.7489857272
 30
0.0
 10
6.7709593242
 20
2.762121245
 30
0.0
 10
6.7490296189
 20
2.7730519897
 30
0.0
 10
6.7276678796
 20
2.78503524
 30
0.0
 10
6.7000240386
 20
2.8023694713
 30
0.0
 10
6.6671283822
 20
2.8265258947
 30
0.0
 10
6.6307134025
 20
2.859207017
 30
0.0
 10
6.5977071898
 20
2.8952651925
 30
0.0
 10
6.5732979186
 20
2.9278548888
 30
0.0
 10
6.5557847544
 20
2.955242193
 30
0.0
 10
6.5436828485
 20
2.9763962274
 30
0.0
 10
6.5326440389
 20
2.9981129968
 30
0.0
 10
6.5193829133
 20
3.0277370618
 30
0.0
 10
6.5055823003
 20
3.0659252764
 30
0.0
 10
6.495627433
 20
3.1052805925
 30
0.0
 10
6.4900318315
 20
3.1372164019
 30
0.0
 10
6.487026202
 20
3.1613468065
 30
0.0
 10
6.4852200378
 20
3.1855930491
 30
0.0
 10
6.4848183838
 20
3.201798028
 30
0.0
 10
6.4848183838
 20
3.2098988776
 30
0.0
  0
SPLINE
  5
253
100
AcDbEntity
  8
0
100
AcDbSpline
 62
9
  6
CONTINUOUS
 70
0
 71
3
 72
28
 73
24
 74
0
 42
0.0000001
 43
0.0000001
 44
0.0000000001
 40
0.0
 40
0.0
 40
0.0
 40
0.0
 40
0.0385847545
 40
0.0770402372
 40
0.1152432449
 40
0.1530821882
 40
0.1904609684
 40
0.2273015147
 40
0.263544427
 40
0.2991481695
 40
0.3683310931
 40
0.43483144
 40
0.4987632368
 40
0.5603323802
 40
0.5903185747
 40
0.6198113258
 40
0.6774408788
 40
0.7335180555
 40
0.7883184162
 40
0.8421094045
 40
0.8951516272
 40
0.9476989046
 40
1.0
 40
1.0
 40
1.0
 40
1.0
 10
15.6398183383
 20
11.1248988776
 30
0.0
 10
15.6398185453
 20
11.1321729955
 30
0.0
 10
15.6402111694
 20
11.1466997605
 30
0.0
 10
15.6419511837
 20
11.1683657364
 30
0.0
 10
15.6448260362
 20
11.1897693924
 30
0.0
 10
15.6487997077
 20
11.2107894649
 30
0.0
 10
15.6538121656
 20
11.2313218558
 30
0.0
 10
15.6598113097
 20
11.2512735425
 30
0.0
 10
15.6667265546
 20
11.2705715884
 30
0.0
 10
15.6769767519
 20
11.2951139408
 30
0.0
 10
15.6916794949
 20
11.3239320411
 30
0.0
 10
15.7120941918
 20
11.3556184553
 30
0.0
 10
15.7346466347
 20
11.3840040632
 30
0.0
 10
15.755066168
 20
11.405104237
 30
0.0
 10
15.7720953164
 20
11.4203071352
 30
0.0
 10
15.7892554521
 20
11.4342092801
 30
0.0
 10
15.8114220942
 20
11.449695874
 30
0.0
 10
15.8391094861
 20
11.465364906
 30
0.0
 10
15.8674879678
 20
11.4780629518
 30
0.0
 10
15.8963879834
 20
11.4878617937
 30
0.0
 10
15.9256639101
 20
11.4948185895
 30
0.0
 10
15.9551796932
 20
11.4989770718
 30
0.0
 10
15.9749583733
 20
11.4998969484
 30
0.0
 10
15.9848183383
 20
11.4998988776
 30
0.0
  0
SPLINE
  5
254
100
AcDbEntity
  8
0
100
AcDbSpline
 62
9
  6
CONTINUOUS
 70
0
 71
3
 72
26
 73
22
 74
0
 42
0.0000001
 43
0.0000001
 44
0.0000000001
 40
0.0
 40
0.0
 40
0.0
 40
0.0
 40
0.0523038987
 40
0.1048540037
 40
0.1578991272
 40
0.2116930984
 40
0.2664962442
 40
0.3225763192
 40
0.3802091873
 40
0.4097036249
 40
0.439691338
 40
0.5012638293
 40
0.5651989998
 40
0.6317030312
 40
0.7008896439
 40
0.7364953867
 40
0.7727402027
 40
0.8095827307
 40
0.8469635246
 40
0.9229828401
 40
1.0
 40
1.0
 40
1.0
 40
1.0
 10
15.9848183383
 20
10.7498988776
 30
0.0
 10
15.9749583743
 20
10.7499009132
 30
0.0
 10
15.9551796938
 20
10.7508206275
 30
0.0
 10
15.9256639014
 20
10.7549791836
 30
0.0
 10
15.8963879482
 20
10.7619359643
 30
0.0
 10
15.8674879088
 20
10.7717347385
 30
0.0
 10
15.8391094928
 20
10.7844328645
 30
0.0
 10
15.8114222
 20
10.800102042
 30
0.0
 10
15.789255435
 20
10.8155885058
 30
0.0
 10
15.7720951098
 20
10.8294904976
 30
0.0
 10
15.7550661689
 20
10.8446936388
 30
0.0
 10
15.7346463966
 20
10.8657935635
 30
0.0
 10
15.7120943972
 20
10.8941795132
 30
0.0
 10
15.6916787766
 20
10.9258653861
 30
0.0
 10
15.6769771543
 20
10.9546840484
 30
0.0
 10
15.666725496
 20
10.9792258083
 30
0.0
 10
15.6598105789
 20
10.9985239291
 30
0.0
 10
15.6538126195
 20
11.0184763066
 30
0.0
 10
15.6470899872
 20
11.0460011468
 30
0.0
 10
15.6413614678
 20
11.0815083679
 30
0.0
 10
15.6398183894
 20
11.1103801428
 30
0.0
 10
15.6398183383
 20
11.1248988776
 30
0.0
  0
SPLINE
  5
255
100
AcDbEntity
  8
0
100
AcDbSpline
 62
9
  6
CONTINUOUS
 70
0
 71
3
 72
32
 73
28
 74
0
 42
0.0000001
 43
0.0000001
 44
0.0000000001
 40
0.0
 40
0.0
 40
0.0
 40
0.0
 40
0.0313916357
 40
0.0470905282
 40
0.0627881142
 40
0.094176435
 40
0.1255611238
 40
0.1569412461
 40
0.1883146247
 40
0.2196804378
 40
0.2510377049
 40
0.3137037655
 40
0.3763246712
 40
0.4388953825
 40
0.5014128071
 40
0.5638759058
 40
0.6262857362
 40
0.6574810364
 40
0.6886643576
 40
0.719836392
 40
0.750997933
 40
0.8132742437
 40
0.875520567
 40
0.9066449335
 40
0.9377654205
 40
0.9688833373
 40
1.0
 40
1.0
 40
1.0
 40
1.0
 10
6.9848183383
 20
2.7838792077
 30
0.0
 10
6.9929984502
 20
2.7838792077
 30
0.0
 10
7.0052721278
 20
2.7841843496
 30
0.0
 10
7.021603991
 20
2.7851866152
 30
0.0
 10
7.0379065099
 20
2.7865808867
 30
0.0
 10
7.0582125225
 20
2.7890598286
 30
0.0
 10
7.082401637
 20
2.7932197374
 30
0.0
 10
7.1063558397
 20
2.7985520939
 30
0.0
 10
7.1300174075
 20
2.8050417989
 30
0.0
 10
7.1533295996
 20
2.8126750694
 30
0.0
 10
7.183859261
 20
2.8243470771
 30
0.0
 10
7.2208832823
 20
2.8417014424
 30
0.0
 10
7.2630352787
 20
2.8667417314
 30
0.0
 10
7.3025108108
 20
2.8957576961
 30
0.0
 10
7.3389270914
 20
2.9284699586
 30
0.0
 10
7.3719325156
 20
2.9645612022
 30
0.0
 10
7.3963409287
 20
2.9971803032
 30
0.0
 10
7.4138534528
 20
3.0245922576
 30
0.0
 10
7.425955157
 20
3.0457657963
 30
0.0
 10
7.436993762
 20
3.0675025988
 30
0.0
 10
7.4502548442
 20
3.0971545315
 30
0.0
 10
7.4640552164
 20
3.1353785527
 30
0.0
 10
7.4740095989
 20
3.1747697604
 30
0.0
 10
7.4796049929
 20
3.2067349713
 30
0.0
 10
7.4826105408
 20
3.2308879003
 30
0.0
 10
7.4844166518
 20
3.2551568287
 30
0.0
 10
7.4848182933
 20
3.2713769693
 30
0.0
 10
7.4848182933
 20
3.2794854281
 30
0.0
  0
SPLINE
  5
256
100
AcDbEntity
  8
0
100
AcDbSpline
 62
9
  6
CONTINUOUS
 70
0
 71
3
 72
25
 73
21
 74
0
 42
0.0000001
 43
0.0000001
 44
0.0000000001
 40
0.0
 40
0.0
 40
0.0
 40
0.0
 40
0.0523041011
 40
0.1048550631
 40
0.1579004947
 40
0.211695119
 40
0.266498756
 40
0.3225794488
 40
0.3802129344
 40
0.4396787318
 40
0.5012521695
 40
0.5651883879
 40
0.6316937054
 40
0.7008815906
 40
0.7364881158
 40
0.7727339244
 40
0.8095774763
 40
0.8469592168
 40
0.9229803746
 40
1.0
 40
1.0
 40
1.0
 40
1.0
 10
2.9848183383
 20
11.4998988776
 30
0.0
 10
2.9946781718
 20
11.499896842
 30
0.0
 10
3.0144566762
 20
11.4989767173
 30
0.0
 10
3.0439723396
 20
11.4948190203
 30
0.0
 10
3.0732480136
 20
11.4878618201
 30
0.0
 10
3.1021479925
 20
11.4780634742
 30
0.0
 10
3.1305259843
 20
11.4653655222
 30
0.0
 10
3.1582140084
 20
11.4496959254
 30
0.0
 10
3.1850165191
 20
11.4309713277
 30
0.0
 10
3.2107011072
 20
11.4091027622
 30
0.0
 10
3.2349883182
 20
11.3840062155
 30
0.0
 10
3.2575414311
 20
11.3556194603
 30
0.0
 10
3.2779570918
 20
11.3239339976
 30
0.0
 10
3.2926586449
 20
11.2951151155
 30
0.0
 10
3.3029107121
 20
11.2705734175
 30
0.0
 10
3.309825866
 20
11.25127518
 30
0.0
 10
3.3158235453
 20
11.2313225075
 30
0.0
 10
3.3225464067
 20
11.2037974921
 30
0.0
 10
3.3282752711
 20
11.1682899322
 30
0.0
 10
3.3298182871
 20
11.1394178289
 30
0.0
 10
3.3298183383
 20
11.1248988776
 30
0.0
  0
SPLINE
  5
257
100
AcDbEntity
  8
0
100
AcDbSpline
 62
9
  6
CONTINUOUS
 70
0
 71
3
 72
31
 73
27
 74
0
 42
0.0000001
 43
0.0000001
 44
0.0000000001
 40
0.0
 40
0.0
 40
0.0
 40
0.0
 40
0.0385831854
 40
0.077038101
 40
0.1152395109
 40
0.1530773698
 40
0.1904548736
 40
0.2272942551
 40
0.2635360331
 40
0.2991384502
 40
0.3683185815
 40
0.434816279
 40
0.4987453356
 40
0.5603118005
 40
0.619770893
 40
0.6773976333
 40
0.7056194591
 40
0.7334877857
 40
0.7610369092
 40
0.7883004918
 40
0.8420889465
 40
0.8951283349
 40
0.9214537826
 40
0.947687683
 40
0.9738606349
 40
1.0
 40
1.0
 40
1.0
 40
1.0
 10
3.3298183383
 20
11.1248988776
 30
0.0
 10
3.3298181313
 20
11.1176247494
 30
0.0
 10
3.329425278
 20
11.1030977969
 30
0.0
 10
3.3276860131
 20
11.081431524
 30
0.0
 10
3.3248097167
 20
11.0600277837
 30
0.0
 10
3.3208375615
 20
11.0390072578
 30
0.0
 10
3.3158232868
 20
11.0184750775
 30
0.0
 10
3.3098255197
 20
10.998522783
 30
0.0
 10
3.3029092826
 20
10.9792248769
 30
0.0
 10
3.2926595452
 20
10.9546822282
 30
0.0
 10
3.2779562185
 20
10.9258641947
 30
0.0
 10
3.2575416472
 20
10.8941780947
 30
0.0
 10
3.2349882104
 20
10.8657916755
 30
0.0
 10
3.2107008469
 20
10.8406948126
 30
0.0
 10
3.1850172805
 20
10.8188270452
 30
0.0
 10
3.1625228387
 20
10.8031121344
 30
0.0
 10
3.1441088773
 20
10.792119047
 30
0.0
 10
3.1301978905
 20
10.78468105
 30
0.0
 10
3.1161153028
 20
10.7779840514
 30
0.0
 10
3.0972268026
 20
10.7700661233
 30
0.0
 10
3.0732479788
 20
10.7619356335
 30
0.0
 10
3.0487865999
 20
10.7561232069
 30
0.0
 10
3.0291363824
 20
10.7528885522
 30
0.0
 10
3.0143877785
 20
10.7511632045
 30
0.0
 10
2.9996104212
 20
10.7501300096
 30
0.0
 10
2.98974642
 20
10.7498998418
 30
0.0
 10
2.9848183383
 20
10.7498988776
 30
0.0
  0
SPLINE
  5
258
100
AcDbEntity
  8
0
100
AcDbSpline
 62
9
  6
CONTINUOUS
 70
0
 71
3
 72
28
 73
24
 74
0
 42
0.0000001
 43
0.0000001
 44
0.0000000001
 40
0.0
 40
0.0
 40
0.0
 40
0.0
 40
0.0385848016
 40
0.0770407361
 40
0.1152437857
 40
0.1530829323
 40
0.1904618511
 40
0.2273025039
 40
0.2635456276
 40
0.2991495251
 40
0.3683324285
 40
0.4348329996
 40
0.4987645874
 40
0.5603337757
 40
0.5903198193
 40
0.6198126437
 40
0.6774420433
 40
0.7335190534
 40
0.788319187
 40
0.8421100286
 40
0.8951519799
 40
0.9476992089
 40
1.0
 40
1.0
 40
1.0
 40
1.0
 10
10.6398183383
 20
11.1248988776
 30
0.0
 10
10.6398185453
 20
11.1321730045
 30
0.0
 10
10.6402112875
 20
11.1466998527
 30
0.0
 10
10.6419509063
 20
11.1683659769
 30
0.0
 10
10.6448265279
 20
11.1897696513
 30
0.0
 10
10.6487993823
 20
11.2107899587
 30
0.0
 10
10.6538128239
 20
11.2313221959
 30
0.0
 10
10.6598111455
 20
11.2512742132
 30
0.0
 10
10.6667270155
 20
11.2705721404
 30
0.0
 10
10.6769767281
 20
11.2951147538
 30
0.0
 10
10.6916799158
 20
11.3239327358
 30
0.0
 10
10.7120946047
 20
11.3556191287
 30
0.0
 10
10.7346471484
 20
11.3840046904
 30
0.0
 10
10.7550667808
 20
11.40510467
 30
0.0
 10
10.7720958169
 20
11.4203076874
 30
0.0
 10
10.7892560492
 20
11.4342096474
 30
0.0
 10
10.8114226394
 20
11.4496962265
 30
0.0
 10
10.8391099952
 20
11.4653651132
 30
0.0
 10
10.8674883672
 20
11.4780631629
 30
0.0
 10
10.8963883156
 20
11.487861807
 30
0.0
 10
10.9256641168
 20
11.4948187774
 30
0.0
 10
10.9551798321
 20
11.4989768964
 30
0.0
 10
10.9749584305
 20
11.4998969484
 30
0.0
 10
10.9848183383
 20
11.4998988776
 30
0.0
  0
SPLINE
  5
259
100
AcDbEntity
  8
0
100
AcDbSpline
 62
9
  6
CONTINUOUS
 70
0
 71
3
 72
25
 73
21
 74
0
 42
0.0000001
 43
0.0000001
 44
0.0000000001
 40
0.0
 40
0.0
 40
0.0
 40
0.0
 40
0.0523044903
 40
0.1048554422
 40
0.1579012029
 40
0.2116959562
 40
0.2664998091
 40
0.3225806657
 40
0.3802143383
 40
0.4396804058
 40
0.5012539431
 40
0.5651899989
 40
0.631695377
 40
0.7008830988
 40
0.7364896426
 40
0.7727352652
 40
0.809578569
 40
0.8469601176
 40
0.9229809962
 40
1.0
 40
1.0
 40
1.0
 40
1.0
 10
10.9848183383
 20
10.7498988776
 30
0.0
 10
10.9749584316
 20
10.7499009132
 30
0.0
 10
10.9551798355
 20
10.7508208104
 30
0.0
 10
10.9256641059
 20
10.7549789917
 30
0.0
 10
10.8963882952
 20
10.761935946
 30
0.0
 10
10.867488263
 20
10.7717345576
 30
0.0
 10
10.8391101741
 20
10.7844325085
 30
0.0
 10
10.8114221
 20
10.8001022461
 30
0.0
 10
10.7846195466
 20
10.8188269742
 30
0.0
 10
10.7589348351
 20
10.8406955656
 30
0.0
 10
10.7346477745
 20
10.8657923055
 30
0.0
 10
10.7120945737
 20
10.8941789989
 30
0.0
 10
10.6916793108
 20
10.925864644
 30
0.0
 10
10.6769774454
 20
10.9546833568
 30
0.0
 10
10.6667258673
 20
10.9792251942
 30
0.0
 10
10.6598106022
 20
10.9985232985
 30
0.0
 10
10.6538128136
 20
11.0184758208
 30
0.0
 10
10.6470902072
 20
11.0460007603
 30
0.0
 10
10.6413613933
 20
11.0815081087
 30
0.0
 10
10.6398183894
 20
11.1103800438
 30
0.0
 10
10.6398183383
 20
11.1248988776
 30
0.0
  0
SPLINE
  5
25A
100
AcDbEntity
  8
0
100
AcDbSpline
 62
9
  6
CONTINUOUS
 70
0
 71
3
 72
49
 73
45
 74
0
 42
0.0000001
 43
0.0000001
 44
0.0000000001
 40
0.0
 40
0.0
 40
0.0
 40
0.0
 40
0.0135006962
 40
0.0270249863
 40
0.0405939641
 40
0.0542303173
 40
0.0679546956
 40
0.0817867306
 40
0.0957446176
 40
0.1098448256
 40
0.1241019956
 40
0.138528798
 40
0.1679210106
 40
0.198092887
 40
0.229070982
 40
0.2608500384
 40
0.2933955279
 40
0.3266468206
 40
0.3605207566
 40
0.3949153309
 40
0.4297135118
 40
0.4647869946
 40
0.5
 40
0.5352130054
 40
0.5702864882
 40
0.6050846691
 40
0.6394792434
 40
0.6733531794
 40
0.7066044721
 40
0.7391499616
 40
0.770929018
 40
0.801907113
 40
0.8320789894
 40
0.861471202
 40
0.8758980044
 40
0.8901551744
 40
0.9042553824
 40
0.9182132694
 40
0.9320453044
 40
0.9457696827
 40
0.9594060359
 40
0.9729750137
 40
0.9864993038
 40
1.0
 40
1.0
 40
1.0
 40
1.0
 10
20.4948183383
 20
10.8280755755
 30
0.0
 10
20.4948183383
 20
10.8342179634
 30
0.0
 10
20.4952128345
 20
10.8465171015
 30
0.0
 10
20.4969856436
 20
10.8649127877
 30
0.0
 10
20.4999357419
 20
10.8832199002
 30
0.0
 10
20.5040554476
 20
10.9013927134
 30
0.0
 10
20.5093348449
 20
10.9193876885
 30
0.0
 10
20.5157607956
 20
10.9371611208
 30
0.0
 10
20.5233175091
 20
10.9546701379
 30
0.0
 10
20.5319864177
 20
10.9718723456
 30
0.0
 10
20.5417467498
 20
10.9887267758
 30
0.0
 10
20.556270469
 20
11.0108141404
 30
0.0
 10
20.5770955937
 20
11.0373550272
 30
0.0
 10
20.6058383646
 20
11.0669615843
 30
0.0
 10
20.6382152825
 20
11.0942561989
 30
0.0
 10
20.6739109265
 20
11.1189789423
 30
0.0
 10
20.7125821253
 20
11.1408981875
 30
0.0
 10
20.7538576152
 20
11.1598074375
 30
0.0
 10
20.7973421453
 20
11.1755284262
 30
0.0
 10
20.8426195752
 20
11.1879128628
 30
0.0
 10
20.8892568875
 20
11.1968435089
 30
0.0
 10
20.9368080456
 20
11.2022360408
 30
0.0
 10
20.9848183383
 20
11.2040391716
 30
0.0
 10
21.032828631
 20
11.2022360408
 30
0.0
 10
21.080379789
 20
11.1968435089
 30
0.0
 10
21.1270171014
 20
11.1879128628
 30
0.0
 10
21.1722945312
 20
11.1755284262
 30
0.0
 10
21.2157790614
 20
11.1598074375
 30
0.0
 10
21.2570545512
 20
11.1408981875
 30
0.0
 10
21.29572575
 20
11.1189789423
 30
0.0
 10
21.331421394
 20
11.0942561989
 30
0.0
 10
21.3637983119
 20
11.0669615843
 30
0.0
 10
21.3925410829
 20
11.0373550272
 30
0.0
 10
21.4133662076
 20
11.0108141404
 30
0.0
 10
21.4278899268
 20
10.9887267758
 30
0.0
 10
21.4376502588
 20
10.9718723456
 30
0.0
 10
21.4463191675
 20
10.9546701379
 30
0.0
 10
21.4538758809
 20
10.9371611208
 30
0.0
 10
21.4603018317
 20
10.9193876885
 30
0.0
 10
21.465581229
 20
10.9013927134
 30
0.0
 10
21.4697009347
 20
10.8832199002
 30
0.0
 10
21.4726510329
 20
10.8649127877
 30
0.0
 10
21.474423842
 20
10.8465171015
 30
0.0
 10
21.4748183383
 20
10.8342179634
 30
0.0
 10
21.4748183383
 20
10.8280755755
 30
0.0
  0
SPLINE
  5
25B
100
AcDbEntity
  8
0
100
AcDbSpline
 62
9
  6
CONTINUOUS
 70
0
 71
3
 72
49
 73
45
 74
0
 42
0.0000001
 43
0.0000001
 44
0.0000000001
 40
0.0
 40
0.0
 40
0.0
 40
0.0
 40
0.0135006523
 40
0.0270248638
 40
0.0405938207
 40
0.0542301635
 40
0.0679545383
 40
0.0817865809
 40
0.0957444787
 40
0.1098446971
 40
0.1241018746
 40
0.1385286802
 40
0.1679208919
 40
0.1980927732
 40
0.2290708806
 40
0.2608499502
 40
0.2933954498
 40
0.3266467533
 40
0.3605207018
 40
0.3949152895
 40
0.4297134841
 40
0.4647869805
 40
0.5
 40
0.5352130194
 40
0.5702865159
 40
0.6050847104
 40
0.6394792982
 40
0.6733532467
 40
0.7066045502
 40
0.7391500497
 40
0.7709291194
 40
0.8019072268
 40
0.8320791081
 40
0.8614713198
 40
0.8758981254
 40
0.8901553028
 40
0.9042555213
 40
0.918213419
 40
0.9320454617
 40
0.9457698365
 40
0.9594061793
 40
0.9729751361
 40
0.9864993477
 40
1.0
 40
1.0
 40
1.0
 40
1.0
 10
20.4948183383
 20
5.0622707166
 30
0.0
 10
20.4948183383
 20
5.0561283487
 30
0.0
 10
20.4952128243
 20
5.0438292661
 30
0.0
 10
20.4969856294
 20
5.025433645
 30
0.0
 10
20.4999357085
 20
5.0071265804
 30
0.0
 10
20.5040553932
 20
4.9889537787
 30
0.0
 10
20.5093347783
 20
4.9709588029
 30
0.0
 10
20.5157607214
 20
4.9531853607
 30
0.0
 10
20.5233174304
 20
4.9356763274
 30
0.0
 10
20.5319863315
 20
4.9184741012
 30
0.0
 10
20.541746661
 20
4.9016196582
 30
0.0
 10
20.5562703748
 20
4.879532285
 30
0.0
 10
20.5770954858
 20
4.8529913831
 30
0.0
 10
20.6058382548
 20
4.8233848135
 30
0.0
 10
20.6382151706
 20
4.7960901749
 30
0.0
 10
20.6739108239
 20
4.7713674161
 30
0.0
 10
20.7125820295
 20
4.7494481513
 30
0.0
 10
20.753857531
 20
4.73053889
 30
0.0
 10
20.7973420738
 20
4.7148178873
 30
0.0
 10
20.8426195201
 20
4.7024334422
 30
0.0
 10
20.8892568499
 20
4.6935027884
 30
0.0
 10
20.9368080265
 20
4.6881102523
 30
0.0
 10
20.9848183383
 20
4.6863071202
 30
0.0
 10
21.03282865
 20
4.6881102523
 30
0.0
 10
21.0803798266
 20
4.6935027884
 30
0.0
 10
21.1270171564
 20
4.7024334422
 30
0.0
 10
21.1722946027
 20
4.7148178873
 30
0.0
 10
21.2157791455
 20
4.73053889
 30
0.0
 10
21.2570546471
 20
4.7494481513
 30
0.0
 10
21.2957258526
 20
4.7713674161
 30
0.0
 10
21.3314215059
 20
4.7960901748
 30
0.0
 10
21.3637984218
 20
4.8233848134
 30
0.0
 10
21.3925411908
 20
4.852991383
 30
0.0
 10
21.4133663018
 20
4.8795322849
 30
0.0
 10
21.4278900156
 20
4.9016196582
 30
0.0
 10
21.4376503451
 20
4.9184741012
 30
0.0
 10
21.4463192461
 20
4.9356763274
 30
0.0
 10
21.4538759551
 20
4.9531853606
 30
0.0
 10
21.4603018983
 20
4.9709588028
 30
0.0
 10
21.4655812834
 20
4.9889537787
 30
0.0
 10
21.4697009681
 20
5.0071265804
 30
0.0
 10
21.4726510472
 20
5.025433645
 30
0.0
 10
21.4744238522
 20
5.0438292661
 30
0.0
 10
21.4748183383
 20
5.0561283487
 30
0.0
 10
21.4748183383
 20
5.0622707166
 30
0.0
  0
SPLINE
  5
25C
100
AcDbEntity
  8
0
100
AcDbSpline
 62
9
  6
CONTINUOUS
 70
0
 71
3
 72
49
 73
45
 74
0
 42
0.0000001
 43
0.0000001
 44
0.0000000001
 40
0.0
 40
0.0
 40
0.0
 40
0.0
 40
0.0135006523
 40
0.0270248638
 40
0.0405938207
 40
0.0542301635
 40
0.0679545383
 40
0.0817865809
 40
0.0957444787
 40
0.1098446971
 40
0.1241018746
 40
0.1385286802
 40
0.1679208919
 40
0.1980927732
 40
0.2290708806
 40
0.2608499502
 40
0.2933954498
 40
0.3266467533
 40
0.3605207018
 40
0.3949152895
 40
0.4297134841
 40
0.4647869805
 40
0.5
 40
0.5352130194
 40
0.5702865159
 40
0.6050847104
 40
0.6394792982
 40
0.6733532467
 40
0.7066045502
 40
0.7391500497
 40
0.7709291194
 40
0.8019072268
 40
0.8320791081
 40
0.8614713198
 40
0.8758981254
 40
0.8901553028
 40
0.9042555213
 40
0.918213419
 40
0.9320454617
 40
0.9457698365
 40
0.9594061793
 40
0.9729751361
 40
0.9864993477
 40
1.0
 40
1.0
 40
1.0
 40
1.0
 10
21.4748183383
 20
5.0622707166
 30
0.0
 10
21.4748183383
 20
5.0684130846
 30
0.0
 10
21.4744238522
 20
5.0807121672
 30
0.0
 10
21.4726510472
 20
5.0991077883
 30
0.0
 10
21.4697009681
 20
5.1174148529
 30
0.0
 10
21.4655812834
 20
5.1355876546
 30
0.0
 10
21.4603018983
 20
5.1535826304
 30
0.0
 10
21.4538759551
 20
5.1713560726
 30
0.0
 10
21.4463192461
 20
5.1888651059
 30
0.0
 10
21.4376503451
 20
5.2060673321
 30
0.0
 10
21.4278900156
 20
5.2229217751
 30
0.0
 10
21.4133663018
 20
5.2450091483
 30
0.0
 10
21.3925411908
 20
5.2715500502
 30
0.0
 10
21.3637984218
 20
5.3011566198
 30
0.0
 10
21.3314215059
 20
5.3284512584
 30
0.0
 10
21.2957258526
 20
5.3531740172
 30
0.0
 10
21.2570546471
 20
5.375093282
 30
0.0
 10
21.2157791456
 20
5.3940025433
 30
0.0
 10
21.1722946027
 20
5.409723546
 30
0.0
 10
21.1270171564
 20
5.4221079911
 30
0.0
 10
21.0803798266
 20
5.4310386449
 30
0.0
 10
21.03282865
 20
5.436431181
 30
0.0
 10
20.9848183383
 20
5.4382343131
 30
0.0
 10
20.9368080266
 20
5.436431181
 30
0.0
 10
20.88925685
 20
5.4310386449
 30
0.0
 10
20.8426195202
 20
5.4221079911
 30
0.0
 10
20.7973420739
 20
5.409723546
 30
0.0
 10
20.7538575311
 20
5.3940025433
 30
0.0
 10
20.7125820295
 20
5.375093282
 30
0.0
 10
20.673910824
 20
5.3531740172
 30
0.0
 10
20.6382151707
 20
5.3284512585
 30
0.0
 10
20.6058382548
 20
5.3011566199
 30
0.0
 10
20.5770954858
 20
5.2715500503
 30
0.0
 10
20.5562703748
 20
5.2450091484
 30
0.0
 10
20.541746661
 20
5.2229217751
 30
0.0
 10
20.5319863315
 20
5.2060673321
 30
0.0
 10
20.5233174305
 20
5.1888651059
 30
0.0
 10
20.5157607215
 20
5.1713560727
 30
0.0
 10
20.5093347783
 20
5.1535826305
 30
0.0
 10
20.5040553932
 20
5.1355876546
 30
0.0
 10
20.4999357085
 20
5.1174148529
 30
0.0
 10
20.4969856294
 20
5.0991077883
 30
0.0
 10
20.4952128243
 20
5.0807121672
 30
0.0
 10
20.4948183383
 20
5.0684130846
 30
0.0
 10
20.4948183383
 20
5.0622707166
 30
0.0
  0
SPLINE
  5
25D
100
AcDbEntity
  8
0
100
AcDbSpline
 62
7
  6
CONTINUOUS
 70
0
 71
3
 72
29
 73
25
 74
0
 42
0.0000001
 43
0.0000001
 44
0.0000000001
 40
0.0
 40
0.0
 40
0.0
 40
0.0
 40
0.0704255226
 40
0.1405711416
 40
0.1754606257
 40
0.2101795329
 40
0.2789678201
 40
0.3467147954
 40
0.4132165389
 40
0.4783066619
 40
0.5418639641
 40
0.6038193452
 40
0.664162324
 40
0.7229459831
 40
0.751799212
 40
0.7803131916
 40
0.8085132494
 40
0.8364286449
 40
0.8640923718
 40
0.8915407603
 40
0.9188130633
 40
0.945951021
 40
0.972998332
 40
1.0
 40
1.0
 40
1.0
 40
1.0
 10
20.9848183383
 20
5.4146511605
 30
0.0
 10
20.9697783145
 20
5.4146511605
 30
0.0
 10
20.9397465597
 20
5.4135235053
 30
0.0
 10
20.9024769257
 20
5.4092966585
 30
0.0
 10
20.8730561942
 20
5.4042382316
 30
0.0
 10
20.8441361889
 20
5.3981105654
 30
0.0
 10
20.8088195099
 20
5.3884507783
 30
0.0
 10
20.7679982676
 20
5.3736925066
 30
0.0
 10
20.7292496038
 20
5.3559409026
 30
0.0
 10
20.6929460737
 20
5.3353636947
 30
0.0
 10
20.6594358945
 20
5.3121545426
 30
0.0
 10
20.6290411957
 20
5.286531077
 30
0.0
 10
20.6020582385
 20
5.2587371171
 30
0.0
 10
20.5825080759
 20
5.2338212205
 30
0.0
 10
20.5688735873
 20
5.213086127
 30
0.0
 10
20.5597108339
 20
5.1972635945
 30
0.0
 10
20.5515726537
 20
5.1811145946
 30
0.0
 10
20.5444785963
 20
5.1646775566
 30
0.0
 10
20.538446092
 20
5.1479922897
 30
0.0
 10
20.5334899223
 20
5.1310990607
 30
0.0
 10
20.5296223869
 20
5.1140388159
 30
0.0
 10
20.5268530262
 20
5.0968526627
 30
0.0
 10
20.5251886323
 20
5.0795832438
 30
0.0
 10
20.5248183383
 20
5.0680371734
 30
0.0
 10
20.5248183383
 20
5.0622707166
 30
0.0
  0
SPLINE
  5
25E
100
AcDbEntity
  8
0
100
AcDbSpline
 62
7
  6
CONTINUOUS
 70
0
 71
3
 72
29
 73
25
 74
0
 42
0.0000001
 43
0.0000001
 44
0.0000000001
 40
0.0
 40
0.0
 40
0.0
 40
0.0
 40
0.027001668
 40
0.054048979
 40
0.0811869367
 40
0.1084592397
 40
0.1359076282
 40
0.1635713551
 40
0.1914867506
 40
0.2196868084
 40
0.248200788
 40
0.2770540169
 40
0.335837676
 40
0.3961806548
 40
0.4581360359
 40
0.5216933381
 40
0.5867834611
 40
0.6532852046
 40
0.7210321799
 40
0.7898204671
 40
0.8245393743
 40
0.8594288584
 40
0.9295744774
 40
1.0
 40
1.0
 40
1.0
 40
1.0
 10
21.4448183383
 20
5.0622707166
 30
0.0
 10
21.4448183383
 20
5.0680371734
 30
0.0
 10
21.4444480442
 20
5.0795832438
 30
0.0
 10
21.4427836504
 20
5.0968526627
 30
0.0
 10
21.4400142897
 20
5.1140388159
 30
0.0
 10
21.4361467543
 20
5.1310990607
 30
0.0
 10
21.4311905846
 20
5.1479922897
 30
0.0
 10
21.4251580802
 20
5.1646775566
 30
0.0
 10
21.4180640229
 20
5.1811145946
 30
0.0
 10
21.4099258426
 20
5.1972635945
 30
0.0
 10
21.4007630892
 20
5.213086127
 30
0.0
 10
21.3871286006
 20
5.2338212205
 30
0.0
 10
21.3675784381
 20
5.2587371171
 30
0.0
 10
21.3405954808
 20
5.286531077
 30
0.0
 10
21.3102007821
 20
5.3121545426
 30
0.0
 10
21.2766906029
 20
5.3353636947
 30
0.0
 10
21.2403870727
 20
5.3559409026
 30
0.0
 10
21.201638409
 20
5.3736925066
 30
0.0
 10
21.1608171666
 20
5.3884507783
 30
0.0
 10
21.1255004877
 20
5.3981105654
 30
0.0
 10
21.0965804824
 20
5.4042382316
 30
0.0
 10
21.0671597509
 20
5.4092966585
 30
0.0
 10
21.0298901169
 20
5.4135235053
 30
0.0
 10
20.9998583621
 20
5.4146511605
 30
0.0
 10
20.9848183383
 20
5.4146511605
 30
0.0
  0
SPLINE
  5
25F
100
AcDbEntity
  8
0
100
AcDbSpline
 62
7
  6
CONTINUOUS
 70
0
 71
3
 72
51
 73
47
 74
0
 42
0.0000001
 43
0.0000001
 44
0.0000000001
 40
0.0
 40
0.0
 40
0.0
 40
0.0
 40
0.0134433752
 40
0.0269586783
 40
0.0405625898
 40
0.0542709542
 40
0.0680983593
 40
0.082058069
 40
0.0961619293
 40
0.110420262
 40
0.1248418406
 40
0.1394338528
 40
0.1542018538
 40
0.169149822
 40
0.1995860307
 40
0.230751808
 40
0.2626253407
 40
0.2951640776
 40
0.3283071226
 40
0.3619778305
 40
0.39608639
 40
0.430532503
 40
0.4652080014
 40
0.499999508
 40
0.5347910218
 40
0.5694665416
 40
0.6039126897
 40
0.638021297
 40
0.6716920646
 40
0.7048351795
 40
0.737373995
 40
0.7692476125
 40
0.8004134788
 40
0.8308497777
 40
0.8457977906
 40
0.8605658355
 40
0.8751578904
 40
0.8895795102
 40
0.903837882
 40
0.9179417792
 40
0.9319015229
 40
0.945728959
 40
0.959437351
 40
0.9730412863
 40
0.9865566092
 40
1.0
 40
1.0
 40
1.0
 40
1.0
 10
21.4681756014
 20
10.8895133336
 30
0.0
 10
21.4672220903
 20
10.8950803627
 30
0.0
 10
21.4649844078
 20
10.9061911609
 30
0.0
 10
21.4606621565
 20
10.9226850276
 30
0.0
 10
21.4553750366
 20
10.9390128893
 30
0.0
 10
21.4491340583
 20
10.9551407612
 30
0.0
 10
21.4419521266
 20
10.9710361653
 30
0.0
 10
21.4338439884
 20
10.9866668195
 30
0.0
 10
21.4248261782
 20
11.0020010348
 30
0.0
 10
21.4149172524
 20
11.0170078365
 30
0.0
 10
21.4041374202
 20
11.0316569237
 30
0.0
 10
21.3925086654
 20
11.0459185728
 30
0.0
 10
21.3800544221
 20
11.0597643464
 30
0.0
 10
21.3622780094
 20
11.0777389226
 30
0.0
 10
21.3380893324
 20
11.0990080452
 30
0.0
 10
21.30639386
 20
11.1222767075
 30
0.0
 10
21.2721061989
 20
11.1432656003
 30
0.0
 10
21.2355051046
 20
11.161806225
 30
0.0
 10
21.1968853782
 20
11.1777518013
 30
0.0
 10
21.1565582933
 20
11.1909752387
 30
0.0
 10
21.1148485622
 20
11.2013711783
 30
0.0
 10
21.0720920355
 20
11.2088568029
 30
0.0
 10
21.0286329023
 20
11.2133722896
 30
0.0
 10
20.9848210386
 20
11.2148815637
 30
0.0
 10
20.9410091532
 20
11.2133726609
 30
0.0
 10
20.8975499549
 20
11.2088575425
 30
0.0
 10
20.8547933204
 20
11.2013722804
 30
0.0
 10
20.8130834395
 20
11.1909766944
 30
0.0
 10
20.7727561642
 20
11.1777535991
 30
0.0
 10
20.7341362082
 20
11.1618083505
 30
0.0
 10
20.6975348469
 20
11.1432680366
 30
0.0
 10
20.6632468834
 20
11.1222794353
 30
0.0
 10
20.6315510759
 20
11.0990110427
 30
0.0
 10
20.6073620927
 20
11.0777421266
 30
0.0
 10
20.5895854203
 20
11.0597677017
 30
0.0
 10
20.5771309769
 20
11.045922034
 30
0.0
 10
20.5655020159
 20
11.0316604838
 30
0.0
 10
20.5547219719
 20
11.0170114885
 30
0.0
 10
20.5448128291
 20
11.0020047712
 30
0.0
 10
20.5357947971
 20
10.9866706326
 30
0.0
 10
20.5276864329
 20
10.9710400475
 30
0.0
 10
20.5205042713
 20
10.9551447047
 30
0.0
 10
20.5142630596
 20
10.939016886
 30
0.0
 10
20.5089757034
 20
10.9226890694
 30
0.0
 10
20.5046532134
 20
10.9061952397
 30
0.0
 10
20.5024153698
 20
10.8950844588
 30
0.0
 10
20.501461778
 20
10.8895174369
 30
0.0
  0
SPLINE
  5
260
100
AcDbEntity
  8
0
100
AcDbSpline
 62
9
  6
CONTINUOUS
 70
0
 71
3
 72
49
 73
45
 74
0
 42
0.0000001
 43
0.0000001
 44
0.0000000001
 40
0.0
 40
0.0
 40
0.0
 40
0.0
 40
0.0135006962
 40
0.0270249862
 40
0.0405939641
 40
0.0542303172
 40
0.0679546955
 40
0.0817867305
 40
0.0957446176
 40
0.1098448255
 40
0.1241019954
 40
0.1385287978
 40
0.1679210104
 40
0.1980928868
 40
0.2290709819
 40
0.2608500383
 40
0.2933955278
 40
0.3266468205
 40
0.3605207565
 40
0.3949153308
 40
0.4297135118
 40
0.4647869946
 40
0.5
 40
0.5352130054
 40
0.5702864882
 40
0.6050846692
 40
0.6394792435
 40
0.6733531795
 40
0.7066044722
 40
0.7391499617
 40
0.7709290181
 40
0.8019071132
 40
0.8320789896
 40
0.8614712022
 40
0.8758980046
 40
0.8901551745
 40
0.9042553824
 40
0.9182132695
 40
0.9320453045
 40
0.9457696828
 40
0.9594060359
 40
0.9729750138
 40
0.9864993038
 40
1.0
 40
1.0
 40
1.0
 40
1.0
 10
21.4723183383
 20
10.9728277656
 30
0.0
 10
21.4723183383
 20
10.9789388148
 30
0.0
 10
21.4719258548
 20
10.9911752021
 30
0.0
 10
21.4701620906
 20
11.0094770328
 30
0.0
 10
21.4672270439
 20
11.0276907417
 30
0.0
 10
21.4631283571
 20
11.0457708364
 30
0.0
 10
21.4578758955
 20
11.0636740004
 30
0.0
 10
21.4514827302
 20
11.0813567519
 30
0.0
 10
21.4439645715
 20
11.0987764372
 30
0.0
 10
21.435339892
 20
11.1158908786
 30
0.0
 10
21.4256293576
 20
11.1326593168
 30
0.0
 10
21.411179739
 20
11.1546339907
 30
0.0
 10
21.3904608649
 20
11.1810394648
 30
0.0
 10
21.3618647408
 20
11.2104949681
 30
0.0
 10
21.3296530112
 20
11.2376503245
 30
0.0
 10
21.2941394879
 20
11.2622469315
 30
0.0
 10
21.2556655911
 20
11.2840543438
 30
0.0
 10
21.2146006904
 20
11.302867118
 30
0.0
 10
21.1713380201
 20
11.3185078976
 30
0.0
 10
21.1262915976
 20
11.3308291483
 30
0.0
 10
21.0798922307
 20
11.3397142299
 30
0.0
 10
21.0325836805
 20
11.345079249
 30
0.0
 10
20.9848183383
 20
11.3468731801
 30
0.0
 10
20.9370529961
 20
11.345079249
 30
0.0
 10
20.8897444459
 20
11.3397142299
 30
0.0
 10
20.843345079
 20
11.3308291483
 30
0.0
 10
20.7982986564
 20
11.3185078976
 30
0.0
 10
20.7550359861
 20
11.302867118
 30
0.0
 10
20.7139710855
 20
11.2840543438
 30
0.0
 10
20.6754971887
 20
11.2622469315
 30
0.0
 10
20.6399836653
 20
11.2376503245
 30
0.0
 10
20.6077719358
 20
11.2104949681
 30
0.0
 10
20.5791758116
 20
11.1810394648
 30
0.0
 10
20.5584569375
 20
11.1546339907
 30
0.0
 10
20.544007319
 20
11.1326593168
 30
0.0
 10
20.5342967846
 20
11.1158908786
 30
0.0
 10
20.5256721051
 20
11.0987764372
 30
0.0
 10
20.5181539463
 20
11.0813567519
 30
0.0
 10
20.511760781
 20
11.0636740004
 30
0.0
 10
20.5065083194
 20
11.0457708364
 30
0.0
 10
20.5024096327
 20
11.0276907417
 30
0.0
 10
20.4994745859
 20
11.0094770328
 30
0.0
 10
20.4977108218
 20
10.9911752021
 30
0.0
 10
20.4973183383
 20
10.9789388148
 30
0.0
 10
20.4973183383
 20
10.9728277656
 30
0.0
  0
SPLINE
  5
261
100
AcDbEntity
  8
0
100
AcDbSpline
 62
9
  6
CONTINUOUS
 70
0
 71
3
 72
49
 73
45
 74
0
 42
0.0000001
 43
0.0000001
 44
0.0000000001
 40
0.0
 40
0.0
 40
0.0
 40
0.0
 40
0.0135006962
 40
0.0270249862
 40
0.0405939641
 40
0.0542303172
 40
0.0679546955
 40
0.0817867305
 40
0.0957446176
 40
0.1098448255
 40
0.1241019954
 40
0.1385287978
 40
0.1679210104
 40
0.1980928868
 40
0.2290709819
 40
0.2608500383
 40
0.2933955278
 40
0.3266468205
 40
0.3605207565
 40
0.3949153308
 40
0.4297135118
 40
0.4647869946
 40
0.5
 40
0.5352130054
 40
0.5702864882
 40
0.6050846692
 40
0.6394792435
 40
0.6733531795
 40
0.7066044722
 40
0.7391499617
 40
0.7709290181
 40
0.8019071132
 40
0.8320789896
 40
0.8614712022
 40
0.8758980046
 40
0.8901551745
 40
0.9042553824
 40
0.9182132695
 40
0.9320453045
 40
0.9457696828
 40
0.9594060359
 40
0.9729750138
 40
0.9864993038
 40
1.0
 40
1.0
 40
1.0
 40
1.0
 10
21.4848183383
 20
5.0686985927
 30
0.0
 10
21.4848183383
 20
5.0749663355
 30
0.0
 10
21.4844157911
 20
5.0875164763
 30
0.0
 10
21.4826068022
 20
5.1062875848
 30
0.0
 10
21.4795964978
 20
5.1249683118
 30
0.0
 10
21.4753927166
 20
5.1435119987
 30
0.0
 10
21.4700055765
 20
5.1618742181
 30
0.0
 10
21.4634484839
 20
5.1800103735
 30
0.0
 10
21.4557375518
 20
5.1978767175
 30
0.0
 10
21.4468917267
 20
5.2154299906
 30
0.0
 10
21.4369322042
 20
5.2326283888
 30
0.0
 10
21.4221120826
 20
5.2551665159
 30
0.0
 10
21.4008619554
 20
5.2822490535
 30
0.0
 10
21.3715325973
 20
5.312459826
 30
0.0
 10
21.3384949259
 20
5.3403114736
 30
0.0
 10
21.3020707994
 20
5.3655387628
 30
0.0
 10
21.2626103924
 20
5.3879053396
 30
0.0
 10
21.2204925456
 20
5.4072004927
 30
0.0
 10
21.1761205761
 20
5.4232423179
 30
0.0
 10
21.1299191171
 20
5.4358794981
 30
0.0
 10
21.0823300228
 20
5.4449924023
 30
0.0
 10
21.0338084329
 20
5.4504949859
 30
0.0
 10
20.9848183383
 20
5.4523349152
 30
0.0
 10
20.9358282437
 20
5.4504949859
 30
0.0
 10
20.8873066538
 20
5.4449924023
 30
0.0
 10
20.8397175595
 20
5.4358794981
 30
0.0
 10
20.7935161005
 20
5.4232423179
 30
0.0
 10
20.749144131
 20
5.4072004927
 30
0.0
 10
20.7070262841
 20
5.3879053396
 30
0.0
 10
20.6675658772
 20
5.3655387628
 30
0.0
 10
20.6311417506
 20
5.3403114736
 30
0.0
 10
20.5981040793
 20
5.312459826
 30
0.0
 10
20.5687747212
 20
5.2822490535
 30
0.0
 10
20.5475245939
 20
5.2551665159
 30
0.0
 10
20.5327044723
 20
5.2326283888
 30
0.0
 10
20.5227449499
 20
5.2154299906
 30
0.0
 10
20.5138991248
 20
5.1978767175
 30
0.0
 10
20.5061881927
 20
5.1800103735
 30
0.0
 10
20.4996311001
 20
5.1618742181
 30
0.0
 10
20.49424396
 20
5.1435119987
 30
0.0
 10
20.4900401787
 20
5.1249683118
 30
0.0
 10
20.4870298743
 20
5.1062875848
 30
0.0
 10
20.4852208855
 20
5.0875164763
 30
0.0
 10
20.4848183383
 20
5.0749663355
 30
0.0
 10
20.4848183383
 20
5.0686985927
 30
0.0
  0
SPLINE
  5
262
100
AcDbEntity
  8
0
100
AcDbSpline
 62
9
  6
CONTINUOUS
 70
0
 71
3
 72
11
 73
7
 74
0
 42
0.0000001
 43
0.0000001
 44
0.0000000001
 40
0.0
 40
0.0
 40
0.0
 40
0.0
 40
0.2470325938
 40
0.4952799188
 40
0.7459141461
 40
1.0
 40
1.0
 40
1.0
 40
1.0
 10
20.4848183383
 20
10.5195375229
 30
0.0
 10
20.4848183383
 20
10.5302772464
 30
0.0
 10
20.4860043229
 20
10.5518279087
 30
0.0
 10
20.4913240435
 20
10.5838795668
 30
0.0
 10
20.5001432587
 20
10.615466931
 30
0.0
 10
20.5082506216
 20
10.6359065671
 30
0.0
 10
20.5128373606
 20
10.6459556452
 30
0.0
  0
SPLINE
  5
263
100
AcDbEntity
  8
0
100
AcDbSpline
 62
9
  6
CONTINUOUS
 70
0
 71
3
 72
39
 73
35
 74
0
 42
0.0000001
 43
0.0000001
 44
0.0000000001
 40
0.0
 40
0.0
 40
0.0
 40
0.0
 40
0.0273048763
 40
0.0551034844
 40
0.0834494292
 40
0.1123806593
 40
0.1419193883
 40
0.1720724964
 40
0.2028322896
 40
0.2341775128
 40
0.2660745395
 40
0.2984786688
 40
0.3313354814
 40
0.3645822247
 40
0.3981492104
 40
0.4319612105
 40
0.4659388509
 40
0.5
 40
0.5340611491
 40
0.5680387895
 40
0.6018507896
 40
0.6354177753
 40
0.6686645186
 40
0.7015213312
 40
0.7339254605
 40
0.7658224872
 40
0.7971677104
 40
0.8279275036
 40
0.8580806117
 40
0.8876193407
 40
0.9165505708
 40
0.9448965156
 40
0.9726951237
 40
1.0
 40
1.0
 40
1.0
 40
1.0
 10
20.5128373606
 20
10.6459556452
 30
0.0
 10
20.5171151705
 20
10.6553278911
 30
0.0
 10
20.5266462019
 20
10.6738448546
 30
0.0
 10
20.5435482615
 20
10.7004562784
 30
0.0
 10
20.5630742746
 20
10.7259842663
 30
0.0
 10
20.5851044902
 20
10.7502750604
 30
0.0
 10
20.6095067847
 20
10.7731868535
 30
0.0
 10
20.6361349841
 20
10.7945849674
 30
0.0
 10
20.6648303279
 20
10.8143440043
 30
0.0
 10
20.6954221131
 20
10.8323481026
 30
0.0
 10
20.7277286787
 20
10.8484916751
 30
0.0
 10
20.7615583937
 20
10.8626799739
 30
0.0
 10
20.7967107284
 20
10.8748296646
 30
0.0
 10
20.8329773917
 20
10.8848693299
 30
0.0
 10
20.8701435305
 20
10.8927399095
 30
0.0
 10
20.9079889768
 20
10.8983950775
 30
0.0
 10
20.9462895403
 20
10.9018015518
 30
0.0
 10
20.9848183383
 20
10.9029392762
 30
0.0
 10
21.0233471362
 20
10.9018015518
 30
0.0
 10
21.0616476998
 20
10.8983950775
 30
0.0
 10
21.0994931461
 20
10.8927399095
 30
0.0
 10
21.1366592849
 20
10.8848693299
 30
0.0
 10
21.1729259482
 20
10.8748296646
 30
0.0
 10
21.2080782828
 20
10.8626799739
 30
0.0
 10
21.2419079978
 20
10.8484916751
 30
0.0
 10
21.2742145635
 20
10.8323481026
 30
0.0
 10
21.3048063486
 20
10.8143440043
 30
0.0
 10
21.3335016924
 20
10.7945849674
 30
0.0
 10
21.3601298919
 20
10.7731868535
 30
0.0
 10
21.3845321863
 20
10.7502750605
 30
0.0
 10
21.4065624019
 20
10.7259842663
 30
0.0
 10
21.426088415
 20
10.7004562784
 30
0.0
 10
21.4429904746
 20
10.6738448546
 30
0.0
 10
21.452521506
 20
10.6553278911
 30
0.0
 10
21.4567993159
 20
10.6459556453
 30
0.0
  0
SPLINE
  5
264
100
AcDbEntity
  8
0
100
AcDbSpline
 62
9
  6
CONTINUOUS
 70
0
 71
3
 72
11
 73
7
 74
0
 42
0.0000001
 43
0.0000001
 44
0.0000000001
 40
0.0
 40
0.0
 40
0.0
 40
0.0
 40
0.2540858539
 40
0.5047200812
 40
0.7529674062
 40
1.0
 40
1.0
 40
1.0
 40
1.0
 10
21.4567993159
 20
10.6459556453
 30
0.0
 10
21.461386055
 20
10.6359065671
 30
0.0
 10
21.4694934178
 20
10.615466931
 30
0.0
 10
21.4783126331
 20
10.5838795668
 30
0.0
 10
21.4836323536
 20
10.5518279087
 30
0.0
 10
21.4848183383
 20
10.5302772464
 30
0.0
 10
21.4848183383
 20
10.5195375229
 30
0.0
  0
SPLINE
  5
265
100
AcDbEntity
  8
0
100
AcDbSpline
 62
7
  6
CONTINUOUS
 70
0
 71
3
 72
11
 73
7
 74
0
 42
0.0000001
 43
0.0000001
 44
0.0000000001
 40
0.0
 40
0.0
 40
0.0
 40
0.0
 40
0.2525601698
 40
0.5029421399
 40
0.7518448428
 40
1.0
 40
1.0
 40
1.0
 40
1.0
 10
20.5116333113
 20
10.842002392
 30
0.0
 10
20.5088620028
 20
10.8341088782
 30
0.0
 10
20.5039812319
 20
10.818156923
 30
0.0
 10
20.498702824
 20
10.7937892413
 30
0.0
 10
20.4955257051
 20
10.76920642
 30
0.0
 10
20.4948183383
 20
10.7527331394
 30
0.0
 10
20.4948183383
 20
10.7445131863
 30
0.0
  0
SPLINE
  5
266
100
AcDbEntity
  8
0
100
AcDbSpline
 62
9
  6
CONTINUOUS
 70
0
 71
3
 72
32
 73
28
 74
0
 42
0.0000001
 43
0.0000001
 44
0.0000000001
 40
0.0
 40
0.0
 40
0.0
 40
0.0
 40
0.0311166627
 40
0.0622345795
 40
0.0933550665
 40
0.124479433
 40
0.1867257563
 40
0.249002067
 40
0.280163608
 40
0.3113356424
 40
0.3425189636
 40
0.3737142638
 40
0.4361240942
 40
0.4985871929
 40
0.5611046175
 40
0.6236753288
 40
0.6862962345
 40
0.7489622951
 40
0.7803195622
 40
0.8116853753
 40
0.8430587539
 40
0.8744388762
 40
0.905823565
 40
0.9372118858
 40
0.9529094718
 40
0.9686083643
 40
1.0
 40
1.0
 40
1.0
 40
1.0
 10
6.4848183832
 20
3.2794854281
 30
0.0
 10
6.4848183832
 20
3.2713769693
 30
0.0
 10
6.4852200248
 20
3.2551568287
 30
0.0
 10
6.4870261358
 20
3.2308879003
 30
0.0
 10
6.4900316837
 20
3.2067349713
 30
0.0
 10
6.4956270776
 20
3.1747697604
 30
0.0
 10
6.5055814602
 20
3.1353785527
 30
0.0
 10
6.5193818323
 20
3.0971545315
 30
0.0
 10
6.5326429145
 20
3.0675025988
 30
0.0
 10
6.5436815195
 20
3.0457657963
 30
0.0
 10
6.5557832237
 20
3.0245922576
 30
0.0
 10
6.5732957478
 20
2.9971803032
 30
0.0
 10
6.597704161
 20
2.9645612022
 30
0.0
 10
6.6307095851
 20
2.9284699586
 30
0.0
 10
6.6671258657
 20
2.8957576961
 30
0.0
 10
6.7066013978
 20
2.8667417314
 30
0.0
 10
6.7487533943
 20
2.8417014424
 30
0.0
 10
6.7857774156
 20
2.8243470771
 30
0.0
 10
6.8163070769
 20
2.8126750694
 30
0.0
 10
6.8396192691
 20
2.8050417989
 30
0.0
 10
6.8632808368
 20
2.7985520939
 30
0.0
 10
6.8872350395
 20
2.7932197374
 30
0.0
 10
6.911424154
 20
2.7890598286
 30
0.0
 10
6.9317301667
 20
2.7865808867
 30
0.0
 10
6.9480326856
 20
2.7851866152
 30
0.0
 10
6.9643645487
 20
2.7841843496
 30
0.0
 10
6.9766382263
 20
2.7838792077
 30
0.0
 10
6.9848183383
 20
2.7838792077
 30
0.0
  0
SPLINE
  5
267
100
AcDbEntity
  8
0
100
AcDbSpline
 62
7
  6
CONTINUOUS
 70
0
 71
3
 72
11
 73
7
 74
0
 42
0.0000001
 43
0.0000001
 44
0.0000000001
 40
0.0
 40
0.0
 40
0.0
 40
0.0
 40
0.2481551572
 40
0.4970578601
 40
0.7474398302
 40
1.0
 40
1.0
 40
1.0
 40
1.0
 10
21.4748183383
 20
10.7445131863
 30
0.0
 10
21.4748183383
 20
10.7527331394
 30
0.0
 10
21.4741109715
 20
10.76920642
 30
0.0
 10
21.4709338525
 20
10.7937892413
 30
0.0
 10
21.4656554447
 20
10.818156923
 30
0.0
 10
21.4607746738
 20
10.8341088782
 30
0.0
 10
21.4580033653
 20
10.842002392
 30
0.0
  0
SPLINE
  5
268
100
AcDbEntity
  8
0
100
AcDbSpline
 62
9
  6
CONTINUOUS
 70
0
 71
3
 72
51
 73
47
 74
0
 42
0.0000001
 43
0.0000001
 44
0.0000000001
 40
0.0
 40
0.0
 40
0.0
 40
0.0
 40
0.0352127002
 40
0.0702855084
 40
0.087730261
 40
0.1050897185
 40
0.1394838568
 40
0.1733573561
 40
0.2066082259
 40
0.2391533003
 40
0.2709319474
 40
0.301909651
 40
0.3320811367
 40
0.3614729774
 40
0.3758995931
 40
0.3901565794
 40
0.4042566091
 40
0.4182143145
 40
0.4320461811
 40
0.4457703721
 40
0.4594065226
 40
0.472975508
 40
0.4864991684
 40
0.5
 40
0.5135008316
 40
0.527024492
 40
0.5405934774
 40
0.5542296279
 40
0.5679538189
 40
0.5817856855
 40
0.5957433909
 40
0.6098434206
 40
0.6241004069
 40
0.6385270226
 40
0.6679188633
 40
0.698090349
 40
0.7290680526
 40
0.7608466997
 40
0.7933917741
 40
0.8266426439
 40
0.8605161432
 40
0.8949102815
 40
0.912269739
 40
0.9297144916
 40
0.9647872998
 40
1.0
 40
1.0
 40
1.0
 40
1.0
 10
20.9848183383
 20
5.40056284
 30
0.0
 10
20.970105297
 20
5.40056284
 30
0.0
 10
20.9407264327
 20
5.3994597011
 30
0.0
 10
20.9042670289
 20
5.3953247515
 30
0.0
 10
20.8754858727
 20
5.3903762916
 30
0.0
 10
20.8471945587
 20
5.3843818383
 30
0.0
 10
20.8126456282
 20
5.3749320501
 30
0.0
 10
20.7727118012
 20
5.3604946131
 30
0.0
 10
20.7348054888
 20
5.3431289147
 30
0.0
 10
20.6992911616
 20
5.3229990388
 30
0.0
 10
20.6665094547
 20
5.3002944317
 30
0.0
 10
20.6367755063
 20
5.2752279992
 30
0.0
 10
20.6103791271
 20
5.2480382516
 30
0.0
 10
20.5912539641
 20
5.2236640033
 30
0.0
 10
20.5779158738
 20
5.2033796707
 30
0.0
 10
20.5689523107
 20
5.187901107
 30
0.0
 10
20.5609910448
 20
5.1721031711
 30
0.0
 10
20.5540512042
 20
5.1560234564
 30
0.0
 10
20.5481498387
 20
5.1397009071
 30
0.0
 10
20.5433014123
 20
5.1231749338
 30
0.0
 10
20.539517952
 20
5.1064855221
 30
0.0
 10
20.536808795
 20
5.0896731292
 30
0.0
 10
20.5351805819
 20
5.0727785613
 30
0.0
 10
20.5346373695
 20
5.0558428406
 30
0.0
 10
20.5351805819
 20
5.0389071198
 30
0.0
 10
20.536808795
 20
5.0220125519
 30
0.0
 10
20.539517952
 20
5.005200159
 30
0.0
 10
20.5433014123
 20
4.9885107473
 30
0.0
 10
20.5481498387
 20
4.971984774
 30
0.0
 10
20.5540512042
 20
4.9556622247
 30
0.0
 10
20.5609910448
 20
4.93958251
 30
0.0
 10
20.5689523107
 20
4.9237845741
 30
0.0
 10
20.5779158738
 20
4.9083060104
 30
0.0
 10
20.5912539641
 20
4.8880216778
 30
0.0
 10
20.6103791271
 20
4.8636474295
 30
0.0
 10
20.6367755063
 20
4.8364576819
 30
0.0
 10
20.6665094547
 20
4.8113912494
 30
0.0
 10
20.6992911616
 20
4.7886866423
 30
0.0
 10
20.7348054888
 20
4.7685567664
 30
0.0
 10
20.7727118012
 20
4.751191068
 30
0.0
 10
20.8126456282
 20
4.736753631
 30
0.0
 10
20.8471945587
 20
4.7273038428
 30
0.0
 10
20.8754858727
 20
4.7213093895
 30
0.0
 10
20.9042670289
 20
4.7163609296
 30
0.0
 10
20.9407264327
 20
4.71222598
 30
0.0
 10
20.970105297
 20
4.7111228411
 30
0.0
 10
20.9848183383
 20
4.7111228411
 30
0.0
  0
SPLINE
  5
269
100
AcDbEntity
  8
0
100
AcDbSpline
 62
9
  6
CONTINUOUS
 70
0
 71
3
 72
51
 73
47
 74
0
 42
0.0000001
 43
0.0000001
 44
0.0000000001
 40
0.0
 40
0.0
 40
0.0
 40
0.0
 40
0.0352127002
 40
0.0702855084
 40
0.087730261
 40
0.1050897185
 40
0.1394838568
 40
0.1733573561
 40
0.2066082259
 40
0.2391533003
 40
0.2709319474
 40
0.301909651
 40
0.3320811367
 40
0.3614729774
 40
0.3758995931
 40
0.3901565794
 40
0.4042566091
 40
0.4182143145
 40
0.4320461811
 40
0.4457703721
 40
0.4594065226
 40
0.472975508
 40
0.4864991684
 40
0.5
 40
0.5135008316
 40
0.527024492
 40
0.5405934774
 40
0.5542296279
 40
0.5679538189
 40
0.5817856855
 40
0.5957433909
 40
0.6098434206
 40
0.6241004069
 40
0.6385270226
 40
0.6679188633
 40
0.698090349
 40
0.7290680526
 40
0.7608466997
 40
0.7933917741
 40
0.8266426439
 40
0.8605161432
 40
0.8949102815
 40
0.912269739
 40
0.9297144916
 40
0.9647872998
 40
1.0
 40
1.0
 40
1.0
 40
1.0
 10
20.9848183383
 20
4.7111228411
 30
0.0
 10
20.9995313795
 20
4.7111228411
 30
0.0
 10
21.0289102439
 20
4.71222598
 30
0.0
 10
21.0653696477
 20
4.7163609296
 30
0.0
 10
21.0941508039
 20
4.7213093895
 30
0.0
 10
21.1224421178
 20
4.7273038428
 30
0.0
 10
21.1569910484
 20
4.736753631
 30
0.0
 10
21.1969248753
 20
4.751191068
 30
0.0
 10
21.2348311878
 20
4.7685567664
 30
0.0
 10
21.2703455149
 20
4.7886866423
 30
0.0
 10
21.3031272218
 20
4.8113912494
 30
0.0
 10
21.3328611703
 20
4.8364576819
 30
0.0
 10
21.3592575495
 20
4.8636474295
 30
0.0
 10
21.3783827124
 20
4.8880216778
 30
0.0
 10
21.3917208028
 20
4.9083060104
 30
0.0
 10
21.4006843658
 20
4.9237845741
 30
0.0
 10
21.4086456317
 20
4.93958251
 30
0.0
 10
21.4155854724
 20
4.9556622247
 30
0.0
 10
21.4214868378
 20
4.971984774
 30
0.0
 10
21.4263352643
 20
4.9885107473
 30
0.0
 10
21.4301187246
 20
5.005200159
 30
0.0
 10
21.4328278816
 20
5.0220125519
 30
0.0
 10
21.4344560946
 20
5.0389071198
 30
0.0
 10
21.4349993071
 20
5.0558428405
 30
0.0
 10
21.4344560946
 20
5.0727785613
 30
0.0
 10
21.4328278816
 20
5.0896731292
 30
0.0
 10
21.4301187246
 20
5.1064855221
 30
0.0
 10
21.4263352643
 20
5.1231749338
 30
0.0
 10
21.4214868378
 20
5.1397009071
 30
0.0
 10
21.4155854724
 20
5.1560234564
 30
0.0
 10
21.4086456317
 20
5.1721031711
 30
0.0
 10
21.4006843659
 20
5.187901107
 30
0.0
 10
21.3917208028
 20
5.2033796707
 30
0.0
 10
21.3783827124
 20
5.2236640033
 30
0.0
 10
21.3592575495
 20
5.2480382516
 30
0.0
 10
21.3328611703
 20
5.2752279992
 30
0.0
 10
21.3031272219
 20
5.3002944317
 30
0.0
 10
21.2703455149
 20
5.3229990388
 30
0.0
 10
21.2348311878
 20
5.3431289147
 30
0.0
 10
21.1969248753
 20
5.3604946131
 30
0.0
 10
21.1569910484
 20
5.3749320501
 30
0.0
 10
21.1224421178
 20
5.3843818383
 30
0.0
 10
21.0941508039
 20
5.3903762916
 30
0.0
 10
21.0653696477
 20
5.3953247515
 30
0.0
 10
21.0289102439
 20
5.3994597011
 30
0.0
 10
20.9995313795
 20
5.40056284
 30
0.0
 10
20.9848183383
 20
5.40056284
 30
0.0
  0
SPLINE
  5
26A
100
AcDbEntity
  8
0
100
AcDbSpline
 62
9
  6
CONTINUOUS
 70
0
 71
3
 72
35
 73
31
 74
0
 42
0.0000001
 43
0.0000001
 44
0.0000000001
 40
0.0
 40
0.0
 40
0.0
 40
0.0
 40
0.0275536408
 40
0.0556136651
 40
0.0842143985
 40
0.1133773458
 40
0.1431113835
 40
0.1734132886
 40
0.2042684759
 40
0.2356518686
 40
0.299826111
 40
0.3325535333
 40
0.3656239439
 40
0.4325137533
 40
0.4662236848
 40
0.5000063869
 40
0.533789017
 40
0.5674987337
 40
0.6343876986
 40
0.667457493
 40
0.7001841813
 40
0.764356648
 40
0.795739031
 40
0.8265931494
 40
0.8568939462
 40
0.8866268578
 40
0.9157886844
 40
0.9443883269
 40
0.9724473157
 40
1.0
 40
1.0
 40
1.0
 40
1.0
 10
20.5361049944
 20
10.6896294828
 30
0.0
 10
20.5408920206
 20
10.6979877716
 30
0.0
 10
20.5512806927
 20
10.7144521238
 30
0.0
 10
20.5689925306
 20
10.7380047322
 30
0.0
 10
20.5888771731
 20
10.7605110454
 30
0.0
 10
20.6108280593
 20
10.7818521007
 30
0.0
 10
20.6347301542
 20
10.8019183448
 30
0.0
 10
20.6604575275
 20
10.8206057597
 30
0.0
 10
20.6878772576
 20
10.8378186915
 30
0.0
 10
20.7267785047
 20
10.8588345734
 30
0.0
 10
20.768208389
 20
10.8763494361
 30
0.0
 10
20.8114815433
 20
10.890261703
 30
0.0
 10
20.8564139903
 20
10.9018643747
 30
0.0
 10
20.9026121133
 20
10.9096303438
 30
0.0
 10
20.9494443931
 20
10.91353133
 30
0.0
 10
20.984853255
 20
10.9145100443
 30
0.0
 10
21.0202619351
 20
10.9135274676
 30
0.0
 10
21.0670933928
 20
10.9096213808
 30
0.0
 10
21.1132900815
 20
10.9018503873
 30
0.0
 10
21.1582204656
 20
10.8902427896
 30
0.0
 10
21.2014909622
 20
10.8763258249
 30
0.0
 10
21.2429176137
 20
10.8588064466
 30
0.0
 10
21.2818150193
 20
10.8377862837
 30
0.0
 10
21.3092315553
 20
10.820570355
 30
0.0
 10
21.3349554605
 20
10.8018801262
 30
0.0
 10
21.3588538311
 20
10.7818112655
 30
0.0
 10
21.3808007552
 20
10.7604678044
 30
0.0
 10
21.4006812181
 20
10.737959309
 30
0.0
 10
21.4183886796
 20
10.7144047542
 30
0.0
 10
21.4287742767
 20
10.6979392822
 30
0.0
 10
21.4335597398
 20
10.6895804837
 30
0.0
  0
ENDSEC
  0
SECTION
  2
OBJECTS
  0
DICTIONARY
  5
C
100
AcDbDictionary
280
0
281
1
  3
ACAD_GROUP
350
D
  3
ACAD_MLINESTYLE
350
17
  3
ACAD_LAYOUT
350
1A
  3
ACAD_PLOTSETTINGS
350
19
  3
ACAD_PLOTSTYLENAME
350
E
  0
DICTIONARY
  5
D
102
{ACAD_REACTORS
330
C
102
}
100
AcDbDictionary
280
0
281
1
  0
ACDBDICTIONARYWDFLT
  5
E
102
{ACAD_REACTORS
330
C
102
}
100
AcDbDictionary
281
1
  3
Normal
350
F
100
AcDbDictionaryWithDefault
340
F
  0
DICTIONARY
  5
17
102
{ACAD_REACTORS
330
C
102
}
100
AcDbDictionary
280
0
281
1
  3
Standard
350
18
  0
DICTIONARY
  5
19
102
{ACAD_REACTORS
330
C
102
}
100
AcDbDictionary
281
1
  0
DICTIONARY
  5
1A
102
{ACAD_REACTORS
330
C
102
}
100
AcDbDictionary
281
1
  3
Model
350
26B
  3
Layout1
350
26C
  0
ACDBPLACEHOLDER
  5
F
102
{ACAD_REACTORS
330
E
102
}
  0
MLINESTYLE
  5
18
102
{ACAD_REACTORS
330
17
102
}
100
AcDbMlineStyle
  2
STANDARD
 70
0
  3

 62
256
 51
90.0
 52
90.0
 71
2
 49
0.5
 62
256
  6
BYLAYER
 49
-0.5
 62
256
  6
BYLAYER
  0
LAYOUT
  5
26B
102
{ACAD_REACTORS
330
1A
102
}
100
AcDbPlotSettings
  1

  2
none_device
  4
ANSI_C_(22.00_x_17.00_Inches)
  6

 40
0.0
 41
0.0
 42
0.0
 43
0.0
 44
558.8
 45
431.8
 46
0.0
 47
0.0
 48
0.0
 49
0.0
140
0.0
141
0.0
142
1.0
143
1.0
 70
1024
 72
0
 73
0
 74
0
  7

 75
0
147
1.0
148
0.0
149
0.0
100
AcDbLayout
  1
Model
 70
0
 71
0
 10
0.0
 20
0.0
 11
22.0
 21
17.0
 12
0.0
 22
0.0
 32
0.0
 14
0.0
 24
0.0
 34
0.0
 15
0.0
 25
0.0
 35
0.0
146
0.0
 13
0.0
 23
0.0
 33
0.0
 16
1.0
 26
0.0
 36
0.0
 17
0.0
 27
1.0
 37
0.0
 76
0
330
205
345
0
346
0
  0
LAYOUT
  5
26C
102
{ACAD_REACTORS
330
1A
102
}
100
AcDbPlotSettings
  1

  2
none_device
  4
ANSI_C_(22.00_x_17.00_Inches)
  6

 40
0.0
 41
0.0
 42
0.0
 43
0.0
 44
558.8
 45
431.8
 46
0.0
 47
0.0
 48
0.0
 49
0.0
140
0.0
141
0.0
142
1.0
143
1.0
 70
0
 72
0
 73
0
 74
0
  7

 75
0
147
1.0
148
0.0
149
0.0
100
AcDbLayout
  1
Layout1
 70
0
 71
1
 10
0.0
 20
0.0
 11
22.0
 21
17.0
 12
0.0
 22
0.0
 32
0.0
 14
0.0
 24
0.0
 34
0.0
 15
0.0
 25
0.0
 35
0.0
146
0.0
 13
0.0
 23
0.0
 33
0.0
 16
1.0
 26
0.0
 36
0.0
 17
0.0
 27
1.0
 37
0.0
 76
0
330
206
345
0
346
0
  0
ENDSEC
  0
EOF
