999
DXF file: E:\BT Custom\CADOUTPUT\_FRONT.dxf
999
Pro/ENGINEER 2018400 by Parametric Technology Corporation
  0
SECTION
  2
HEADER
  9
$ACADVER
  1
AC1018
  9
$DWGCODEPAGE
  3
ANSI_1252
  9
$EXTMAX
 10
22.0
 20
17.0
 30
0.0
  9
$EXTMIN
 10
0.0
 20
0.0
 30
0.0
  9
$LIMMIN
 10
0.0
 20
0.0
  9
$LIMMAX
 10
22.0
 20
17.0
  9
$VIEWCTR
 10
11.0
 20
8.5
  9
$VIEWSIZE
 40
17.0
  9
$CLAYER
  8
0
  9
$LTSCALE
 40
1.21
  9
$CELTYPE
  6
BYLAYER
  9
$DIMSCALE
 40
1.0
  9
$DIMASZ
 40
0.1
  9
$DIMEXO
 40
0.0625
  9
$DIMDLI
 40
0.836
  9
$DIMEXE
 40
0.125
  9
$DIMCEN
 40
0.198
  9
$DIMLFAC
 40
1.0
  9
$DIMBLK
  1
_FILLED
  9
$DIMALT
 70
1
  9
$DIMALTD
 70
2
  9
$DIMALTTD
 70
2
  9
$DIMALTF
 40
25.4
  9
$DIMTXT
 40
0.08
  9
$DIMTOL
 70
1
  9
$DIMLIM
 70
0
  9
$DIMTFAC
 40
1.0
  9
$DIMTP
 40
0.001
  9
$DIMTM
 40
0.001
  9
$DIMGAP
 40
0.09
  9
$DIMDSEP
 70
46
  9
$AUNITS
 70
0
  9
$PDMODE
 70
3
  9
$PDSIZE
 40
0.06
  9
$HANDSEED
  5
4D7
  9
$TILEMODE
 70
1
  9
$MEASUREMENT
 70
0
  9
$INSUNITS
 70
1
  0
ENDSEC
  0
SECTION
  2
CLASSES
  0
CLASS
  1
ACDBDICTIONARYWDFLT
  2
AcDbDictionaryWithDefault
  3
AutoCAD 2000
 90
0
 91
1
280
0
281
0
  0
CLASS
  1
ACDBPLACEHOLDER
  2
AcDbPlaceHolder
  3
AutoCAD 2000
 90
0
 91
1
280
0
281
0
  0
CLASS
  1
LAYOUT
  2
AcDbLayout
  3
AutoCAD 2000
 90
0
 91
0
280
0
281
0
  0
ENDSEC
  0
SECTION
  2
TABLES
  0
TABLE
  2
VPORT
  5
8
100
AcDbSymbolTable
 70
2
  0
VPORT
  5
1F4
100
AcDbSymbolTableRecord
100
AcDbViewportTableRecord
  2
*ACTIVE
 70
0
 10
0.0
 20
0.0
 11
1.0
 21
1.0
 12
11.0
 22
8.5
 13
0.0
 23
0.0
 14
1.0
 24
1.0
 15
0.0
 25
0.0
 16
0.0
 26
0.0
 36
1.0
 17
0.0
 27
0.0
 37
0.0
 40
17.0
 41
1.2941176471
 42
50.0
 43
0.0
 44
0.0
 50
0.0
 51
0.0
 71
0
 72
100
 73
1
 74
1
 75
0
 76
0
 77
0
 78
0
  0
ENDTAB
  0
TABLE
  2
LTYPE
  5
5
100
AcDbSymbolTable
 70
6
  0
LTYPE
  5
14
100
AcDbSymbolTableRecord
100
AcDbLinetypeTableRecord
  2
BYBLOCK
 70
0
  3

 72
65
 73
0
 40
0.0
  0
LTYPE
  5
15
100
AcDbSymbolTableRecord
100
AcDbLinetypeTableRecord
  2
BYLAYER
 70
0
  3

 72
65
 73
0
 40
0.0
  0
LTYPE
  5
16
100
AcDbSymbolTableRecord
100
AcDbLinetypeTableRecord
  2
CONTINUOUS
 70
64
  3
Solid line
 72
65
 73
0
 40
0.0
  0
LTYPE
  5
1F5
100
AcDbSymbolTableRecord
100
AcDbLinetypeTableRecord
  2
CENTER
 70
64
  3
____ _ ____ _ ____ _ ____ _ ____ _ ____ _ ____
 72
65
 73
4
 40
0.6
 49
0.375
 74
0
 49
-0.075
 74
0
 49
0.075
 74
0
 49
-0.075
 74
0
  0
LTYPE
  5
1F6
100
AcDbSymbolTableRecord
100
AcDbLinetypeTableRecord
  2
HIDDEN
 70
64
  3
- - - - - - - - - - - - - - - - - - - -
 72
65
 73
2
 40
0.2
 49
0.1
 74
0
 49
-0.1
 74
0
  0
LTYPE
  5
1F7
100
AcDbSymbolTableRecord
100
AcDbLinetypeTableRecord
  2
PHANTOM
 70
64
  3
_____ _ _ _____ _ _ _____ _ _ _____
 72
65
 73
6
 40
0.8
 49
0.45
 74
0
 49
-0.05
 74
0
 49
0.1
 74
0
 49
-0.05
 74
0
 49
0.1
 74
0
 49
-0.05
 74
0
  0
LTYPE
  5
1F8
100
AcDbSymbolTableRecord
100
AcDbLinetypeTableRecord
  2
DOT
 70
64
  3
. . . . . . . . . . . . . . . . . . . .
 72
65
 73
2
 40
0.2
 49
0.1
 74
0
 49
-0.1
 74
0
  0
LTYPE
  5
1F9
100
AcDbSymbolTableRecord
100
AcDbLinetypeTableRecord
  2
DASHED
 70
64
  3
- - - - - - - - - - - - - - - - - - - -
 72
65
 73
2
 40
0.2
 49
0.1
 74
0
 49
-0.1
 74
0
  0
ENDTAB
  0
TABLE
  2
LAYER
  5
2
100
AcDbSymbolTable
 70
36
  0
LAYER
  5
10
100
AcDbSymbolTableRecord
100
AcDbLayerTableRecord
  2
0
 70
0
 62
7
  6
CONTINUOUS
370
-3
390
F
  0
LAYER
  5
1FA
100
AcDbSymbolTableRecord
100
AcDbLayerTableRecord
  2
DEFAULT_1
 70
0
 62
7
  6
CENTER
370
-3
390
F
  0
LAYER
  5
1FB
100
AcDbSymbolTableRecord
100
AcDbLayerTableRecord
  2
DEFAULT_2
 70
0
 62
8
  6
HIDDEN
370
-3
390
F
  0
LAYER
  5
1FC
100
AcDbSymbolTableRecord
100
AcDbLayerTableRecord
  2
DEFAULT_3
 70
0
 62
7
  6
PHANTOM
370
-3
390
F
  0
LAYER
  5
1FD
100
AcDbSymbolTableRecord
100
AcDbLayerTableRecord
  2
ALL_FEATURES
 70
0
 62
7
  6
CONTINUOUS
370
-3
390
F
  0
LAYER
  5
1FE
100
AcDbSymbolTableRecord
100
AcDbLayerTableRecord
  2
AXES_FEATURES
 70
0
 62
7
  6
CONTINUOUS
370
-3
390
F
  0
LAYER
  5
1FF
100
AcDbSymbolTableRecord
100
AcDbLayerTableRecord
  2
DEFAULT_COORDINATE_SYSTEM
 70
0
 62
7
  6
CONTINUOUS
370
-3
390
F
  0
LAYER
  5
200
100
AcDbSymbolTableRecord
100
AcDbLayerTableRecord
  2
DEFAULT_DATUM_AXES
 70
0
 62
7
  6
CONTINUOUS
370
-3
390
F
  0
LAYER
  5
201
100
AcDbSymbolTableRecord
100
AcDbLayerTableRecord
  2
DEFAULT_DATUM_PLANES
 70
0
 62
7
  6
CONTINUOUS
370
-3
390
F
  0
LAYER
  5
202
100
AcDbSymbolTableRecord
100
AcDbLayerTableRecord
  2
DIMENSIONS
 70
0
 62
7
  6
CONTINUOUS
370
-3
390
F
  0
ENDTAB
  0
TABLE
  2
STYLE
  5
3
100
AcDbSymbolTable
 70
1
  0
STYLE
  5
11
100
AcDbSymbolTableRecord
100
AcDbTextStyleTableRecord
  2
STANDARD
 70
0
 40
0.0
 41
0.8
 50
0.0
 71
0
 42
0.2
  3
txt
  4

  0
STYLE
  5
203
100
AcDbSymbolTableRecord
100
AcDbTextStyleTableRecord
  2
TEXTSTYLE_1
 70
0
 40
0.0
 41
0.8
 50
0.0
 71
0
 42
0.2
  3
gdt
  4

  0
ENDTAB
  0
TABLE
  2
VIEW
  5
6
100
AcDbSymbolTable
 70
0
  0
ENDTAB
  0
TABLE
  2
UCS
  5
7
100
AcDbSymbolTable
 70
0
  0
ENDTAB
  0
TABLE
  2
APPID
  5
9
100
AcDbSymbolTable
 70
1
  0
APPID
  5
204
100
AcDbSymbolTableRecord
100
AcDbRegAppTableRecord
  2
ACAD
 70
0
  0
ENDTAB
  0
TABLE
  2
BLOCK_RECORD
  5
1
100
AcDbSymbolTable
 70
0
  0
BLOCK_RECORD
  5
205
100
AcDbSymbolTableRecord
100
AcDbBlockTableRecord
  2
*Model_Space
  0
BLOCK_RECORD
  5
206
100
AcDbSymbolTableRecord
100
AcDbBlockTableRecord
  2
*Paper_Space
  0
BLOCK_RECORD
  5
207
100
AcDbSymbolTableRecord
100
AcDbBlockTableRecord
  2
_FILLED
  0
ENDTAB
  0
TABLE
  2
DIMSTYLE
  5
A
100
AcDbSymbolTable
 70
1
100
AcDbDimStyleTable
 71
0
  0
DIMSTYLE
105
208
100
AcDbSymbolTableRecord
100
AcDbDimStyleTableRecord
  2
STANDARD
 70
0
  3

  4

 40
1.0
 41
0.1
 42
0.0625
 43
0.38
 44
0.125
 45
0.0
 46
0.0
 47
0.001
 48
0.001
140
0.08
141
0.09
142
0.0
143
25.4
144
1.0
145
0.0
146
1.0
147
0.09
 71
1.0
 72
0.0
 73
1
 74
1
 75
0
 76
0
 77
0
 78
4
 79
1
170
1
171
2
172
0
173
0
174
0
175
0
176
0
177
0
178
0
270
2
179
3
271
3
272
3
273
2
274
2
275
0
280
0
281
0
282
0
283
1
284
4
285
0
286
0
287
3
288
0
340
11
278
46
341
207
342
207
343
207
344
207
  0
ENDTAB
  0
ENDSEC
  0
SECTION
  2
BLOCKS
  0
BLOCK
  5
20
100
AcDbEntity
  8
0
100
AcDbBlockBegin
  2
*Model_Space
 70
0
 10
0.0
 20
0.0
 30
0.0
  3
*Model_Space
  1

  0
ENDBLK
  5
21
100
AcDbEntity
  8
0
100
AcDbBlockEnd
  0
BLOCK
  5
1C
100
AcDbEntity
  8
0
100
AcDbBlockBegin
  2
*Paper_Space
 70
0
 10
0.0
 20
0.0
 30
0.0
  3
*Paper_Space
  1

  0
ENDBLK
  5
1D
100
AcDbEntity
  8
0
100
AcDbBlockEnd
  0
BLOCK
  5
209
100
AcDbEntity
  8
0
100
AcDbBlockBegin
  2
_FILLED
 70
64
 10
0.0
 20
0.0
  3
_FILLED
  1

  0
SOLID
  5
20A
100
AcDbEntity
  8
0
  6
BYBLOCK
 62
0
100
AcDbTrace
 10
0.0
 20
0.0
 11
-1.0
 21
0.2
 12
-1.0
 22
-0.2
 13
-1.0
 23
-0.2
  0
ENDBLK
  5
20B
100
AcDbEntity
  8
0
  6
BYBLOCK
 62
0
100
AcDbBlockEnd
  0
ENDSEC
  0
SECTION
  2
ENTITIES
  0
LINE
  5
20C
100
AcDbEntity
  8
0
100
AcDbLine
 62
7
  6
CONTINUOUS
 10
11.4376920588
 20
-1.6086389451
 11
10.4376926267
 21
-1.6086389451
  0
LINE
  5
20D
100
AcDbEntity
  8
0
100
AcDbLine
 62
7
  6
CONTINUOUS
 10
10.5783453928
 20
16.9372677173
 11
10.5446973396
 21
16.9177752685
  0
LINE
  5
20E
100
AcDbEntity
  8
0
100
AcDbLine
 62
7
  6
CONTINUOUS
 10
11.3124444346
 20
16.9177752685
 11
11.3434663779
 21
16.9357085378
  0
LINE
  5
20F
100
AcDbEntity
  8
0
100
AcDbLine
 62
7
  6
CONTINUOUS
 10
11.1586143449
 20
16.9637973079
 11
11.171107992
 21
16.9763515938
  0
LINE
  5
210
100
AcDbEntity
  8
0
100
AcDbLine
 62
7
  6
CONTINUOUS
 10
11.3901923427
 20
16.8102752685
 11
11.3726923427
 21
16.7927752685
  0
LINE
  5
211
100
AcDbEntity
  8
0
100
AcDbLine
 62
7
  6
CONTINUOUS
 10
11.2832860603
 20
16.4108689861
 11
11.3351284176
 21
16.4627113434
  0
LINE
  5
212
100
AcDbEntity
  8
0
100
AcDbLine
 62
7
  6
CONTINUOUS
 10
11.2926923427
 20
4.1427752685
 11
10.5826923427
 21
4.1427752685
  0
LINE
  5
213
100
AcDbEntity
  8
0
100
AcDbLine
 62
9
  6
CONTINUOUS
 10
11.3126923427
 20
4.1627752685
 11
10.5626923427
 21
4.1627752685
  0
LINE
  5
214
100
AcDbEntity
  8
0
100
AcDbLine
 62
7
  6
CONTINUOUS
 10
7.9826923427
 20
14.2065086963
 11
7.9826923427
 21
15.0851881882
  0
LINE
  5
215
100
AcDbEntity
  8
0
100
AcDbLine
 62
7
  6
CONTINUOUS
 10
8.5626923427
 20
7.2677752685
 11
8.5626923427
 21
7.0177752685
  0
LINE
  5
216
100
AcDbEntity
  8
0
100
AcDbLine
 62
7
  6
CONTINUOUS
 10
8.5957755637
 20
7.0177752685
 11
8.5957755637
 21
7.1356129211
  0
LINE
  5
217
100
AcDbEntity
  8
0
100
AcDbLine
 62
7
  6
CONTINUOUS
 10
8.5957755637
 20
7.1651149702
 11
8.5957755637
 21
7.2677752685
  0
LINE
  5
218
100
AcDbEntity
  8
0
100
AcDbLine
 62
7
  6
CONTINUOUS
 10
8.7257209871
 20
7.2677752685
 11
8.7257209871
 21
7.1651149702
  0
LINE
  5
219
100
AcDbEntity
  8
0
100
AcDbLine
 62
7
  6
CONTINUOUS
 10
8.7257209871
 20
7.1356129211
 11
8.7257209871
 21
7.0177752685
  0
LINE
  5
21A
100
AcDbEntity
  8
0
100
AcDbLine
 62
7
  6
CONTINUOUS
 10
8.7588042174
 20
7.0177752685
 11
8.7588042174
 21
7.2677752685
  0
LINE
  5
21B
100
AcDbEntity
  8
0
100
AcDbLine
 62
7
  6
CONTINUOUS
 10
8.8364767386
 20
13.9899573591
 11
8.8348349121
 21
13.968066339
  0
LINE
  5
21C
100
AcDbEntity
  8
0
100
AcDbLine
 62
7
  6
CONTINUOUS
 10
9.0295315297
 20
13.9904129022
 11
9.0278555375
 21
13.968066339
  0
LINE
  5
21D
100
AcDbEntity
  8
0
100
AcDbLine
 62
7
  6
CONTINUOUS
 10
13.5918231074
 20
14.0154812542
 11
13.8776923427
 21
14.1805279342
  0
LINE
  5
21E
100
AcDbEntity
  8
0
100
AcDbLine
 62
7
  6
CONTINUOUS
 10
12.6218669735
 20
7.1915474396
 11
12.6544385873
 21
7.1992213738
  0
LINE
  5
21F
100
AcDbEntity
  8
0
100
AcDbLine
 62
7
  6
CONTINUOUS
 10
8.5626923427
 20
7.0177752685
 11
8.5957755637
 21
7.0177752685
  0
LINE
  5
220
100
AcDbEntity
  8
0
100
AcDbLine
 62
7
  6
CONTINUOUS
 10
8.7257209871
 20
7.0177752685
 11
8.7588042174
 21
7.0177752685
  0
LINE
  5
221
100
AcDbEntity
  8
0
100
AcDbLine
 62
7
  6
CONTINUOUS
 10
9.1491521154
 20
7.0177752685
 11
9.1822353159
 21
7.0177752685
  0
LINE
  5
222
100
AcDbEntity
  8
0
100
AcDbLine
 62
7
  6
CONTINUOUS
 10
12.9697523438
 20
7.0177752685
 11
13.1259597265
 21
7.0177752685
  0
LINE
  5
223
100
AcDbEntity
  8
0
100
AcDbLine
 62
7
  6
CONTINUOUS
 10
13.165352615
 20
7.0177752685
 11
13.2555641257
 21
7.0177752685
  0
LINE
  5
224
100
AcDbEntity
  8
0
100
AcDbLine
 62
7
  6
CONTINUOUS
 10
13.2518123709
 20
7.0472773157
 11
13.1984358751
 21
7.0472773157
  0
LINE
  5
225
100
AcDbEntity
  8
0
100
AcDbLine
 62
7
  6
CONTINUOUS
 10
13.1259597265
 20
7.0472773157
 11
13.0028356038
 21
7.0472773157
  0
LINE
  5
226
100
AcDbEntity
  8
0
100
AcDbLine
 62
7
  6
CONTINUOUS
 10
8.6216527825
 20
14.000519625
 11
8.6240867789
 21
13.968066339
  0
LINE
  5
227
100
AcDbEntity
  8
0
100
AcDbLine
 62
7
  6
CONTINUOUS
 10
8.7203371319
 20
14.000280439
 11
8.7227531894
 21
13.968066339
  0
LINE
  5
228
100
AcDbEntity
  8
0
100
AcDbLine
 62
7
  6
CONTINUOUS
 10
8.9133928189
 20
13.9998129516
 11
8.9157738148
 21
13.968066339
  0
LINE
  5
229
100
AcDbEntity
  8
0
100
AcDbLine
 62
7
  6
CONTINUOUS
 10
9.0393954791
 20
13.9631463701
 11
9.0416514814
 21
13.933066339
  0
LINE
  5
22A
100
AcDbEntity
  8
0
100
AcDbLine
 62
7
  6
CONTINUOUS
 10
9.1021032921
 20
13.9629952579
 11
9.1043479611
 21
13.933066339
  0
LINE
  5
22B
100
AcDbEntity
  8
0
100
AcDbLine
 62
7
  6
CONTINUOUS
 10
9.0667851124
 20
7.2677752685
 11
9.0667851124
 21
7.2382732194
  0
LINE
  5
22C
100
AcDbEntity
  8
0
100
AcDbLine
 62
7
  6
CONTINUOUS
 10
9.1491521154
 20
7.2382732194
 11
9.1491521154
 21
7.0177752685
  0
LINE
  5
22D
100
AcDbEntity
  8
0
100
AcDbLine
 62
7
  6
CONTINUOUS
 10
9.1822353159
 20
7.0177752685
 11
9.1822353159
 21
7.2382732194
  0
LINE
  5
22E
100
AcDbEntity
  8
0
100
AcDbLine
 62
7
  6
CONTINUOUS
 10
9.2649433766
 20
7.2382732194
 11
9.2649433766
 21
7.2677752685
  0
LINE
  5
22F
100
AcDbEntity
  8
0
100
AcDbLine
 62
7
  6
CONTINUOUS
 10
9.4776923427
 20
15.1451881882
 11
9.4776923427
 21
15.3761881882
  0
LINE
  5
230
100
AcDbEntity
  8
0
100
AcDbLine
 62
7
  6
CONTINUOUS
 10
9.2180138224
 20
13.9541881882
 11
9.2164296837
 21
13.933066339
  0
LINE
  5
231
100
AcDbEntity
  8
0
100
AcDbLine
 62
7
  6
CONTINUOUS
 10
9.3085198889
 20
13.9910721882
 11
9.3067944502
 21
13.968066339
  0
LINE
  5
232
100
AcDbEntity
  8
0
100
AcDbLine
 62
7
  6
CONTINUOUS
 10
9.4018883261
 20
13.9549578719
 11
9.4002464611
 21
13.933066339
  0
LINE
  5
233
100
AcDbEntity
  8
0
100
AcDbLine
 62
7
  6
CONTINUOUS
 10
9.606363411
 20
13.9191881882
 11
9.6051542723
 21
13.903066339
  0
LINE
  5
234
100
AcDbEntity
  8
0
100
AcDbLine
 62
7
  6
CONTINUOUS
 10
9.6612487592
 20
13.9919073768
 11
9.6594606813
 21
13.968066339
  0
LINE
  5
235
100
AcDbEntity
  8
0
100
AcDbLine
 62
7
  6
CONTINUOUS
 10
9.6943503817
 20
13.9556484056
 11
9.6926567267
 21
13.933066339
  0
LINE
  5
236
100
AcDbEntity
  8
0
100
AcDbLine
 62
7
  6
CONTINUOUS
 10
9.7744423686
 20
13.9271327908
 11
9.7726373847
 21
13.903066339
  0
LINE
  5
237
100
AcDbEntity
  8
0
100
AcDbLine
 62
7
  6
CONTINUOUS
 10
8.5957755637
 20
7.1356129211
 11
8.7257209871
 21
7.1356129211
  0
LINE
  5
238
100
AcDbEntity
  8
0
100
AcDbLine
 62
7
  6
CONTINUOUS
 10
8.7257209871
 20
7.1651149702
 11
8.5957755637
 21
7.1651149702
  0
LINE
  5
239
100
AcDbEntity
  8
0
100
AcDbLine
 62
7
  6
CONTINUOUS
 10
9.0667851124
 20
7.2382732194
 11
9.1491521154
 21
7.2382732194
  0
LINE
  5
23A
100
AcDbEntity
  8
0
100
AcDbLine
 62
7
  6
CONTINUOUS
 10
9.1822353159
 20
7.2382732194
 11
9.2649433766
 21
7.2382732194
  0
LINE
  5
23B
100
AcDbEntity
  8
0
100
AcDbLine
 62
7
  6
CONTINUOUS
 10
13.1984358751
 20
7.2382732194
 11
13.2509597265
 21
7.2382732194
  0
LINE
  5
23C
100
AcDbEntity
  8
0
100
AcDbLine
 62
7
  6
CONTINUOUS
 10
13.2514713131
 20
7.2677752685
 11
13.165352615
 21
7.2677752685
  0
LINE
  5
23D
100
AcDbEntity
  8
0
100
AcDbLine
 62
7
  6
CONTINUOUS
 10
13.0028356038
 20
7.2677752685
 11
12.9697523438
 21
7.2677752685
  0
LINE
  5
23E
100
AcDbEntity
  8
0
100
AcDbLine
 62
7
  6
CONTINUOUS
 10
9.2649433766
 20
7.2677752685
 11
9.0667851124
 21
7.2677752685
  0
LINE
  5
23F
100
AcDbEntity
  8
0
100
AcDbLine
 62
7
  6
CONTINUOUS
 10
8.7588042174
 20
7.2677752685
 11
8.7257209871
 21
7.2677752685
  0
LINE
  5
240
100
AcDbEntity
  8
0
100
AcDbLine
 62
7
  6
CONTINUOUS
 10
8.5957755637
 20
7.2677752685
 11
8.5626923427
 21
7.2677752685
  0
LINE
  5
241
100
AcDbEntity
  8
0
100
AcDbLine
 62
7
  6
CONTINUOUS
 10
12.6587018989
 20
7.097072677
 11
12.6256186687
 21
7.105428749
  0
LINE
  5
242
100
AcDbEntity
  8
0
100
AcDbLine
 62
7
  6
CONTINUOUS
 10
9.1923823245
 20
13.9991383799
 11
9.1947127276
 21
13.968066339
  0
LINE
  5
243
100
AcDbEntity
  8
0
100
AcDbLine
 62
7
  6
CONTINUOUS
 10
9.2865805998
 20
13.9541881882
 11
9.2881647385
 21
13.933066339
  0
LINE
  5
244
100
AcDbEntity
  8
0
100
AcDbLine
 62
7
  6
CONTINUOUS
 10
9.4908006707
 20
13.9333580589
 11
9.4930725497
 21
13.903066339
  0
LINE
  5
245
100
AcDbEntity
  8
0
100
AcDbLine
 62
7
  6
CONTINUOUS
 10
9.5451123936
 20
13.9982872073
 11
9.5473789587
 21
13.968066339
  0
LINE
  5
246
100
AcDbEntity
  8
0
100
AcDbLine
 62
7
  6
CONTINUOUS
 10
9.5789908654
 20
13.9541881882
 11
9.580575004
 21
13.933066339
  0
LINE
  5
247
100
AcDbEntity
  8
0
100
AcDbLine
 62
7
  6
CONTINUOUS
 10
9.6593465234
 20
13.9191881882
 11
9.6605556621
 21
13.903066339
  0
LINE
  5
248
100
AcDbEntity
  8
0
100
AcDbLine
 62
7
  6
CONTINUOUS
 10
9.8991589083
 20
13.9113006481
 11
9.9016514814
 21
13.878066339
  0
LINE
  5
249
100
AcDbEntity
  8
0
100
AcDbLine
 62
7
  6
CONTINUOUS
 10
10.2376923427
 20
16.1991881882
 11
10.2376923427
 21
15.6601881882
  0
LINE
  5
24A
100
AcDbEntity
  8
0
100
AcDbLine
 62
7
  6
CONTINUOUS
 10
10.2376923427
 20
15.4361881882
 11
10.2376923427
 21
15.6201881882
  0
LINE
  5
24B
100
AcDbEntity
  8
0
100
AcDbLine
 62
7
  6
CONTINUOUS
 10
10.0145673427
 20
13.8891881882
 11
10.013733204
 21
13.878066339
  0
LINE
  5
24C
100
AcDbEntity
  8
0
100
AcDbLine
 62
7
  6
CONTINUOUS
 10
10.0723022731
 20
13.9928829903
 11
10.0704410243
 21
13.968066339
  0
LINE
  5
24D
100
AcDbEntity
  8
0
100
AcDbLine
 62
7
  6
CONTINUOUS
 10
10.0754944951
 20
13.9565502194
 11
10.073733204
 21
13.933066339
  0
LINE
  5
24E
100
AcDbEntity
  8
0
100
AcDbLine
 62
7
  6
CONTINUOUS
 10
10.0892635695
 20
13.927878274
 11
10.0874026744
 21
13.903066339
  0
LINE
  5
24F
100
AcDbEntity
  8
0
100
AcDbLine
 62
7
  6
CONTINUOUS
 10
10.1471923793
 20
13.9069206192
 11
10.1450283083
 21
13.878066339
  0
LINE
  5
250
100
AcDbEntity
  8
0
100
AcDbLine
 62
7
  6
CONTINUOUS
 10
10.5047535288
 20
13.8916706685
 11
10.503733204
 21
13.878066339
  0
LINE
  5
251
100
AcDbEntity
  8
0
100
AcDbLine
 62
7
  6
CONTINUOUS
 10
10.5130146988
 20
13.9234649631
 11
10.511484802
 21
13.903066339
  0
LINE
  5
252
100
AcDbEntity
  8
0
100
AcDbLine
 62
7
  6
CONTINUOUS
 10
10.5193464191
 20
13.9576031128
 11
10.5175061611
 21
13.933066339
  0
LINE
  5
253
100
AcDbEntity
  8
0
100
AcDbLine
 62
7
  6
CONTINUOUS
 10
10.5237154871
 20
13.9939572887
 11
10.5217736659
 21
13.968066339
  0
LINE
  5
254
100
AcDbEntity
  8
0
100
AcDbLine
 62
7
  6
CONTINUOUS
 10
10.5193885762
 20
13.8943242625
 11
10.517419232
 21
13.868066339
  0
LINE
  5
255
100
AcDbEntity
  8
0
100
AcDbLine
 62
7
  6
CONTINUOUS
 10
9.9561669514
 20
13.9972976753
 11
9.9583593016
 21
13.968066339
  0
LINE
  5
256
100
AcDbEntity
  8
0
100
AcDbLine
 62
7
  6
CONTINUOUS
 10
9.9595613362
 20
13.9609349425
 11
9.9616514814
 21
13.933066339
  0
LINE
  5
257
100
AcDbEntity
  8
0
100
AcDbLine
 62
7
  6
CONTINUOUS
 10
9.9740942973
 20
13.9194217319
 11
9.9753209518
 21
13.903066339
  0
LINE
  5
258
100
AcDbEntity
  8
0
100
AcDbLine
 62
7
  6
CONTINUOUS
 10
10.0321082483
 20
13.8892441709
 11
10.0329465857
 21
13.878066339
  0
LINE
  5
259
100
AcDbEntity
  8
0
100
AcDbLine
 62
7
  6
CONTINUOUS
 10
10.3892472991
 20
13.9101221033
 11
10.3916514814
 21
13.878066339
  0
LINE
  5
25A
100
AcDbEntity
  8
0
100
AcDbLine
 62
7
  6
CONTINUOUS
 10
10.3972942168
 20
13.9311845058
 11
10.3994030793
 21
13.903066339
  0
LINE
  5
25B
100
AcDbEntity
  8
0
100
AcDbLine
 62
7
  6
CONTINUOUS
 10
10.403413954
 20
13.9598727985
 11
10.4054244384
 21
13.933066339
  0
LINE
  5
25C
100
AcDbEntity
  8
0
100
AcDbLine
 62
7
  6
CONTINUOUS
 10
10.4075808739
 20
13.9962139303
 11
10.4096919433
 21
13.968066339
  0
LINE
  5
25D
100
AcDbEntity
  8
0
100
AcDbLine
 62
7
  6
CONTINUOUS
 10
10.4376923427
 20
-0.8586389451
 11
10.4376923427
 21
-1.6086389451
  0
LINE
  5
25E
100
AcDbEntity
  8
0
100
AcDbLine
 62
7
  6
CONTINUOUS
 10
10.4851923427
 20
16.8102752685
 11
10.4851923427
 21
16.9177752685
  0
LINE
  5
25F
100
AcDbEntity
  8
0
100
AcDbLine
 62
7
  6
CONTINUOUS
 10
10.5026923427
 20
16.7927752685
 11
10.5026923427
 21
16.516440411
  0
LINE
  5
260
100
AcDbEntity
  8
0
100
AcDbLine
 62
7
  6
CONTINUOUS
 10
10.5314423427
 20
19.1427752685
 11
10.5314423427
 21
16.9658676239
  0
LINE
  5
261
100
AcDbEntity
  8
0
100
AcDbLine
 62
7
  6
CONTINUOUS
 10
10.5626923427
 20
4.1627752685
 11
10.5626923427
 21
7.1427752685
  0
LINE
  5
262
100
AcDbEntity
  8
0
100
AcDbLine
 62
7
  6
CONTINUOUS
 10
10.5778130059
 20
16.9393504939
 11
10.5778130059
 21
16.9369592454
  0
LINE
  5
263
100
AcDbEntity
  8
0
100
AcDbLine
 62
7
  6
CONTINUOUS
 10
10.6778847216
 20
15.8491881882
 11
10.6778847216
 21
16.1991881882
  0
LINE
  5
264
100
AcDbEntity
  8
0
100
AcDbLine
 62
7
  6
CONTINUOUS
 10
10.995759524
 20
13.9950839388
 11
10.993733204
 21
13.968066339
  0
LINE
  5
265
100
AcDbEntity
  8
0
100
AcDbLine
 62
7
  6
CONTINUOUS
 10
10.9956584483
 20
13.9587362627
 11
10.993733204
 21
13.933066339
  0
LINE
  5
266
100
AcDbEntity
  8
0
100
AcDbLine
 62
7
  6
CONTINUOUS
 10
10.9957557042
 20
13.9300330075
 11
10.993733204
 21
13.903066339
  0
LINE
  5
267
100
AcDbEntity
  8
0
100
AcDbLine
 62
7
  6
CONTINUOUS
 10
10.9960492663
 20
13.9089471696
 11
10.993733204
 21
13.878066339
  0
LINE
  5
268
100
AcDbEntity
  8
0
100
AcDbLine
 62
7
  6
CONTINUOUS
 10
10.9957875186
 20
13.8954572002
 11
10.993733204
 21
13.868066339
  0
LINE
  5
269
100
AcDbEntity
  8
0
100
AcDbLine
 62
7
  6
CONTINUOUS
 10
10.8795971668
 20
13.8954572002
 11
10.8816514814
 21
13.868066339
  0
LINE
  5
26A
100
AcDbEntity
  8
0
100
AcDbLine
 62
7
  6
CONTINUOUS
 10
10.8793354191
 20
13.9089471696
 11
10.8816514814
 21
13.878066339
  0
LINE
  5
26B
100
AcDbEntity
  8
0
100
AcDbLine
 62
7
  6
CONTINUOUS
 10
10.8796289813
 20
13.9300330075
 11
10.8816514814
 21
13.903066339
  0
LINE
  5
26C
100
AcDbEntity
  8
0
100
AcDbLine
 62
7
  6
CONTINUOUS
 10
10.8797262371
 20
13.9587362627
 11
10.8816514814
 21
13.933066339
  0
LINE
  5
26D
100
AcDbEntity
  8
0
100
AcDbLine
 62
7
  6
CONTINUOUS
 10
10.8796251614
 20
13.9950839388
 11
10.8816514814
 21
13.968066339
  0
LINE
  5
26E
100
AcDbEntity
  8
0
100
AcDbLine
 62
7
  6
CONTINUOUS
 10
11.3559961092
 20
13.8943242625
 11
11.3579654535
 21
13.868066339
  0
LINE
  5
26F
100
AcDbEntity
  8
0
100
AcDbLine
 62
7
  6
CONTINUOUS
 10
11.3516691984
 20
13.9939572887
 11
11.3536110196
 21
13.968066339
  0
LINE
  5
270
100
AcDbEntity
  8
0
100
AcDbLine
 62
7
  6
CONTINUOUS
 10
11.3560382664
 20
13.9576031128
 11
11.3578785244
 21
13.933066339
  0
LINE
  5
271
100
AcDbEntity
  8
0
100
AcDbLine
 62
7
  6
CONTINUOUS
 10
11.3623699867
 20
13.9234649631
 11
11.3638998835
 21
13.903066339
  0
LINE
  5
272
100
AcDbEntity
  8
0
100
AcDbLine
 62
7
  6
CONTINUOUS
 10
11.3706311567
 20
13.8916706685
 11
11.3716514814
 21
13.878066339
  0
LINE
  5
273
100
AcDbEntity
  8
0
100
AcDbLine
 62
7
  6
CONTINUOUS
 10
11.1586143449
 20
16.9610973079
 11
11.1586143449
 21
16.9637973079
  0
LINE
  5
274
100
AcDbEntity
  8
0
100
AcDbLine
 62
7
  6
CONTINUOUS
 10
11.171107992
 20
16.9763515938
 11
11.171107992
 21
16.9485430221
  0
LINE
  5
275
100
AcDbEntity
  8
0
100
AcDbLine
 62
7
  6
CONTINUOUS
 10
11.1974999639
 20
15.8491881882
 11
11.1974999639
 21
16.1991881882
  0
LINE
  5
276
100
AcDbEntity
  8
0
100
AcDbLine
 62
7
  6
CONTINUOUS
 10
11.3126923427
 20
4.1627752685
 11
11.3126923427
 21
7.1427752685
  0
LINE
  5
277
100
AcDbEntity
  8
0
100
AcDbLine
 62
7
  6
CONTINUOUS
 10
11.3439423427
 20
19.1427752685
 11
11.3439423427
 21
16.9362586693
  0
LINE
  5
278
100
AcDbEntity
  8
0
100
AcDbLine
 62
7
  6
CONTINUOUS
 10
11.3726923427
 20
16.516440411
 11
11.3726923427
 21
16.7927752685
  0
LINE
  5
279
100
AcDbEntity
  8
0
100
AcDbLine
 62
7
  6
CONTINUOUS
 10
11.3901923427
 20
16.8102752685
 11
11.3901923427
 21
16.9177752685
  0
LINE
  5
27A
100
AcDbEntity
  8
0
100
AcDbLine
 62
7
  6
CONTINUOUS
 10
11.4376923427
 20
-0.8586389451
 11
11.4376923427
 21
-1.6086389451
  0
LINE
  5
27B
100
AcDbEntity
  8
0
100
AcDbLine
 62
7
  6
CONTINUOUS
 10
11.6376923427
 20
16.1991881882
 11
11.6376923427
 21
15.6601881882
  0
LINE
  5
27C
100
AcDbEntity
  8
0
100
AcDbLine
 62
7
  6
CONTINUOUS
 10
11.6376923427
 20
15.4361881882
 11
11.6376923427
 21
15.6201881882
  0
LINE
  5
27D
100
AcDbEntity
  8
0
100
AcDbLine
 62
7
  6
CONTINUOUS
 10
11.4678038116
 20
13.9962139303
 11
11.4656927422
 21
13.968066339
  0
LINE
  5
27E
100
AcDbEntity
  8
0
100
AcDbLine
 62
7
  6
CONTINUOUS
 10
11.4719707315
 20
13.9598727985
 11
11.469960247
 21
13.933066339
  0
LINE
  5
27F
100
AcDbEntity
  8
0
100
AcDbLine
 62
7
  6
CONTINUOUS
 10
11.4780904686
 20
13.9311845058
 11
11.4759816061
 21
13.903066339
  0
LINE
  5
280
100
AcDbEntity
  8
0
100
AcDbLine
 62
7
  6
CONTINUOUS
 10
11.4861373864
 20
13.9101221033
 11
11.483733204
 21
13.878066339
  0
LINE
  5
281
100
AcDbEntity
  8
0
100
AcDbLine
 62
7
  6
CONTINUOUS
 10
11.8432764371
 20
13.8892441709
 11
11.8424380998
 21
13.878066339
  0
LINE
  5
282
100
AcDbEntity
  8
0
100
AcDbLine
 62
7
  6
CONTINUOUS
 10
11.9012903882
 20
13.9194217319
 11
11.9000637337
 21
13.903066339
  0
LINE
  5
283
100
AcDbEntity
  8
0
100
AcDbLine
 62
7
  6
CONTINUOUS
 10
11.9158233493
 20
13.9609349425
 11
11.913733204
 21
13.933066339
  0
LINE
  5
284
100
AcDbEntity
  8
0
100
AcDbLine
 62
7
  6
CONTINUOUS
 10
11.919217734
 20
13.9972976753
 11
11.9170253838
 21
13.968066339
  0
LINE
  5
285
100
AcDbEntity
  8
0
100
AcDbLine
 62
7
  6
CONTINUOUS
 10
11.9762257772
 20
13.9113006481
 11
11.973733204
 21
13.878066339
  0
LINE
  5
286
100
AcDbEntity
  8
0
100
AcDbLine
 62
7
  6
CONTINUOUS
 10
11.7281923061
 20
13.9069206192
 11
11.7303563771
 21
13.878066339
  0
LINE
  5
287
100
AcDbEntity
  8
0
100
AcDbLine
 62
7
  6
CONTINUOUS
 10
11.786121116
 20
13.927878274
 11
11.7879820111
 21
13.903066339
  0
LINE
  5
288
100
AcDbEntity
  8
0
100
AcDbLine
 62
7
  6
CONTINUOUS
 10
11.7998901904
 20
13.9565502194
 11
11.8016514814
 21
13.933066339
  0
LINE
  5
289
100
AcDbEntity
  8
0
100
AcDbLine
 62
7
  6
CONTINUOUS
 10
11.8030824124
 20
13.9928829903
 11
11.8049436612
 21
13.968066339
  0
LINE
  5
28A
100
AcDbEntity
  8
0
100
AcDbLine
 62
7
  6
CONTINUOUS
 10
11.8608173427
 20
13.8891881882
 11
11.8616514814
 21
13.878066339
  0
LINE
  5
28B
100
AcDbEntity
  8
0
100
AcDbLine
 62
7
  6
CONTINUOUS
 10
12.1009423169
 20
13.9271327908
 11
12.1027473008
 21
13.903066339
  0
LINE
  5
28C
100
AcDbEntity
  8
0
100
AcDbLine
 62
7
  6
CONTINUOUS
 10
12.1810343038
 20
13.9556484056
 11
12.1827279588
 21
13.933066339
  0
LINE
  5
28D
100
AcDbEntity
  8
0
100
AcDbLine
 62
7
  6
CONTINUOUS
 10
12.3976923427
 20
15.1451881882
 11
12.3976923427
 21
15.3761881882
  0
LINE
  5
28E
100
AcDbEntity
  8
0
100
AcDbLine
 62
7
  6
CONTINUOUS
 10
12.2160381621
 20
13.9191881882
 11
12.2148290234
 21
13.903066339
  0
LINE
  5
28F
100
AcDbEntity
  8
0
100
AcDbLine
 62
7
  6
CONTINUOUS
 10
12.2963938201
 20
13.9541881882
 11
12.2948096814
 21
13.933066339
  0
LINE
  5
290
100
AcDbEntity
  8
0
100
AcDbLine
 62
7
  6
CONTINUOUS
 10
12.3302722919
 20
13.9982872073
 11
12.3280057267
 21
13.968066339
  0
LINE
  5
291
100
AcDbEntity
  8
0
100
AcDbLine
 62
7
  6
CONTINUOUS
 10
12.3845840148
 20
13.9333580589
 11
12.3823121358
 21
13.903066339
  0
LINE
  5
292
100
AcDbEntity
  8
0
100
AcDbLine
 62
7
  6
CONTINUOUS
 10
12.5888040857
 20
13.9541881882
 11
12.587219947
 21
13.933066339
  0
LINE
  5
293
100
AcDbEntity
  8
0
100
AcDbLine
 62
7
  6
CONTINUOUS
 10
12.6830023609
 20
13.9991383799
 11
12.6806719579
 21
13.968066339
  0
LINE
  5
294
100
AcDbEntity
  8
0
100
AcDbLine
 62
7
  6
CONTINUOUS
 10
12.7732813933
 20
13.9629952579
 11
12.7710367244
 21
13.933066339
  0
LINE
  5
295
100
AcDbEntity
  8
0
100
AcDbLine
 62
7
  6
CONTINUOUS
 10
12.8359892064
 20
13.9631463701
 11
12.833733204
 21
13.933066339
  0
LINE
  5
296
100
AcDbEntity
  8
0
100
AcDbLine
 62
7
  6
CONTINUOUS
 10
12.2141359263
 20
13.9919073768
 11
12.2159240041
 21
13.968066339
  0
LINE
  5
297
100
AcDbEntity
  8
0
100
AcDbLine
 62
7
  6
CONTINUOUS
 10
12.2690212745
 20
13.9191881882
 11
12.2702304132
 21
13.903066339
  0
LINE
  5
298
100
AcDbEntity
  8
0
100
AcDbLine
 62
7
  6
CONTINUOUS
 10
12.4734963594
 20
13.9549578719
 11
12.4751382244
 21
13.933066339
  0
LINE
  5
299
100
AcDbEntity
  8
0
100
AcDbLine
 62
7
  6
CONTINUOUS
 10
12.5668647966
 20
13.9910721882
 11
12.5685902353
 21
13.968066339
  0
LINE
  5
29A
100
AcDbEntity
  8
0
100
AcDbLine
 62
7
  6
CONTINUOUS
 10
12.6573708631
 20
13.9541881882
 11
12.6589550018
 21
13.933066339
  0
LINE
  5
29B
100
AcDbEntity
  8
0
100
AcDbLine
 62
7
  6
CONTINUOUS
 10
12.8458531558
 20
13.9904129022
 11
12.847529148
 21
13.968066339
  0
LINE
  5
29C
100
AcDbEntity
  8
0
100
AcDbLine
 62
7
  6
CONTINUOUS
 10
12.9697523438
 20
7.2677752685
 11
12.9697523438
 21
7.0177752685
  0
LINE
  5
29D
100
AcDbEntity
  8
0
100
AcDbLine
 62
7
  6
CONTINUOUS
 10
13.0028356038
 20
7.0472773157
 11
13.0028356038
 21
7.2677752685
  0
LINE
  5
29E
100
AcDbEntity
  8
0
100
AcDbLine
 62
7
  6
CONTINUOUS
 10
13.1259597265
 20
7.0177752685
 11
13.1259597265
 21
7.0472773157
  0
LINE
  5
29F
100
AcDbEntity
  8
0
100
AcDbLine
 62
7
  6
CONTINUOUS
 10
13.165352615
 20
7.2677752685
 11
13.165352615
 21
7.0177752685
  0
LINE
  5
2A0
100
AcDbEntity
  8
0
100
AcDbLine
 62
7
  6
CONTINUOUS
 10
13.1984358751
 20
7.0472773157
 11
13.1984358751
 21
7.2382732194
  0
LINE
  5
2A1
100
AcDbEntity
  8
0
100
AcDbLine
 62
7
  6
CONTINUOUS
 10
12.9619918666
 20
13.9998129516
 11
12.9596108706
 21
13.968066339
  0
LINE
  5
2A2
100
AcDbEntity
  8
0
100
AcDbLine
 62
7
  6
CONTINUOUS
 10
13.1550475535
 20
14.000280439
 11
13.152631496
 21
13.968066339
  0
LINE
  5
2A3
100
AcDbEntity
  8
0
100
AcDbLine
 62
7
  6
CONTINUOUS
 10
13.253731903
 20
14.000519625
 11
13.2512979065
 21
13.968066339
  0
LINE
  5
2A4
100
AcDbEntity
  8
0
100
AcDbLine
 62
7
  6
CONTINUOUS
 10
13.0389079469
 20
13.9899573591
 11
13.0405497734
 21
13.968066339
  0
LINE
  5
2A5
100
AcDbEntity
  8
0
100
AcDbLine
 62
7
  6
CONTINUOUS
 10
13.8926923427
 20
14.2065086963
 11
13.8926923427
 21
15.0851881882
  0
LINE
  5
2A6
100
AcDbEntity
  8
0
100
AcDbLine
 62
7
  6
CONTINUOUS
 10
8.2835615781
 20
14.0154812542
 11
7.9976923427
 21
14.1805279342
  0
LINE
  5
2A7
100
AcDbEntity
  8
0
100
AcDbLine
 62
7
  6
CONTINUOUS
 10
11.1226923427
 20
13.8898895611
 11
11.1623481893
 21
13.8930960388
  0
LINE
  5
2A8
100
AcDbEntity
  8
0
100
AcDbLine
 62
7
  6
CONTINUOUS
 10
12.8374354408
 20
13.9632592761
 11
12.8359892064
 21
13.9631463701
  0
LINE
  5
2A9
100
AcDbEntity
  8
0
100
AcDbLine
 62
7
  6
CONTINUOUS
 10
11.9811042127
 20
13.9115089747
 11
11.9762257772
 21
13.9113006481
  0
LINE
  5
2AA
100
AcDbEntity
  8
0
100
AcDbLine
 62
7
  6
CONTINUOUS
 10
11.4550891378
 20
13.8541881882
 11
11.3729234918
 21
13.8541881882
  0
LINE
  5
2AB
100
AcDbEntity
  8
0
100
AcDbLine
 62
7
  6
CONTINUOUS
 10
10.9787751657
 20
13.8541881882
 11
10.8966095197
 21
13.8541881882
  0
LINE
  5
2AC
100
AcDbEntity
  8
0
100
AcDbLine
 62
7
  6
CONTINUOUS
 10
10.5024611936
 20
13.8541881882
 11
10.4202955477
 21
13.8541881882
  0
LINE
  5
2AD
100
AcDbEntity
  8
0
100
AcDbLine
 62
7
  6
CONTINUOUS
 10
11.9587751657
 20
13.8641881882
 11
11.8766095197
 21
13.8641881882
  0
LINE
  5
2AE
100
AcDbEntity
  8
0
100
AcDbLine
 62
7
  6
CONTINUOUS
 10
11.8274800614
 20
13.8641881882
 11
11.7453144155
 21
13.8641881882
  0
LINE
  5
2AF
100
AcDbEntity
  8
0
100
AcDbLine
 62
7
  6
CONTINUOUS
 10
11.4687751657
 20
13.8641881882
 11
11.3866095197
 21
13.8641881882
  0
LINE
  5
2B0
100
AcDbEntity
  8
0
100
AcDbLine
 62
7
  6
CONTINUOUS
 10
10.9787751657
 20
13.8641881882
 11
10.8966095197
 21
13.8641881882
  0
LINE
  5
2B1
100
AcDbEntity
  8
0
100
AcDbLine
 62
7
  6
CONTINUOUS
 10
10.4887751657
 20
13.8641881882
 11
10.4066095197
 21
13.8641881882
  0
LINE
  5
2B2
100
AcDbEntity
  8
0
100
AcDbLine
 62
7
  6
CONTINUOUS
 10
10.13007027
 20
13.8641881882
 11
10.047904624
 21
13.8641881882
  0
LINE
  5
2B3
100
AcDbEntity
  8
0
100
AcDbLine
 62
7
  6
CONTINUOUS
 10
9.9987751657
 20
13.8641881882
 11
9.9166095197
 21
13.8641881882
  0
LINE
  5
2B4
100
AcDbEntity
  8
0
100
AcDbLine
 62
9
  6
CONTINUOUS
 10
11.3765581882
 20
13.868066339
 11
11.3579654535
 21
13.868066339
  0
LINE
  5
2B5
100
AcDbEntity
  8
0
100
AcDbLine
 62
9
  6
CONTINUOUS
 10
10.993733204
 20
13.868066339
 11
10.9888264972
 21
13.868066339
  0
LINE
  5
2B6
100
AcDbEntity
  8
0
100
AcDbLine
 62
9
  6
CONTINUOUS
 10
10.8865581882
 20
13.868066339
 11
10.8816514814
 21
13.868066339
  0
LINE
  5
2B7
100
AcDbEntity
  8
0
100
AcDbLine
 62
9
  6
CONTINUOUS
 10
10.517419232
 20
13.868066339
 11
10.4988264972
 21
13.868066339
  0
LINE
  5
2B8
100
AcDbEntity
  8
0
100
AcDbLine
 62
9
  6
CONTINUOUS
 10
11.973733204
 20
13.878066339
 11
11.8616514814
 21
13.878066339
  0
LINE
  5
2B9
100
AcDbEntity
  8
0
100
AcDbLine
 62
9
  6
CONTINUOUS
 10
11.8424380998
 20
13.878066339
 11
11.7303563771
 21
13.878066339
  0
LINE
  5
2BA
100
AcDbEntity
  8
0
100
AcDbLine
 62
9
  6
CONTINUOUS
 10
11.483733204
 20
13.878066339
 11
11.3716514814
 21
13.878066339
  0
LINE
  5
2BB
100
AcDbEntity
  8
0
100
AcDbLine
 62
9
  6
CONTINUOUS
 10
10.993733204
 20
13.878066339
 11
10.8816514814
 21
13.878066339
  0
LINE
  5
2BC
100
AcDbEntity
  8
0
100
AcDbLine
 62
9
  6
CONTINUOUS
 10
10.503733204
 20
13.878066339
 11
10.3916514814
 21
13.878066339
  0
LINE
  5
2BD
100
AcDbEntity
  8
0
100
AcDbLine
 62
9
  6
CONTINUOUS
 10
10.1450283083
 20
13.878066339
 11
10.0329465857
 21
13.878066339
  0
LINE
  5
2BE
100
AcDbEntity
  8
0
100
AcDbLine
 62
9
  6
CONTINUOUS
 10
10.013733204
 20
13.878066339
 11
9.9016514814
 21
13.878066339
  0
LINE
  5
2BF
100
AcDbEntity
  8
0
100
AcDbLine
 62
7
  6
CONTINUOUS
 10
12.3673540975
 20
13.8891881882
 11
12.2851884515
 21
13.8891881882
  0
LINE
  5
2C0
100
AcDbEntity
  8
0
100
AcDbLine
 62
7
  6
CONTINUOUS
 10
12.1998709851
 20
13.8891881882
 11
12.1177053391
 21
13.8891881882
  0
LINE
  5
2C1
100
AcDbEntity
  8
0
100
AcDbLine
 62
7
  6
CONTINUOUS
 10
11.8851056954
 20
13.8891881882
 11
11.8029400494
 21
13.8891881882
  0
LINE
  5
2C2
100
AcDbEntity
  8
0
100
AcDbLine
 62
7
  6
CONTINUOUS
 10
11.4610235678
 20
13.8891881882
 11
11.3788579218
 21
13.8891881882
  0
LINE
  5
2C3
100
AcDbEntity
  8
0
100
AcDbLine
 62
7
  6
CONTINUOUS
 10
10.9787751657
 20
13.8891881882
 11
10.8966095197
 21
13.8891881882
  0
LINE
  5
2C4
100
AcDbEntity
  8
0
100
AcDbLine
 62
7
  6
CONTINUOUS
 10
10.4965267636
 20
13.8891881882
 11
10.4143611177
 21
13.8891881882
  0
LINE
  5
2C5
100
AcDbEntity
  8
0
100
AcDbLine
 62
7
  6
CONTINUOUS
 10
10.0724446361
 20
13.8891881882
 11
9.9902789901
 21
13.8891881882
  0
LINE
  5
2C6
100
AcDbEntity
  8
0
100
AcDbLine
 62
7
  6
CONTINUOUS
 10
9.7576793464
 20
13.8891881882
 11
9.6755137004
 21
13.8891881882
  0
LINE
  5
2C7
100
AcDbEntity
  8
0
100
AcDbLine
 62
7
  6
CONTINUOUS
 10
9.590196234
 20
13.8891881882
 11
9.508030588
 21
13.8891881882
  0
LINE
  5
2C8
100
AcDbEntity
  8
0
100
AcDbLine
 62
7
  6
CONTINUOUS
 10
10.8800147398
 20
13.8898895611
 11
10.7526923427
 21
13.8898895611
  0
LINE
  5
2C9
100
AcDbEntity
  8
0
100
AcDbLine
 62
7
  6
CONTINUOUS
 10
10.9953699457
 20
13.8898895611
 11
11.1226923427
 21
13.8898895611
  0
LINE
  5
2CA
100
AcDbEntity
  8
0
100
AcDbLine
 62
7
  6
CONTINUOUS
 10
10.5192964594
 20
13.8930960388
 11
10.8797742539
 21
13.8930960388
  0
LINE
  5
2CB
100
AcDbEntity
  8
0
100
AcDbLine
 62
7
  6
CONTINUOUS
 10
10.9956104315
 20
13.8930960388
 11
11.356088226
 21
13.8930960388
  0
LINE
  5
2CC
100
AcDbEntity
  8
0
100
AcDbLine
 62
9
  6
CONTINUOUS
 10
10.5193089852
 20
13.8932630486
 11
10.8797617282
 21
13.8932630486
  0
LINE
  5
2CD
100
AcDbEntity
  8
0
100
AcDbLine
 62
9
  6
CONTINUOUS
 10
10.9956229573
 20
13.8932630486
 11
11.3560757003
 21
13.8932630486
  0
LINE
  5
2CE
100
AcDbEntity
  8
0
100
AcDbLine
 62
9
  6
CONTINUOUS
 10
11.553010999
 20
13.8969483091
 11
11.4851493518
 21
13.8969483091
  0
LINE
  5
2CF
100
AcDbEntity
  8
0
100
AcDbLine
 62
9
  6
CONTINUOUS
 10
11.3657220633
 20
13.8969483091
 11
10.9951493518
 21
13.8969483091
  0
LINE
  5
2D0
100
AcDbEntity
  8
0
100
AcDbLine
 62
9
  6
CONTINUOUS
 10
10.8802353337
 20
13.8969483091
 11
10.5096626221
 21
13.8969483091
  0
LINE
  5
2D1
100
AcDbEntity
  8
0
100
AcDbLine
 62
9
  6
CONTINUOUS
 10
10.3902353337
 20
13.8969483091
 11
10.3223736865
 21
13.8969483091
  0
LINE
  5
2D2
100
AcDbEntity
  8
0
100
AcDbLine
 62
9
  6
CONTINUOUS
 10
12.3823121358
 20
13.903066339
 11
12.2702304132
 21
13.903066339
  0
LINE
  5
2D3
100
AcDbEntity
  8
0
100
AcDbLine
 62
9
  6
CONTINUOUS
 10
12.2148290234
 20
13.903066339
 11
12.1027473008
 21
13.903066339
  0
LINE
  5
2D4
100
AcDbEntity
  8
0
100
AcDbLine
 62
9
  6
CONTINUOUS
 10
11.9000637337
 20
13.903066339
 11
11.7879820111
 21
13.903066339
  0
LINE
  5
2D5
100
AcDbEntity
  8
0
100
AcDbLine
 62
9
  6
CONTINUOUS
 10
11.4759816061
 20
13.903066339
 11
11.3638998835
 21
13.903066339
  0
LINE
  5
2D6
100
AcDbEntity
  8
0
100
AcDbLine
 62
9
  6
CONTINUOUS
 10
10.993733204
 20
13.903066339
 11
10.8816514814
 21
13.903066339
  0
LINE
  5
2D7
100
AcDbEntity
  8
0
100
AcDbLine
 62
9
  6
CONTINUOUS
 10
10.511484802
 20
13.903066339
 11
10.3994030793
 21
13.903066339
  0
LINE
  5
2D8
100
AcDbEntity
  8
0
100
AcDbLine
 62
9
  6
CONTINUOUS
 10
10.0874026744
 20
13.903066339
 11
9.9753209518
 21
13.903066339
  0
LINE
  5
2D9
100
AcDbEntity
  8
0
100
AcDbLine
 62
9
  6
CONTINUOUS
 10
9.7726373847
 20
13.903066339
 11
9.6605556621
 21
13.903066339
  0
LINE
  5
2DA
100
AcDbEntity
  8
0
100
AcDbLine
 62
9
  6
CONTINUOUS
 10
9.6051542723
 20
13.903066339
 11
9.4930725497
 21
13.903066339
  0
LINE
  5
2DB
100
AcDbEntity
  8
0
100
AcDbLine
 62
7
  6
CONTINUOUS
 10
10.1471306399
 20
13.9060974267
 11
10.3895491499
 21
13.9060974267
  0
LINE
  5
2DC
100
AcDbEntity
  8
0
100
AcDbLine
 62
7
  6
CONTINUOUS
 10
10.5117121335
 20
13.9060974267
 11
10.8795491499
 21
13.9060974267
  0
LINE
  5
2DD
100
AcDbEntity
  8
0
100
AcDbLine
 62
7
  6
CONTINUOUS
 10
10.9958355356
 20
13.9060974267
 11
11.3636725519
 21
13.9060974267
  0
LINE
  5
2DE
100
AcDbEntity
  8
0
100
AcDbLine
 62
7
  6
CONTINUOUS
 10
11.4858355356
 20
13.9060974267
 11
11.7282540456
 21
13.9060974267
  0
LINE
  5
2DF
100
AcDbEntity
  8
0
100
AcDbLine
 62
9
  6
CONTINUOUS
 10
10.1471923793
 20
13.9068200768
 11
10.3894949511
 21
13.9068200768
  0
LINE
  5
2E0
100
AcDbEntity
  8
0
100
AcDbLine
 62
9
  6
CONTINUOUS
 10
10.5117663323
 20
13.9068200768
 11
10.8794949511
 21
13.9068200768
  0
LINE
  5
2E1
100
AcDbEntity
  8
0
100
AcDbLine
 62
9
  6
CONTINUOUS
 10
10.9958897344
 20
13.9068200768
 11
11.3636183532
 21
13.9068200768
  0
LINE
  5
2E2
100
AcDbEntity
  8
0
100
AcDbLine
 62
9
  6
CONTINUOUS
 10
11.4858897344
 20
13.9068200768
 11
11.7281923061
 21
13.9068200768
  0
LINE
  5
2E3
100
AcDbEntity
  8
0
100
AcDbLine
 62
9
  6
CONTINUOUS
 10
11.9811042127
 20
13.9115089747
 11
11.9006969314
 21
13.9115089747
  0
LINE
  5
2E4
100
AcDbEntity
  8
0
100
AcDbLine
 62
9
  6
CONTINUOUS
 10
11.7873488134
 20
13.9115089747
 11
11.4766148038
 21
13.9115089747
  0
LINE
  5
2E5
100
AcDbEntity
  8
0
100
AcDbLine
 62
9
  6
CONTINUOUS
 10
11.3632666858
 20
13.9115089747
 11
10.9943664017
 21
13.9115089747
  0
LINE
  5
2E6
100
AcDbEntity
  8
0
100
AcDbLine
 62
9
  6
CONTINUOUS
 10
10.8810182838
 20
13.9115089747
 11
10.5121179996
 21
13.9115089747
  0
LINE
  5
2E7
100
AcDbEntity
  8
0
100
AcDbLine
 62
9
  6
CONTINUOUS
 10
10.3987698817
 20
13.9115089747
 11
10.0880358721
 21
13.9115089747
  0
LINE
  5
2E8
100
AcDbEntity
  8
0
100
AcDbLine
 62
9
  6
CONTINUOUS
 10
9.9746877541
 20
13.9115089747
 11
9.8942804728
 21
13.9115089747
  0
LINE
  5
2E9
100
AcDbEntity
  8
0
100
AcDbLine
 62
7
  6
CONTINUOUS
 10
12.8187751657
 20
13.9191881882
 11
12.6739130401
 21
13.9191881882
  0
LINE
  5
2EA
100
AcDbEntity
  8
0
100
AcDbLine
 62
7
  6
CONTINUOUS
 10
12.5722619087
 20
13.9191881882
 11
12.4900962627
 21
13.9191881882
  0
LINE
  5
2EB
100
AcDbEntity
  8
0
100
AcDbLine
 62
7
  6
CONTINUOUS
 10
12.2798516431
 20
13.9191881882
 11
12.1976859971
 21
13.9191881882
  0
LINE
  5
2EC
100
AcDbEntity
  8
0
100
AcDbLine
 62
7
  6
CONTINUOUS
 10
11.8987751657
 20
13.9191881882
 11
11.8166095197
 21
13.9191881882
  0
LINE
  5
2ED
100
AcDbEntity
  8
0
100
AcDbLine
 62
7
  6
CONTINUOUS
 10
11.4550022087
 20
13.9191881882
 11
11.3728365627
 21
13.9191881882
  0
LINE
  5
2EE
100
AcDbEntity
  8
0
100
AcDbLine
 62
7
  6
CONTINUOUS
 10
10.9787751657
 20
13.9191881882
 11
10.8966095197
 21
13.9191881882
  0
LINE
  5
2EF
100
AcDbEntity
  8
0
100
AcDbLine
 62
7
  6
CONTINUOUS
 10
10.5025481227
 20
13.9191881882
 11
10.4203824768
 21
13.9191881882
  0
LINE
  5
2F0
100
AcDbEntity
  8
0
100
AcDbLine
 62
7
  6
CONTINUOUS
 10
10.0587751657
 20
13.9191881882
 11
9.9766095197
 21
13.9191881882
  0
LINE
  5
2F1
100
AcDbEntity
  8
0
100
AcDbLine
 62
7
  6
CONTINUOUS
 10
9.6776986883
 20
13.9191881882
 11
9.5955330424
 21
13.9191881882
  0
LINE
  5
2F2
100
AcDbEntity
  8
0
100
AcDbLine
 62
7
  6
CONTINUOUS
 10
9.3852884228
 20
13.9191881882
 11
9.3031227768
 21
13.9191881882
  0
LINE
  5
2F3
100
AcDbEntity
  8
0
100
AcDbLine
 62
7
  6
CONTINUOUS
 10
9.2014716454
 20
13.9191881882
 11
9.0566095197
 21
13.9191881882
  0
LINE
  5
2F4
100
AcDbEntity
  8
0
100
AcDbLine
 62
7
  6
CONTINUOUS
 10
9.7743059645
 20
13.9253140695
 11
9.9645349536
 21
13.9253140695
  0
LINE
  5
2F5
100
AcDbEntity
  8
0
100
AcDbLine
 62
7
  6
CONTINUOUS
 10
10.0890712542
 20
13.9253140695
 11
10.3977344996
 21
13.9253140695
  0
LINE
  5
2F6
100
AcDbEntity
  8
0
100
AcDbLine
 62
7
  6
CONTINUOUS
 10
10.5146226889
 20
13.9253140695
 11
10.8799829016
 21
13.9253140695
  0
LINE
  5
2F7
100
AcDbEntity
  8
0
100
AcDbLine
 62
7
  6
CONTINUOUS
 10
10.9954017838
 20
13.9253140695
 11
11.3607619965
 21
13.9253140695
  0
LINE
  5
2F8
100
AcDbEntity
  8
0
100
AcDbLine
 62
7
  6
CONTINUOUS
 10
11.4776501859
 20
13.9253140695
 11
11.7863134313
 21
13.9253140695
  0
LINE
  5
2F9
100
AcDbEntity
  8
0
100
AcDbLine
 62
7
  6
CONTINUOUS
 10
11.9108497319
 20
13.9253140695
 11
12.101078721
 21
13.9253140695
  0
LINE
  5
2FA
100
AcDbEntity
  8
0
100
AcDbLine
 62
9
  6
CONTINUOUS
 10
9.7744423686
 20
13.9268579812
 11
9.9635297522
 21
13.9268579812
  0
LINE
  5
2FB
100
AcDbEntity
  8
0
100
AcDbLine
 62
9
  6
CONTINUOUS
 10
10.5156278903
 20
13.9268579812
 11
10.8798671083
 21
13.9268579812
  0
LINE
  5
2FC
100
AcDbEntity
  8
0
100
AcDbLine
 62
9
  6
CONTINUOUS
 10
10.9955175772
 20
13.9268579812
 11
11.3597567952
 21
13.9268579812
  0
LINE
  5
2FD
100
AcDbEntity
  8
0
100
AcDbLine
 62
9
  6
CONTINUOUS
 10
11.9118549333
 20
13.9268579812
 11
12.1009423169
 21
13.9268579812
  0
LINE
  5
2FE
100
AcDbEntity
  8
0
100
AcDbLine
 62
7
  6
CONTINUOUS
 10
9.8942804728
 20
13.9115089747
 11
9.8991589083
 21
13.9113006481
  0
LINE
  5
2FF
100
AcDbEntity
  8
0
100
AcDbLine
 62
7
  6
CONTINUOUS
 10
9.0379492447
 20
13.9632592761
 11
9.0393954791
 21
13.9631463701
  0
LINE
  5
300
100
AcDbEntity
  8
0
100
AcDbLine
 62
7
  6
CONTINUOUS
 10
10.7526923427
 20
13.8898895611
 11
10.7130364961
 21
13.8930960388
  0
LINE
  5
301
100
AcDbEntity
  8
0
100
AcDbLine
 62
9
  6
CONTINUOUS
 10
12.833733204
 20
13.933066339
 11
12.6589550018
 21
13.933066339
  0
LINE
  5
302
100
AcDbEntity
  8
0
100
AcDbLine
 62
9
  6
CONTINUOUS
 10
12.587219947
 20
13.933066339
 11
12.4751382244
 21
13.933066339
  0
LINE
  5
303
100
AcDbEntity
  8
0
100
AcDbLine
 62
9
  6
CONTINUOUS
 10
12.2948096814
 20
13.933066339
 11
12.1827279588
 21
13.933066339
  0
LINE
  5
304
100
AcDbEntity
  8
0
100
AcDbLine
 62
9
  6
CONTINUOUS
 10
11.913733204
 20
13.933066339
 11
11.8016514814
 21
13.933066339
  0
LINE
  5
305
100
AcDbEntity
  8
0
100
AcDbLine
 62
9
  6
CONTINUOUS
 10
11.469960247
 20
13.933066339
 11
11.3578785244
 21
13.933066339
  0
LINE
  5
306
100
AcDbEntity
  8
0
100
AcDbLine
 62
9
  6
CONTINUOUS
 10
10.993733204
 20
13.933066339
 11
10.8816514814
 21
13.933066339
  0
LINE
  5
307
100
AcDbEntity
  8
0
100
AcDbLine
 62
9
  6
CONTINUOUS
 10
10.5175061611
 20
13.933066339
 11
10.4054244384
 21
13.933066339
  0
LINE
  5
308
100
AcDbEntity
  8
0
100
AcDbLine
 62
9
  6
CONTINUOUS
 10
10.073733204
 20
13.933066339
 11
9.9616514814
 21
13.933066339
  0
LINE
  5
309
100
AcDbEntity
  8
0
100
AcDbLine
 62
9
  6
CONTINUOUS
 10
9.6926567267
 20
13.933066339
 11
9.580575004
 21
13.933066339
  0
LINE
  5
30A
100
AcDbEntity
  8
0
100
AcDbLine
 62
9
  6
CONTINUOUS
 10
9.4002464611
 20
13.933066339
 11
9.2881647385
 21
13.933066339
  0
LINE
  5
30B
100
AcDbEntity
  8
0
100
AcDbLine
 62
9
  6
CONTINUOUS
 10
9.2164296837
 20
13.933066339
 11
9.0416514814
 21
13.933066339
  0
LINE
  5
30C
100
AcDbEntity
  8
0
100
AcDbLine
 62
9
  6
CONTINUOUS
 10
12.409245644
 20
13.933604933
 11
12.2948096814
 21
13.933604933
  0
LINE
  5
30D
100
AcDbEntity
  8
0
100
AcDbLine
 62
9
  6
CONTINUOUS
 10
12.1826875643
 20
13.933604933
 11
11.913733204
 21
13.933604933
  0
LINE
  5
30E
100
AcDbEntity
  8
0
100
AcDbLine
 62
9
  6
CONTINUOUS
 10
11.8016514814
 20
13.933604933
 11
11.469960247
 21
13.933604933
  0
LINE
  5
30F
100
AcDbEntity
  8
0
100
AcDbLine
 62
9
  6
CONTINUOUS
 10
11.3578785244
 20
13.933604933
 11
10.993733204
 21
13.933604933
  0
LINE
  5
310
100
AcDbEntity
  8
0
100
AcDbLine
 62
9
  6
CONTINUOUS
 10
10.8816514814
 20
13.933604933
 11
10.5175061611
 21
13.933604933
  0
LINE
  5
311
100
AcDbEntity
  8
0
100
AcDbLine
 62
9
  6
CONTINUOUS
 10
10.4054244384
 20
13.933604933
 11
10.073733204
 21
13.933604933
  0
LINE
  5
312
100
AcDbEntity
  8
0
100
AcDbLine
 62
9
  6
CONTINUOUS
 10
9.9616514814
 20
13.933604933
 11
9.6926971212
 21
13.933604933
  0
LINE
  5
313
100
AcDbEntity
  8
0
100
AcDbLine
 62
9
  6
CONTINUOUS
 10
9.580575004
 20
13.933604933
 11
9.4661390414
 21
13.933604933
  0
LINE
  5
314
100
AcDbEntity
  8
0
100
AcDbLine
 62
7
  6
CONTINUOUS
 10
9.2276691567
 20
13.951757168
 11
9.2867629263
 21
13.951757168
  0
LINE
  5
315
100
AcDbEntity
  8
0
100
AcDbLine
 62
7
  6
CONTINUOUS
 10
9.4016482733
 20
13.951757168
 11
9.5791731919
 21
13.951757168
  0
LINE
  5
316
100
AcDbEntity
  8
0
100
AcDbLine
 62
7
  6
CONTINUOUS
 10
9.6940585388
 20
13.951757168
 11
9.9602496693
 21
13.951757168
  0
LINE
  5
317
100
AcDbEntity
  8
0
100
AcDbLine
 62
7
  6
CONTINUOUS
 10
10.0751350162
 20
13.951757168
 11
10.4040226263
 21
13.951757168
  0
LINE
  5
318
100
AcDbEntity
  8
0
100
AcDbLine
 62
7
  6
CONTINUOUS
 10
10.5189079732
 20
13.951757168
 11
10.8802496693
 21
13.951757168
  0
LINE
  5
319
100
AcDbEntity
  8
0
100
AcDbLine
 62
7
  6
CONTINUOUS
 10
10.9951350162
 20
13.951757168
 11
11.3564767122
 21
13.951757168
  0
LINE
  5
31A
100
AcDbEntity
  8
0
100
AcDbLine
 62
7
  6
CONTINUOUS
 10
11.4713620592
 20
13.951757168
 11
11.8002496693
 21
13.951757168
  0
LINE
  5
31B
100
AcDbEntity
  8
0
100
AcDbLine
 62
7
  6
CONTINUOUS
 10
11.9151350162
 20
13.951757168
 11
12.1813261466
 21
13.951757168
  0
LINE
  5
31C
100
AcDbEntity
  8
0
100
AcDbLine
 62
7
  6
CONTINUOUS
 10
12.2962114936
 20
13.951757168
 11
12.4737364122
 21
13.951757168
  0
LINE
  5
31D
100
AcDbEntity
  8
0
100
AcDbLine
 62
7
  6
CONTINUOUS
 10
12.5886217592
 20
13.951757168
 11
12.6477155288
 21
13.951757168
  0
LINE
  5
31E
100
AcDbEntity
  8
0
100
AcDbLine
 62
7
  6
CONTINUOUS
 10
13.2363398682
 20
13.9541881882
 11
13.1541742222
 21
13.9541881882
  0
LINE
  5
31F
100
AcDbEntity
  8
0
100
AcDbLine
 62
7
  6
CONTINUOUS
 10
13.1376734577
 20
13.9541881882
 11
13.0555078117
 21
13.9541881882
  0
LINE
  5
320
100
AcDbEntity
  8
0
100
AcDbLine
 62
7
  6
CONTINUOUS
 10
12.9446528323
 20
13.9541881882
 11
12.8624871863
 21
13.9541881882
  0
LINE
  5
321
100
AcDbEntity
  8
0
100
AcDbLine
 62
7
  6
CONTINUOUS
 10
12.6657139196
 20
13.9541881882
 11
12.5835482736
 21
13.9541881882
  0
LINE
  5
322
100
AcDbEntity
  8
0
100
AcDbLine
 62
7
  6
CONTINUOUS
 10
12.3130476884
 20
13.9541881882
 11
12.2308820424
 21
13.9541881882
  0
LINE
  5
323
100
AcDbEntity
  8
0
100
AcDbLine
 62
7
  6
CONTINUOUS
 10
11.9020673455
 20
13.9541881882
 11
11.8199016995
 21
13.9541881882
  0
LINE
  5
324
100
AcDbEntity
  8
0
100
AcDbLine
 62
7
  6
CONTINUOUS
 10
11.4507347039
 20
13.9541881882
 11
11.3685690579
 21
13.9541881882
  0
LINE
  5
325
100
AcDbEntity
  8
0
100
AcDbLine
 62
7
  6
CONTINUOUS
 10
10.9787751657
 20
13.9541881882
 11
10.8966095197
 21
13.9541881882
  0
LINE
  5
326
100
AcDbEntity
  8
0
100
AcDbLine
 62
7
  6
CONTINUOUS
 10
10.5068156276
 20
13.9541881882
 11
10.4246499816
 21
13.9541881882
  0
LINE
  5
327
100
AcDbEntity
  8
0
100
AcDbLine
 62
7
  6
CONTINUOUS
 10
10.0554829859
 20
13.9541881882
 11
9.97331734
 21
13.9541881882
  0
LINE
  5
328
100
AcDbEntity
  8
0
100
AcDbLine
 62
7
  6
CONTINUOUS
 10
9.644502643
 20
13.9541881882
 11
9.562336997
 21
13.9541881882
  0
LINE
  5
329
100
AcDbEntity
  8
0
100
AcDbLine
 62
7
  6
CONTINUOUS
 10
9.2918364119
 20
13.9541881882
 11
9.2096707659
 21
13.9541881882
  0
LINE
  5
32A
100
AcDbEntity
  8
0
100
AcDbLine
 62
7
  6
CONTINUOUS
 10
9.0128974991
 20
13.9541881882
 11
8.9307318532
 21
13.9541881882
  0
LINE
  5
32B
100
AcDbEntity
  8
0
100
AcDbLine
 62
7
  6
CONTINUOUS
 10
8.8198768737
 20
13.9541881882
 11
8.7377112278
 21
13.9541881882
  0
LINE
  5
32C
100
AcDbEntity
  8
0
100
AcDbLine
 62
7
  6
CONTINUOUS
 10
8.7212104632
 20
13.9541881882
 11
8.6390448173
 21
13.9541881882
  0
LINE
  5
32D
100
AcDbEntity
  8
0
100
AcDbLine
 62
9
  6
CONTINUOUS
 10
9.4018883261
 20
13.9544311784
 11
9.5597633425
 21
13.9544311784
  0
LINE
  5
32E
100
AcDbEntity
  8
0
100
AcDbLine
 62
9
  6
CONTINUOUS
 10
9.6942590896
 20
13.9544311784
 11
9.9600491185
 21
13.9544311784
  0
LINE
  5
32F
100
AcDbEntity
  8
0
100
AcDbLine
 62
9
  6
CONTINUOUS
 10
10.075335567
 20
13.9544311784
 11
10.4038220755
 21
13.9544311784
  0
LINE
  5
330
100
AcDbEntity
  8
0
100
AcDbLine
 62
9
  6
CONTINUOUS
 10
10.519108524
 20
13.9544311784
 11
10.8800491185
 21
13.9544311784
  0
LINE
  5
331
100
AcDbEntity
  8
0
100
AcDbLine
 62
9
  6
CONTINUOUS
 10
10.995335567
 20
13.9544311784
 11
11.3562761615
 21
13.9544311784
  0
LINE
  5
332
100
AcDbEntity
  8
0
100
AcDbLine
 62
9
  6
CONTINUOUS
 10
11.47156261
 20
13.9544311784
 11
11.8000491185
 21
13.9544311784
  0
LINE
  5
333
100
AcDbEntity
  8
0
100
AcDbLine
 62
9
  6
CONTINUOUS
 10
11.915335567
 20
13.9544311784
 11
12.1811255959
 21
13.9544311784
  0
LINE
  5
334
100
AcDbEntity
  8
0
100
AcDbLine
 62
9
  6
CONTINUOUS
 10
12.315621343
 20
13.9544311784
 11
12.4734963594
 21
13.9544311784
  0
LINE
  5
335
100
AcDbEntity
  8
0
100
AcDbLine
 62
9
  6
CONTINUOUS
 10
12.8374354408
 20
13.9632592761
 11
12.679483775
 21
13.9632592761
  0
LINE
  5
336
100
AcDbEntity
  8
0
100
AcDbLine
 62
9
  6
CONTINUOUS
 10
12.5697784181
 20
13.9632592761
 11
12.3268175439
 21
13.9632592761
  0
LINE
  5
337
100
AcDbEntity
  8
0
100
AcDbLine
 62
9
  6
CONTINUOUS
 10
12.217112187
 20
13.9632592761
 11
11.915837201
 21
13.9632592761
  0
LINE
  5
338
100
AcDbEntity
  8
0
100
AcDbLine
 62
9
  6
CONTINUOUS
 10
11.806131844
 20
13.9632592761
 11
11.4645045594
 21
13.9632592761
  0
LINE
  5
339
100
AcDbEntity
  8
0
100
AcDbLine
 62
9
  6
CONTINUOUS
 10
11.3547992024
 20
13.9632592761
 11
10.9925450212
 21
13.9632592761
  0
LINE
  5
33A
100
AcDbEntity
  8
0
100
AcDbLine
 62
9
  6
CONTINUOUS
 10
10.8828396643
 20
13.9632592761
 11
10.5205854831
 21
13.9632592761
  0
LINE
  5
33B
100
AcDbEntity
  8
0
100
AcDbLine
 62
9
  6
CONTINUOUS
 10
10.4108801261
 20
13.9632592761
 11
10.0692528414
 21
13.9632592761
  0
LINE
  5
33C
100
AcDbEntity
  8
0
100
AcDbLine
 62
9
  6
CONTINUOUS
 10
9.9595474845
 20
13.9632592761
 11
9.6582724985
 21
13.9632592761
  0
LINE
  5
33D
100
AcDbEntity
  8
0
100
AcDbLine
 62
9
  6
CONTINUOUS
 10
9.5485671416
 20
13.9632592761
 11
9.3056062674
 21
13.9632592761
  0
LINE
  5
33E
100
AcDbEntity
  8
0
100
AcDbLine
 62
9
  6
CONTINUOUS
 10
9.1959009104
 20
13.9632592761
 11
9.0379492447
 21
13.9632592761
  0
LINE
  5
33F
100
AcDbEntity
  8
0
100
AcDbLine
 62
9
  6
CONTINUOUS
 10
13.2512979065
 20
13.968066339
 11
13.0405497734
 21
13.968066339
  0
LINE
  5
340
100
AcDbEntity
  8
0
100
AcDbLine
 62
9
  6
CONTINUOUS
 10
12.9596108706
 20
13.968066339
 11
12.847529148
 21
13.968066339
  0
LINE
  5
341
100
AcDbEntity
  8
0
100
AcDbLine
 62
9
  6
CONTINUOUS
 10
12.6806719579
 20
13.968066339
 11
12.5685902353
 21
13.968066339
  0
LINE
  5
342
100
AcDbEntity
  8
0
100
AcDbLine
 62
9
  6
CONTINUOUS
 10
12.3280057267
 20
13.968066339
 11
12.2159240041
 21
13.968066339
  0
LINE
  5
343
100
AcDbEntity
  8
0
100
AcDbLine
 62
9
  6
CONTINUOUS
 10
11.9170253838
 20
13.968066339
 11
11.8049436612
 21
13.968066339
  0
LINE
  5
344
100
AcDbEntity
  8
0
100
AcDbLine
 62
9
  6
CONTINUOUS
 10
11.4656927422
 20
13.968066339
 11
11.3536110196
 21
13.968066339
  0
LINE
  5
345
100
AcDbEntity
  8
0
100
AcDbLine
 62
9
  6
CONTINUOUS
 10
10.993733204
 20
13.968066339
 11
10.8816514814
 21
13.968066339
  0
LINE
  5
346
100
AcDbEntity
  8
0
100
AcDbLine
 62
9
  6
CONTINUOUS
 10
10.5217736659
 20
13.968066339
 11
10.4096919433
 21
13.968066339
  0
LINE
  5
347
100
AcDbEntity
  8
0
100
AcDbLine
 62
9
  6
CONTINUOUS
 10
10.0704410243
 20
13.968066339
 11
9.9583593016
 21
13.968066339
  0
LINE
  5
348
100
AcDbEntity
  8
0
100
AcDbLine
 62
9
  6
CONTINUOUS
 10
9.6594606813
 20
13.968066339
 11
9.5473789587
 21
13.968066339
  0
LINE
  5
349
100
AcDbEntity
  8
0
100
AcDbLine
 62
9
  6
CONTINUOUS
 10
9.3067944502
 20
13.968066339
 11
9.1947127276
 21
13.968066339
  0
LINE
  5
34A
100
AcDbEntity
  8
0
100
AcDbLine
 62
9
  6
CONTINUOUS
 10
9.0278555375
 20
13.968066339
 11
8.9157738148
 21
13.968066339
  0
LINE
  5
34B
100
AcDbEntity
  8
0
100
AcDbLine
 62
9
  6
CONTINUOUS
 10
8.8348349121
 20
13.968066339
 11
8.6240867789
 21
13.968066339
  0
LINE
  5
34C
100
AcDbEntity
  8
0
100
AcDbLine
 62
9
  6
CONTINUOUS
 10
12.97567916
 20
13.9838534156
 11
12.9607949014
 21
13.9838534156
  0
LINE
  5
34D
100
AcDbEntity
  8
0
100
AcDbLine
 62
9
  6
CONTINUOUS
 10
12.8463451173
 20
13.9838534156
 11
12.6818559886
 21
13.9838534156
  0
LINE
  5
34E
100
AcDbEntity
  8
0
100
AcDbLine
 62
9
  6
CONTINUOUS
 10
12.5674062045
 20
13.9838534156
 11
12.3291897575
 21
13.9838534156
  0
LINE
  5
34F
100
AcDbEntity
  8
0
100
AcDbLine
 62
9
  6
CONTINUOUS
 10
12.2147399734
 20
13.9838534156
 11
11.9182094146
 21
13.9838534156
  0
LINE
  5
350
100
AcDbEntity
  8
0
100
AcDbLine
 62
9
  6
CONTINUOUS
 10
11.8037596305
 20
13.9838534156
 11
11.4668767729
 21
13.9838534156
  0
LINE
  5
351
100
AcDbEntity
  8
0
100
AcDbLine
 62
9
  6
CONTINUOUS
 10
11.3524269888
 20
13.9838534156
 11
10.9949172348
 21
13.9838534156
  0
LINE
  5
352
100
AcDbEntity
  8
0
100
AcDbLine
 62
9
  6
CONTINUOUS
 10
10.8804674507
 20
13.9838534156
 11
10.5229576966
 21
13.9838534156
  0
LINE
  5
353
100
AcDbEntity
  8
0
100
AcDbLine
 62
9
  6
CONTINUOUS
 10
10.4085079125
 20
13.9838534156
 11
10.071625055
 21
13.9838534156
  0
LINE
  5
354
100
AcDbEntity
  8
0
100
AcDbLine
 62
9
  6
CONTINUOUS
 10
9.9571752709
 20
13.9838534156
 11
9.6606447121
 21
13.9838534156
  0
LINE
  5
355
100
AcDbEntity
  8
0
100
AcDbLine
 62
9
  6
CONTINUOUS
 10
9.546194928
 20
13.9838534156
 11
9.307978481
 21
13.9838534156
  0
LINE
  5
356
100
AcDbEntity
  8
0
100
AcDbLine
 62
9
  6
CONTINUOUS
 10
9.1935286968
 20
13.9838534156
 11
9.0290395682
 21
13.9838534156
  0
LINE
  5
357
100
AcDbEntity
  8
0
100
AcDbLine
 62
9
  6
CONTINUOUS
 10
8.9145897841
 20
13.9838534156
 11
8.8997055255
 21
13.9838534156
  0
LINE
  5
358
100
AcDbEntity
  8
0
100
AcDbLine
 62
7
  6
CONTINUOUS
 10
8.8361386017
 20
13.9854488678
 11
8.9144701252
 21
13.9854488678
  0
LINE
  5
359
100
AcDbEntity
  8
0
100
AcDbLine
 62
7
  6
CONTINUOUS
 10
9.0291592271
 20
13.9854488678
 11
9.1934090379
 21
13.9854488678
  0
LINE
  5
35A
100
AcDbEntity
  8
0
100
AcDbLine
 62
7
  6
CONTINUOUS
 10
9.3080981399
 20
13.9854488678
 11
9.5460752691
 21
13.9854488678
  0
LINE
  5
35B
100
AcDbEntity
  8
0
100
AcDbLine
 62
7
  6
CONTINUOUS
 10
9.660764371
 20
13.9854488678
 11
9.957055612
 21
13.9854488678
  0
LINE
  5
35C
100
AcDbEntity
  8
0
100
AcDbLine
 62
7
  6
CONTINUOUS
 10
10.0717447139
 20
13.9854488678
 11
10.4083882536
 21
13.9854488678
  0
LINE
  5
35D
100
AcDbEntity
  8
0
100
AcDbLine
 62
7
  6
CONTINUOUS
 10
10.5230773555
 20
13.9854488678
 11
10.8803477918
 21
13.9854488678
  0
LINE
  5
35E
100
AcDbEntity
  8
0
100
AcDbLine
 62
7
  6
CONTINUOUS
 10
10.9950368937
 20
13.9854488678
 11
11.3523073299
 21
13.9854488678
  0
LINE
  5
35F
100
AcDbEntity
  8
0
100
AcDbLine
 62
7
  6
CONTINUOUS
 10
11.4669964319
 20
13.9854488678
 11
11.8036399716
 21
13.9854488678
  0
LINE
  5
360
100
AcDbEntity
  8
0
100
AcDbLine
 62
7
  6
CONTINUOUS
 10
11.9183290735
 20
13.9854488678
 11
12.2146203145
 21
13.9854488678
  0
LINE
  5
361
100
AcDbEntity
  8
0
100
AcDbLine
 62
7
  6
CONTINUOUS
 10
12.3293094164
 20
13.9854488678
 11
12.5672865456
 21
13.9854488678
  0
LINE
  5
362
100
AcDbEntity
  8
0
100
AcDbLine
 62
7
  6
CONTINUOUS
 10
12.6819756475
 20
13.9854488678
 11
12.8462254584
 21
13.9854488678
  0
LINE
  5
363
100
AcDbEntity
  8
0
100
AcDbLine
 62
7
  6
CONTINUOUS
 10
12.9609145603
 20
13.9854488678
 11
13.0392460838
 21
13.9854488678
  0
LINE
  5
364
100
AcDbEntity
  8
0
100
AcDbLine
 62
9
  6
CONTINUOUS
 10
8.8364767386
 20
13.9895627604
 11
8.9141615832
 21
13.9895627604
  0
LINE
  5
365
100
AcDbEntity
  8
0
100
AcDbLine
 62
9
  6
CONTINUOUS
 10
9.0294677691
 20
13.9895627604
 11
9.193100496
 21
13.9895627604
  0
LINE
  5
366
100
AcDbEntity
  8
0
100
AcDbLine
 62
9
  6
CONTINUOUS
 10
9.3084066818
 20
13.9895627604
 11
9.5457667271
 21
13.9895627604
  0
LINE
  5
367
100
AcDbEntity
  8
0
100
AcDbLine
 62
9
  6
CONTINUOUS
 10
9.6610729129
 20
13.9895627604
 11
9.95674707
 21
13.9895627604
  0
LINE
  5
368
100
AcDbEntity
  8
0
100
AcDbLine
 62
9
  6
CONTINUOUS
 10
10.0720532559
 20
13.9895627604
 11
10.4080797117
 21
13.9895627604
  0
LINE
  5
369
100
AcDbEntity
  8
0
100
AcDbLine
 62
9
  6
CONTINUOUS
 10
10.5233858975
 20
13.9895627604
 11
10.8800392498
 21
13.9895627604
  0
LINE
  5
36A
100
AcDbEntity
  8
0
100
AcDbLine
 62
9
  6
CONTINUOUS
 10
10.9953454356
 20
13.9895627604
 11
11.351998788
 21
13.9895627604
  0
LINE
  5
36B
100
AcDbEntity
  8
0
100
AcDbLine
 62
9
  6
CONTINUOUS
 10
11.4673049738
 20
13.9895627604
 11
11.8033314296
 21
13.9895627604
  0
LINE
  5
36C
100
AcDbEntity
  8
0
100
AcDbLine
 62
9
  6
CONTINUOUS
 10
11.9186376154
 20
13.9895627604
 11
12.2143117725
 21
13.9895627604
  0
LINE
  5
36D
100
AcDbEntity
  8
0
100
AcDbLine
 62
9
  6
CONTINUOUS
 10
12.3296179584
 20
13.9895627604
 11
12.5669780037
 21
13.9895627604
  0
LINE
  5
36E
100
AcDbEntity
  8
0
100
AcDbLine
 62
9
  6
CONTINUOUS
 10
12.6822841895
 20
13.9895627604
 11
12.8459169164
 21
13.9895627604
  0
LINE
  5
36F
100
AcDbEntity
  8
0
100
AcDbLine
 62
9
  6
CONTINUOUS
 10
12.9612231022
 20
13.9895627604
 11
13.0389079469
 21
13.9895627604
  0
LINE
  5
370
100
AcDbEntity
  8
0
100
AcDbLine
 62
7
  6
CONTINUOUS
 10
8.2916908933
 20
14.0122593848
 11
13.5836937922
 21
14.0122593848
  0
LINE
  5
371
100
AcDbEntity
  8
0
100
AcDbLine
 62
9
  6
CONTINUOUS
 10
13.5918231074
 20
14.0154812542
 11
8.2835615781
 21
14.0154812542
  0
LINE
  5
372
100
AcDbEntity
  8
0
100
AcDbLine
 62
9
  6
CONTINUOUS
 10
13.8776923427
 20
14.1805279342
 11
7.9976923427
 21
14.1805279342
  0
LINE
  5
373
100
AcDbEntity
  8
0
100
AcDbLine
 62
9
  6
CONTINUOUS
 10
13.8926923427
 20
14.2065086963
 11
7.9826923427
 21
14.2065086963
  0
LINE
  5
374
100
AcDbEntity
  8
0
100
AcDbLine
 62
7
  6
CONTINUOUS
 10
10.5920986252
 20
16.4108689861
 11
10.5402562679
 21
16.4627113434
  0
LINE
  5
375
100
AcDbEntity
  8
0
100
AcDbLine
 62
7
  6
CONTINUOUS
 10
10.5026923427
 20
16.7927752685
 11
10.4851923427
 21
16.8102752685
  0
LINE
  5
376
100
AcDbEntity
  8
0
100
AcDbLine
 62
7
  6
CONTINUOUS
 10
10.5315274909
 20
16.9657692879
 11
10.5314423427
 21
16.9658676239
  0
LINE
  5
377
100
AcDbEntity
  8
0
100
AcDbLine
 62
9
  6
CONTINUOUS
 10
13.8926923427
 20
15.0851881882
 11
7.9826923427
 21
15.0851881882
  0
LINE
  5
378
100
AcDbEntity
  8
0
100
AcDbLine
 62
7
  6
CONTINUOUS
 10
13.8626922878
 20
15.1151881882
 11
8.0126923976
 21
15.1151881882
  0
LINE
  5
379
100
AcDbEntity
  8
0
100
AcDbLine
 62
9
  6
CONTINUOUS
 10
9.4776923427
 20
15.1451881882
 11
12.3976923427
 21
15.1451881882
  0
LINE
  5
37A
100
AcDbEntity
  8
0
100
AcDbLine
 62
9
  6
CONTINUOUS
 10
12.3976923427
 20
15.3761881882
 11
9.4776923427
 21
15.3761881882
  0
LINE
  5
37B
100
AcDbEntity
  8
0
100
AcDbLine
 62
7
  6
CONTINUOUS
 10
12.3676923427
 20
15.4061881882
 11
9.5076923427
 21
15.4061881882
  0
LINE
  5
37C
100
AcDbEntity
  8
0
100
AcDbLine
 62
9
  6
CONTINUOUS
 10
10.2376923427
 20
15.4361881882
 11
11.6376923427
 21
15.4361881882
  0
LINE
  5
37D
100
AcDbEntity
  8
0
100
AcDbLine
 62
7
  6
CONTINUOUS
 10
11.171107992
 20
16.9485430221
 11
11.1586143449
 21
16.9610973079
  0
LINE
  5
37E
100
AcDbEntity
  8
0
100
AcDbLine
 62
9
  6
CONTINUOUS
 10
11.6376923427
 20
15.6201881882
 11
10.2376923427
 21
15.6201881882
  0
LINE
  5
37F
100
AcDbEntity
  8
0
100
AcDbLine
 62
7
  6
CONTINUOUS
 10
11.6176923427
 20
15.6401881882
 11
10.2576923427
 21
15.6401881882
  0
LINE
  5
380
100
AcDbEntity
  8
0
100
AcDbLine
 62
9
  6
CONTINUOUS
 10
10.2376923427
 20
15.6601881882
 11
11.6376923427
 21
15.6601881882
  0
LINE
  5
381
100
AcDbEntity
  8
0
100
AcDbLine
 62
7
  6
CONTINUOUS
 10
11.1974999639
 20
15.8491881882
 11
10.6778847216
 21
15.8491881882
  0
LINE
  5
382
100
AcDbEntity
  8
0
100
AcDbLine
 62
7
  6
CONTINUOUS
 10
10.2376923427
 20
16.1991881882
 11
11.6376923427
 21
16.1991881882
  0
LINE
  5
383
100
AcDbEntity
  8
0
100
AcDbLine
 62
7
  6
CONTINUOUS
 10
10.5315274909
 20
16.9657692879
 11
10.5778130059
 21
16.9390400077
  0
LINE
  5
384
100
AcDbEntity
  8
0
100
AcDbLine
 62
9
  6
CONTINUOUS
 10
11.2833115785
 20
16.2977063944
 11
10.5920731069
 21
16.2977063944
  0
LINE
  5
385
100
AcDbEntity
  8
0
100
AcDbLine
 62
9
  6
CONTINUOUS
 10
11.2832860603
 20
16.4108689861
 11
10.5920986252
 21
16.4108689861
  0
LINE
  5
386
100
AcDbEntity
  8
0
100
AcDbLine
 62
9
  6
CONTINUOUS
 10
10.5402562679
 20
16.4627113434
 11
11.3351284176
 21
16.4627113434
  0
LINE
  5
387
100
AcDbEntity
  8
0
100
AcDbLine
 62
9
  6
CONTINUOUS
 10
10.5026923427
 20
16.5956474182
 11
11.3726923427
 21
16.5956474182
  0
LINE
  5
388
100
AcDbEntity
  8
0
100
AcDbLine
 62
7
  6
CONTINUOUS
 10
11.3901923427
 20
16.9177752685
 11
10.4851923427
 21
16.9177752685
  0
ARC
  5
389
100
AcDbEntity
  8
0
100
AcDbCircle
 62
7
  6
CONTINUOUS
 10
9.2689685976
 20
9.0016636584
 40
4.9369083615
100
AcDbArc
 50
86.3691525784
 51
86.7470042242
  0
ARC
  5
38A
100
AcDbEntity
  8
0
100
AcDbCircle
 62
7
  6
CONTINUOUS
 10
8.2645196282
 20
9.4983114324
 40
4.5165018081
100
AcDbArc
 50
84.1993406607
 51
84.7201806026
  0
ARC
  5
38B
100
AcDbEntity
  8
0
100
AcDbCircle
 62
7
  6
CONTINUOUS
 10
9.2276691567
 20
14.951757168
 40
1.0
100
AcDbArc
 50
269.4370126836
 51
270.0
  0
ARC
  5
38C
100
AcDbEntity
  8
0
100
AcDbCircle
 62
7
  6
CONTINUOUS
 10
9.1158109874
 20
14.9602234425
 40
1.0
100
AcDbArc
 50
264.9073926562
 51
265.5343308342
  0
ARC
  5
38D
100
AcDbEntity
  8
0
100
AcDbCircle
 62
7
  6
CONTINUOUS
 10
9.1158109874
 20
14.9602234425
 40
1.0
100
AcDbArc
 50
257.5196096022
 51
258.4033226512
  0
ARC
  5
38E
100
AcDbEntity
  8
0
100
AcDbCircle
 62
7
  6
CONTINUOUS
 10
8.8726923427
 20
13.8618071623
 40
0.125
100
AcDbArc
 50
77.5196096022
 51
81.6730977903
  0
ARC
  5
38F
100
AcDbEntity
  8
0
100
AcDbCircle
 62
7
  6
CONTINUOUS
 10
8.0126923427
 20
14.2065086963
 40
0.03
100
AcDbArc
 50
180.0
 51
240.0
  0
ARC
  5
390
100
AcDbEntity
  8
0
100
AcDbCircle
 62
7
  6
CONTINUOUS
 10
8.2985615781
 20
14.0414620163
 40
0.03
100
AcDbArc
 50
240.0
 51
256.7604517071
  0
ARC
  5
391
100
AcDbEntity
  8
0
100
AcDbCircle
 62
7
  6
CONTINUOUS
 10
8.0126923427
 20
15.0851881882
 40
0.03
100
AcDbArc
 50
90.0
 51
180.0
  0
ARC
  5
392
100
AcDbEntity
  8
0
100
AcDbCircle
 62
7
  6
CONTINUOUS
 10
9.4476923427
 20
15.1451881882
 40
0.03
100
AcDbArc
 50
270.0
 51
360.0
  0
ARC
  5
393
100
AcDbEntity
  8
0
100
AcDbCircle
 62
7
  6
CONTINUOUS
 10
9.1193059507
 20
13.9341881882
 40
0.015
100
AcDbArc
 50
184.2891533288
 51
270.0
  0
ARC
  5
394
100
AcDbEntity
  8
0
100
AcDbCircle
 62
7
  6
CONTINUOUS
 10
9.201471694
 20
13.9341881882
 40
0.015
100
AcDbArc
 50
270.0
 51
355.7108466712
  0
ARC
  5
395
100
AcDbEntity
  8
0
100
AcDbCircle
 62
7
  6
CONTINUOUS
 10
9.0566094711
 20
13.9341881882
 40
0.015
100
AcDbArc
 50
184.2891533288
 51
270.0
  0
ARC
  5
396
100
AcDbEntity
  8
0
100
AcDbCircle
 62
7
  6
CONTINUOUS
 10
9.3031227281
 20
13.9341881882
 40
0.015
100
AcDbArc
 50
184.2891533288
 51
270.0
  0
ARC
  5
397
100
AcDbEntity
  8
0
100
AcDbCircle
 62
7
  6
CONTINUOUS
 10
9.3852884714
 20
13.9341881882
 40
0.015
100
AcDbArc
 50
270.0
 51
355.7108466712
  0
ARC
  5
398
100
AcDbEntity
  8
0
100
AcDbCircle
 62
7
  6
CONTINUOUS
 10
8.7377111791
 20
13.9691881882
 40
0.015
100
AcDbArc
 50
184.2891533288
 51
270.0
  0
ARC
  5
399
100
AcDbEntity
  8
0
100
AcDbCircle
 62
7
  6
CONTINUOUS
 10
8.8198769224
 20
13.9691881882
 40
0.015
100
AcDbArc
 50
270.0
 51
355.7108466712
  0
ARC
  5
39A
100
AcDbEntity
  8
0
100
AcDbCircle
 62
7
  6
CONTINUOUS
 10
8.6390447686
 20
13.9691881882
 40
0.015
100
AcDbArc
 50
184.2891533288
 51
270.0
  0
ARC
  5
39B
100
AcDbEntity
  8
0
100
AcDbCircle
 62
7
  6
CONTINUOUS
 10
8.7212105119
 20
13.9691881882
 40
0.015
100
AcDbArc
 50
270.0
 51
303.4223499937
  0
ARC
  5
39C
100
AcDbEntity
  8
0
100
AcDbCircle
 62
7
  6
CONTINUOUS
 10
9.2096707172
 20
13.9691881882
 40
0.015
100
AcDbArc
 50
184.2891533288
 51
270.0
  0
ARC
  5
39D
100
AcDbEntity
  8
0
100
AcDbCircle
 62
7
  6
CONTINUOUS
 10
9.2918364606
 20
13.9691881882
 40
0.015
100
AcDbArc
 50
270.0
 51
355.7108466712
  0
ARC
  5
39E
100
AcDbEntity
  8
0
100
AcDbCircle
 62
7
  6
CONTINUOUS
 10
8.9307318045
 20
13.9691881882
 40
0.015
100
AcDbArc
 50
184.2891533288
 51
270.0
  0
ARC
  5
39F
100
AcDbEntity
  8
0
100
AcDbCircle
 62
7
  6
CONTINUOUS
 10
9.0128975478
 20
13.9691881882
 40
0.015
100
AcDbArc
 50
270.0
 51
355.7108466712
  0
ARC
  5
3A0
100
AcDbEntity
  8
0
100
AcDbCircle
 62
7
  6
CONTINUOUS
 10
10.9376923321
 20
-0.85863893
 40
0.4999999895
100
AcDbArc
 50
89.9999987819
 51
179.9189037453
  0
ARC
  5
3A1
100
AcDbEntity
  8
0
100
AcDbCircle
 62
7
  6
CONTINUOUS
 10
10.5826923427
 20
4.1627752685
 40
0.02
100
AcDbArc
 50
180.0
 51
270.0
  0
ARC
  5
3A2
100
AcDbEntity
  8
0
100
AcDbCircle
 62
7
  6
CONTINUOUS
 10
9.6227749592
 20
12.0727283672
 40
1.8613552347
100
AcDbArc
 50
87.1107833592
 51
87.8492743079
  0
ARC
  5
3A3
100
AcDbEntity
  8
0
100
AcDbCircle
 62
7
  6
CONTINUOUS
 10
9.9166094711
 20
13.8791881882
 40
0.015
100
AcDbArc
 50
184.2891533288
 51
270.0
  0
ARC
  5
3A4
100
AcDbEntity
  8
0
100
AcDbCircle
 62
7
  6
CONTINUOUS
 10
9.9987752144
 20
13.8791881882
 40
0.015
100
AcDbArc
 50
270.0
 51
355.7108466712
  0
ARC
  5
3A5
100
AcDbEntity
  8
0
100
AcDbCircle
 62
7
  6
CONTINUOUS
 10
10.0479045754
 20
13.8791881882
 40
0.015
100
AcDbArc
 50
184.2891533288
 51
270.0
  0
ARC
  5
3A6
100
AcDbEntity
  8
0
100
AcDbCircle
 62
7
  6
CONTINUOUS
 10
10.1300703187
 20
13.8791881882
 40
0.015
100
AcDbArc
 50
270.0
 51
355.7108466712
  0
ARC
  5
3A7
100
AcDbEntity
  8
0
100
AcDbCircle
 62
7
  6
CONTINUOUS
 10
9.5080305393
 20
13.9041881882
 40
0.015
100
AcDbArc
 50
184.2891533288
 51
270.0
  0
ARC
  5
3A8
100
AcDbEntity
  8
0
100
AcDbCircle
 62
7
  6
CONTINUOUS
 10
9.5901962827
 20
13.9041881882
 40
0.015
100
AcDbArc
 50
270.0
 51
355.7108466712
  0
ARC
  5
3A9
100
AcDbEntity
  8
0
100
AcDbCircle
 62
7
  6
CONTINUOUS
 10
9.9902789414
 20
13.9041881882
 40
0.015
100
AcDbArc
 50
184.2891533288
 51
270.0
  0
ARC
  5
3AA
100
AcDbEntity
  8
0
100
AcDbCircle
 62
7
  6
CONTINUOUS
 10
10.0724446847
 20
13.9041881882
 40
0.015
100
AcDbArc
 50
270.0
 51
355.7108466712
  0
ARC
  5
3AB
100
AcDbEntity
  8
0
100
AcDbCircle
 62
7
  6
CONTINUOUS
 10
9.6755136517
 20
13.9041881882
 40
0.015
100
AcDbArc
 50
184.2891533288
 51
270.0
  0
ARC
  5
3AC
100
AcDbEntity
  8
0
100
AcDbCircle
 62
7
  6
CONTINUOUS
 10
9.7576793951
 20
13.9041881882
 40
0.015
100
AcDbArc
 50
270.0
 51
355.7108466712
  0
ARC
  5
3AD
100
AcDbEntity
  8
0
100
AcDbCircle
 62
7
  6
CONTINUOUS
 10
9.9766094711
 20
13.9341881882
 40
0.015
100
AcDbArc
 50
184.2891533288
 51
270.0
  0
ARC
  5
3AE
100
AcDbEntity
  8
0
100
AcDbCircle
 62
7
  6
CONTINUOUS
 10
10.0587752144
 20
13.9341881882
 40
0.015
100
AcDbArc
 50
270.0
 51
355.7108466712
  0
ARC
  5
3AF
100
AcDbEntity
  8
0
100
AcDbCircle
 62
7
  6
CONTINUOUS
 10
9.5955329937
 20
13.9341881882
 40
0.015
100
AcDbArc
 50
184.2891533288
 51
270.0
  0
ARC
  5
3B0
100
AcDbEntity
  8
0
100
AcDbCircle
 62
7
  6
CONTINUOUS
 10
9.677698737
 20
13.9341881882
 40
0.015
100
AcDbArc
 50
270.0
 51
355.7108466712
  0
ARC
  5
3B1
100
AcDbEntity
  8
0
100
AcDbCircle
 62
7
  6
CONTINUOUS
 10
9.9733172913
 20
13.9691881882
 40
0.015
100
AcDbArc
 50
184.2891533288
 51
270.0
  0
ARC
  5
3B2
100
AcDbEntity
  8
0
100
AcDbCircle
 62
7
  6
CONTINUOUS
 10
10.0554830346
 20
13.9691881882
 40
0.015
100
AcDbArc
 50
270.0
 51
355.7108466712
  0
ARC
  5
3B3
100
AcDbEntity
  8
0
100
AcDbCircle
 62
7
  6
CONTINUOUS
 10
9.5623369484
 20
13.9691881882
 40
0.015
100
AcDbArc
 50
184.2891533288
 51
270.0
  0
ARC
  5
3B4
100
AcDbEntity
  8
0
100
AcDbCircle
 62
7
  6
CONTINUOUS
 10
9.6445026917
 20
13.9691881882
 40
0.015
100
AcDbArc
 50
270.0
 51
355.7108466712
  0
ARC
  5
3B5
100
AcDbEntity
  8
0
100
AcDbCircle
 62
7
  6
CONTINUOUS
 10
9.9370451322
 20
14.9105941482
 40
1.0
100
AcDbArc
 50
260.6273191301
 51
267.549018051
  0
ARC
  5
3B6
100
AcDbEntity
  8
0
100
AcDbCircle
 62
7
  6
CONTINUOUS
 10
9.5264512513
 20
14.9317844947
 40
1.0
100
AcDbArc
 50
262.7783136043
 51
266.542266468
  0
ARC
  5
3B7
100
AcDbEntity
  8
0
100
AcDbCircle
 62
7
  6
CONTINUOUS
 10
9.5076923427
 20
15.3761881882
 40
0.03
100
AcDbArc
 50
90.0
 51
180.0
  0
ARC
  5
3B8
100
AcDbEntity
  8
0
100
AcDbCircle
 62
7
  6
CONTINUOUS
 10
10.8966094711
 20
13.8691881882
 40
0.015
100
AcDbArc
 50
184.2891533288
 51
270.0
  0
ARC
  5
3B9
100
AcDbEntity
  8
0
100
AcDbCircle
 62
7
  6
CONTINUOUS
 10
10.420295499
 20
13.8691881882
 40
0.015
100
AcDbArc
 50
199.4043838074
 51
270.0
  0
ARC
  5
3BA
100
AcDbEntity
  8
0
100
AcDbCircle
 62
7
  6
CONTINUOUS
 10
10.5024612423
 20
13.8691881882
 40
0.015
100
AcDbArc
 50
270.0
 51
355.7108466712
  0
ARC
  5
3BB
100
AcDbEntity
  8
0
100
AcDbCircle
 62
7
  6
CONTINUOUS
 10
10.8966094711
 20
13.8791881882
 40
0.015
100
AcDbArc
 50
184.2891533288
 51
270.0
  0
ARC
  5
3BC
100
AcDbEntity
  8
0
100
AcDbCircle
 62
7
  6
CONTINUOUS
 10
10.4066094711
 20
13.8791881882
 40
0.015
100
AcDbArc
 50
184.2891533288
 51
270.0
  0
ARC
  5
3BD
100
AcDbEntity
  8
0
100
AcDbCircle
 62
7
  6
CONTINUOUS
 10
10.4887752144
 20
13.8791881882
 40
0.015
100
AcDbArc
 50
270.0
 51
355.7108466712
  0
ARC
  5
3BE
100
AcDbEntity
  8
0
100
AcDbCircle
 62
7
  6
CONTINUOUS
 10
10.8966094711
 20
13.9041881882
 40
0.015
100
AcDbArc
 50
184.2891533288
 51
270.0
  0
ARC
  5
3BF
100
AcDbEntity
  8
0
100
AcDbCircle
 62
7
  6
CONTINUOUS
 10
10.414361069
 20
13.9041881882
 40
0.015
100
AcDbArc
 50
184.2891533288
 51
270.0
  0
ARC
  5
3C0
100
AcDbEntity
  8
0
100
AcDbCircle
 62
7
  6
CONTINUOUS
 10
10.4965268123
 20
13.9041881882
 40
0.015
100
AcDbArc
 50
270.0
 51
355.7108466712
  0
ARC
  5
3C1
100
AcDbEntity
  8
0
100
AcDbCircle
 62
7
  6
CONTINUOUS
 10
10.8966094711
 20
13.9341881882
 40
0.015
100
AcDbArc
 50
184.2891533288
 51
270.0
  0
ARC
  5
3C2
100
AcDbEntity
  8
0
100
AcDbCircle
 62
7
  6
CONTINUOUS
 10
10.4203824281
 20
13.9341881882
 40
0.015
100
AcDbArc
 50
184.2891533288
 51
270.0
  0
ARC
  5
3C3
100
AcDbEntity
  8
0
100
AcDbCircle
 62
7
  6
CONTINUOUS
 10
10.5025481714
 20
13.9341881882
 40
0.015
100
AcDbArc
 50
270.0
 51
355.7108466712
  0
ARC
  5
3C4
100
AcDbEntity
  8
0
100
AcDbCircle
 62
7
  6
CONTINUOUS
 10
10.8966094711
 20
13.9691881882
 40
0.015
100
AcDbArc
 50
184.2891533288
 51
270.0
  0
ARC
  5
3C5
100
AcDbEntity
  8
0
100
AcDbCircle
 62
7
  6
CONTINUOUS
 10
10.4246499329
 20
13.9691881882
 40
0.015
100
AcDbArc
 50
184.2891533288
 51
270.0
  0
ARC
  5
3C6
100
AcDbEntity
  8
0
100
AcDbCircle
 62
7
  6
CONTINUOUS
 10
10.5068156762
 20
13.9691881882
 40
0.015
100
AcDbArc
 50
270.0
 51
355.7108466712
  0
ARC
  5
3C7
100
AcDbEntity
  8
0
100
AcDbCircle
 62
7
  6
CONTINUOUS
 10
10.3475927716
 20
14.8966302574
 40
1.0
100
AcDbArc
 50
262.1497539613
 51
268.5548996513
  0
ARC
  5
3C8
100
AcDbEntity
  8
0
100
AcDbCircle
 62
7
  6
CONTINUOUS
 10
10.6731923427
 20
16.5956474182
 40
0.188
100
AcDbArc
 50
204.9175653171
 51
225.0
  0
ARC
  5
3C9
100
AcDbEntity
  8
0
100
AcDbCircle
 62
7
  6
CONTINUOUS
 10
10.5355300827
 20
16.3543004436
 40
0.08
100
AcDbArc
 50
314.9741595356
 51
45.0
  0
ARC
  5
3CA
100
AcDbEntity
  8
0
100
AcDbCircle
 62
7
  6
CONTINUOUS
 10
10.2076923427
 20
15.4361881882
 40
0.03
100
AcDbArc
 50
270.0
 51
360.0
  0
ARC
  5
3CB
100
AcDbEntity
  8
0
100
AcDbCircle
 62
7
  6
CONTINUOUS
 10
10.2576923427
 20
15.6601881882
 40
0.02
100
AcDbArc
 50
180.0
 51
270.0
  0
ARC
  5
3CC
100
AcDbEntity
  8
0
100
AcDbCircle
 62
7
  6
CONTINUOUS
 10
10.2576923427
 20
15.6201881882
 40
0.02
100
AcDbArc
 50
90.0
 51
180.0
  0
ARC
  5
3CD
100
AcDbEntity
  8
0
100
AcDbCircle
 62
7
  6
CONTINUOUS
 10
10.9376923427
 20
-0.8572247315
 40
0.875
100
AcDbArc
 50
239.2000124308
 51
300.7999875692
  0
ARC
  5
3CE
100
AcDbEntity
  8
0
100
AcDbCircle
 62
7
  6
CONTINUOUS
 10
10.9376923427
 20
-0.8572247315
 40
0.875
100
AcDbArc
 50
304.8575346898
 51
235.1424653102
  0
ARC
  5
3CF
100
AcDbEntity
  8
0
100
AcDbCircle
 62
9
  6
CONTINUOUS
 10
10.9376923427
 20
-0.8572247315
 40
0.845
100
AcDbArc
 50
242.8070380666
 51
297.1929619334
  0
ARC
  5
3D0
100
AcDbEntity
  8
0
100
AcDbCircle
 62
9
  6
CONTINUOUS
 10
10.9376923427
 20
-0.8572247315
 40
0.845
100
AcDbArc
 50
306.2906654297
 51
233.7093345703
  0
ARC
  5
3D1
100
AcDbEntity
  8
0
100
AcDbCircle
 62
7
  6
CONTINUOUS
 10
10.9376923427
 20
-0.8572247315
 40
0.5
100
AcDbArc
 50
359.9190212205
 51
180.0809673062
  0
ARC
  5
3D2
100
AcDbEntity
  8
0
100
AcDbCircle
 62
7
  6
CONTINUOUS
 10
10.9376923503
 20
-0.858638933
 40
0.4999999925
100
AcDbArc
 50
0.0810851338
 51
90.0000008699
  0
ARC
  5
3D3
100
AcDbEntity
  8
0
100
AcDbCircle
 62
7
  6
CONTINUOUS
 10
10.9376923427
 20
7.1427752685
 40
3.0
100
AcDbArc
 50
277.1820508549
 51
262.8179491451
  0
ARC
  5
3D4
100
AcDbEntity
  8
0
100
AcDbCircle
 62
9
  6
CONTINUOUS
 10
10.9376923427
 20
7.1427752685
 40
2.9709762382
100
AcDbArc
 50
277.2524809403
 51
262.7475190597
  0
ARC
  5
3D5
100
AcDbEntity
  8
0
100
AcDbCircle
 62
9
  6
CONTINUOUS
 10
10.9376923427
 20
7.1427752685
 40
2.9510523443
100
AcDbArc
 50
277.3017110525
 51
262.6982889475
  0
ARC
  5
3D6
100
AcDbEntity
  8
0
100
AcDbCircle
 62
7
  6
CONTINUOUS
 10
10.9376923427
 20
4.9727752685
 40
0.45
100
AcDbArc
 50
146.4790855822
 51
213.5209144178
  0
ARC
  5
3D7
100
AcDbEntity
  8
0
100
AcDbCircle
 62
7
  6
CONTINUOUS
 10
10.9376923427
 20
4.9727752685
 40
0.45
100
AcDbArc
 50
326.4790855822
 51
33.5209144178
  0
ARC
  5
3D8
100
AcDbEntity
  8
0
100
AcDbCircle
 62
9
  6
CONTINUOUS
 10
10.9376923427
 20
4.9727752685
 40
0.4492005033
100
AcDbArc
 50
146.6302983663
 51
213.3697016337
  0
ARC
  5
3D9
100
AcDbEntity
  8
0
100
AcDbCircle
 62
9
  6
CONTINUOUS
 10
10.9376923427
 20
4.9727752685
 40
0.4492005033
100
AcDbArc
 50
326.6302983663
 51
33.3697016337
  0
ARC
  5
3DA
100
AcDbEntity
  8
0
100
AcDbCircle
 62
7
  6
CONTINUOUS
 10
10.9376923427
 20
7.1427752685
 40
0.43
100
AcDbArc
 50
330.7260340637
 51
209.2739659363
  0
ARC
  5
3DB
100
AcDbEntity
  8
0
100
AcDbCircle
 62
9
  6
CONTINUOUS
 10
10.9376923427
 20
4.9727752685
 40
0.4177005033
100
AcDbArc
 50
153.889696891
 51
206.110303109
  0
ARC
  5
3DC
100
AcDbEntity
  8
0
100
AcDbCircle
 62
9
  6
CONTINUOUS
 10
10.9376923427
 20
4.9727752685
 40
0.4177005033
100
AcDbArc
 50
333.889696891
 51
26.110303109
  0
ARC
  5
3DD
100
AcDbEntity
  8
0
100
AcDbCircle
 62
9
  6
CONTINUOUS
 10
10.9376923427
 20
4.9727752685
 40
0.3875
100
AcDbArc
 50
165.4566007215
 51
194.5433992785
  0
ARC
  5
3DE
100
AcDbEntity
  8
0
100
AcDbCircle
 62
9
  6
CONTINUOUS
 10
10.9376923427
 20
4.9727752685
 40
0.3875
100
AcDbArc
 50
345.4566007215
 51
14.5433992785
  0
ARC
  5
3DF
100
AcDbEntity
  8
0
100
AcDbCircle
 62
7
  6
CONTINUOUS
 10
10.9376923427
 20
7.1427752685
 40
0.375
100
AcDbArc
 50
359.9981334997
 51
180.0018357531
  0
ARC
  5
3E0
100
AcDbEntity
  8
0
100
AcDbCircle
 62
7
  6
CONTINUOUS
 10
11.2926923427
 20
4.1627752685
 40
0.02
100
AcDbArc
 50
270.0
 51
360.0
  0
ARC
  5
3E1
100
AcDbEntity
  8
0
100
AcDbCircle
 62
7
  6
CONTINUOUS
 10
11.3729234432
 20
13.8691881882
 40
0.015
100
AcDbArc
 50
184.2891533288
 51
270.0
  0
ARC
  5
3E2
100
AcDbEntity
  8
0
100
AcDbCircle
 62
7
  6
CONTINUOUS
 10
11.4550891865
 20
13.8691881882
 40
0.015
100
AcDbArc
 50
270.0
 51
340.5956161926
  0
ARC
  5
3E3
100
AcDbEntity
  8
0
100
AcDbCircle
 62
7
  6
CONTINUOUS
 10
10.9787752144
 20
13.8691881882
 40
0.015
100
AcDbArc
 50
270.0
 51
355.7108466712
  0
ARC
  5
3E4
100
AcDbEntity
  8
0
100
AcDbCircle
 62
7
  6
CONTINUOUS
 10
11.3866094711
 20
13.8791881882
 40
0.015
100
AcDbArc
 50
184.2891533288
 51
270.0
  0
ARC
  5
3E5
100
AcDbEntity
  8
0
100
AcDbCircle
 62
7
  6
CONTINUOUS
 10
11.4687752144
 20
13.8791881882
 40
0.015
100
AcDbArc
 50
270.0
 51
355.7108466712
  0
ARC
  5
3E6
100
AcDbEntity
  8
0
100
AcDbCircle
 62
7
  6
CONTINUOUS
 10
10.9787752144
 20
13.8791881882
 40
0.015
100
AcDbArc
 50
270.0
 51
355.7108466712
  0
ARC
  5
3E7
100
AcDbEntity
  8
0
100
AcDbCircle
 62
7
  6
CONTINUOUS
 10
11.3788578732
 20
13.9041881882
 40
0.015
100
AcDbArc
 50
184.2891533288
 51
270.0
  0
ARC
  5
3E8
100
AcDbEntity
  8
0
100
AcDbCircle
 62
7
  6
CONTINUOUS
 10
11.4610236165
 20
13.9041881882
 40
0.015
100
AcDbArc
 50
270.0
 51
355.7108466712
  0
ARC
  5
3E9
100
AcDbEntity
  8
0
100
AcDbCircle
 62
7
  6
CONTINUOUS
 10
10.9787752144
 20
13.9041881882
 40
0.015
100
AcDbArc
 50
270.0
 51
355.7108466712
  0
ARC
  5
3EA
100
AcDbEntity
  8
0
100
AcDbCircle
 62
7
  6
CONTINUOUS
 10
11.3728365141
 20
13.9341881882
 40
0.015
100
AcDbArc
 50
184.2891533288
 51
270.0
  0
ARC
  5
3EB
100
AcDbEntity
  8
0
100
AcDbCircle
 62
7
  6
CONTINUOUS
 10
11.4550022574
 20
13.9341881882
 40
0.015
100
AcDbArc
 50
270.0
 51
355.7108466712
  0
ARC
  5
3EC
100
AcDbEntity
  8
0
100
AcDbCircle
 62
7
  6
CONTINUOUS
 10
10.9787752144
 20
13.9341881882
 40
0.015
100
AcDbArc
 50
270.0
 51
355.7108466712
  0
ARC
  5
3ED
100
AcDbEntity
  8
0
100
AcDbCircle
 62
7
  6
CONTINUOUS
 10
11.3685690092
 20
13.9691881882
 40
0.015
100
AcDbArc
 50
184.2891533288
 51
270.0
  0
ARC
  5
3EE
100
AcDbEntity
  8
0
100
AcDbCircle
 62
7
  6
CONTINUOUS
 10
11.4507347526
 20
13.9691881882
 40
0.015
100
AcDbArc
 50
270.0
 51
355.7108466712
  0
ARC
  5
3EF
100
AcDbEntity
  8
0
100
AcDbCircle
 62
7
  6
CONTINUOUS
 10
10.9787752144
 20
13.9691881882
 40
0.015
100
AcDbArc
 50
270.0
 51
355.7108466712
  0
ARC
  5
3F0
100
AcDbEntity
  8
0
100
AcDbCircle
 62
7
  6
CONTINUOUS
 10
11.5277919138
 20
14.8966302574
 40
1.0
100
AcDbArc
 50
271.4451003487
 51
277.8502460387
  0
ARC
  5
3F1
100
AcDbEntity
  8
0
100
AcDbCircle
 62
7
  6
CONTINUOUS
 10
10.9376923427
 20
15.9517752685
 40
0.489
100
AcDbArc
 50
30.394893546
 51
45.0258404644
  0
ARC
  5
3F2
100
AcDbEntity
  8
0
100
AcDbCircle
 62
7
  6
CONTINUOUS
 10
10.9376923427
 20
15.9517752685
 40
0.489
100
AcDbArc
 50
134.9741595356
 51
149.605106454
  0
ARC
  5
3F3
100
AcDbEntity
  8
0
100
AcDbCircle
 62
7
  6
CONTINUOUS
 10
11.2021923427
 20
16.5956474182
 40
0.188
100
AcDbArc
 50
315.0
 51
335.0824346829
  0
ARC
  5
3F4
100
AcDbEntity
  8
0
100
AcDbCircle
 62
7
  6
CONTINUOUS
 10
11.3398546028
 20
16.3543004436
 40
0.08
100
AcDbArc
 50
135.0
 51
225.0258404644
  0
ARC
  5
3F5
100
AcDbEntity
  8
0
100
AcDbCircle
 62
7
  6
CONTINUOUS
 10
11.6176923427
 20
15.6601881882
 40
0.02
100
AcDbArc
 50
270.0
 51
360.0
  0
ARC
  5
3F6
100
AcDbEntity
  8
0
100
AcDbCircle
 62
7
  6
CONTINUOUS
 10
11.6176923427
 20
15.6201881882
 40
0.02
100
AcDbArc
 50
0.0
 51
90.0
  0
ARC
  5
3F7
100
AcDbEntity
  8
0
100
AcDbCircle
 62
7
  6
CONTINUOUS
 10
12.2526097253
 20
12.0727283886
 40
1.8613552132
100
AcDbArc
 50
92.150725638
 51
92.8892166436
  0
ARC
  5
3F8
100
AcDbEntity
  8
0
100
AcDbCircle
 62
7
  6
CONTINUOUS
 10
11.8766094711
 20
13.8791881882
 40
0.015
100
AcDbArc
 50
184.2891533288
 51
270.0
  0
ARC
  5
3F9
100
AcDbEntity
  8
0
100
AcDbCircle
 62
7
  6
CONTINUOUS
 10
11.9587752144
 20
13.8791881882
 40
0.015
100
AcDbArc
 50
270.0
 51
355.7108466712
  0
ARC
  5
3FA
100
AcDbEntity
  8
0
100
AcDbCircle
 62
7
  6
CONTINUOUS
 10
11.7453143668
 20
13.8791881882
 40
0.015
100
AcDbArc
 50
184.2891533288
 51
270.0
  0
ARC
  5
3FB
100
AcDbEntity
  8
0
100
AcDbCircle
 62
7
  6
CONTINUOUS
 10
11.8274801101
 20
13.8791881882
 40
0.015
100
AcDbArc
 50
270.0
 51
355.7108466712
  0
ARC
  5
3FC
100
AcDbEntity
  8
0
100
AcDbCircle
 62
7
  6
CONTINUOUS
 10
12.2851884028
 20
13.9041881882
 40
0.015
100
AcDbArc
 50
184.2891533288
 51
270.0
  0
ARC
  5
3FD
100
AcDbEntity
  8
0
100
AcDbCircle
 62
7
  6
CONTINUOUS
 10
12.3673541461
 20
13.9041881882
 40
0.015
100
AcDbArc
 50
270.0
 51
355.7108466712
  0
ARC
  5
3FE
100
AcDbEntity
  8
0
100
AcDbCircle
 62
7
  6
CONTINUOUS
 10
12.1177052904
 20
13.9041881882
 40
0.015
100
AcDbArc
 50
184.2891533288
 51
270.0
  0
ARC
  5
3FF
100
AcDbEntity
  8
0
100
AcDbCircle
 62
7
  6
CONTINUOUS
 10
12.1998710337
 20
13.9041881882
 40
0.015
100
AcDbArc
 50
270.0
 51
355.7108466712
  0
ARC
  5
400
100
AcDbEntity
  8
0
100
AcDbCircle
 62
7
  6
CONTINUOUS
 10
11.8029400007
 20
13.9041881882
 40
0.015
100
AcDbArc
 50
184.2891533288
 51
270.0
  0
ARC
  5
401
100
AcDbEntity
  8
0
100
AcDbCircle
 62
7
  6
CONTINUOUS
 10
11.8851057441
 20
13.9041881882
 40
0.015
100
AcDbArc
 50
270.0
 51
355.7108466712
  0
ARC
  5
402
100
AcDbEntity
  8
0
100
AcDbCircle
 62
7
  6
CONTINUOUS
 10
12.1976859485
 20
13.9341881882
 40
0.015
100
AcDbArc
 50
184.2891533288
 51
270.0
  0
ARC
  5
403
100
AcDbEntity
  8
0
100
AcDbCircle
 62
7
  6
CONTINUOUS
 10
12.2798516918
 20
13.9341881882
 40
0.015
100
AcDbArc
 50
270.0
 51
355.7108466712
  0
ARC
  5
404
100
AcDbEntity
  8
0
100
AcDbCircle
 62
7
  6
CONTINUOUS
 10
11.8166094711
 20
13.9341881882
 40
0.015
100
AcDbArc
 50
184.2891533288
 51
270.0
  0
ARC
  5
405
100
AcDbEntity
  8
0
100
AcDbCircle
 62
7
  6
CONTINUOUS
 10
11.8987752144
 20
13.9341881882
 40
0.015
100
AcDbArc
 50
270.0
 51
355.7108466712
  0
ARC
  5
406
100
AcDbEntity
  8
0
100
AcDbCircle
 62
7
  6
CONTINUOUS
 10
12.2308819938
 20
13.9691881882
 40
0.015
100
AcDbArc
 50
184.2891533288
 51
270.0
  0
ARC
  5
407
100
AcDbEntity
  8
0
100
AcDbCircle
 62
7
  6
CONTINUOUS
 10
12.3130477371
 20
13.9691881882
 40
0.015
100
AcDbArc
 50
270.0
 51
355.7108466712
  0
ARC
  5
408
100
AcDbEntity
  8
0
100
AcDbCircle
 62
7
  6
CONTINUOUS
 10
11.8199016509
 20
13.9691881882
 40
0.015
100
AcDbArc
 50
184.2891533288
 51
270.0
  0
ARC
  5
409
100
AcDbEntity
  8
0
100
AcDbCircle
 62
7
  6
CONTINUOUS
 10
11.9020673942
 20
13.9691881882
 40
0.015
100
AcDbArc
 50
270.0
 51
355.7108466712
  0
ARC
  5
40A
100
AcDbEntity
  8
0
100
AcDbCircle
 62
7
  6
CONTINUOUS
 10
11.9383395533
 20
14.9105941482
 40
1.0
100
AcDbArc
 50
272.450981949
 51
279.3726808699
  0
ARC
  5
40B
100
AcDbEntity
  8
0
100
AcDbCircle
 62
7
  6
CONTINUOUS
 10
12.3489334342
 20
14.9317844947
 40
1.0
100
AcDbArc
 50
273.457733532
 51
277.2216863957
  0
ARC
  5
40C
100
AcDbEntity
  8
0
100
AcDbCircle
 62
7
  6
CONTINUOUS
 10
12.3676923427
 20
15.3761881882
 40
0.03
100
AcDbArc
 50
0.0
 51
90.0
  0
ARC
  5
40D
100
AcDbEntity
  8
0
100
AcDbCircle
 62
7
  6
CONTINUOUS
 10
11.6676923427
 20
15.4361881882
 40
0.03
100
AcDbArc
 50
180.0
 51
270.0
  0
ARC
  5
40E
100
AcDbEntity
  8
0
100
AcDbCircle
 62
7
  6
CONTINUOUS
 10
12.6064151408
 20
9.00167971
 40
4.936892282
100
AcDbArc
 50
93.2529953738
 51
93.6308515591
  0
ARC
  5
40F
100
AcDbEntity
  8
0
100
AcDbCircle
 62
7
  6
CONTINUOUS
 10
13.610865025
 20
9.4983117792
 40
4.5165014598
100
AcDbArc
 50
95.2798193943
 51
95.8006594285
  0
ARC
  5
410
100
AcDbEntity
  8
0
100
AcDbCircle
 62
7
  6
CONTINUOUS
 10
12.6477155288
 20
14.951757168
 40
1.0
100
AcDbArc
 50
270.0
 51
270.5629873164
  0
ARC
  5
411
100
AcDbEntity
  8
0
100
AcDbCircle
 62
7
  6
CONTINUOUS
 10
12.7595736981
 20
14.9602234425
 40
1.0
100
AcDbArc
 50
274.4656691658
 51
275.0926073438
  0
ARC
  5
412
100
AcDbEntity
  8
0
100
AcDbCircle
 62
7
  6
CONTINUOUS
 10
12.7595736981
 20
14.9602234425
 40
1.0
100
AcDbArc
 50
281.5966773488
 51
282.4803903978
  0
ARC
  5
413
100
AcDbEntity
  8
0
100
AcDbCircle
 62
7
  6
CONTINUOUS
 10
13.0026923427
 20
13.8618071623
 40
0.125
100
AcDbArc
 50
98.3269022097
 51
102.4803903978
  0
ARC
  5
414
100
AcDbEntity
  8
0
100
AcDbCircle
 62
7
  6
CONTINUOUS
 10
13.8626923427
 20
14.2065086963
 40
0.03
100
AcDbArc
 50
300.0
 51
360.0
  0
ARC
  5
415
100
AcDbEntity
  8
0
100
AcDbCircle
 62
7
  6
CONTINUOUS
 10
13.5768231074
 20
14.0414620163
 40
0.03
100
AcDbArc
 50
283.2395482929
 51
300.0
  0
ARC
  5
416
100
AcDbEntity
  8
0
100
AcDbCircle
 62
7
  6
CONTINUOUS
 10
13.8626923427
 20
15.0851881882
 40
0.03
100
AcDbArc
 50
0.0
 51
90.0
  0
ARC
  5
417
100
AcDbEntity
  8
0
100
AcDbCircle
 62
7
  6
CONTINUOUS
 10
12.4276923427
 20
15.1451881882
 40
0.03
100
AcDbArc
 50
180.0
 51
270.0
  0
ARC
  5
418
100
AcDbEntity
  8
0
100
AcDbCircle
 62
7
  6
CONTINUOUS
 10
12.8187752144
 20
13.9341881882
 40
0.015
100
AcDbArc
 50
270.0
 51
355.7108466712
  0
ARC
  5
419
100
AcDbEntity
  8
0
100
AcDbCircle
 62
7
  6
CONTINUOUS
 10
12.6739129914
 20
13.9341881882
 40
0.015
100
AcDbArc
 50
184.2891533288
 51
270.0
  0
ARC
  5
41A
100
AcDbEntity
  8
0
100
AcDbCircle
 62
7
  6
CONTINUOUS
 10
12.7560787348
 20
13.9341881882
 40
0.015
100
AcDbArc
 50
270.0
 51
355.7108466712
  0
ARC
  5
41B
100
AcDbEntity
  8
0
100
AcDbCircle
 62
7
  6
CONTINUOUS
 10
12.490096214
 20
13.9341881882
 40
0.015
100
AcDbArc
 50
184.2891533288
 51
270.0
  0
ARC
  5
41C
100
AcDbEntity
  8
0
100
AcDbCircle
 62
7
  6
CONTINUOUS
 10
12.5722619574
 20
13.9341881882
 40
0.015
100
AcDbArc
 50
270.0
 51
355.7108466712
  0
ARC
  5
41D
100
AcDbEntity
  8
0
100
AcDbCircle
 62
7
  6
CONTINUOUS
 10
13.1541741736
 20
13.9691881882
 40
0.015
100
AcDbArc
 50
236.5776500063
 51
270.0
  0
ARC
  5
41E
100
AcDbEntity
  8
0
100
AcDbCircle
 62
7
  6
CONTINUOUS
 10
13.2363399169
 20
13.9691881882
 40
0.015
100
AcDbArc
 50
270.0
 51
355.7108466712
  0
ARC
  5
41F
100
AcDbEntity
  8
0
100
AcDbCircle
 62
7
  6
CONTINUOUS
 10
13.0555077631
 20
13.9691881882
 40
0.015
100
AcDbArc
 50
184.2891533288
 51
270.0
  0
ARC
  5
420
100
AcDbEntity
  8
0
100
AcDbCircle
 62
7
  6
CONTINUOUS
 10
13.1376735064
 20
13.9691881882
 40
0.015
100
AcDbArc
 50
270.0
 51
355.7108466712
  0
ARC
  5
421
100
AcDbEntity
  8
0
100
AcDbCircle
 62
7
  6
CONTINUOUS
 10
12.8624871377
 20
13.9691881882
 40
0.015
100
AcDbArc
 50
184.2891533288
 51
270.0
  0
ARC
  5
422
100
AcDbEntity
  8
0
100
AcDbCircle
 62
7
  6
CONTINUOUS
 10
12.944652881
 20
13.9691881882
 40
0.015
100
AcDbArc
 50
270.0
 51
355.7108466712
  0
ARC
  5
423
100
AcDbEntity
  8
0
100
AcDbCircle
 62
7
  6
CONTINUOUS
 10
12.5835482249
 20
13.9691881882
 40
0.015
100
AcDbArc
 50
184.2891533288
 51
270.0
  0
ARC
  5
424
100
AcDbEntity
  8
0
100
AcDbCircle
 62
7
  6
CONTINUOUS
 10
12.6657139682
 20
13.9691881882
 40
0.015
100
AcDbArc
 50
270.0
 51
355.7108466712
  0
ARC
  5
425
100
AcDbEntity
  8
0
100
AcDbCircle
 62
7
  6
CONTINUOUS
 10
10.9376923427
 20
38.2881167597
 40
24.3989285714
100
AcDbArc
 50
271.2854429774
 51
271.4451003487
  0
ARC
  5
426
100
AcDbEntity
  8
0
100
AcDbCircle
 62
7
  6
CONTINUOUS
 10
10.9376923427
 20
38.2881167597
 40
24.3989285714
100
AcDbArc
 50
273.3995135595
 51
273.457733532
  0
ARC
  5
427
100
AcDbEntity
  8
0
100
AcDbCircle
 62
7
  6
CONTINUOUS
 10
10.9376923427
 20
38.2881167597
 40
24.3989285714
100
AcDbArc
 50
268.5548996513
 51
268.7145570226
  0
ARC
  5
428
100
AcDbEntity
  8
0
100
AcDbCircle
 62
7
  6
CONTINUOUS
 10
10.9376923427
 20
38.2881167597
 40
24.3989285714
100
AcDbArc
 50
266.542266468
 51
266.6004864405
  0
ARC
  5
429
100
AcDbEntity
  8
0
100
AcDbCircle
 62
7
  6
CONTINUOUS
 10
10.9376923427
 20
38.2881167597
 40
24.3989285714
100
AcDbArc
 50
264.2464514784
 51
264.5531282714
  0
ARC
  5
42A
100
AcDbEntity
  8
0
100
AcDbCircle
 62
7
  6
CONTINUOUS
 10
10.9376923427
 20
38.2881167597
 40
24.3989285714
100
AcDbArc
 50
275.4468717286
 51
275.7535485216
  0
ARC
  5
42B
100
AcDbEntity
  8
0
100
AcDbCircle
 62
7
  6
CONTINUOUS
 10
10.9376923427
 20
19.1427752685
 40
1.125
100
AcDbArc
 50
291.1688847743
 51
248.8311152446
  0
ARC
  5
42C
100
AcDbEntity
  8
0
100
AcDbCircle
 62
9
  6
CONTINUOUS
 10
10.9376923427
 20
19.1427752685
 40
1.095
100
AcDbArc
 50
291.7814434457
 51
248.218556546
  0
ARC
  5
42D
100
AcDbEntity
  8
0
100
AcDbCircle
 62
7
  6
CONTINUOUS
 10
10.9376923427
 20
19.1427752685
 40
0.40625
100
AcDbArc
 50
0.0
 51
180.0
  0
SPLINE
  5
42E
100
AcDbEntity
  8
0
100
AcDbSpline
 62
7
  6
CONTINUOUS
 70
0
 71
3
 72
8
 73
4
 74
0
 42
0.0000001
 43
0.0000001
 44
0.0000000001
 40
0.0
 40
0.0
 40
0.0
 40
0.0
 40
1.0
 40
1.0
 40
1.0
 40
1.0
 10
8.8038246785
 20
7.13953516
 30
0.0
 10
8.8038246785
 20
7.1175365236
 30
0.0
 10
8.8085995768
 20
7.0967316117
 30
0.0
 10
8.8181158878
 20
7.077104224
 30
0.0
  0
SPLINE
  5
42F
100
AcDbEntity
  8
0
100
AcDbSpline
 62
7
  6
CONTINUOUS
 70
0
 71
3
 72
8
 73
4
 74
0
 42
0.0000001
 43
0.0000001
 44
0.0000000001
 40
0.0
 40
0.0
 40
0.0
 40
0.0
 40
1.0
 40
1.0
 40
1.0
 40
1.0
 10
8.8181158878
 20
7.077104224
 30
0.0
 10
8.8276991699
 20
7.0573387083
 30
0.0
 10
8.841682807
 20
7.0418202889
 30
0.0
 10
8.8602092451
 20
7.0304653744
 30
0.0
  0
SPLINE
  5
430
100
AcDbEntity
  8
0
100
AcDbSpline
 62
7
  6
CONTINUOUS
 70
0
 71
3
 72
8
 73
4
 74
0
 42
0.0000001
 43
0.0000001
 44
0.0000000001
 40
0.0
 40
0.0
 40
0.0
 40
0.0
 40
1.0
 40
1.0
 40
1.0
 40
1.0
 10
8.8602092451
 20
7.0304653744
 30
0.0
 10
8.8786882613
 20
7.019139525
 30
0.0
 10
8.899834231
 20
7.0135119671
 30
0.0
 10
8.9233676646
 20
7.0135119671
 30
0.0
  0
SPLINE
  5
431
100
AcDbEntity
  8
0
100
AcDbSpline
 62
7
  6
CONTINUOUS
 70
0
 71
3
 72
8
 73
4
 74
0
 42
0.0000001
 43
0.0000001
 44
0.0000000001
 40
0.0
 40
0.0
 40
0.0
 40
0.0
 40
1.0
 40
1.0
 40
1.0
 40
1.0
 10
8.9233676646
 20
7.0135119671
 30
0.0
 10
8.9450252209
 20
7.0135119671
 30
0.0
 10
8.9653185461
 20
7.0186279288
 30
0.0
 10
8.9840770549
 20
7.0288598462
 30
0.0
  0
SPLINE
  5
432
100
AcDbEntity
  8
0
100
AcDbSpline
 62
7
  6
CONTINUOUS
 70
0
 71
3
 72
8
 73
4
 74
0
 42
0.0000001
 43
0.0000001
 44
0.0000000001
 40
0.0
 40
0.0
 40
0.0
 40
0.0
 40
1.0
 40
1.0
 40
1.0
 40
1.0
 10
8.9840770549
 20
7.0288598462
 30
0.0
 10
9.0028355871
 20
7.0390917763
 30
0.0
 10
9.0173308108
 20
7.0542691287
 30
0.0
 10
9.0275972616
 20
7.0743742546
 30
0.0
  0
SPLINE
  5
433
100
AcDbEntity
  8
0
100
AcDbSpline
 62
7
  6
CONTINUOUS
 70
0
 71
3
 72
8
 73
4
 74
0
 42
0.0000001
 43
0.0000001
 44
0.0000000001
 40
0.0
 40
0.0
 40
0.0
 40
0.0
 40
1.0
 40
1.0
 40
1.0
 40
1.0
 10
9.0275972616
 20
7.0743742546
 30
0.0
 10
9.0377946649
 20
7.0943441626
 30
0.0
 10
9.0429106508
 20
7.1170249295
 30
0.0
 10
9.0429106508
 20
7.1424342033
 30
0.0
  0
SPLINE
  5
434
100
AcDbEntity
  8
0
100
AcDbSpline
 62
7
  6
CONTINUOUS
 70
0
 71
3
 72
8
 73
4
 74
0
 42
0.0000001
 43
0.0000001
 44
0.0000000001
 40
0.0
 40
0.0
 40
0.0
 40
0.0
 40
1.0
 40
1.0
 40
1.0
 40
1.0
 10
9.0429106508
 20
7.1424342033
 30
0.0
 10
9.0429106508
 20
7.1673318904
 30
0.0
 10
9.0379651938
 20
7.1896715921
 30
0.0
 10
9.0282448713
 20
7.2094533022
 30
0.0
  0
SPLINE
  5
435
100
AcDbEntity
  8
0
100
AcDbSpline
 62
7
  6
CONTINUOUS
 70
0
 71
3
 72
8
 73
4
 74
0
 42
0.0000001
 43
0.0000001
 44
0.0000000001
 40
0.0
 40
0.0
 40
0.0
 40
0.0
 40
1.0
 40
1.0
 40
1.0
 40
1.0
 10
9.0282448713
 20
7.2094533022
 30
0.0
 10
9.0185245429
 20
7.2292350244
 30
0.0
 10
9.0043703769
 20
7.2445829075
 30
0.0
 10
8.9858934816
 20
7.2555668732
 30
0.0
  0
SPLINE
  5
436
100
AcDbEntity
  8
0
100
AcDbSpline
 62
7
  6
CONTINUOUS
 70
0
 71
3
 72
8
 73
4
 74
0
 42
0.0000001
 43
0.0000001
 44
0.0000000001
 40
0.0
 40
0.0
 40
0.0
 40
0.0
 40
1.0
 40
1.0
 40
1.0
 40
1.0
 10
8.9858934816
 20
7.2555668732
 30
0.0
 10
8.9673649226
 20
7.2665815514
 30
0.0
 10
8.9465600107
 20
7.272209109
 30
0.0
 10
8.9235381935
 20
7.272209109
 30
0.0
  0
SPLINE
  5
437
100
AcDbEntity
  8
0
100
AcDbSpline
 62
7
  6
CONTINUOUS
 70
0
 71
3
 72
8
 73
4
 74
0
 42
0.0000001
 43
0.0000001
 44
0.0000000001
 40
0.0
 40
0.0
 40
0.0
 40
0.0
 40
1.0
 40
1.0
 40
1.0
 40
1.0
 10
8.9235381935
 20
7.272209109
 30
0.0
 10
8.8882380579
 20
7.272209109
 30
0.0
 10
8.8594181393
 20
7.2604423922
 30
0.0
 10
8.8372039914
 20
7.2369515707
 30
0.0
  0
SPLINE
  5
438
100
AcDbEntity
  8
0
100
AcDbSpline
 62
7
  6
CONTINUOUS
 70
0
 71
3
 72
8
 73
4
 74
0
 42
0.0000001
 43
0.0000001
 44
0.0000000001
 40
0.0
 40
0.0
 40
0.0
 40
0.0
 40
1.0
 40
1.0
 40
1.0
 40
1.0
 10
8.8372039914
 20
7.2369515707
 30
0.0
 10
8.8149092649
 20
7.2133755397
 30
0.0
 10
8.8038246785
 20
7.1809744548
 30
0.0
 10
8.8038246785
 20
7.13953516
 30
0.0
  0
SPLINE
  5
439
100
AcDbEntity
  8
0
100
AcDbSpline
 62
7
  6
CONTINUOUS
 70
0
 71
3
 72
8
 73
4
 74
0
 42
0.0000001
 43
0.0000001
 44
0.0000000001
 40
0.0
 40
0.0
 40
0.0
 40
0.0
 40
1.0
 40
1.0
 40
1.0
 40
1.0
 10
12.6256186687
 20
7.105428749
 30
0.0
 10
12.6210142993
 20
7.0842827719
 30
0.0
 10
12.6123171769
 20
7.068423291
 30
0.0
 10
12.5995344868
 20
7.0578415928
 30
0.0
  0
SPLINE
  5
43A
100
AcDbEntity
  8
0
100
AcDbSpline
 62
7
  6
CONTINUOUS
 70
0
 71
3
 72
8
 73
4
 74
0
 42
0.0000001
 43
0.0000001
 44
0.0000000001
 40
0.0
 40
0.0
 40
0.0
 40
0.0
 40
1.0
 40
1.0
 40
1.0
 40
1.0
 10
12.5995344868
 20
7.0578415928
 30
0.0
 10
12.5865668379
 20
7.0471067831
 30
0.0
 10
12.5708778821
 20
7.0418202889
 30
0.0
 10
12.5524604194
 20
7.0418202889
 30
0.0
  0
SPLINE
  5
43B
100
AcDbEntity
  8
0
100
AcDbSpline
 62
7
  6
CONTINUOUS
 70
0
 71
3
 72
8
 73
4
 74
0
 42
0.0000001
 43
0.0000001
 44
0.0000000001
 40
0.0
 40
0.0
 40
0.0
 40
0.0
 40
1.0
 40
1.0
 40
1.0
 40
1.0
 10
12.5524604194
 20
7.0418202889
 30
0.0
 10
12.5371125363
 20
7.0418202889
 30
0.0
 10
12.5229583703
 20
7.0457425259
 30
0.0
 10
12.5099753468
 20
7.053549312
 30
0.0
  0
SPLINE
  5
43C
100
AcDbEntity
  8
0
100
AcDbSpline
 62
7
  6
CONTINUOUS
 70
0
 71
3
 72
8
 73
4
 74
0
 42
0.0000001
 43
0.0000001
 44
0.0000000001
 40
0.0
 40
0.0
 40
0.0
 40
0.0
 40
1.0
 40
1.0
 40
1.0
 40
1.0
 10
12.5099753468
 20
7.053549312
 30
0.0
 10
12.4968669661
 20
7.0614314761
 30
0.0
 10
12.4871466406
 20
7.0731981892
 30
0.0
 10
12.4810074858
 20
7.0890576704
 30
0.0
  0
SPLINE
  5
43D
100
AcDbEntity
  8
0
100
AcDbSpline
 62
7
  6
CONTINUOUS
 70
0
 71
3
 72
8
 73
4
 74
0
 42
0.0000001
 43
0.0000001
 44
0.0000000001
 40
0.0
 40
0.0
 40
0.0
 40
0.0
 40
1.0
 40
1.0
 40
1.0
 40
1.0
 10
12.4810074858
 20
7.0890576704
 30
0.0
 10
12.4748683297
 20
7.1049171549
 30
0.0
 10
12.4717987538
 20
7.1235051465
 30
0.0
 10
12.4717987538
 20
7.1448216599
 30
0.0
  0
SPLINE
  5
43E
100
AcDbEntity
  8
0
100
AcDbSpline
 62
7
  6
CONTINUOUS
 70
0
 71
3
 72
8
 73
4
 74
0
 42
0.0000001
 43
0.0000001
 44
0.0000000001
 40
0.0
 40
0.0
 40
0.0
 40
0.0
 40
1.0
 40
1.0
 40
1.0
 40
1.0
 10
12.4717987538
 20
7.1448216599
 30
0.0
 10
12.4717987538
 20
7.1611927312
 30
0.0
 10
12.4743567355
 20
7.1772227448
 30
0.0
 10
12.4795665086
 20
7.1927666595
 30
0.0
  0
SPLINE
  5
43F
100
AcDbEntity
  8
0
100
AcDbSpline
 62
7
  6
CONTINUOUS
 70
0
 71
3
 72
8
 73
4
 74
0
 42
0.0000001
 43
0.0000001
 44
0.0000000001
 40
0.0
 40
0.0
 40
0.0
 40
0.0
 40
1.0
 40
1.0
 40
1.0
 40
1.0
 10
12.4795665086
 20
7.1927666595
 30
0.0
 10
12.4847591915
 20
7.2082595837
 30
0.0
 10
12.4937973865
 20
7.2207084161
 30
0.0
 10
12.5067578302
 20
7.2299171517
 30
0.0
  0
SPLINE
  5
440
100
AcDbEntity
  8
0
100
AcDbSpline
 62
7
  6
CONTINUOUS
 70
0
 71
3
 72
8
 73
4
 74
0
 42
0.0000001
 43
0.0000001
 44
0.0000000001
 40
0.0
 40
0.0
 40
0.0
 40
0.0
 40
1.0
 40
1.0
 40
1.0
 40
1.0
 10
12.5067578302
 20
7.2299171517
 30
0.0
 10
12.5197182618
 20
7.2391258788
 30
0.0
 10
12.5357482754
 20
7.2437302482
 30
0.0
 10
12.5550183975
 20
7.2437302482
 30
0.0
  0
SPLINE
  5
441
100
AcDbEntity
  8
0
100
AcDbSpline
 62
7
  6
CONTINUOUS
 70
0
 71
3
 72
8
 73
4
 74
0
 42
0.0000001
 43
0.0000001
 44
0.0000000001
 40
0.0
 40
0.0
 40
0.0
 40
0.0
 40
1.0
 40
1.0
 40
1.0
 40
1.0
 10
12.5550183975
 20
7.2437302482
 30
0.0
 10
12.5717305415
 20
7.2437302482
 30
0.0
 10
12.5855436348
 20
7.2394669514
 30
0.0
 10
12.5965560573
 20
7.2311862931
 30
0.0
  0
SPLINE
  5
442
100
AcDbEntity
  8
0
100
AcDbSpline
 62
7
  6
CONTINUOUS
 70
0
 71
3
 72
8
 73
4
 74
0
 42
0.0000001
 43
0.0000001
 44
0.0000000001
 40
0.0
 40
0.0
 40
0.0
 40
0.0
 40
1.0
 40
1.0
 40
1.0
 40
1.0
 10
12.5965560573
 20
7.2311862931
 30
0.0
 10
12.6075422787
 20
7.2229253363
 30
0.0
 10
12.6160688721
 20
7.2096238297
 30
0.0
 10
12.6218669735
 20
7.1915474396
 30
0.0
  0
SPLINE
  5
443
100
AcDbEntity
  8
0
100
AcDbSpline
 62
7
  6
CONTINUOUS
 70
0
 71
3
 72
8
 73
4
 74
0
 42
0.0000001
 43
0.0000001
 44
0.0000000001
 40
0.0
 40
0.0
 40
0.0
 40
0.0
 40
1.0
 40
1.0
 40
1.0
 40
1.0
 10
12.6544385873
 20
7.1992213738
 30
0.0
 10
12.6476173126
 20
7.2222432059
 30
0.0
 10
12.6358505957
 20
7.2401490819
 30
0.0
 10
12.6187566337
 20
7.2528840759
 30
0.0
  0
SPLINE
  5
444
100
AcDbEntity
  8
0
100
AcDbSpline
 62
7
  6
CONTINUOUS
 70
0
 71
3
 72
8
 73
4
 74
0
 42
0.0000001
 43
0.0000001
 44
0.0000000001
 40
0.0
 40
0.0
 40
0.0
 40
0.0
 40
1.0
 40
1.0
 40
1.0
 40
1.0
 10
12.6187566337
 20
7.2528840759
 30
0.0
 10
12.6017441772
 20
7.2655583483
 30
0.0
 10
12.5805982076
 20
7.2720385801
 30
0.0
 10
12.5557005279
 20
7.2720385801
 30
0.0
  0
SPLINE
  5
445
100
AcDbEntity
  8
0
100
AcDbSpline
 62
7
  6
CONTINUOUS
 70
0
 71
3
 72
8
 73
4
 74
0
 42
0.0000001
 43
0.0000001
 44
0.0000000001
 40
0.0
 40
0.0
 40
0.0
 40
0.0
 40
1.0
 40
1.0
 40
1.0
 40
1.0
 10
12.5557005279
 20
7.2720385801
 30
0.0
 10
12.5335313626
 20
7.2720385801
 30
0.0
 10
12.5134085738
 20
7.2669226092
 30
0.0
 10
12.4949911083
 20
7.256861216
 30
0.0
  0
SPLINE
  5
446
100
AcDbEntity
  8
0
100
AcDbSpline
 62
7
  6
CONTINUOUS
 70
0
 71
3
 72
8
 73
4
 74
0
 42
0.0000001
 43
0.0000001
 44
0.0000000001
 40
0.0
 40
0.0
 40
0.0
 40
0.0
 40
1.0
 40
1.0
 40
1.0
 40
1.0
 10
12.4949911083
 20
7.256861216
 30
0.0
 10
12.4765736521
 20
7.2467998278
 30
0.0
 10
12.4624194898
 20
7.2321340751
 30
0.0
 10
12.452528628
 20
7.2126934112
 30
0.0
  0
SPLINE
  5
447
100
AcDbEntity
  8
0
100
AcDbSpline
 62
7
  6
CONTINUOUS
 70
0
 71
3
 72
8
 73
4
 74
0
 42
0.0000001
 43
0.0000001
 44
0.0000000001
 40
0.0
 40
0.0
 40
0.0
 40
0.0
 40
1.0
 40
1.0
 40
1.0
 40
1.0
 10
12.452528628
 20
7.2126934112
 30
0.0
 10
12.4426377718
 20
7.1932527583
 30
0.0
 10
12.4376923427
 20
7.1705719989
 30
0.0
 10
12.4376923427
 20
7.1446511161
 30
0.0
  0
SPLINE
  5
448
100
AcDbEntity
  8
0
100
AcDbSpline
 62
7
  6
CONTINUOUS
 70
0
 71
3
 72
8
 73
4
 74
0
 42
0.0000001
 43
0.0000001
 44
0.0000000001
 40
0.0
 40
0.0
 40
0.0
 40
0.0
 40
1.0
 40
1.0
 40
1.0
 40
1.0
 10
12.4376923427
 20
7.1446511161
 30
0.0
 10
12.4376923427
 20
7.1207766321
 30
0.0
 10
12.4419556432
 20
7.0984369304
 30
0.0
 10
12.4508233105
 20
7.077632022
 30
0.0
  0
SPLINE
  5
449
100
AcDbEntity
  8
0
100
AcDbSpline
 62
7
  6
CONTINUOUS
 70
0
 71
3
 72
8
 73
4
 74
0
 42
0.0000001
 43
0.0000001
 44
0.0000000001
 40
0.0
 40
0.0
 40
0.0
 40
0.0
 40
1.0
 40
1.0
 40
1.0
 40
1.0
 10
12.4508233105
 20
7.077632022
 30
0.0
 10
12.4596909792
 20
7.0568271105
 30
0.0
 10
12.4724808805
 20
7.0407970969
 30
0.0
 10
12.4893635545
 20
7.0298830466
 30
0.0
  0
SPLINE
  5
44A
100
AcDbEntity
  8
0
100
AcDbSpline
 62
7
  6
CONTINUOUS
 70
0
 71
3
 72
8
 73
4
 74
0
 42
0.0000001
 43
0.0000001
 44
0.0000000001
 40
0.0
 40
0.0
 40
0.0
 40
0.0
 40
1.0
 40
1.0
 40
1.0
 40
1.0
 10
12.4893635545
 20
7.0298830466
 30
0.0
 10
12.5062462338
 20
7.018968993
 30
0.0
 10
12.5282448627
 20
7.0135119671
 30
0.0
 10
12.5551889263
 20
7.0135119671
 30
0.0
  0
SPLINE
  5
44B
100
AcDbEntity
  8
0
100
AcDbSpline
 62
7
  6
CONTINUOUS
 70
0
 71
3
 72
8
 73
4
 74
0
 42
0.0000001
 43
0.0000001
 44
0.0000000001
 40
0.0
 40
0.0
 40
0.0
 40
0.0
 40
1.0
 40
1.0
 40
1.0
 40
1.0
 10
12.5551889263
 20
7.0135119671
 30
0.0
 10
12.5811098092
 20
7.0135119671
 30
0.0
 10
12.6031084381
 20
7.0205037815
 30
0.0
 10
12.6211848396
 20
7.0348284784
 30
0.0
  0
SPLINE
  5
44C
100
AcDbEntity
  8
0
100
AcDbSpline
 62
7
  6
CONTINUOUS
 70
0
 71
3
 72
8
 73
4
 74
0
 42
0.0000001
 43
0.0000001
 44
0.0000000001
 40
0.0
 40
0.0
 40
0.0
 40
0.0
 40
1.0
 40
1.0
 40
1.0
 40
1.0
 10
12.6211848396
 20
7.0348284784
 30
0.0
 10
12.6392612331
 20
7.0491531689
 30
0.0
 10
12.6517100804
 20
7.0697875481
 30
0.0
 10
12.6587018989
 20
7.097072677
 30
0.0
  0
SPLINE
  5
44D
100
AcDbEntity
  8
0
100
AcDbSpline
 62
7
  6
CONTINUOUS
 70
0
 71
3
 72
8
 73
4
 74
0
 42
0.0000001
 43
0.0000001
 44
0.0000000001
 40
0.0
 40
0.0
 40
0.0
 40
0.0
 40
1.0
 40
1.0
 40
1.0
 40
1.0
 10
12.6893976652
 20
7.13953516
 30
0.0
 10
12.6893976652
 20
7.1175365236
 30
0.0
 10
12.6941725634
 20
7.0967316117
 30
0.0
 10
12.7036888744
 20
7.077104224
 30
0.0
  0
SPLINE
  5
44E
100
AcDbEntity
  8
0
100
AcDbSpline
 62
7
  6
CONTINUOUS
 70
0
 71
3
 72
8
 73
4
 74
0
 42
0.0000001
 43
0.0000001
 44
0.0000000001
 40
0.0
 40
0.0
 40
0.0
 40
0.0
 40
1.0
 40
1.0
 40
1.0
 40
1.0
 10
12.7036888744
 20
7.077104224
 30
0.0
 10
12.7132721566
 20
7.0573387083
 30
0.0
 10
12.7272557937
 20
7.0418202889
 30
0.0
 10
12.7457822318
 20
7.0304653744
 30
0.0
  0
SPLINE
  5
44F
100
AcDbEntity
  8
0
100
AcDbSpline
 62
7
  6
CONTINUOUS
 70
0
 71
3
 72
8
 73
4
 74
0
 42
0.0000001
 43
0.0000001
 44
0.0000000001
 40
0.0
 40
0.0
 40
0.0
 40
0.0
 40
1.0
 40
1.0
 40
1.0
 40
1.0
 10
12.7457822318
 20
7.0304653744
 30
0.0
 10
12.764261248
 20
7.019139525
 30
0.0
 10
12.7854072176
 20
7.0135119671
 30
0.0
 10
12.8089406513
 20
7.0135119671
 30
0.0
  0
SPLINE
  5
450
100
AcDbEntity
  8
0
100
AcDbSpline
 62
7
  6
CONTINUOUS
 70
0
 71
3
 72
8
 73
4
 74
0
 42
0.0000001
 43
0.0000001
 44
0.0000000001
 40
0.0
 40
0.0
 40
0.0
 40
0.0
 40
1.0
 40
1.0
 40
1.0
 40
1.0
 10
12.8089406513
 20
7.0135119671
 30
0.0
 10
12.8305982076
 20
7.0135119671
 30
0.0
 10
12.8508915328
 20
7.0186279288
 30
0.0
 10
12.8696500416
 20
7.0288598462
 30
0.0
  0
SPLINE
  5
451
100
AcDbEntity
  8
0
100
AcDbSpline
 62
7
  6
CONTINUOUS
 70
0
 71
3
 72
8
 73
4
 74
0
 42
0.0000001
 43
0.0000001
 44
0.0000000001
 40
0.0
 40
0.0
 40
0.0
 40
0.0
 40
1.0
 40
1.0
 40
1.0
 40
1.0
 10
12.8696500416
 20
7.0288598462
 30
0.0
 10
12.8884085738
 20
7.0390917763
 30
0.0
 10
12.9029037975
 20
7.0542691287
 30
0.0
 10
12.9131702483
 20
7.0743742546
 30
0.0
  0
SPLINE
  5
452
100
AcDbEntity
  8
0
100
AcDbSpline
 62
7
  6
CONTINUOUS
 70
0
 71
3
 72
8
 73
4
 74
0
 42
0.0000001
 43
0.0000001
 44
0.0000000001
 40
0.0
 40
0.0
 40
0.0
 40
0.0
 40
1.0
 40
1.0
 40
1.0
 40
1.0
 10
12.9131702483
 20
7.0743742546
 30
0.0
 10
12.9233676516
 20
7.0943441626
 30
0.0
 10
12.9284836375
 20
7.1170249295
 30
0.0
 10
12.9284836375
 20
7.1424342033
 30
0.0
  0
SPLINE
  5
453
100
AcDbEntity
  8
0
100
AcDbSpline
 62
7
  6
CONTINUOUS
 70
0
 71
3
 72
8
 73
4
 74
0
 42
0.0000001
 43
0.0000001
 44
0.0000000001
 40
0.0
 40
0.0
 40
0.0
 40
0.0
 40
1.0
 40
1.0
 40
1.0
 40
1.0
 10
12.9284836375
 20
7.1424342033
 30
0.0
 10
12.9284836375
 20
7.1673318904
 30
0.0
 10
12.9235381805
 20
7.1896715921
 30
0.0
 10
12.913817858
 20
7.2094533022
 30
0.0
  0
SPLINE
  5
454
100
AcDbEntity
  8
0
100
AcDbSpline
 62
7
  6
CONTINUOUS
 70
0
 71
3
 72
8
 73
4
 74
0
 42
0.0000001
 43
0.0000001
 44
0.0000000001
 40
0.0
 40
0.0
 40
0.0
 40
0.0
 40
1.0
 40
1.0
 40
1.0
 40
1.0
 10
12.913817858
 20
7.2094533022
 30
0.0
 10
12.9040975295
 20
7.2292350244
 30
0.0
 10
12.8899433636
 20
7.2445829075
 30
0.0
 10
12.8714664683
 20
7.2555668732
 30
0.0
  0
SPLINE
  5
455
100
AcDbEntity
  8
0
100
AcDbSpline
 62
7
  6
CONTINUOUS
 70
0
 71
3
 72
8
 73
4
 74
0
 42
0.0000001
 43
0.0000001
 44
0.0000000001
 40
0.0
 40
0.0
 40
0.0
 40
0.0
 40
1.0
 40
1.0
 40
1.0
 40
1.0
 10
12.8714664683
 20
7.2555668732
 30
0.0
 10
12.8529379093
 20
7.2665815514
 30
0.0
 10
12.8321329974
 20
7.272209109
 30
0.0
 10
12.8091111802
 20
7.272209109
 30
0.0
  0
SPLINE
  5
456
100
AcDbEntity
  8
0
100
AcDbSpline
 62
7
  6
CONTINUOUS
 70
0
 71
3
 72
8
 73
4
 74
0
 42
0.0000001
 43
0.0000001
 44
0.0000000001
 40
0.0
 40
0.0
 40
0.0
 40
0.0
 40
1.0
 40
1.0
 40
1.0
 40
1.0
 10
12.8091111802
 20
7.272209109
 30
0.0
 10
12.7738110446
 20
7.272209109
 30
0.0
 10
12.744991126
 20
7.2604423922
 30
0.0
 10
12.7227769781
 20
7.2369515707
 30
0.0
  0
SPLINE
  5
457
100
AcDbEntity
  8
0
100
AcDbSpline
 62
7
  6
CONTINUOUS
 70
0
 71
3
 72
8
 73
4
 74
0
 42
0.0000001
 43
0.0000001
 44
0.0000000001
 40
0.0
 40
0.0
 40
0.0
 40
0.0
 40
1.0
 40
1.0
 40
1.0
 40
1.0
 10
12.7227769781
 20
7.2369515707
 30
0.0
 10
12.7004822515
 20
7.2133755397
 30
0.0
 10
12.6893976652
 20
7.1809744548
 30
0.0
 10
12.6893976652
 20
7.13953516
 30
0.0
  0
SPLINE
  5
458
100
AcDbEntity
  8
0
100
AcDbSpline
 62
7
  6
CONTINUOUS
 70
0
 71
3
 72
8
 73
4
 74
0
 42
0.0000001
 43
0.0000001
 44
0.0000000001
 40
0.0
 40
0.0
 40
0.0
 40
0.0
 40
1.0
 40
1.0
 40
1.0
 40
1.0
 10
13.2555641257
 20
7.0177752685
 30
0.0
 10
13.2705709063
 20
7.0177752685
 30
0.0
 10
13.2840429269
 20
7.019139525
 30
0.0
 10
13.2956583888
 20
7.0219579771
 30
0.0
  0
SPLINE
  5
459
100
AcDbEntity
  8
0
100
AcDbSpline
 62
7
  6
CONTINUOUS
 70
0
 71
3
 72
8
 73
4
 74
0
 42
0.0000001
 43
0.0000001
 44
0.0000000001
 40
0.0
 40
0.0
 40
0.0
 40
0.0
 40
1.0
 40
1.0
 40
1.0
 40
1.0
 10
13.2956583888
 20
7.0219579771
 30
0.0
 10
13.3072353326
 20
7.0247670829
 30
0.0
 10
13.3172967159
 20
7.0290303847
 30
0.0
 10
13.3254822311
 20
7.0344873966
 30
0.0
  0
SPLINE
  5
45A
100
AcDbEntity
  8
0
100
AcDbSpline
 62
7
  6
CONTINUOUS
 70
0
 71
3
 72
8
 73
4
 74
0
 42
0.0000001
 43
0.0000001
 44
0.0000000001
 40
0.0
 40
0.0
 40
0.0
 40
0.0
 40
1.0
 40
1.0
 40
1.0
 40
1.0
 10
13.3254822311
 20
7.0344873966
 30
0.0
 10
13.3336677872
 20
7.0399444357
 30
0.0
 10
13.3413417064
 20
7.0476183791
 30
0.0
 10
13.3482774487
 20
7.0572085121
 30
0.0
  0
SPLINE
  5
45B
100
AcDbEntity
  8
0
100
AcDbSpline
 62
7
  6
CONTINUOUS
 70
0
 71
3
 72
8
 73
4
 74
0
 42
0.0000001
 43
0.0000001
 44
0.0000000001
 40
0.0
 40
0.0
 40
0.0
 40
0.0
 40
1.0
 40
1.0
 40
1.0
 40
1.0
 10
13.3482774487
 20
7.0572085121
 30
0.0
 10
13.3551548444
 20
7.0667179685
 30
0.0
 10
13.3609528862
 20
7.0789962795
 30
0.0
 10
13.3653867282
 20
7.0936620407
 30
0.0
  0
SPLINE
  5
45C
100
AcDbEntity
  8
0
100
AcDbSpline
 62
7
  6
CONTINUOUS
 70
0
 71
3
 72
8
 73
4
 74
0
 42
0.0000001
 43
0.0000001
 44
0.0000000001
 40
0.0
 40
0.0
 40
0.0
 40
0.0
 40
1.0
 40
1.0
 40
1.0
 40
1.0
 10
13.3653867282
 20
7.0936620407
 30
0.0
 10
13.3698205673
 20
7.1083277922
 30
0.0
 10
13.3720375024
 20
7.1250399363
 30
0.0
 10
13.3720375024
 20
7.1441395294
 30
0.0
  0
SPLINE
  5
45D
100
AcDbEntity
  8
0
100
AcDbSpline
 62
7
  6
CONTINUOUS
 70
0
 71
3
 72
8
 73
4
 74
0
 42
0.0000001
 43
0.0000001
 44
0.0000000001
 40
0.0
 40
0.0
 40
0.0
 40
0.0
 40
1.0
 40
1.0
 40
1.0
 40
1.0
 10
13.3720375024
 20
7.1441395294
 30
0.0
 10
13.3720375024
 20
7.1663086873
 30
0.0
 10
13.368626865
 20
7.1860904109
 30
0.0
 10
13.3621466456
 20
7.2034846845
 30
0.0
  0
SPLINE
  5
45E
100
AcDbEntity
  8
0
100
AcDbSpline
 62
7
  6
CONTINUOUS
 70
0
 71
3
 72
8
 73
4
 74
0
 42
0.0000001
 43
0.0000001
 44
0.0000000001
 40
0.0
 40
0.0
 40
0.0
 40
0.0
 40
1.0
 40
1.0
 40
1.0
 40
1.0
 10
13.3621466456
 20
7.2034846845
 30
0.0
 10
13.3556664311
 20
7.2208789449
 30
0.0
 10
13.3457755767
 20
7.2350331109
 30
0.0
 10
13.3325773912
 20
7.2462081993
 30
0.0
  0
SPLINE
  5
45F
100
AcDbEntity
  8
0
100
AcDbSpline
 62
7
  6
CONTINUOUS
 70
0
 71
3
 72
8
 73
4
 74
0
 42
0.0000001
 43
0.0000001
 44
0.0000000001
 40
0.0
 40
0.0
 40
0.0
 40
0.0
 40
1.0
 40
1.0
 40
1.0
 40
1.0
 10
13.3325773912
 20
7.2462081993
 30
0.0
 10
13.3224126421
 20
7.2548148345
 30
0.0
 10
13.3103049122
 20
7.26078345
 30
0.0
 10
13.2959738666
 20
7.2641671729
 30
0.0
  0
SPLINE
  5
460
100
AcDbEntity
  8
0
100
AcDbSpline
 62
7
  6
CONTINUOUS
 70
0
 71
3
 72
8
 73
4
 74
0
 42
0.0000001
 43
0.0000001
 44
0.0000000001
 40
0.0
 40
0.0
 40
0.0
 40
0.0
 40
1.0
 40
1.0
 40
1.0
 40
1.0
 10
13.2959738666
 20
7.2641671729
 30
0.0
 10
13.2857482754
 20
7.2665815514
 30
0.0
 10
13.2709119641
 20
7.2677752685
 30
0.0
 10
13.2514713131
 20
7.2677752685
 30
0.0
  0
LINE
  5
461
100
AcDbEntity
  8
0
100
AcDbLine
 62
7
  6
CONTINUOUS
 10
11.4376918422
 20
-0.857931332
 11
11.4376923427
 21
-0.8586389451
  0
SPLINE
  5
462
100
AcDbEntity
  8
0
100
AcDbSpline
 62
7
  6
CONTINUOUS
 70
0
 71
3
 72
8
 73
4
 74
0
 42
0.0000001
 43
0.0000001
 44
0.0000000001
 40
0.0
 40
0.0
 40
0.0
 40
0.0
 40
1.0
 40
1.0
 40
1.0
 40
1.0
 10
8.8379310821
 20
7.1390235659
 30
0.0
 10
8.8379310821
 20
7.1765406143
 30
0.0
 10
8.8462871466
 20
7.2034846854
 30
0.0
 10
8.8631698274
 20
7.2195147064
 30
0.0
  0
SPLINE
  5
463
100
AcDbEntity
  8
0
100
AcDbSpline
 62
7
  6
CONTINUOUS
 70
0
 71
3
 72
8
 73
4
 74
0
 42
0.0000001
 43
0.0000001
 44
0.0000000001
 40
0.0
 40
0.0
 40
0.0
 40
0.0
 40
1.0
 40
1.0
 40
1.0
 40
1.0
 10
8.8631698274
 20
7.2195147064
 30
0.0
 10
8.8800524924
 20
7.2355447125
 30
0.0
 10
8.9001752887
 20
7.2437302482
 30
0.0
 10
8.9237087224
 20
7.2437302482
 30
0.0
  0
SPLINE
  5
464
100
AcDbEntity
  8
0
100
AcDbSpline
 62
7
  6
CONTINUOUS
 70
0
 71
3
 72
8
 73
4
 74
0
 42
0.0000001
 43
0.0000001
 44
0.0000000001
 40
0.0
 40
0.0
 40
0.0
 40
0.0
 40
1.0
 40
1.0
 40
1.0
 40
1.0
 10
8.9237087224
 20
7.2437302482
 30
0.0
 10
8.9400797937
 20
7.2437302482
 30
0.0
 10
8.9549160753
 20
7.2394669514
 30
0.0
 10
8.9682175746
 20
7.231110884
 30
0.0
  0
SPLINE
  5
465
100
AcDbEntity
  8
0
100
AcDbSpline
 62
7
  6
CONTINUOUS
 70
0
 71
3
 72
8
 73
4
 74
0
 42
0.0000001
 43
0.0000001
 44
0.0000000001
 40
0.0
 40
0.0
 40
0.0
 40
0.0
 40
1.0
 40
1.0
 40
1.0
 40
1.0
 10
8.9682175746
 20
7.231110884
 30
0.0
 10
8.9815190886
 20
7.2227548074
 30
0.0
 10
8.9915804718
 20
7.2109880906
 30
0.0
 10
8.998401759
 20
7.1958107419
 30
0.0
  0
SPLINE
  5
466
100
AcDbEntity
  8
0
100
AcDbSpline
 62
7
  6
CONTINUOUS
 70
0
 71
3
 72
8
 73
4
 74
0
 42
0.0000001
 43
0.0000001
 44
0.0000000001
 40
0.0
 40
0.0
 40
0.0
 40
0.0
 40
1.0
 40
1.0
 40
1.0
 40
1.0
 10
8.998401759
 20
7.1958107419
 30
0.0
 10
9.0052230511
 20
7.1806333822
 30
0.0
 10
9.0088042174
 20
7.1628980499
 30
0.0
 10
9.0088042174
 20
7.1426047396
 30
0.0
  0
SPLINE
  5
467
100
AcDbEntity
  8
0
100
AcDbSpline
 62
7
  6
CONTINUOUS
 70
0
 71
3
 72
8
 73
4
 74
0
 42
0.0000001
 43
0.0000001
 44
0.0000000001
 40
0.0
 40
0.0
 40
0.0
 40
0.0
 40
1.0
 40
1.0
 40
1.0
 40
1.0
 10
9.0088042174
 20
7.1426047396
 30
0.0
 10
9.0088042174
 20
7.1103741762
 30
0.0
 10
9.0006186817
 20
7.0854764965
 30
0.0
 10
8.9846311893
 20
7.0680433255
 30
0.0
  0
SPLINE
  5
468
100
AcDbEntity
  8
0
100
AcDbSpline
 62
7
  6
CONTINUOUS
 70
0
 71
3
 72
8
 73
4
 74
0
 42
0.0000001
 43
0.0000001
 44
0.0000000001
 40
0.0
 40
0.0
 40
0.0
 40
0.0
 40
1.0
 40
1.0
 40
1.0
 40
1.0
 10
8.9846311893
 20
7.0680433255
 30
0.0
 10
8.9685586546
 20
7.0505174224
 30
0.0
 10
8.9480948005
 20
7.0418202889
 30
0.0
 10
8.9231971059
 20
7.0418202889
 30
0.0
  0
SPLINE
  5
469
100
AcDbEntity
  8
0
100
AcDbSpline
 62
7
  6
CONTINUOUS
 70
0
 71
3
 72
8
 73
4
 74
0
 42
0.0000001
 43
0.0000001
 44
0.0000000001
 40
0.0
 40
0.0
 40
0.0
 40
0.0
 40
1.0
 40
1.0
 40
1.0
 40
1.0
 10
8.9231971059
 20
7.0418202889
 30
0.0
 10
8.8986404989
 20
7.0418202889
 30
0.0
 10
8.8783471737
 20
7.0503468935
 30
0.0
 10
8.8621466322
 20
7.0677411614
 30
0.0
  0
SPLINE
  5
46A
100
AcDbEntity
  8
0
100
AcDbSpline
 62
7
  6
CONTINUOUS
 70
0
 71
3
 72
8
 73
4
 74
0
 42
0.0000001
 43
0.0000001
 44
0.0000000001
 40
0.0
 40
0.0
 40
0.0
 40
0.0
 40
1.0
 40
1.0
 40
1.0
 40
1.0
 10
8.8621466322
 20
7.0677411614
 30
0.0
 10
8.8459460888
 20
7.0851354312
 30
0.0
 10
8.8379310821
 20
7.1088393864
 30
0.0
 10
8.8379310821
 20
7.1390235659
 30
0.0
  0
SPLINE
  5
46B
100
AcDbEntity
  8
0
100
AcDbSpline
 62
7
  6
CONTINUOUS
 70
0
 71
3
 72
8
 73
4
 74
0
 42
0.0000001
 43
0.0000001
 44
0.0000000001
 40
0.0
 40
0.0
 40
0.0
 40
0.0
 40
1.0
 40
1.0
 40
1.0
 40
1.0
 10
12.7235040687
 20
7.1390235659
 30
0.0
 10
12.7235040687
 20
7.1765406143
 30
0.0
 10
12.7318601333
 20
7.2034846854
 30
0.0
 10
12.748742814
 20
7.2195147064
 30
0.0
  0
SPLINE
  5
46C
100
AcDbEntity
  8
0
100
AcDbSpline
 62
7
  6
CONTINUOUS
 70
0
 71
3
 72
8
 73
4
 74
0
 42
0.0000001
 43
0.0000001
 44
0.0000000001
 40
0.0
 40
0.0
 40
0.0
 40
0.0
 40
1.0
 40
1.0
 40
1.0
 40
1.0
 10
12.748742814
 20
7.2195147064
 30
0.0
 10
12.7656254791
 20
7.2355447125
 30
0.0
 10
12.7857482754
 20
7.2437302482
 30
0.0
 10
12.8092817091
 20
7.2437302482
 30
0.0
  0
SPLINE
  5
46D
100
AcDbEntity
  8
0
100
AcDbSpline
 62
7
  6
CONTINUOUS
 70
0
 71
3
 72
8
 73
4
 74
0
 42
0.0000001
 43
0.0000001
 44
0.0000000001
 40
0.0
 40
0.0
 40
0.0
 40
0.0
 40
1.0
 40
1.0
 40
1.0
 40
1.0
 10
12.8092817091
 20
7.2437302482
 30
0.0
 10
12.8256527804
 20
7.2437302482
 30
0.0
 10
12.840489062
 20
7.2394669514
 30
0.0
 10
12.8537905613
 20
7.231110884
 30
0.0
  0
SPLINE
  5
46E
100
AcDbEntity
  8
0
100
AcDbSpline
 62
7
  6
CONTINUOUS
 70
0
 71
3
 72
8
 73
4
 74
0
 42
0.0000001
 43
0.0000001
 44
0.0000000001
 40
0.0
 40
0.0
 40
0.0
 40
0.0
 40
1.0
 40
1.0
 40
1.0
 40
1.0
 10
12.8537905613
 20
7.231110884
 30
0.0
 10
12.8670920752
 20
7.2227548074
 30
0.0
 10
12.8771534585
 20
7.2109880906
 30
0.0
 10
12.8839747456
 20
7.1958107419
 30
0.0
  0
SPLINE
  5
46F
100
AcDbEntity
  8
0
100
AcDbSpline
 62
7
  6
CONTINUOUS
 70
0
 71
3
 72
8
 73
4
 74
0
 42
0.0000001
 43
0.0000001
 44
0.0000000001
 40
0.0
 40
0.0
 40
0.0
 40
0.0
 40
1.0
 40
1.0
 40
1.0
 40
1.0
 10
12.8839747456
 20
7.1958107419
 30
0.0
 10
12.8907960378
 20
7.1806333822
 30
0.0
 10
12.8943772041
 20
7.1628980499
 30
0.0
 10
12.8943772041
 20
7.1426047396
 30
0.0
  0
SPLINE
  5
470
100
AcDbEntity
  8
0
100
AcDbSpline
 62
7
  6
CONTINUOUS
 70
0
 71
3
 72
8
 73
4
 74
0
 42
0.0000001
 43
0.0000001
 44
0.0000000001
 40
0.0
 40
0.0
 40
0.0
 40
0.0
 40
1.0
 40
1.0
 40
1.0
 40
1.0
 10
12.8943772041
 20
7.1426047396
 30
0.0
 10
12.8943772041
 20
7.1103741762
 30
0.0
 10
12.8861916684
 20
7.0854764965
 30
0.0
 10
12.8702041759
 20
7.0680433255
 30
0.0
  0
SPLINE
  5
471
100
AcDbEntity
  8
0
100
AcDbSpline
 62
7
  6
CONTINUOUS
 70
0
 71
3
 72
8
 73
4
 74
0
 42
0.0000001
 43
0.0000001
 44
0.0000000001
 40
0.0
 40
0.0
 40
0.0
 40
0.0
 40
1.0
 40
1.0
 40
1.0
 40
1.0
 10
12.8702041759
 20
7.0680433255
 30
0.0
 10
12.8541316413
 20
7.0505174224
 30
0.0
 10
12.8336677872
 20
7.0418202889
 30
0.0
 10
12.8087700926
 20
7.0418202889
 30
0.0
  0
SPLINE
  5
472
100
AcDbEntity
  8
0
100
AcDbSpline
 62
7
  6
CONTINUOUS
 70
0
 71
3
 72
8
 73
4
 74
0
 42
0.0000001
 43
0.0000001
 44
0.0000000001
 40
0.0
 40
0.0
 40
0.0
 40
0.0
 40
1.0
 40
1.0
 40
1.0
 40
1.0
 10
12.8087700926
 20
7.0418202889
 30
0.0
 10
12.7842134856
 20
7.0418202889
 30
0.0
 10
12.7639201604
 20
7.0503468935
 30
0.0
 10
12.7477196189
 20
7.0677411614
 30
0.0
  0
SPLINE
  5
473
100
AcDbEntity
  8
0
100
AcDbSpline
 62
7
  6
CONTINUOUS
 70
0
 71
3
 72
8
 73
4
 74
0
 42
0.0000001
 43
0.0000001
 44
0.0000000001
 40
0.0
 40
0.0
 40
0.0
 40
0.0
 40
1.0
 40
1.0
 40
1.0
 40
1.0
 10
12.7477196189
 20
7.0677411614
 30
0.0
 10
12.7315190755
 20
7.0851354312
 30
0.0
 10
12.7235040687
 20
7.1088393864
 30
0.0
 10
12.7235040687
 20
7.1390235659
 30
0.0
  0
SPLINE
  5
474
100
AcDbEntity
  8
0
100
AcDbSpline
 62
7
  6
CONTINUOUS
 70
0
 71
3
 72
8
 73
4
 74
0
 42
0.0000001
 43
0.0000001
 44
0.0000000001
 40
0.0
 40
0.0
 40
0.0
 40
0.0
 40
1.0
 40
1.0
 40
1.0
 40
1.0
 10
13.2509597265
 20
7.2382732194
 30
0.0
 10
13.2705709063
 20
7.2382732194
 30
0.0
 10
13.284895631
 20
7.2365679007
 30
0.0
 10
13.2937558847
 20
7.2331381206
 30
0.0
  0
SPLINE
  5
475
100
AcDbEntity
  8
0
100
AcDbSpline
 62
7
  6
CONTINUOUS
 70
0
 71
3
 72
8
 73
4
 74
0
 42
0.0000001
 43
0.0000001
 44
0.0000000001
 40
0.0
 40
0.0
 40
0.0
 40
0.0
 40
1.0
 40
1.0
 40
1.0
 40
1.0
 10
13.2937558847
 20
7.2331381206
 30
0.0
 10
13.3060415708
 20
7.2283823651
 30
0.0
 10
13.3164440714
 20
7.2188325685
 30
0.0
 10
13.3249706601
 20
7.2048489467
 30
0.0
  0
SPLINE
  5
476
100
AcDbEntity
  8
0
100
AcDbSpline
 62
7
  6
CONTINUOUS
 70
0
 71
3
 72
8
 73
4
 74
0
 42
0.0000001
 43
0.0000001
 44
0.0000000001
 40
0.0
 40
0.0
 40
0.0
 40
0.0
 40
1.0
 40
1.0
 40
1.0
 40
1.0
 10
13.3249706601
 20
7.2048489467
 30
0.0
 10
13.3334972583
 20
7.1908653092
 30
0.0
 10
13.337931069
 20
7.1707425278
 30
0.0
 10
13.337931069
 20
7.1446511161
 30
0.0
  0
SPLINE
  5
477
100
AcDbEntity
  8
0
100
AcDbSpline
 62
7
  6
CONTINUOUS
 70
0
 71
3
 72
8
 73
4
 74
0
 42
0.0000001
 43
0.0000001
 44
0.0000000001
 40
0.0
 40
0.0
 40
0.0
 40
0.0
 40
1.0
 40
1.0
 40
1.0
 40
1.0
 10
13.337931069
 20
7.1446511161
 30
0.0
 10
13.337931069
 20
7.1257220593
 30
0.0
 10
13.3357141935
 20
7.1096920457
 30
0.0
 10
13.33128035
 20
7.0963905376
 30
0.0
  0
SPLINE
  5
478
100
AcDbEntity
  8
0
100
AcDbSpline
 62
7
  6
CONTINUOUS
 70
0
 71
3
 72
8
 73
4
 74
0
 42
0.0000001
 43
0.0000001
 44
0.0000000001
 40
0.0
 40
0.0
 40
0.0
 40
0.0
 40
1.0
 40
1.0
 40
1.0
 40
1.0
 10
13.33128035
 20
7.0963905376
 30
0.0
 10
13.3268465124
 20
7.0830890473
 30
0.0
 10
13.3208778821
 20
7.0726865914
 30
0.0
 10
13.3130334243
 20
7.064842127
 30
0.0
  0
SPLINE
  5
479
100
AcDbEntity
  8
0
100
AcDbSpline
 62
7
  6
CONTINUOUS
 70
0
 71
3
 72
8
 73
4
 74
0
 42
0.0000001
 43
0.0000001
 44
0.0000000001
 40
0.0
 40
0.0
 40
0.0
 40
0.0
 40
1.0
 40
1.0
 40
1.0
 40
1.0
 10
13.3130334243
 20
7.064842127
 30
0.0
 10
13.3074058615
 20
7.0592145596
 30
0.0
 10
13.2999024116
 20
7.0549512592
 30
0.0
 10
13.2905232001
 20
7.05188169
 30
0.0
  0
SPLINE
  5
47A
100
AcDbEntity
  8
0
100
AcDbSpline
 62
7
  6
CONTINUOUS
 70
0
 71
3
 72
8
 73
4
 74
0
 42
0.0000001
 43
0.0000001
 44
0.0000000001
 40
0.0
 40
0.0
 40
0.0
 40
0.0
 40
1.0
 40
1.0
 40
1.0
 40
1.0
 10
13.2905232001
 20
7.05188169
 30
0.0
 10
13.2811439358
 20
7.0488121037
 30
0.0
 10
13.2681835018
 20
7.0472773157
 30
0.0
 10
13.2518123709
 20
7.0472773157
 30
0.0
  0
LINE
  5
47B
100
AcDbEntity
  8
0
100
AcDbLine
 62
7
  6
CONTINUOUS
 10
10.4376923427
 20
-0.8586389451
 11
10.4376928434
 21
-0.8579312319
  0
LINE
  5
47C
100
AcDbEntity
  8
0
100
AcDbLine
 62
7
  6
CONTINUOUS
 10
11.3439423372
 20
16.9362586692
 11
11.3434663724
 21
16.9357085378
  0
SPLINE
  5
47D
100
AcDbEntity
  8
0
100
AcDbSpline
 62
7
  6
CONTINUOUS
 70
0
 71
3
 72
21
 73
17
 74
0
 42
0.0000001
 43
0.0000001
 44
0.0000000001
 40
0.0
 40
0.0
 40
0.0
 40
0.0
 40
0.0083422059
 40
0.016942821
 40
0.0363758448
 40
0.0606671923
 40
0.0909930899
 40
0.1279405645
 40
0.1718087562
 40
0.2227502366
 40
0.2808385155
 40
0.3460929841
 40
0.4185039228
 40
0.5846184983
 40
0.7786914369
 40
1.0
 40
1.0
 40
1.0
 40
1.0
 10
11.4719707307
 20
13.9598727985
 30
0.0
 10
11.4719725145
 20
13.9598965961
 30
0.0
 10
11.4719705017
 20
13.9599455408
 30
0.0
 10
11.4719421948
 20
13.960046535
 30
0.0
 10
11.4718565657
 20
13.9601733859
 30
0.0
 10
11.4716947867
 20
13.9603120085
 30
0.0
 10
11.4714701084
 20
13.9604482206
 30
0.0
 10
11.4711814082
 20
13.9605823695
 30
0.0
 10
11.4708282472
 20
13.9607148104
 30
0.0
 10
11.470410601
 20
13.9608453076
 30
0.0
 10
11.4699287193
 20
13.9609736749
 30
0.0
 10
11.4693830198
 20
13.9610997369
 30
0.0
 10
11.4685312547
 20
13.9612724499
 30
0.0
 10
11.4673104051
 20
13.961476949
 30
0.0
 10
11.4656619767
 20
13.9617013475
 30
0.0
 10
11.4644810219
 20
13.9618339771
 30
0.0
 10
11.4638512949
 20
13.9618991711
 30
0.0
  0
SPLINE
  5
47E
100
AcDbEntity
  8
0
100
AcDbSpline
 62
9
  6
CONTINUOUS
 70
0
 71
3
 72
42
 73
38
 74
0
 42
0.0000001
 43
0.0000001
 44
0.0000000001
 40
0.0
 40
0.0
 40
0.0
 40
0.0
 40
0.0385769566
 40
0.0770242038
 40
0.0961623754
 40
0.1152227682
 40
0.1341919435
 40
0.1530572201
 40
0.1904283267
 40
0.2089178989
 40
0.2272645428
 40
0.263500158
 40
0.2990967514
 40
0.3340296297
 40
0.3682881127
 40
0.401873283
 40
0.4347962598
 40
0.4670754576
 40
0.4987347789
 40
0.529802637
 40
0.5603103237
 40
0.5902907185
 40
0.6197779105
 40
0.6488069183
 40
0.677412843
 40
0.7056306368
 40
0.7334950988
 40
0.7610403812
 40
0.7883002421
 40
0.8153078716
 40
0.8420959065
 40
0.8686968928
 40
0.8951427286
 40
0.9214647628
 40
0.9476943993
 40
0.9738632192
 40
1.0
 40
1.0
 40
1.0
 40
1.0
 10
10.9376923427
 20
7.4877752685
 30
0.0
 10
10.9449664083
 20
7.4877750615
 30
0.0
 10
10.9594927962
 20
7.4873826643
 30
0.0
 10
10.9775757474
 20
7.4859297408
 30
0.0
 10
10.9919253039
 20
7.4841968964
 30
0.0
 10
11.0025899293
 20
7.482618091
 30
0.0
 10
11.0131579986
 20
7.4807643759
 30
0.0
 10
11.0270570955
 20
7.4779459336
 30
0.0
 10
11.0407528495
 20
7.4746018838
 30
0.0
 10
11.054205436
 20
7.4707477317
 30
0.0
 10
11.0673482092
 20
7.4666064585
 30
0.0
 10
11.0833633929
 20
7.460867655
 30
0.0
 10
11.1019479433
 20
7.4531058616
 30
0.0
 10
11.1197740473
 20
7.4445629292
 30
0.0
 10
11.1368101195
 20
7.4353078244
 30
0.0
 10
11.1530360201
 20
7.425406167
 30
0.0
 10
11.168438866
 20
7.4149173207
 30
0.0
 10
11.1830137197
 20
7.4038980365
 30
0.0
 10
11.1967616012
 20
7.3924011957
 30
0.0
 10
11.2096866847
 20
7.3804741276
 30
0.0
 10
11.2217961698
 20
7.3681602887
 30
0.0
 10
11.233099561
 20
7.3554996857
 30
0.0
 10
11.2436076291
 20
7.3425287305
 30
0.0
 10
11.2533313746
 20
7.3292802036
 30
0.0
 10
11.2622820728
 20
7.3157840818
 30
0.0
 10
11.2704710709
 20
7.3020679323
 30
0.0
 10
11.2779090285
 20
7.2881569259
 30
0.0
 10
11.2846062711
 20
7.2740744144
 30
0.0
 10
11.290572268
 20
7.2598419934
 30
0.0
 10
11.2958155654
 20
7.2454797587
 30
0.0
 10
11.3003441273
 20
7.2310065883
 30
0.0
 10
11.3041643015
 20
7.2164400645
 30
0.0
 10
11.3072819536
 20
7.2017970601
 30
0.0
 10
11.3097022244
 20
7.1870937938
 30
0.0
 10
11.311428448
 20
7.1723454863
 30
0.0
 10
11.3124615801
 20
7.1575678483
 30
0.0
 10
11.3126913784
 20
7.1477036162
 30
0.0
 10
11.3126923427
 20
7.1427752685
 30
0.0
  0
SPLINE
  5
47F
100
AcDbEntity
  8
0
100
AcDbSpline
 62
7
  6
CONTINUOUS
 70
0
 71
3
 72
19
 73
15
 74
0
 42
0.0000001
 43
0.0000001
 44
0.0000000001
 40
0.0
 40
0.0
 40
0.0
 40
0.0
 40
0.0219055896
 40
0.0456492877
 40
0.0731326434
 40
0.1056003528
 40
0.1438005041
 40
0.188182428
 40
0.2390205017
 40
0.2964794221
 40
0.4316030354
 40
0.5939455121
 40
0.783491402
 40
1.0
 40
1.0
 40
1.0
 40
1.0
 10
10.9956584474
 20
13.9587362627
 30
0.0
 10
10.9956612509
 20
13.9587736621
 30
0.0
 10
10.9956533258
 20
13.9588531977
 30
0.0
 10
10.9956008464
 20
13.9589687045
 30
0.0
 10
10.9955107931
 20
13.959081491
 30
0.0
 10
10.9953840975
 20
13.9591927875
 30
0.0
 10
10.9952206758
 20
13.9593034152
 30
0.0
 10
10.9950203253
 20
13.9594136272
 30
0.0
 10
10.9947829547
 20
13.9595234864
 30
0.0
 10
10.9943956822
 20
13.959677876
 30
0.0
 10
10.9938170071
 20
13.959865223
 30
0.0
 10
10.9930105097
 20
13.9600778123
 30
0.0
 10
10.9920600371
 20
13.9602876393
 30
0.0
 10
10.9913768408
 20
13.9604167662
 30
0.0
 10
10.9910118549
 20
13.9604814996
 30
0.0
  0
SPLINE
  5
480
100
AcDbEntity
  8
0
100
AcDbSpline
 62
7
  6
CONTINUOUS
 70
0
 71
3
 72
16
 73
12
 74
0
 42
0.0000001
 43
0.0000001
 44
0.0000000001
 40
0.0
 40
0.0
 40
0.0
 40
0.0
 40
0.0306155278
 40
0.0622965332
 40
0.1335557528
 40
0.2214957298
 40
0.3300925878
 40
0.4613895575
 40
0.6164742819
 40
0.7959138666
 40
1.0
 40
1.0
 40
1.0
 40
1.0
 10
10.5193464186
 20
13.9576031129
 30
0.0
 10
10.5193481072
 20
13.9576256175
 30
0.0
 10
10.5193464584
 20
13.9576719459
 30
0.0
 10
10.5193216837
 20
13.9577679232
 30
0.0
 10
10.5192464576
 20
13.9578901427
 30
0.0
 10
10.5191028316
 20
13.9580271633
 30
0.0
 10
10.5189028467
 20
13.958164126
 30
0.0
 10
10.5186457022
 20
13.958301486
 30
0.0
 10
10.5183310312
 20
13.9584395425
 30
0.0
 10
10.5179588133
 20
13.9585781434
 30
0.0
 10
10.517689751
 20
13.9586651915
 30
0.0
 10
10.5175458863
 20
13.958709182
 30
0.0
  0
SPLINE
  5
481
100
AcDbEntity
  8
0
100
AcDbSpline
 62
7
  6
CONTINUOUS
 70
0
 71
3
 72
24
 73
20
 74
0
 42
0.0000001
 43
0.0000001
 44
0.0000000001
 40
0.0
 40
0.0
 40
0.0
 40
0.0
 40
0.0063367773
 40
0.0130817617
 40
0.0207315216
 40
0.0296320853
 40
0.0400042651
 40
0.0519857737
 40
0.081084841
 40
0.1173509814
 40
0.1609584152
 40
0.2119812901
 40
0.2704397388
 40
0.3363167229
 40
0.4095758276
 40
0.4901578407
 40
0.5779928897
 40
0.7750681662
 40
1.0
 40
1.0
 40
1.0
 40
1.0
 10
11.4780904667
 20
13.9311845057
 30
0.0
 10
11.4780917976
 20
13.9312022683
 30
0.0
 10
11.4780886819
 20
13.9312396235
 30
0.0
 10
11.478066262
 20
13.931294186
 30
0.0
 10
11.4780272038
 20
13.9313473436
 30
0.0
 10
11.4779719868
 20
13.9313995139
 30
0.0
 10
11.4779006281
 20
13.9314510764
 30
0.0
 10
11.4777755198
 20
13.9315239796
 30
0.0
 10
11.4775758185
 20
13.931611417
 30
0.0
 10
11.4772854183
 20
13.9317094206
 30
0.0
 10
11.4769301706
 20
13.9318059309
 30
0.0
 10
11.4765103426
 20
13.9319007881
 30
0.0
 10
11.476026198
 20
13.9319937641
 30
0.0
 10
11.4754782209
 20
13.9320847071
 30
0.0
 10
11.4748669802
 20
13.9321734525
 30
0.0
 10
11.4741931375
 20
13.9322598881
 30
0.0
 10
11.4731723584
 20
13.9323763833
 30
0.0
 10
11.4717456344
 20
13.9325129981
 30
0.0
 10
11.4705629618
 20
13.9326055081
 30
0.0
 10
11.4699323096
 20
13.9326507175
 30
0.0
  0
SPLINE
  5
482
100
AcDbEntity
  8
0
100
AcDbSpline
 62
7
  6
CONTINUOUS
 70
0
 71
3
 72
23
 73
19
 74
0
 42
0.0000001
 43
0.0000001
 44
0.0000000001
 40
0.0
 40
0.0
 40
0.0
 40
0.0
 40
0.0071316592
 40
0.0147033608
 40
0.0231459354
 40
0.0327725336
 40
0.056323193
 40
0.0863717557
 40
0.1233445536
 40
0.1674428745
 40
0.2187521256
 40
0.2772990388
 40
0.3430675757
 40
0.4160177725
 40
0.4960864993
 40
0.5831960058
 40
0.7781499236
 40
1.0
 40
1.0
 40
1.0
 40
1.0
 10
10.0754944912
 20
13.9565502195
 30
0.0
 10
10.0754961909
 20
13.9565728701
 30
0.0
 10
10.0754931027
 20
13.9566202916
 30
0.0
 10
10.0754689524
 20
13.9566906706
 30
0.0
 10
10.0754261445
 20
13.9567608116
 30
0.0
 10
10.075338741
 20
13.9568610883
 30
0.0
 10
10.075177936
 20
13.9569848784
 30
0.0
 10
10.0749262466
 20
13.9571266076
 30
0.0
 10
10.0746025934
 20
13.9572708383
 30
0.0
 10
10.0742070401
 20
13.957417323
 30
0.0
 10
10.0737395884
 20
13.9575658668
 30
0.0
 10
10.0732007073
 20
13.9577161719
 30
0.0
 10
10.0725909734
 20
13.9578680068
 30
0.0
 10
10.0719111187
 20
13.9580211181
 30
0.0
 10
10.0711619771
 20
13.9581752976
 30
0.0
 10
10.0700287372
 20
13.9583901347
 30
0.0
 10
10.0684459328
 20
13.9586568453
 30
0.0
 10
10.0671327154
 20
13.9588516258
 30
0.0
 10
10.0664330241
 20
13.9589501195
 30
0.0
  0
SPLINE
  5
483
100
AcDbEntity
  8
0
100
AcDbSpline
 62
7
  6
CONTINUOUS
 70
0
 71
3
 72
39
 73
35
 74
0
 42
0.0000001
 43
0.0000001
 44
0.0000000001
 40
0.0
 40
0.0
 40
0.0
 40
0.0
 40
0.0976733496
 40
0.1944738488
 40
0.2894737074
 40
0.3817552907
 40
0.4704262801
 40
0.5546255809
 40
0.6335321089
 40
0.7063727555
 40
0.7724305213
 40
0.8027091407
 40
0.8310525339
 40
0.8573904905
 40
0.8816572245
 40
0.9037924511
 40
0.9237410904
 40
0.9414531672
 40
0.9568849262
 40
0.9699980169
 40
0.9756747549
 40
0.9807601985
 40
0.9852515237
 40
0.9891460079
 40
0.9924415196
 40
0.9951368444
 40
0.9972313398
 40
0.9980535204
 40
0.9987262284
 40
0.9992505185
 40
0.9996287697
 40
0.9997651019
 40
0.9998686463
 40
1.0
 40
1.0
 40
1.0
 40
1.0
 10
8.6801276403
 20
13.9956516281
 30
0.0
 10
8.6782250333
 20
13.9958286039
 30
0.0
 10
8.6744366546
 20
13.996179179
 30
0.0
 10
8.6687971691
 20
13.9966956197
 30
0.0
 10
8.6632622297
 20
13.9971970019
 30
0.0
 10
8.6578851828
 20
13.9976784913
 30
0.0
 10
8.6527180812
 20
13.9981354268
 30
0.0
 10
8.6478111016
 20
13.9985633722
 30
0.0
 10
8.6432121047
 20
13.9989581609
 30
0.0
 10
8.6389661499
 20
13.99931593
 30
0.0
 10
8.6356676487
 20
13.9995876751
 30
0.0
 10
8.6332363711
 20
13.9997835816
 30
0.0
 10
8.6315794604
 20
13.9999148704
 30
0.0
 10
8.6300396103
 20
14.0000345195
 30
0.0
 10
8.6286206537
 20
14.0001422325
 30
0.0
 10
8.6273261299
 20
14.0002377474
 30
0.0
 10
8.6261592725
 20
14.0003208336
 30
0.0
 10
8.6251229954
 20
14.0003913016
 30
0.0
 10
8.6242198916
 20
14.000448988
 30
0.0
 10
8.6235515355
 20
14.0004880296
 30
0.0
 10
8.6230850888
 20
14.0005123898
 30
0.0
 10
8.6227870104
 20
14.0005264837
 30
0.0
 10
8.6225236873
 20
14.0005373086
 30
0.0
 10
8.6222952836
 20
14.0005448628
 30
0.0
 10
8.6221019347
 20
14.0005491798
 30
0.0
 10
8.6219437577
 20
14.0005502554
 30
0.0
 10
8.6218339578
 20
14.0005485111
 30
0.0
 10
8.6217638172
 20
14.0005450155
 30
0.0
 10
8.6217244329
 20
14.0005418596
 30
0.0
 10
8.6216938537
 20
14.0005378692
 30
0.0
 10
8.6216739172
 20
14.0005338447
 30
0.0
 10
8.6216624587
 20
14.0005296426
 30
0.0
 10
8.6216561177
 20
14.000526481
 30
0.0
 10
8.6216525904
 20
14.0005221876
 30
0.0
 10
8.6216527825
 20
14.000519625
 30
0.0
  0
SPLINE
  5
484
100
AcDbEntity
  8
0
100
AcDbSpline
 62
7
  6
CONTINUOUS
 70
0
 71
3
 72
34
 73
30
 74
0
 42
0.0000001
 43
0.0000001
 44
0.0000000001
 40
0.0
 40
0.0
 40
0.0
 40
0.0
 40
0.1946271136
 40
0.2896905196
 40
0.3820207591
 40
0.4707205023
 40
0.5549238601
 40
0.6338058173
 40
0.7065907185
 40
0.7725608823
 40
0.831065118
 40
0.8815264564
 40
0.9234497298
 40
0.9410793508
 40
0.9564303901
 40
0.9694681705
 40
0.9751110408
 40
0.9801663529
 40
0.9846326592
 40
0.9885091934
 40
0.9917967525
 40
0.9944989106
 40
0.9966236854
 40
0.9974752347
 40
0.9981916276
 40
0.9987807928
 40
0.9992571038
 40
0.9996476589
 40
1.0
 40
1.0
 40
1.0
 40
1.0
 10
8.7787940507
 20
13.9967646456
 30
0.0
 10
8.775003922
 20
13.9971022859
 30
0.0
 10
8.7693611358
 20
13.9975892085
 30
0.0
 10
8.7619171836
 20
13.9981987127
 30
0.0
 10
8.7565359743
 20
13.9986227204
 30
0.0
 10
8.7513651239
 20
13.9990130872
 30
0.0
 10
8.7464551503
 20
13.9993659987
 30
0.0
 10
8.7418542249
 20
13.9996780113
 30
0.0
 10
8.737607657
 20
13.9999460964
 30
0.0
 10
8.7337574043
 20
14.0001676641
 30
0.0
 10
8.7303415931
 20
14.0003407106
 30
0.0
 10
8.7273940998
 20
14.0004636251
 30
0.0
 10
8.7252440631
 20
14.0005272706
 30
0.0
 10
8.7237797543
 20
14.0005490106
 30
0.0
 10
8.7228800299
 20
14.000551249
 30
0.0
 10
8.722214691
 20
14.0005420682
 30
0.0
 10
8.7217508599
 20
14.0005270807
 30
0.0
 10
8.721454696
 20
14.000513127
 30
0.0
 10
8.7211932923
 20
14.0004959667
 30
0.0
 10
8.7209667945
 20
14.0004756293
 30
0.0
 10
8.7207752702
 20
14.000452206
 30
0.0
 10
8.7206188016
 20
14.0004257364
 30
0.0
 10
8.7205106426
 20
14.0003998396
 30
0.0
 10
8.7204422891
 20
14.0003764149
 30
0.0
 10
8.7204036308
 20
14.0003593883
 30
0.0
 10
8.7203735663
 20
14.0003415505
 30
0.0
 10
8.720351934
 20
14.0003226989
 30
0.0
 10
8.7203388055
 20
14.0003022187
 30
0.0
 10
8.7203366169
 20
14.0002873083
 30
0.0
 10
8.720337132
 20
14.000280439
 30
0.0
  0
SPLINE
  5
485
100
AcDbEntity
  8
0
100
AcDbSpline
 62
7
  6
CONTINUOUS
 70
0
 71
3
 72
30
 73
26
 74
0
 42
0.0000001
 43
0.0000001
 44
0.0000000001
 40
0.0
 40
0.0
 40
0.0
 40
0.0
 40
0.0015635571
 40
0.0032991984
 40
0.0053443971
 40
0.0077845569
 40
0.0106698255
 40
0.0140297113
 40
0.0222362714
 40
0.032486896
 40
0.0448102597
 40
0.059213879
 40
0.0756916703
 40
0.0942303555
 40
0.1148095895
 40
0.1374051538
 40
0.1619876989
 40
0.216980389
 40
0.2794883645
 40
0.3491636612
 40
0.4256147969
 40
0.5084099277
 40
0.5970800093
 40
0.7900013412
 40
1.0
 40
1.0
 40
1.0
 40
1.0
 10
9.6943503816
 20
13.9556484056
 30
0.0
 10
9.6943518656
 20
13.9556681986
 30
0.0
 10
9.694347066
 20
13.9557108333
 30
0.0
 10
9.6943176246
 20
13.9557729141
 30
0.0
 10
9.6942676286
 20
13.9558346993
 30
0.0
 10
9.6941973725
 20
13.9558969306
 30
0.0
 10
9.6941067448
 20
13.9559600352
 30
0.0
 10
9.6939476401
 20
13.9560516945
 30
0.0
 10
9.6936946411
 20
13.9561657264
 30
0.0
 10
9.6933273081
 20
13.9562994125
 30
0.0
 10
9.6928783616
 20
13.9564370906
 30
0.0
 10
9.6923483563
 20
13.9565784939
 30
0.0
 10
9.6917378648
 20
13.9567232935
 30
0.0
 10
9.6910477351
 20
13.9568712072
 30
0.0
 10
9.6902789252
 20
13.9570219801
 30
0.0
 10
9.6894325401
 20
13.957175361
 30
0.0
 10
9.6881535896
 20
13.9573911853
 30
0.0
 10
9.6863704244
 20
13.9576631517
 30
0.0
 10
9.6840162203
 20
13.9579854966
 30
0.0
 10
9.681387952
 20
13.9583127668
 30
0.0
 10
9.6785006918
 20
13.9586430052
 30
0.0
 10
9.6753709631
 20
13.9589742352
 30
0.0
 10
9.6707674759
 20
13.9594274176
 30
0.0
 10
9.6645511405
 20
13.9599777216
 30
0.0
 10
9.6594516994
 20
13.9603757974
 30
0.0
 10
9.6567930648
 20
13.9605715109
 30
0.0
  0
SPLINE
  5
486
100
AcDbEntity
  8
0
100
AcDbSpline
 62
7
  6
CONTINUOUS
 70
0
 71
3
 72
18
 73
14
 74
0
 42
0.0000001
 43
0.0000001
 44
0.0000000001
 40
0.0
 40
0.0
 40
0.0
 40
0.0
 40
0.0233534991
 40
0.0483403321
 40
0.0767526581
 40
0.1098284556
 40
0.1483546712
 40
0.1928215272
 40
0.3006737421
 40
0.4348803951
 40
0.5960422083
 40
0.7844047053
 40
1.0
 40
1.0
 40
1.0
 40
1.0
 10
10.9957557028
 20
13.9300330075
 30
0.0
 10
10.9957572128
 20
13.9300531582
 30
0.0
 10
10.9957536283
 20
13.9300956406
 30
0.0
 10
10.9957282161
 20
13.930157851
 30
0.0
 10
10.9956839963
 20
13.9302188665
 30
0.0
 10
10.9956214699
 20
13.9302791525
 30
0.0
 10
10.9955406543
 20
13.930339121
 30
0.0
 10
10.9953990305
 20
13.9304244066
 30
0.0
 10
10.995172977
 20
13.9305277945
 30
0.0
 10
10.9948441925
 20
13.9306451318
 30
0.0
 10
10.9944421074
 20
13.9307621417
 30
0.0
 10
10.9939670967
 20
13.9308786091
 30
0.0
 10
10.9936250497
 20
13.9309508521
 30
0.0
 10
10.9934420839
 20
13.9309872436
 30
0.0
  0
SPLINE
  5
487
100
AcDbEntity
  8
0
100
AcDbSpline
 62
7
  6
CONTINUOUS
 70
0
 71
3
 72
34
 73
30
 74
0
 42
0.0000001
 43
0.0000001
 44
0.0000000001
 40
0.0
 40
0.0
 40
0.0
 40
0.0
 40
0.0004673125
 40
0.000979502
 40
0.0015724214
 40
0.002269495
 40
0.0040265552
 40
0.0063156758
 40
0.0091627746
 40
0.0125797521
 40
0.0165724016
 40
0.0211433429
 40
0.0262928053
 40
0.0320198244
 40
0.0451983139
 40
0.0606552763
 40
0.0783581686
 40
0.0982672424
 40
0.1203361636
 40
0.1707407505
 40
0.2290939482
 40
0.29483949
 40
0.3673504148
 40
0.4459354513
 40
0.5298462251
 40
0.6182842869
 40
0.7104083094
 40
0.8053419515
 40
1.0
 40
1.0
 40
1.0
 40
1.0
 10
9.4018883228
 20
13.9549578721
 30
0.0
 10
9.4018890008
 20
13.9549669004
 30
0.0
 10
9.401887166
 20
13.954986179
 30
0.0
 10
9.4018751715
 20
13.9550145545
 30
0.0
 10
9.4018545177
 20
13.9550429775
 30
0.0
 10
9.4018122728
 20
13.9550844787
 30
0.0
 10
9.4017355162
 20
13.9551360795
 30
0.0
 10
9.4016162107
 20
13.9551963289
 30
0.0
 10
9.4014626237
 20
13.9552589503
 30
0.0
 10
9.4012747618
 20
13.9553238841
 30
0.0
 10
9.4010525249
 20
13.955391033
 30
0.0
 10
9.4007960111
 20
13.955460311
 30
0.0
 10
9.4005053396
 20
13.9555316576
 30
0.0
 10
9.4000507278
 20
13.9556343274
 30
0.0
 10
9.3993980071
 20
13.9557657572
 30
0.0
 10
9.3985143726
 20
13.9559246014
 30
0.0
 10
9.3974996543
 20
13.956090504
 30
0.0
 10
9.3963563196
 20
13.9562630315
 30
0.0
 10
9.3945839434
 20
13.9565124597
 30
0.0
 10
9.3920696921
 20
13.9568339929
 30
0.0
 10
9.3887114109
 20
13.9572241745
 30
0.0
 10
9.3849239082
 20
13.9576297321
 30
0.0
 10
9.3807435372
 20
13.958046669
 30
0.0
 10
9.3762103005
 20
13.9584708503
 30
0.0
 10
9.371367509
 20
13.9588981549
 30
0.0
 10
9.3662613654
 20
13.9593244467
 30
0.0
 10
9.3609405458
 20
13.9597456301
 30
0.0
 10
9.353565958
 20
13.9602995814
 30
0.0
 10
9.3479687867
 20
13.9606876994
 30
0.0
 10
9.3442055998
 20
13.9609349425
 30
0.0
  0
SPLINE
  5
488
100
AcDbEntity
  8
0
100
AcDbSpline
 62
7
  6
CONTINUOUS
 70
0
 71
3
 72
34
 73
30
 74
0
 42
0.0000001
 43
0.0000001
 44
0.0000000001
 40
0.0
 40
0.0
 40
0.0
 40
0.0
 40
0.000361299
 40
0.0007825782
 40
0.001302016
 40
0.0019403612
 40
0.0036122536
 40
0.0058438466
 40
0.0086507898
 40
0.012039746
 40
0.0160135047
 40
0.0205722782
 40
0.025715022
 40
0.031440025
 40
0.0446250007
 40
0.0600995778
 40
0.077828044
 40
0.0977686915
 40
0.1198735623
 40
0.1703572096
 40
0.2287915441
 40
0.2946131493
 40
0.3671896667
 40
0.4458266982
 40
0.5297748145
 40
0.6182367088
 40
0.7103740738
 40
0.8053156208
 40
1.0
 40
1.0
 40
1.0
 40
1.0
 10
8.8364767382
 20
13.9899573592
 30
0.0
 10
8.8364772616
 20
13.9899643445
 30
0.0
 10
8.8364748375
 20
13.9899798307
 30
0.0
 10
8.8364620244
 20
13.9900019835
 30
0.0
 10
8.836440875
 20
13.9900243536
 30
0.0
 10
8.836397389
 20
13.9900580315
 30
0.0
 10
8.8363196732
 20
13.9901002963
 30
0.0
 10
8.8361997558
 20
13.9901508669
 30
0.0
 10
8.8360453643
 20
13.9902046595
 30
0.0
 10
8.8358565755
 20
13.9902616291
 30
0.0
 10
8.8356333374
 20
13.9903216409
 30
0.0
 10
8.8353757759
 20
13.9903846299
 30
0.0
 10
8.8350840245
 20
13.9904505316
 30
0.0
 10
8.8346277244
 20
13.9905468045
 30
0.0
 10
8.8339730343
 20
13.990672758
 30
0.0
 10
8.8330872502
 20
13.9908286254
 30
0.0
 10
8.832070398
 20
13.9909949744
 30
0.0
 10
8.8309249913
 20
13.9911713692
 30
0.0
 10
8.8291499096
 20
13.9914309898
 30
0.0
 10
8.8266329179
 20
13.9917744899
 30
0.0
 10
8.8232722724
 20
13.9922031647
 30
0.0
 10
8.8194835242
 20
13.9926601476
 30
0.0
 10
8.8153031954
 20
13.9931409693
 30
0.0
 10
8.8107713662
 20
13.993640922
 30
0.0
 10
8.8059313047
 20
13.9941551918
 30
0.0
 10
8.8008290582
 20
13.9946788508
 30
0.0
 10
8.7955130328
 20
13.9952069154
 30
0.0
 10
8.7881454587
 20
13.9959160827
 30
0.0
 10
8.7825536984
 20
13.9964297207
 30
0.0
 10
8.7787940507
 20
13.9967646456
 30
0.0
  0
SPLINE
  5
489
100
AcDbEntity
  8
0
100
AcDbSpline
 62
7
  6
CONTINUOUS
 70
0
 71
3
 72
32
 73
28
 74
0
 42
0.0000001
 43
0.0000001
 44
0.0000000001
 40
0.0
 40
0.0
 40
0.0
 40
0.0
 40
0.1934182312
 40
0.2877549555
 40
0.3792855245
 40
0.4671298453
 40
0.5504480743
 40
0.6284496611
 40
0.7004011588
 40
0.7656341413
 40
0.8235534668
 40
0.8496076331
 40
0.8736482961
 40
0.8956267101
 40
0.9155014186
 40
0.9332393985
 40
0.9488190942
 40
0.9622333285
 40
0.9734974543
 40
0.9783397328
 40
0.9826699614
 40
0.9865071367
 40
0.9898803769
 40
0.992833638
 40
0.9954334493
 40
0.9977779642
 40
1.0
 40
1.0
 40
1.0
 40
1.0
 10
11.4096518809
 20
14.0004295013
 30
0.0
 10
11.4058538232
 20
14.0003551742
 30
0.0
 10
11.4002041065
 20
14.0001944953
 30
0.0
 10
11.3927614752
 20
13.9998782487
 30
0.0
 10
11.387392953
 20
13.9995973446
 30
0.0
 10
11.3822436519
 20
13.9992736809
 30
0.0
 10
11.3773633743
 20
13.9989105308
 30
0.0
 10
11.3727991232
 20
13.9985115955
 30
0.0
 10
11.3685946133
 20
13.998081001
 30
0.0
 10
11.3647899585
 20
13.9976231318
 30
0.0
 10
11.3618884457
 20
13.997209781
 30
0.0
 10
11.3597952499
 20
13.9968643543
 30
0.0
 10
11.3584025782
 20
13.9966105181
 30
0.0
 10
11.3571341108
 20
13.9963533701
 30
0.0
 10
11.3559927821
 20
13.9960935813
 30
0.0
 10
11.3549812031
 20
13.9958318524
 30
0.0
 10
11.3541015189
 20
13.9955689673
 30
0.0
 10
11.353355625
 20
13.9953056244
 30
0.0
 10
11.3528222259
 20
13.9950763992
 30
0.0
 10
11.3524666281
 20
13.9948898045
 30
0.0
 10
11.3522480108
 20
13.994757148
 30
0.0
 10
11.3520637484
 20
13.9946246586
 30
0.0
 10
11.3519138154
 20
13.9944922287
 30
0.0
 10
11.3517982002
 20
13.9943595953
 30
0.0
 10
11.3517171596
 20
13.9942261842
 30
0.0
 10
11.3516716099
 20
13.994091613
 30
0.0
 10
11.351665936
 20
13.9940008079
 30
0.0
 10
11.3516691988
 20
13.9939572887
 30
0.0
  0
SPLINE
  5
48A
100
AcDbEntity
  8
0
100
AcDbSpline
 62
7
  6
CONTINUOUS
 70
0
 71
3
 72
25
 73
21
 74
0
 42
0.0000001
 43
0.0000001
 44
0.0000000001
 40
0.0
 40
0.0
 40
0.0
 40
0.0
 40
0.003882819
 40
0.0085315748
 40
0.0145426028
 40
0.022199695
 40
0.0316370766
 40
0.0429236849
 40
0.056097983
 40
0.0711826401
 40
0.1071237002
 40
0.1507881515
 40
0.2021678579
 40
0.261221554
 40
0.3278927077
 40
0.4021046786
 40
0.4837708119
 40
0.5727896587
 40
0.7724279908
 40
1.0
 40
1.0
 40
1.0
 40
1.0
 10
11.4861373819
 20
13.9101221032
 30
0.0
 10
11.4861383139
 20
13.9101345475
 30
0.0
 10
11.4861323429
 20
13.9101627374
 30
0.0
 10
11.4861026856
 20
13.9102000771
 30
0.0
 10
11.4860553826
 20
13.9102356326
 30
0.0
 10
11.4859896294
 20
13.9102705764
 30
0.0
 10
11.4859051285
 20
13.9103051655
 30
0.0
 10
11.4858016394
 20
13.9103394176
 30
0.0
 10
11.4856791054
 20
13.9103733104
 30
0.0
 10
11.4854782654
 20
13.9104207744
 30
0.0
 10
11.4851790984
 20
13.91047731
 30
0.0
 10
11.4847628085
 20
13.910540302
 30
0.0
 10
11.4842712881
 20
13.9106014474
 30
0.0
 10
11.4837051438
 20
13.9106606376
 30
0.0
 10
11.4830650764
 20
13.9107177033
 30
0.0
 10
11.4823519067
 20
13.9107725439
 30
0.0
 10
11.4815665641
 20
13.9108250589
 30
0.0
 10
11.4803783836
 20
13.9108945361
 30
0.0
 10
11.4787210756
 20
13.9109733216
 30
0.0
 10
11.4773489669
 20
13.9110241712
 30
0.0
 10
11.476617964
 20
13.9110483911
 30
0.0
  0
SPLINE
  5
48B
100
AcDbEntity
  8
0
100
AcDbSpline
 62
7
  6
CONTINUOUS
 70
0
 71
3
 72
32
 73
28
 74
0
 42
0.0000001
 43
0.0000001
 44
0.0000000001
 40
0.0
 40
0.0
 40
0.0
 40
0.0
 40
0.1934682514
 40
0.2878200393
 40
0.3793657311
 40
0.4672301983
 40
0.5505778777
 40
0.6286213151
 40
0.7006284724
 40
0.7659301955
 40
0.8239280169
 40
0.8500231274
 40
0.8741044212
 40
0.8961217084
 40
0.9160315895
 40
0.9337986445
 40
0.94939807
 40
0.9628181465
 40
0.9740676705
 40
0.9788917023
 40
0.983194184
 40
0.9869916774
 40
0.9903102267
 40
0.9931901087
 40
0.9956941239
 40
0.9979186531
 40
1.0
 40
1.0
 40
1.0
 40
1.0
 10
11.8609845225
 20
14.000074139
 30
0.0
 10
11.8571916412
 20
13.9999289998
 30
0.0
 10
11.8515506377
 20
13.9996664653
 30
0.0
 10
11.8441209907
 20
13.9992232963
 30
0.0
 10
11.8387626399
 20
13.9988545198
 30
0.0
 10
11.8336233716
 20
13.9984503222
 30
0.0
 10
11.8287525559
 20
13.9980147207
 30
0.0
 10
11.8241968192
 20
13.9975520706
 30
0.0
 10
11.8199995832
 20
13.9970670558
 30
0.0
 10
11.816200764
 20
13.9965645297
 30
0.0
 10
11.8133031629
 20
13.9961214441
 30
0.0
 10
11.8112122226
 20
13.9957577129
 30
0.0
 10
11.809820689
 20
13.9954932744
 30
0.0
 10
11.808553001
 20
13.995228193
 30
0.0
 10
11.8074121217
 20
13.994963153
 30
0.0
 10
11.8064006985
 20
13.9946988636
 30
0.0
 10
11.8055209309
 20
13.9944361157
 30
0.0
 10
11.8047747693
 20
13.9941756068
 30
0.0
 10
11.8042407266
 20
13.9939510975
 30
0.0
 10
11.8038842725
 20
13.9937697468
 30
0.0
 10
11.8036652524
 20
13.9936416351
 30
0.0
 10
11.8034805611
 20
13.9935143954
 30
0.0
 10
11.8033301595
 20
13.9933879396
 30
0.0
 10
11.803213985
 20
13.9932620208
 30
0.0
 10
11.8031321949
 20
13.9931360166
 30
0.0
 10
11.8030856617
 20
13.9930093421
 30
0.0
 10
11.8030793603
 20
13.99292371
 30
0.0
 10
11.803082413
 20
13.9928829903
 30
0.0
  0
SPLINE
  5
48C
100
AcDbEntity
  8
0
100
AcDbSpline
 62
7
  6
CONTINUOUS
 70
0
 71
3
 72
31
 73
27
 74
0
 42
0.0000001
 43
0.0000001
 44
0.0000000001
 40
0.0
 40
0.0
 40
0.0
 40
0.0
 40
0.1936489422
 40
0.3797120167
 40
0.4676651988
 40
0.5511084239
 40
0.6292547375
 40
0.7013705096
 40
0.7667825572
 40
0.8248855447
 40
0.8510281033
 40
0.8751513151
 40
0.8972029612
 40
0.9171370149
 40
0.9349148542
 40
0.9505073267
 40
0.9638966506
 40
0.9750827197
 40
0.9798582684
 40
0.9840980169
 40
0.9878151036
 40
0.9910311367
 40
0.9937809297
 40
0.9961215845
 40
0.9981468707
 40
1.0
 40
1.0
 40
1.0
 40
1.0
 10
12.2719648654
 20
13.9994998475
 30
0.0
 10
12.2681790813
 20
13.999290655
 30
0.0
 10
12.2607587064
 20
13.9988261904
 30
0.0
 10
12.2516291843
 20
13.9981160357
 30
0.0
 10
12.24465897
 20
13.9974821026
 30
0.0
 10
12.2397974412
 20
13.9969935277
 30
0.0
 10
12.2352495389
 20
13.9964877429
 30
0.0
 10
12.2310584962
 20
13.9959697569
 30
0.0
 10
12.2272641444
 20
13.9954446883
 30
0.0
 10
12.2243689685
 20
13.9949912651
 30
0.0
 10
12.222278939
 20
13.9946250825
 30
0.0
 10
12.2208876794
 20
13.9943615689
 30
0.0
 10
12.2196199133
 20
13.9941000956
 30
0.0
 10
12.2184786441
 20
13.9938413341
 30
0.0
 10
12.2174665666
 20
13.9935859768
 30
0.0
 10
12.2165859516
 20
13.9933347954
 30
0.0
 10
12.2158388163
 20
13.9930884635
 30
0.0
 10
12.2153033245
 20
13.9928783924
 30
0.0
 10
12.2149452368
 20
13.9927100672
 30
0.0
 10
12.214725463
 20
13.9925920808
 30
0.0
 10
12.2145400068
 20
13.9924756508
 30
0.0
 10
12.2143888099
 20
13.9923607226
 30
0.0
 10
12.2142717291
 20
13.9922470845
 30
0.0
 10
12.2141887418
 20
13.9921340637
 30
0.0
 10
12.2141405589
 20
13.9920207138
 30
0.0
 10
12.2141332148
 20
13.9919435588
 30
0.0
 10
12.2141359271
 20
13.9919073768
 30
0.0
  0
SPLINE
  5
48D
100
AcDbEntity
  8
0
100
AcDbSpline
 62
7
  6
CONTINUOUS
 70
0
 71
3
 72
31
 73
27
 74
0
 42
0.0000001
 43
0.0000001
 44
0.0000000001
 40
0.0
 40
0.0
 40
0.0
 40
0.0
 40
0.1939427353
 40
0.380290688
 40
0.4683894226
 40
0.5519810724
 40
0.6302767812
 40
0.7025388368
 40
0.7680876178
 40
0.8263086745
 40
0.8524994225
 40
0.8766611947
 40
0.8987394953
 40
0.9186854384
 40
0.936456888
 40
0.952019911
 40
0.9653500168
 40
0.9764369968
 40
0.9811428524
 40
0.9852957797
 40
0.9889046888
 40
0.9919854244
 40
0.9945651123
 40
0.9966917056
 40
0.9984526743
 40
1.0
 40
1.0
 40
1.0
 40
1.0
 10
12.6246310966
 20
13.9987326401
 30
0.0
 10
12.6208537592
 20
13.9984690138
 30
0.0
 10
12.6134500449
 20
13.9979074801
 30
0.0
 10
12.6043404643
 20
13.9971023161
 30
0.0
 10
12.597384267
 20
13.9964118965
 30
0.0
 10
12.5925312701
 20
13.995891967
 30
0.0
 10
12.5879901274
 20
13.9953652835
 30
0.0
 10
12.5838039926
 20
13.9948369968
 30
0.0
 10
12.5800127182
 20
13.9943122756
 30
0.0
 10
12.5771186066
 20
13.9938681985
 30
0.0
 10
12.5750283478
 20
13.9935154156
 30
0.0
 10
12.5736366617
 20
13.993264241
 30
0.0
 10
12.5723681419
 20
13.9930176929
 30
0.0
 10
12.5712258363
 20
13.9927764042
 30
0.0
 10
12.5702124898
 20
13.9925410213
 30
0.0
 10
12.5693304523
 20
13.9923122657
 30
0.0
 10
12.5685818104
 20
13.9920907587
 30
0.0
 10
12.5680442894
 20
13.9919041852
 30
0.0
 10
12.5676839967
 20
13.9917561406
 30
0.0
 10
12.5674632135
 20
13.9916533814
 30
0.0
 10
12.5672767601
 20
13.9915528051
 30
0.0
 10
12.5671245723
 20
13.9914544094
 30
0.0
 10
12.5670064114
 20
13.9913580644
 30
0.0
 10
12.5669220046
 20
13.9912631319
 30
0.0
 10
12.566871485
 20
13.9911681814
 30
0.0
 10
12.5668625395
 20
13.9911023136
 30
0.0
 10
12.5668647975
 20
13.9910721883
 30
0.0
  0
SPLINE
  5
48E
100
AcDbEntity
  8
0
100
AcDbSpline
 62
7
  6
CONTINUOUS
 70
0
 71
3
 72
33
 73
29
 74
0
 42
0.0000001
 43
0.0000001
 44
0.0000000001
 40
0.0
 40
0.0
 40
0.0
 40
0.0
 40
0.1943092563
 40
0.289065391
 40
0.3810178863
 40
0.4692969208
 40
0.5530673458
 40
0.6315365556
 40
0.703961176
 40
0.7696539766
 40
0.8279908964
 40
0.8542252066
 40
0.8784186984
 40
0.9005147221
 40
0.9204617731
 40
0.9382144211
 40
0.9537342939
 40
0.9669905585
 40
0.9779631672
 40
0.9825914532
 40
0.9866493573
 40
0.9901411964
 40
0.9930761424
 40
0.9954714231
 40
0.9973608891
 40
0.9981378622
 40
0.9988214687
 40
1.0
 40
1.0
 40
1.0
 40
1.0
 10
12.9035700093
 20
13.9978070919
 30
0.0
 10
12.8998016812
 20
13.9975009835
 30
0.0
 10
12.8941976887
 20
13.9970205548
 30
0.0
 10
12.886815836
 20
13.9963350524
 30
0.0
 10
12.8814907192
 20
13.9958139558
 30
0.0
 10
12.8763810589
 20
13.995286613
 30
0.0
 10
12.871535342
 20
13.9947580711
 30
0.0
 10
12.8669996075
 20
13.9942334162
 30
0.0
 10
12.8628170281
 20
13.9937177503
 30
0.0
 10
12.8590275571
 20
13.9932160824
 30
0.0
 10
12.856133412
 20
13.9928005157
 30
0.0
 10
12.8540420959
 20
13.9924763401
 30
0.0
 10
12.8526494969
 20
13.9922483361
 30
0.0
 10
12.8513797731
 20
13.9920273399
 30
0.0
 10
12.8502360129
 20
13.9918139194
 30
0.0
 10
12.8492210055
 20
13.9916086449
 30
0.0
 10
12.8483371774
 20
13.9914121489
 30
0.0
 10
12.8475866763
 20
13.9912249698
 30
0.0
 10
12.8470467945
 20
13.9910699068
 30
0.0
 10
12.8466839792
 20
13.9909485705
 30
0.0
 10
12.8464620181
 20
13.9908654333
 30
0.0
 10
12.8462744469
 20
13.9907849983
 30
0.0
 10
12.8461211551
 20
13.9907073241
 30
0.0
 10
12.8460020812
 20
13.9906324251
 30
0.0
 10
12.845926284
 20
13.9905684752
 30
0.0
 10
12.8458852012
 20
13.9905175239
 30
0.0
 10
12.8458595467
 20
13.9904729574
 30
0.0
 10
12.8458514429
 20
13.9904357692
 30
0.0
 10
12.8458531565
 20
13.9904129023
 30
0.0
  0
SPLINE
  5
48F
100
AcDbEntity
  8
0
100
AcDbSpline
 62
7
  6
CONTINUOUS
 70
0
 71
3
 72
27
 73
23
 74
0
 42
0.0000001
 43
0.0000001
 44
0.0000000001
 40
0.0
 40
0.0
 40
0.0
 40
0.0
 40
0.0018935156
 40
0.003900816
 40
0.0061342717
 40
0.0086763147
 40
0.0148845995
 40
0.0227991281
 40
0.0325387265
 40
0.0441634223
 40
0.0577054125
 40
0.0731803647
 40
0.1099490187
 40
0.1544685618
 40
0.2066801116
 40
0.2664898844
 40
0.3337795858
 40
0.4084067601
 40
0.4902103572
 40
0.5790111351
 40
0.7767974597
 40
1.0
 40
1.0
 40
1.0
 40
1.0
 10
10.0892635688
 20
13.927878274
 30
0.0
 10
10.0892643381
 20
13.9278885401
 30
0.0
 10
10.0892629772
 20
13.9279100109
 30
0.0
 10
10.0892522084
 20
13.9279418982
 30
0.0
 10
10.0892330822
 20
13.9279736928
 30
0.0
 10
10.0891940157
 20
13.9280191346
 30
0.0
 10
10.0891220335
 20
13.9280753139
 30
0.0
 10
10.0890092169
 20
13.9281397299
 30
0.0
 10
10.0888640043
 20
13.9282054114
 30
0.0
 10
10.0886863155
 20
13.9282722999
 30
0.0
 10
10.0884760241
 20
13.9283403539
 30
0.0
 10
10.0881319552
 20
13.9284382489
 30
0.0
 10
10.0876200116
 20
13.9285603451
 30
0.0
 10
10.0869084376
 20
13.9287038644
 30
0.0
 10
10.0860700545
 20
13.9288508575
 30
0.0
 10
10.0851067368
 20
13.9290009286
 30
0.0
 10
10.0840206153
 20
13.9291536026
 30
0.0
 10
10.0828141481
 20
13.9293084832
 30
0.0
 10
10.0814900714
 20
13.9294651805
 30
0.0
 10
10.0794991351
 20
13.9296839567
 30
0.0
 10
10.076740813
 20
13.9299564936
 30
0.0
 10
10.0744607092
 20
13.9301570664
 30
0.0
 10
10.0732514189
 20
13.9302584026
 30
0.0
  0
SPLINE
  5
490
100
AcDbEntity
  8
0
100
AcDbSpline
 62
7
  6
CONTINUOUS
 70
0
 71
3
 72
26
 73
22
 74
0
 42
0.0000001
 43
0.0000001
 44
0.0000000001
 40
0.0
 40
0.0
 40
0.0
 40
0.0
 40
0.0173502645
 40
0.0363922726
 40
0.0570728418
 40
0.0793335223
 40
0.1031112163
 40
0.1283382563
 40
0.1549426968
 40
0.1828485347
 40
0.2422415333
 40
0.305837441
 40
0.3729074854
 40
0.4426825756
 40
0.514362281
 40
0.5871241253
 40
0.7325513775
 40
0.8035479065
 40
0.8723081279
 40
0.9380433854
 40
1.0
 40
1.0
 40
1.0
 40
1.0
 10
10.5748223196
 20
16.9177752685
 30
0.0
 10
10.5782591617
 20
16.9181125281
 30
0.0
 10
10.5854717767
 20
16.9187811993
 30
0.0
 10
10.5967911484
 20
16.9197377272
 30
0.0
 10
10.6090910136
 20
16.9206949809
 30
0.0
 10
10.6223360394
 20
16.9216528069
 30
0.0
 10
10.6364881521
 20
16.9226110779
 30
0.0
 10
10.651506668
 20
16.9235696984
 30
0.0
 10
10.6673483985
 20
16.9245286235
 30
0.0
 10
10.6899817693
 20
16.9258347599
 30
0.0
 10
10.7199718
 20
16.9274553359
 30
0.0
 10
10.7577524946
 20
16.9293639565
 30
0.0
 10
10.7976020298
 20
16.9312739224
 30
0.0
 10
10.8390622534
 20
16.9331848852
 30
0.0
 10
10.8816564933
 20
16.9350964389
 30
0.0
 10
10.9392948784
 20
16.9376451579
 30
0.0
 10
10.9967980181
 20
16.9401745112
 30
0.0
 10
11.0535021264
 20
16.9427434765
 30
0.0
 10
11.094358077
 20
16.9446540913
 30
0.0
 10
11.1334127576
 20
16.946563567
 30
0.0
 10
11.1587941931
 20
16.9478792072
 30
0.0
 10
11.171107992
 20
16.9485430221
 30
0.0
  0
SPLINE
  5
491
100
AcDbEntity
  8
0
100
AcDbSpline
 62
7
  6
CONTINUOUS
 70
0
 71
3
 72
34
 73
30
 74
0
 42
0.0000001
 43
0.0000001
 44
0.0000000001
 40
0.0
 40
0.0
 40
0.0
 40
0.0
 40
0.1946843814
 40
0.2896259295
 40
0.3817632951
 40
0.4702251901
 40
0.5541733062
 40
0.6328103375
 40
0.7053868537
 40
0.7712084602
 40
0.8296427935
 40
0.8801264409
 40
0.9022313106
 40
0.9221719573
 40
0.9399004232
 40
0.9553750001
 40
0.9685599754
 40
0.9742849781
 40
0.9794277218
 40
0.9839864953
 40
0.9879602538
 40
0.99134921
 40
0.9941561534
 40
0.9963877465
 40
0.9980596388
 40
0.998697984
 40
0.9992174219
 40
0.999638701
 40
1.0
 40
1.0
 40
1.0
 40
1.0
 10
13.0965906347
 20
13.9967646456
 30
0.0
 10
13.092830987
 20
13.9964297207
 30
0.0
 10
13.0872392267
 20
13.9959160827
 30
0.0
 10
13.0798716525
 20
13.9952069154
 30
0.0
 10
13.0745556271
 20
13.9946788508
 30
0.0
 10
13.0694533805
 20
13.9941551918
 30
0.0
 10
13.0646133191
 20
13.993640922
 30
0.0
 10
13.0600814898
 20
13.9931409693
 30
0.0
 10
13.0559011611
 20
13.9926601476
 30
0.0
 10
13.0521124128
 20
13.9922031646
 30
0.0
 10
13.0487517673
 20
13.9917744899
 30
0.0
 10
13.0462347757
 20
13.9914309897
 30
0.0
 10
13.0444596941
 20
13.9911713692
 30
0.0
 10
13.0433142874
 20
13.9909949744
 30
0.0
 10
13.0422974352
 20
13.9908286254
 30
0.0
 10
13.0414116512
 20
13.990672758
 30
0.0
 10
13.0407569611
 20
13.9905468045
 30
0.0
 10
13.0403006609
 20
13.9904505316
 30
0.0
 10
13.0400089095
 20
13.9903846298
 30
0.0
 10
13.0397513481
 20
13.9903216409
 30
0.0
 10
13.03952811
 20
13.9902616291
 30
0.0
 10
13.0393393211
 20
13.9902046595
 30
0.0
 10
13.0391849297
 20
13.9901508669
 30
0.0
 10
13.0390650123
 20
13.9901002963
 30
0.0
 10
13.0389872965
 20
13.9900580315
 30
0.0
 10
13.0389438105
 20
13.9900243536
 30
0.0
 10
13.038922661
 20
13.9900019835
 30
0.0
 10
13.038909848
 20
13.9899798307
 30
0.0
 10
13.0389074239
 20
13.9899643445
 30
0.0
 10
13.0389079473
 20
13.9899573592
 30
0.0
  0
LINE
  5
492
100
AcDbEntity
  8
0
100
AcDbLine
 62
7
  6
CONTINUOUS
 10
10.9376923427
 20
16.9734119216
 11
11.171107992
 21
16.9763515938
  0
SPLINE
  5
493
100
AcDbEntity
  8
0
100
AcDbSpline
 62
7
  6
CONTINUOUS
 70
0
 71
3
 72
34
 73
30
 74
0
 42
0.0000001
 43
0.0000001
 44
0.0000000001
 40
0.0
 40
0.0
 40
0.0
 40
0.0
 40
0.0003606012
 40
0.0007761791
 40
0.001286776
 40
0.0019144391
 40
0.0035616846
 40
0.0057660206
 40
0.0085444184
 40
0.0119038876
 40
0.0158472016
 40
0.0203751532
 40
0.0254868482
 40
0.0311804036
 40
0.0443028321
 40
0.0597156735
 40
0.0773847279
 40
0.0972691493
 40
0.1193219965
 40
0.1697186186
 40
0.2280937492
 40
0.2938890096
 40
0.3664747857
 40
0.4451563636
 40
0.5291814363
 40
0.6177469625
 40
0.7100062874
 40
0.8050778536
 40
1.0
 40
1.0
 40
1.0
 40
1.0
 10
9.7744423623
 20
13.9271327911
 30
0.0
 10
9.7744428855
 20
13.9271397565
 30
0.0
 10
9.7744405299
 20
13.9271551192
 30
0.0
 10
9.7744277033
 20
13.9271769272
 30
0.0
 10
9.7744065193
 20
13.927198563
 30
0.0
 10
9.7743629704
 20
13.9272306699
 30
0.0
 10
9.7742851645
 20
13.927270031
 30
0.0
 10
9.7741652247
 20
13.9273160554
 30
0.0
 10
9.7740107868
 20
13.9273639653
 30
0.0
 10
9.7738219284
 20
13.9274137269
 30
0.0
 10
9.7735985881
 20
13.927465206
 30
0.0
 10
9.7733408851
 20
13.9275183345
 30
0.0
 10
9.7730489472
 20
13.9275730552
 30
0.0
 10
9.7725921954
 20
13.927651853
 30
0.0
 10
9.7719368338
 20
13.927752686
 30
0.0
 10
9.7710501495
 20
13.9278745234
 30
0.0
 10
9.7700320775
 20
13.9280017831
 30
0.0
 10
9.7688850818
 20
13.928134133
 30
0.0
 10
9.7671068011
 20
13.9283255212
 30
0.0
 10
9.7645846679
 20
13.9285722131
 30
0.0
 10
9.7612164969
 20
13.9288715503
 30
0.0
 10
9.7574179646
 20
13.9291826911
 30
0.0
 10
9.7532255616
 20
13.9295025615
 30
0.0
 10
9.7486794916
 20
13.9298279788
 30
0.0
 10
9.7438233098
 20
13.9301557709
 30
0.0
 10
9.7387035052
 20
13.9304827536
 30
0.0
 10
9.7333690671
 20
13.9308057746
 30
0.0
 10
9.7259768923
 20
13.9312305345
 30
0.0
 10
9.7203674677
 20
13.9315280616
 30
0.0
 10
9.7165965234
 20
13.9317175613
 30
0.0
  0
LINE
  5
494
100
AcDbEntity
  8
0
100
AcDbLine
 62
7
  6
CONTINUOUS
 10
11.9762257772
 20
13.9113006481
 11
11.9176923427
 21
13.9089471696
  0
LINE
  5
495
100
AcDbEntity
  8
0
100
AcDbLine
 62
7
  6
CONTINUOUS
 10
9.2017136097
 20
13.9565081154
 11
9.1603888224
 21
13.9598727985
  0
SPLINE
  5
496
100
AcDbEntity
  8
0
100
AcDbSpline
 62
7
  6
CONTINUOUS
 70
0
 71
3
 72
18
 73
14
 74
0
 42
0.0000001
 43
0.0000001
 44
0.0000000001
 40
0.0
 40
0.0
 40
0.0
 40
0.0
 40
0.0191227223
 40
0.0404509559
 40
0.0660301912
 40
0.0970741504
 40
0.134263114
 40
0.1779867222
 40
0.2858415724
 40
0.4216899769
 40
0.5859367335
 40
0.7787067855
 40
1.0
 40
1.0
 40
1.0
 40
1.0
 10
10.996049266
 20
13.9089471696
 30
0.0
 10
10.996050193
 20
13.9089595371
 30
0.0
 10
10.9960466831
 20
13.9089863322
 30
0.0
 10
10.9960258111
 20
13.9090244909
 30
0.0
 10
10.9959908826
 20
13.9090615281
 30
0.0
 10
10.9959420488
 20
13.9090981451
 30
0.0
 10
10.9958791538
 20
13.9091346583
 30
0.0
 10
10.9957683748
 20
13.9091870176
 30
0.0
 10
10.9955926296
 20
13.9092502023
 30
0.0
 10
10.9953378811
 20
13.9093219904
 30
0.0
 10
10.9950262768
 20
13.9093937278
 30
0.0
 10
10.9946580598
 20
13.9094653214
 30
0.0
 10
10.9943931911
 20
13.9095097681
 30
0.0
 10
10.9942514325
 20
13.9095321938
 30
0.0
  0
LINE
  5
497
100
AcDbEntity
  8
0
100
AcDbLine
 62
7
  6
CONTINUOUS
 10
10.9957875177
 20
13.8954572002
 11
10.995071342
 21
13.8956645141
  0
SPLINE
  5
498
100
AcDbEntity
  8
0
100
AcDbSpline
 62
7
  6
CONTINUOUS
 70
0
 71
3
 72
39
 73
35
 74
0
 42
0.0000001
 43
0.0000001
 44
0.0000000001
 40
0.0
 40
0.0
 40
0.0
 40
0.0
 40
0.0001313538
 40
0.0002348982
 40
0.0003712304
 40
0.0007494816
 40
0.0012737717
 40
0.0019464797
 40
0.0027686603
 40
0.0048631557
 40
0.0075584804
 40
0.0108539921
 40
0.0147484765
 40
0.0192398017
 40
0.0243252454
 40
0.0300019835
 40
0.0431150742
 40
0.0585468333
 40
0.0762589101
 40
0.0962075498
 40
0.1183427763
 40
0.1426095101
 40
0.1689474669
 40
0.19729086
 40
0.2275694786
 40
0.2936272448
 40
0.3664678902
 40
0.4453744191
 40
0.5295737196
 40
0.6182447095
 40
0.7105262928
 40
0.8055261513
 40
0.9023266503
 40
1.0
 40
1.0
 40
1.0
 40
1.0
 10
13.253731903
 20
14.000519625
 30
0.0
 10
13.2537320951
 20
14.0005221876
 30
0.0
 10
13.2537285677
 20
14.000526481
 30
0.0
 10
13.2537222267
 20
14.0005296426
 30
0.0
 10
13.2537107683
 20
14.0005338447
 30
0.0
 10
13.2536908318
 20
14.0005378692
 30
0.0
 10
13.2536602526
 20
14.0005418596
 30
0.0
 10
13.2536208683
 20
14.0005450155
 30
0.0
 10
13.2535507277
 20
14.0005485111
 30
0.0
 10
13.2534409277
 20
14.0005502554
 30
0.0
 10
13.2532827507
 20
14.0005491798
 30
0.0
 10
13.2530894019
 20
14.0005448628
 30
0.0
 10
13.2528609982
 20
14.0005373086
 30
0.0
 10
13.2525976751
 20
14.0005264837
 30
0.0
 10
13.2522995966
 20
14.0005123898
 30
0.0
 10
13.25183315
 20
14.0004880296
 30
0.0
 10
13.2511647938
 20
14.000448988
 30
0.0
 10
13.2502616901
 20
14.0003913016
 30
0.0
 10
13.249225413
 20
14.0003208336
 30
0.0
 10
13.2480585555
 20
14.0002377474
 30
0.0
 10
13.2467640317
 20
14.0001422325
 30
0.0
 10
13.2453450751
 20
14.0000345195
 30
0.0
 10
13.2438052251
 20
13.9999148704
 30
0.0
 10
13.2421483143
 20
13.9997835816
 30
0.0
 10
13.2397170368
 20
13.9995876751
 30
0.0
 10
13.2364185355
 20
13.99931593
 30
0.0
 10
13.2321725808
 20
13.9989581609
 30
0.0
 10
13.2275735839
 20
13.9985633722
 30
0.0
 10
13.2226666043
 20
13.9981354268
 30
0.0
 10
13.2174995026
 20
13.9976784913
 30
0.0
 10
13.2121224558
 20
13.9971970019
 30
0.0
 10
13.2065875164
 20
13.9966956197
 30
0.0
 10
13.2009480308
 20
13.996179179
 30
0.0
 10
13.1971596522
 20
13.9958286039
 30
0.0
 10
13.1952570452
 20
13.9956516281
 30
0.0
  0
SPLINE
  5
499
100
AcDbEntity
  8
0
100
AcDbSpline
 62
7
  6
CONTINUOUS
 70
0
 71
3
 72
34
 73
30
 74
0
 42
0.0000001
 43
0.0000001
 44
0.0000000001
 40
0.0
 40
0.0
 40
0.0
 40
0.0
 40
0.0003523411
 40
0.0007428962
 40
0.0012192072
 40
0.0018083725
 40
0.0025247653
 40
0.0033763147
 40
0.0055010894
 40
0.0082032474
 40
0.0114908065
 40
0.0153673407
 40
0.019833647
 40
0.0248889592
 40
0.0305318296
 40
0.0435696099
 40
0.0589206491
 40
0.0765502701
 40
0.1184735436
 40
0.168934882
 40
0.2274391164
 40
0.2934092813
 40
0.366194181
 40
0.4450761396
 40
0.5292794973
 40
0.6179792414
 40
0.7103094808
 40
0.8053728867
 40
1.0
 40
1.0
 40
1.0
 40
1.0
 10
13.1550475535
 20
14.000280439
 30
0.0
 10
13.1550480685
 20
14.0002873083
 30
0.0
 10
13.15504588
 20
14.0003022187
 30
0.0
 10
13.1550327515
 20
14.0003226989
 30
0.0
 10
13.1550111192
 20
14.0003415505
 30
0.0
 10
13.1549810547
 20
14.0003593883
 30
0.0
 10
13.1549423964
 20
14.0003764149
 30
0.0
 10
13.1548740429
 20
14.0003998396
 30
0.0
 10
13.1547658838
 20
14.0004257364
 30
0.0
 10
13.1546094153
 20
14.000452206
 30
0.0
 10
13.154417891
 20
14.0004756293
 30
0.0
 10
13.1541913932
 20
14.0004959667
 30
0.0
 10
13.1539299894
 20
14.000513127
 30
0.0
 10
13.1536338255
 20
14.0005270807
 30
0.0
 10
13.1531699945
 20
14.0005420682
 30
0.0
 10
13.1525046555
 20
14.000551249
 30
0.0
 10
13.1516049311
 20
14.0005490106
 30
0.0
 10
13.1501406224
 20
14.0005272706
 30
0.0
 10
13.1479905857
 20
14.0004636251
 30
0.0
 10
13.1450430924
 20
14.0003407106
 30
0.0
 10
13.1416272812
 20
14.0001676641
 30
0.0
 10
13.1377770285
 20
13.9999460964
 30
0.0
 10
13.1335304606
 20
13.9996780113
 30
0.0
 10
13.1289295352
 20
13.9993659987
 30
0.0
 10
13.1240195616
 20
13.9990130872
 30
0.0
 10
13.1188487112
 20
13.9986227204
 30
0.0
 10
13.1134675018
 20
13.9981987126
 30
0.0
 10
13.1060235496
 20
13.9975892085
 30
0.0
 10
13.1003807635
 20
13.9971022859
 30
0.0
 10
13.0965906347
 20
13.9967646456
 30
0.0
  0
SPLINE
  5
49A
100
AcDbEntity
  8
0
100
AcDbSpline
 62
7
  6
CONTINUOUS
 70
0
 71
3
 72
34
 73
30
 74
0
 42
0.0000001
 43
0.0000001
 44
0.0000000001
 40
0.0
 40
0.0
 40
0.0
 40
0.0
 40
0.0005694884
 40
0.0011552146
 40
0.0025071103
 40
0.0042604122
 40
0.0065075478
 40
0.0092911969
 40
0.0126326294
 40
0.016543275
 40
0.0210289121
 40
0.02609213
 40
0.0317338433
 40
0.0447483835
 40
0.0600562404
 40
0.0776288959
 40
0.0974295537
 40
0.1194134365
 40
0.143529507
 40
0.1697207096
 40
0.2280703893
 40
0.2938961032
 40
0.366553245
 40
0.4453278877
 40
0.5294456985
 40
0.6180810246
 40
0.7103658145
 40
0.8053995738
 40
1.0
 40
1.0
 40
1.0
 40
1.0
 10
12.9619918665
 20
13.9998129516
 30
0.0
 10
12.9619926991
 20
13.9998240561
 30
0.0
 10
12.9619914205
 20
13.999846929
 30
0.0
 10
12.9619755088
 20
13.9998938638
 30
0.0
 10
12.9619280154
 20
13.9999508352
 30
0.0
 10
12.9618408691
 20
14.0000097415
 30
0.0
 10
12.9617201658
 20
14.0000657322
 30
0.0
 10
12.9615651023
 20
14.0001187666
 30
0.0
 10
12.9613752944
 20
14.0001690483
 30
0.0
 10
12.9611506471
 20
14.0002164219
 30
0.0
 10
12.960891188
 20
14.0002608381
 30
0.0
 10
12.9605970187
 20
14.0003022347
 30
0.0
 10
12.9601362927
 20
14.0003558918
 30
0.0
 10
12.9594744829
 20
14.0004129318
 30
0.0
 10
12.9585785827
 20
14.0004662723
 30
0.0
 10
12.9575492114
 20
14.000506911
 30
0.0
 10
12.9563888498
 20
14.0005346797
 30
0.0
 10
12.9551002994
 20
14.0005494179
 30
0.0
 10
12.9536867131
 20
14.000551053
 30
0.0
 10
12.9515620959
 20
14.0005350659
 30
0.0
 10
12.9486222899
 20
14.0004794602
 30
0.0
 10
12.9447751498
 20
14.0003637441
 30
0.0
 10
12.9405301429
 20
14.0001975542
 30
0.0
 10
12.9359292425
 20
13.9999824564
 30
0.0
 10
12.9310178701
 20
13.9997204833
 30
0.0
 10
12.9258444061
 20
13.9994141816
 30
0.0
 10
12.9204596443
 20
13.9990665555
 30
0.0
 10
12.9130096592
 20
13.9985483501
 30
0.0
 10
12.9073626936
 20
13.9981151788
 30
0.0
 10
12.9035700093
 20
13.9978070919
 30
0.0
  0
SPLINE
  5
49B
100
AcDbEntity
  8
0
100
AcDbSpline
 62
7
  6
CONTINUOUS
 70
0
 71
3
 72
31
 73
27
 74
0
 42
0.0000001
 43
0.0000001
 44
0.0000000001
 40
0.0
 40
0.0
 40
0.0
 40
0.0
 40
0.0015247902
 40
0.0031935565
 40
0.0051859171
 40
0.0076103348
 40
0.0105265743
 40
0.0139680449
 40
0.0179542774
 40
0.0224965419
 40
0.0332707784
 40
0.0463140087
 40
0.0616206082
 40
0.0791694655
 40
0.0989289935
 40
0.1208583263
 40
0.1449095269
 40
0.1710280743
 40
0.2292171166
 40
0.2948731771
 40
0.3673618767
 40
0.4459766451
 40
0.5299479906
 40
0.6184528382
 40
0.8055582739
 40
1.0
 40
1.0
 40
1.0
 40
1.0
 10
12.6830023608
 20
13.9991383799
 30
0.0
 10
12.6830045917
 20
13.9991681338
 30
0.0
 10
12.6829963876
 20
13.9992320877
 30
0.0
 10
12.6829451842
 20
13.99932183
 30
0.0
 10
12.6828595049
 20
13.9994059231
 30
0.0
 10
12.6827400387
 20
13.9994863473
 30
0.0
 10
12.682586362
 20
13.9995639418
 30
0.0
 10
12.682398147
 20
13.9996389217
 30
0.0
 10
12.6821752488
 20
13.999711301
 30
0.0
 10
12.6818105094
 20
13.9998099263
 30
0.0
 10
12.6812666197
 20
13.9999223367
 30
0.0
 10
12.6805099876
 20
14.0000401897
 30
0.0
 10
12.6796180092
 20
14.0001466794
 30
0.0
 10
12.6785927094
 20
14.0002414468
 30
0.0
 10
12.6774364103
 20
14.0003240632
 30
0.0
 10
12.67615186
 20
14.0003942467
 30
0.0
 10
12.6747421421
 20
14.0004517645
 30
0.0
 10
12.6726226103
 20
14.0005134997
 30
0.0
 10
12.6696881942
 20
14.000554046
 30
0.0
 10
12.6658461851
 20
14.0005495128
 30
0.0
 10
12.6616048682
 20
14.0004928538
 30
0.0
 10
12.6570060748
 20
14.0003844969
 30
0.0
 10
12.6520951826
 20
14.0002253913
 30
0.0
 10
12.6450644402
 20
13.999942197
 30
0.0
 10
12.6358780601
 20
13.9994723007
 30
0.0
 10
12.6284267483
 20
13.9989975447
 30
0.0
 10
12.6246310966
 20
13.9987326401
 30
0.0
  0
SPLINE
  5
49C
100
AcDbEntity
  8
0
100
AcDbSpline
 62
7
  6
CONTINUOUS
 70
0
 71
3
 72
32
 73
28
 74
0
 42
0.0000001
 43
0.0000001
 44
0.0000000001
 40
0.0
 40
0.0
 40
0.0
 40
0.0
 40
0.0018398458
 40
0.0037935568
 40
0.0060222432
 40
0.0086364204
 40
0.0117044106
 40
0.0152677568
 40
0.0193522588
 40
0.023973812
 40
0.0348618687
 40
0.0479742388
 40
0.0633161967
 40
0.0808737947
 40
0.1006205173
 40
0.12251934
 40
0.1465254099
 40
0.1725867647
 40
0.230633577
 40
0.2961227217
 40
0.3684317661
 40
0.4468637853
 40
0.5306567038
 40
0.6189927435
 40
0.7110077378
 40
0.8058015898
 40
1.0
 40
1.0
 40
1.0
 40
1.0
 10
12.3302722917
 20
13.9982872073
 30
0.0
 10
12.3302749866
 20
13.9983231492
 30
0.0
 10
12.3302681641
 20
13.9983987684
 30
0.0
 10
12.3302197387
 20
13.9985081464
 30
0.0
 10
12.3301359111
 20
13.9986129695
 30
0.0
 10
12.3300178413
 20
13.9987143098
 30
0.0
 10
12.329865522
 20
13.9988130248
 30
0.0
 10
12.3296787588
 20
13.9989094201
 30
0.0
 10
12.3294574295
 20
13.999003584
 30
0.0
 10
12.3290959804
 20
13.9991332781
 30
0.0
 10
12.3285556035
 20
13.9992851604
 30
0.0
 10
12.3278024459
 20
13.9994499064
 30
0.0
 10
12.3269142518
 20
13.9996048152
 30
0.0
 10
12.3258929624
 20
13.9997494067
 30
0.0
 10
12.3247408004
 20
13.9998831269
 30
0.0
 10
12.3234604475
 20
14.00000556
 30
0.0
 10
12.3220549232
 20
14.0001163393
 30
0.0
 10
12.3199413069
 20
14.0002529677
 30
0.0
 10
12.3170135329
 20
14.0003878323
 30
0.0
 10
12.3131782435
 20
14.0004947155
 30
0.0
 10
12.3089424978
 20
14.0005502037
 30
0.0
 10
12.3043478508
 20
14.0005535711
 30
0.0
 10
12.299439491
 20
14.0005045893
 30
0.0
 10
12.2942657933
 20
14.0004036437
 30
0.0
 10
12.2888777459
 20
14.0002516891
 30
0.0
 10
12.2814186301
 20
13.9999807738
 30
0.0
 10
12.2757634416
 20
13.9997097469
 30
0.0
 10
12.2719648654
 20
13.9994998475
 30
0.0
  0
SPLINE
  5
49D
100
AcDbEntity
  8
0
100
AcDbSpline
 62
7
  6
CONTINUOUS
 70
0
 71
3
 72
32
 73
28
 74
0
 42
0.0000001
 43
0.0000001
 44
0.0000000001
 40
0.0
 40
0.0
 40
0.0
 40
0.0
 40
0.0020747258
 40
0.0042512692
 40
0.0066765011
 40
0.0094579251
 40
0.0126666567
 40
0.0163483857
 40
0.020532695
 40
0.0252385493
 40
0.0362572858
 40
0.0494608822
 40
0.0648629438
 40
0.0824551135
 40
0.1022148794
 40
0.124108292
 40
0.1480930043
 40
0.1741191717
 40
0.2320613199
 40
0.2974112655
 40
0.3695581603
 40
0.4478152277
 40
0.531429104
 40
0.6195890804
 40
0.7114362831
 40
0.8060740479
 40
1.0
 40
1.0
 40
1.0
 40
1.0
 10
11.9192177339
 20
13.9972976753
 30
0.0
 10
11.9192207766
 20
13.9973382548
 30
0.0
 10
11.9192148044
 20
13.9974228328
 30
0.0
 10
11.9191682123
 20
13.9975468041
 30
0.0
 10
11.9190859481
 20
13.9976672855
 30
0.0
 10
11.9189691392
 20
13.9977848481
 30
0.0
 10
11.9188180003
 20
13.9979002167
 30
0.0
 10
11.9186324516
 20
13.99801371
 30
0.0
 10
11.9184124152
 20
13.9981254492
 30
0.0
 10
11.9180537333
 20
13.9982803092
 30
0.0
 10
11.9175163952
 20
13.9984648125
 30
0.0
 10
11.9167662128
 20
13.9986690808
 30
0.0
 10
11.915881345
 20
13.9988654451
 30
0.0
 10
11.9148636738
 20
13.9990533343
 30
0.0
 10
11.9137153506
 20
13.9992321023
 30
0.0
 10
11.9124390048
 20
13.9994012239
 30
0.0
 10
11.9110376039
 20
13.9995602196
 30
0.0
 10
11.9089301278
 20
13.9997654766
 30
0.0
 10
11.9060096048
 20
13.9999884819
 30
0.0
 10
11.9021820426
 20
14.0002018839
 30
0.0
 10
11.897953326
 20
14.000366967
 30
0.0
 10
11.8933646443
 20
14.0004818893
 30
0.0
 10
11.8884608737
 20
14.0005452782
 30
0.0
 10
11.8832901681
 20
14.0005563722
 30
0.0
 10
11.8779033913
 20
14.0005149893
 30
0.0
 10
11.8704430524
 20
14.0003892028
 30
0.0
 10
11.8647853787
 20
14.0002195834
 30
0.0
 10
11.8609845225
 20
14.000074139
 30
0.0
  0
SPLINE
  5
49E
100
AcDbEntity
  8
0
100
AcDbSpline
 62
7
  6
CONTINUOUS
 70
0
 71
3
 72
38
 73
34
 74
0
 42
0.0000001
 43
0.0000001
 44
0.0000000001
 40
0.0
 40
0.0
 40
0.0
 40
0.0
 40
0.0978191219
 40
0.1947460974
 40
0.2898483495
 40
0.3822040015
 40
0.4709175771
 40
0.555126231
 40
0.6340088952
 40
0.7067943835
 40
0.7727695279
 40
0.8312871037
 40
0.8575669325
 40
0.8817729561
 40
0.9038460718
 40
0.9237324479
 40
0.9413835345
 40
0.9567572036
 40
0.9698170482
 40
0.9754698355
 40
0.9805336253
 40
0.9850061865
 40
0.98888562
 40
0.9921709409
 40
0.9948628451
 40
0.9959871265
 40
0.9969644572
 40
0.9977961022
 40
0.9984843327
 40
0.9990332746
 40
0.9994512606
 40
0.9997575893
 40
1.0
 40
1.0
 40
1.0
 40
1.0
 10
9.1603888224
 20
13.9598727985
 30
0.0
 10
9.1584892223
 20
13.960011803
 30
0.0
 10
9.154707082
 20
13.9602849353
 30
0.0
 10
9.1490772008
 20
13.9606806089
 30
0.0
 10
9.143552681
 20
13.961057882
 30
0.0
 10
9.1381869657
 20
13.9614131037
 30
0.0
 10
9.1330321532
 20
13.9617428283
 30
0.0
 10
9.1281383937
 20
13.9620438574
 30
0.0
 10
9.1235534346
 20
13.9623132696
 30
0.0
 10
9.1193221293
 20
13.9625484686
 30
0.0
 10
9.1154859716
 20
13.9627471793
 30
0.0
 10
9.1125534536
 20
13.9628854277
 30
0.0
 10
9.1104329013
 20
13.962975336
 30
0.0
 10
9.1090211315
 20
13.9630300903
 30
0.0
 10
9.1077335552
 20
13.963074521
 30
0.0
 10
9.1065733438
 20
13.9631085326
 30
0.0
 10
9.1055433472
 20
13.9631320802
 30
0.0
 10
9.1046460976
 20
13.9631451336
 30
0.0
 10
9.1039823687
 20
13.9631474793
 30
0.0
 10
9.1035194203
 20
13.9631433307
 30
0.0
 10
9.1032237127
 20
13.9631377293
 30
0.0
 10
9.1029626092
 20
13.9631295189
 30
0.0
 10
9.1027362558
 20
13.963118734
 30
0.0
 10
9.1025447811
 20
13.9631053953
 30
0.0
 10
9.1024071547
 20
13.9630915684
 30
0.0
 10
9.102314699
 20
13.9630786839
 30
0.0
 10
9.102258403
 20
13.9630689805
 30
0.0
 10
9.1022108599
 20
13.9630586706
 30
0.0
 10
9.1021720562
 20
13.9630477679
 30
0.0
 10
9.1021418403
 20
13.9630363005
 30
0.0
 10
9.1021201266
 20
13.9630241849
 30
0.0
 10
9.1021060659
 20
13.9630109877
 30
0.0
 10
9.1021029396
 20
13.9629999648
 30
0.0
 10
9.1021032923
 20
13.9629952579
 30
0.0
  0
LINE
  5
49F
100
AcDbEntity
  8
0
100
AcDbLine
 62
7
  6
CONTINUOUS
 10
9.1024502059
 20
13.95837637
 11
9.0976923427
 21
13.9587362627
  0
LINE
  5
4A0
100
AcDbEntity
  8
0
100
AcDbLine
 62
7
  6
CONTINUOUS
 10
9.0976923427
 20
13.9587362627
 11
9.0393954791
 21
13.9631463701
  0
SPLINE
  5
4A1
100
AcDbEntity
  8
0
100
AcDbSpline
 62
7
  6
CONTINUOUS
 70
0
 71
3
 72
32
 73
28
 74
0
 42
0.0000001
 43
0.0000001
 44
0.0000000001
 40
0.0
 40
0.0
 40
0.0
 40
0.0
 40
0.0022195054
 40
0.0045401125
 40
0.0070995301
 40
0.0100013832
 40
0.0133165449
 40
0.0170919338
 40
0.0213586631
 40
0.026137115
 40
0.0372758859
 40
0.0505718642
 40
0.0660432449
 40
0.0836848156
 40
0.1034763541
 40
0.1253857143
 40
0.1493720587
 40
0.1753868792
 40
0.2332722078
 40
0.2985279323
 40
0.3705524253
 40
0.4486679042
 40
0.5321295071
 40
0.6201342
 40
0.7118295949
 40
0.8063240167
 40
1.0
 40
1.0
 40
1.0
 40
1.0
 10
11.4678038113
 20
13.9962139303
 30
0.0
 10
11.4678070697
 20
13.9962573855
 30
0.0
 10
11.4678015552
 20
13.9963476572
 30
0.0
 10
11.4677560023
 20
13.9964808579
 30
0.0
 10
11.4676747537
 20
13.9966114848
 30
0.0
 10
11.4675588351
 20
13.996739893
 30
0.0
 10
11.4674085406
 20
13.9968666977
 30
0.0
 10
11.4672238561
 20
13.9969921986
 30
0.0
 10
11.4670047387
 20
13.9971165226
 30
0.0
 10
11.4666480373
 20
13.9972896527
 30
0.0
 10
11.4661129827
 20
13.9974985136
 30
0.0
 10
11.4653650785
 20
13.9977331786
 30
0.0
 10
11.4644828324
 20
13.9979622075
 30
0.0
 10
11.4634680998
 20
13.9981849644
 30
0.0
 10
11.4623229961
 20
13.9984007375
 30
0.0
 10
11.4610501204
 20
13.998608918
 30
0.0
 10
11.4596524071
 20
13.9988089374
 30
0.0
 10
11.4575506937
 20
13.999073483
 30
0.0
 10
11.4546373506
 20
13.9993744568
 30
0.0
 10
11.4508178733
 20
13.9996846217
 30
0.0
 10
11.4465970985
 20
13.9999517161
 30
0.0
 10
11.4420158164
 20
14.0001728865
 30
0.0
 10
11.437118517
 20
14.0003456946
 30
0.0
 10
11.4319530197
 20
14.0004682768
 30
0.0
 10
11.4265699246
 20
14.0005393251
 30
0.0
 10
11.4191116983
 20
14.0005644082
 30
0.0
 10
11.4134537378
 20
14.0005039027
 30
0.0
 10
11.4096518809
 20
14.0004295013
 30
0.0
  0
SPLINE
  5
4A2
100
AcDbEntity
  8
0
100
AcDbSpline
 62
7
  6
CONTINUOUS
 70
0
 71
3
 72
32
 73
28
 74
0
 42
0.0000001
 43
0.0000001
 44
0.0000000001
 40
0.0
 40
0.0
 40
0.0
 40
0.0
 40
0.0022689727
 40
0.0046463981
 40
0.0072654559
 40
0.0102265596
 40
0.0135988656
 40
0.0174285516
 40
0.0217464654
 40
0.0265729302
 40
0.0377983923
 40
0.051169092
 40
0.0667037245
 40
0.0843974344
 40
0.1042302992
 40
0.1261704705
 40
0.1501774074
 40
0.1762029704
 40
0.2340819574
 40
0.2992980289
 40
0.3712550122
 40
0.4492815417
 40
0.5326397157
 40
0.6205335671
 40
0.7121173772
 40
0.8065052765
 40
1.0
 40
1.0
 40
1.0
 40
1.0
 10
10.9957595237
 20
13.9950839388
 30
0.0
 10
10.9957628564
 20
13.995128386
 30
0.0
 10
10.9957574403
 20
13.9952207687
 30
0.0
 10
10.9957122211
 20
13.9953575431
 30
0.0
 10
10.9956313775
 20
13.9954925189
 30
0.0
 10
10.9955158637
 20
13.9956260039
 30
0.0
 10
10.9953659794
 20
13.995758564
 30
0.0
 10
10.9951817308
 20
13.9958904778
 30
0.0
 10
10.9949630921
 20
13.9960218655
 30
0.0
 10
10.9946074318
 20
13.9962056964
 30
0.0
 10
10.9940737136
 20
13.996429655
 30
0.0
 10
10.9933272548
 20
13.9966842826
 30
0.0
 10
10.9924467584
 20
13.9969357899
 30
0.0
 10
10.9914340857
 20
13.9971834991
 30
0.0
 10
10.9902913516
 20
13.9974266532
 30
0.0
 10
10.9890211494
 20
13.9976645851
 30
0.0
 10
10.9876264028
 20
13.9978966623
 30
0.0
 10
10.9855295654
 20
13.9982085873
 30
0.0
 10
10.9826227151
 20
13.9985739204
 30
0.0
 10
10.9788110503
 20
13.9989667684
 30
0.0
 10
10.9745985343
 20
13.9993236828
 30
0.0
 10
10.970025583
 20
13.9996409517
 30
0.0
 10
10.9651362812
 20
13.9999152055
 30
0.0
 10
10.959978047
 20
14.0001435845
 30
0.0
 10
10.9546011103
 20
14.0003237317
 30
0.0
 10
10.9471487871
 20
14.0004984634
 30
0.0
 10
10.9414933781
 20
14.0005497811
 30
0.0
 10
10.9376923427
 20
14.0005497811
 30
0.0
  0
SPLINE
  5
4A3
100
AcDbEntity
  8
0
100
AcDbSpline
 62
7
  6
CONTINUOUS
 70
0
 71
3
 72
19
 73
15
 74
0
 42
0.0000001
 43
0.0000001
 44
0.0000000001
 40
0.0
 40
0.0
 40
0.0
 40
0.0
 40
0.2165086005
 40
0.4060544726
 40
0.5683969621
 40
0.7035205839
 40
0.760979501
 40
0.8118175694
 40
0.8561994923
 40
0.8943996495
 40
0.926867365
 40
0.9543507211
 40
0.978094415
 40
1.0
 40
1.0
 40
1.0
 40
1.0
 10
10.8843728322
 20
13.9604814999
 30
0.0
 10
10.8840078461
 20
13.9604167665
 30
0.0
 10
10.8833246496
 20
13.9602876395
 30
0.0
 10
10.8823741767
 20
13.9600778125
 30
0.0
 10
10.8815676791
 20
13.9598652232
 30
0.0
 10
10.8809890037
 20
13.9596778762
 30
0.0
 10
10.8806017311
 20
13.9595234866
 30
0.0
 10
10.8803643605
 20
13.9594136273
 30
0.0
 10
10.8801640099
 20
13.9593034153
 30
0.0
 10
10.8800005882
 20
13.9591927875
 30
0.0
 10
10.8798738924
 20
13.959081491
 30
0.0
 10
10.8797838391
 20
13.9589687045
 30
0.0
 10
10.8797313596
 20
13.9588531977
 30
0.0
 10
10.8797234346
 20
13.9587736621
 30
0.0
 10
10.879726238
 20
13.9587362627
 30
0.0
  0
SPLINE
  5
4A4
100
AcDbEntity
  8
0
100
AcDbSpline
 62
7
  6
CONTINUOUS
 70
0
 71
3
 72
21
 73
17
 74
0
 42
0.0000001
 43
0.0000001
 44
0.0000000001
 40
0.0
 40
0.0
 40
0.0
 40
0.0
 40
0.2213085671
 40
0.4153815103
 40
0.581496092
 40
0.6539070337
 40
0.7191615044
 40
0.7772497847
 40
0.828191266
 40
0.8720594576
 40
0.9090069313
 40
0.9393328268
 40
0.9636241704
 40
0.9830571875
 40
0.9916577985
 40
1.0
 40
1.0
 40
1.0
 40
1.0
 10
10.4115334002
 20
13.9618991721
 30
0.0
 10
10.4109036725
 20
13.961833978
 30
0.0
 10
10.4097227163
 20
13.9617013485
 30
0.0
 10
10.408074286
 20
13.9614769499
 30
0.0
 10
10.406853435
 20
13.9612724507
 30
0.0
 10
10.4060016688
 20
13.9610997375
 30
0.0
 10
10.4054559687
 20
13.9609736755
 30
0.0
 10
10.4049740864
 20
13.9608453081
 30
0.0
 10
10.4045564396
 20
13.9607148109
 30
0.0
 10
10.4042032782
 20
13.9605823699
 30
0.0
 10
10.4039145777
 20
13.960448221
 30
0.0
 10
10.4036898991
 20
13.9603120087
 30
0.0
 10
10.40352812
 20
13.9601733861
 30
0.0
 10
10.4034424907
 20
13.9600465351
 30
0.0
 10
10.4034141838
 20
13.9599455408
 30
0.0
 10
10.4034121709
 20
13.9598965961
 30
0.0
 10
10.4034139548
 20
13.9598727985
 30
0.0
  0
SPLINE
  5
4A5
100
AcDbEntity
  8
0
100
AcDbSpline
 62
7
  6
CONTINUOUS
 70
0
 71
3
 72
14
 73
10
 74
0
 42
0.0000001
 43
0.0000001
 44
0.0000000001
 40
0.0
 40
0.0
 40
0.0
 40
0.0
 40
0.3644499768
 40
0.5136045595
 40
0.641914855
 40
0.7510438157
 40
0.84374303
 40
0.9245058877
 40
1.0
 40
1.0
 40
1.0
 40
1.0
 10
9.9603859085
 20
13.9615610194
 30
0.0
 10
9.9602603447
 20
13.9615175403
 30
0.0
 10
9.9600851557
 20
13.9614497295
 30
0.0
 10
9.9598775692
 20
13.9613411127
 30
0.0
 10
9.9597593091
 20
13.9612638829
 30
0.0
 10
9.9596676392
 20
13.9611851656
 30
0.0
 10
9.9596025153
 20
13.9611042906
 30
0.0
 10
9.9595647467
 20
13.9610203733
 30
0.0
 10
9.9595592796
 20
13.9609623906
 30
0.0
 10
9.959561337
 20
13.9609349424
 30
0.0
  0
SPLINE
  5
4A6
100
AcDbEntity
  8
0
100
AcDbSpline
 62
7
  6
CONTINUOUS
 70
0
 71
3
 72
32
 73
28
 74
0
 42
0.0000001
 43
0.0000001
 44
0.0000000001
 40
0.0
 40
0.0
 40
0.0
 40
0.0
 40
0.0022220356
 40
0.0045665503
 40
0.0071663614
 40
0.0101196223
 40
0.0134928625
 40
0.0173300375
 40
0.0216602658
 40
0.026502544
 40
0.0377666692
 40
0.051180903
 40
0.0667605985
 40
0.0844985781
 40
0.1043732862
 40
0.1263517002
 40
0.1503923634
 40
0.176446529
 40
0.2343658547
 40
0.2995988363
 40
0.3715503343
 40
0.4495519216
 40
0.5328701515
 40
0.6207144735
 40
0.7122450434
 40
0.8065817679
 40
1.0
 40
1.0
 40
1.0
 40
1.0
 10
10.5237154867
 20
13.9939572887
 30
0.0
 10
10.5237187495
 20
13.9940008079
 30
0.0
 10
10.5237130756
 20
13.9940916129
 30
0.0
 10
10.5236675258
 20
13.9942261842
 30
0.0
 10
10.5235864853
 20
13.9943595953
 30
0.0
 10
10.5234708701
 20
13.9944922287
 30
0.0
 10
10.5233209371
 20
13.9946246586
 30
0.0
 10
10.5231366747
 20
13.994757148
 30
0.0
 10
10.5229180574
 20
13.9948898044
 30
0.0
 10
10.5225624597
 20
13.9950763992
 30
0.0
 10
10.5220290606
 20
13.9953056244
 30
0.0
 10
10.5212831667
 20
13.9955689672
 30
0.0
 10
10.5204034826
 20
13.9958318524
 30
0.0
 10
10.5193919036
 20
13.9960935813
 30
0.0
 10
10.5182505749
 20
13.9963533701
 30
0.0
 10
10.5169821075
 20
13.9966105181
 30
0.0
 10
10.5155894358
 20
13.9968643543
 30
0.0
 10
10.5134962401
 20
13.997209781
 30
0.0
 10
10.5105947272
 20
13.9976231318
 30
0.0
 10
10.5067900725
 20
13.998081001
 30
0.0
 10
10.5025855626
 20
13.9985115955
 30
0.0
 10
10.4980213114
 20
13.9989105308
 30
0.0
 10
10.4931410337
 20
13.9992736809
 30
0.0
 10
10.4879917326
 20
13.9995973446
 30
0.0
 10
10.4826232103
 20
13.9998782487
 30
0.0
 10
10.475180579
 20
14.0001944953
 30
0.0
 10
10.4695308623
 20
14.0003551742
 30
0.0
 10
10.4657328046
 20
14.0004295013
 30
0.0
  0
SPLINE
  5
4A7
100
AcDbEntity
  8
0
100
AcDbSpline
 62
7
  6
CONTINUOUS
 70
0
 71
3
 72
11
 73
7
 74
0
 42
0.0000001
 43
0.0000001
 44
0.0000000001
 40
0.0
 40
0.0
 40
0.0
 40
0.0
 40
0.2717992506
 40
0.5348192326
 40
0.780291009
 40
1.0
 40
1.0
 40
1.0
 40
1.0
 10
9.3442055998
 20
13.9609349425
 30
0.0
 10
9.3406946194
 20
13.9611656154
 30
0.0
 10
9.3337845015
 20
13.961596068
 30
0.0
 10
9.3236986253
 20
13.9621535061
 30
0.0
 10
9.3142823065
 20
13.9626009488
 30
0.0
 10
9.308264645
 20
13.9628318247
 30
0.0
 10
9.3054218718
 20
13.9629225528
 30
0.0
  0
SPLINE
  5
4A8
100
AcDbEntity
  8
0
100
AcDbSpline
 62
7
  6
CONTINUOUS
 70
0
 71
3
 72
39
 73
35
 74
0
 42
0.0000001
 43
0.0000001
 44
0.0000000001
 40
0.0
 40
0.0
 40
0.0
 40
0.0
 40
0.0978655689
 40
0.194826623
 40
0.2899503112
 40
0.3823156104
 40
0.4710289833
 40
0.5552305548
 40
0.6341029583
 40
0.7068791607
 40
0.7728502412
 40
0.8030801219
 40
0.8313728774
 40
0.857659606
 40
0.8818758235
 40
0.9039625489
 40
0.9238659193
 40
0.9415371383
 40
0.9569335294
 40
0.9700176722
 40
0.9756826411
 40
0.9807582122
 40
0.985241662
 40
0.9891303786
 40
0.9924222671
 40
0.9951161986
 40
0.9972116704
 40
0.9980352704
 40
0.9987100492
 40
0.9992371235
 40
0.9996189815
 40
0.999757486
 40
0.9998634755
 40
1.0
 40
1.0
 40
1.0
 40
1.0
 10
9.549113411
 20
13.9306172039
 30
0.0
 10
9.5472116924
 20
13.9307257188
 30
0.0
 10
9.5434257255
 20
13.9309398878
 30
0.0
 10
9.5377909556
 20
13.9312530448
 30
0.0
 10
9.5322627654
 20
13.9315546307
 30
0.0
 10
9.5268945559
 20
13.9318417334
 30
0.0
 10
9.5217383137
 20
13.9321115765
 30
0.0
 10
9.5168440145
 20
13.9323615507
 30
0.0
 10
9.5122591797
 20
13.9325892423
 30
0.0
 10
9.5080284018
 20
13.9327924481
 30
0.0
 10
9.5047429905
 20
13.9329438853
 30
0.0
 10
9.502322266
 20
13.9330509519
 30
0.0
 10
9.5006730866
 20
13.9331216123
 30
0.0
 10
9.4991407451
 20
13.9331848389
 30
0.0
 10
9.497728987
 20
13.9332404795
 30
0.0
 10
9.496441267
 20
13.9332884058
 30
0.0
 10
9.4952807367
 20
13.9333285098
 30
0.0
 10
9.4942502335
 20
13.9333607127
 30
0.0
 10
9.4933522804
 20
13.9333849501
 30
0.0
 10
9.4926878328
 20
13.9333991387
 30
0.0
 10
9.49222417
 20
13.933406078
 30
0.0
 10
9.49192787
 20
13.9334090006
 30
0.0
 10
9.4916661283
 20
13.9334099141
 30
0.0
 10
9.4914391042
 20
13.9334088236
 30
0.0
 10
9.4912469277
 20
13.9334057677
 30
0.0
 10
9.4910897125
 20
13.9334007476
 30
0.0
 10
9.4909806053
 20
13.9333947049
 30
0.0
 10
9.4909109328
 20
13.9333884063
 30
0.0
 10
9.4908717903
 20
13.9333836384
 30
0.0
 10
9.4908413987
 20
13.9333783638
 30
0.0
 10
9.4908215958
 20
13.9333734428
 30
0.0
 10
9.4908102441
 20
13.9333687096
 30
0.0
 10
9.4908039198
 20
13.9333651676
 30
0.0
 10
9.4908004725
 20
13.9333607087
 30
0.0
 10
9.4908006709
 20
13.9333580589
 30
0.0
  0
SPLINE
  5
4A9
100
AcDbEntity
  8
0
100
AcDbSpline
 62
7
  6
CONTINUOUS
 70
0
 71
3
 72
32
 73
28
 74
0
 42
0.0000001
 43
0.0000001
 44
0.0000000001
 40
0.0
 40
0.0
 40
0.0
 40
0.0
 40
0.0020813469
 40
0.0043058761
 40
0.0068098913
 40
0.0096897733
 40
0.0130083226
 40
0.0168058159
 40
0.0211082977
 40
0.0259323295
 40
0.0371818534
 40
0.05060193
 40
0.0662013555
 40
0.0839684105
 40
0.1038782916
 40
0.1258955788
 40
0.1499768728
 40
0.176071983
 40
0.2340698042
 40
0.2993715271
 40
0.3713786839
 40
0.4494221218
 40
0.5327698014
 40
0.620634269
 40
0.7121799609
 40
0.8065317487
 40
1.0
 40
1.0
 40
1.0
 40
1.0
 10
10.0723022725
 20
13.9928829903
 30
0.0
 10
10.0723053252
 20
13.99292371
 30
0.0
 10
10.0722990238
 20
13.9930093421
 30
0.0
 10
10.0722524905
 20
13.9931360166
 30
0.0
 10
10.0721707005
 20
13.9932620208
 30
0.0
 10
10.0720545259
 20
13.9933879396
 30
0.0
 10
10.0719041244
 20
13.9935143954
 30
0.0
 10
10.0717194331
 20
13.9936416351
 30
0.0
 10
10.071500413
 20
13.9937697468
 30
0.0
 10
10.0711439589
 20
13.9939510975
 30
0.0
 10
10.0706099162
 20
13.9941756068
 30
0.0
 10
10.0698637546
 20
13.9944361157
 30
0.0
 10
10.068983987
 20
13.9946988636
 30
0.0
 10
10.0679725638
 20
13.994963153
 30
0.0
 10
10.0668316845
 20
13.995228193
 30
0.0
 10
10.0655639965
 20
13.9954932744
 30
0.0
 10
10.0641724629
 20
13.9957577129
 30
0.0
 10
10.0620815225
 20
13.9961214441
 30
0.0
 10
10.0591839215
 20
13.9965645297
 30
0.0
 10
10.0553851023
 20
13.9970670558
 30
0.0
 10
10.0511878664
 20
13.9975520706
 30
0.0
 10
10.0466321296
 20
13.9980147207
 30
0.0
 10
10.0417613139
 20
13.9984503222
 30
0.0
 10
10.0366220456
 20
13.9988545198
 30
0.0
 10
10.0312636948
 20
13.9992232963
 30
0.0
 10
10.0238340477
 20
13.9996664653
 30
0.0
 10
10.0181930443
 20
13.9999289998
 30
0.0
 10
10.014400163
 20
14.000074139
 30
0.0
  0
SPLINE
  5
4AA
100
AcDbEntity
  8
0
100
AcDbSpline
 62
7
  6
CONTINUOUS
 70
0
 71
3
 72
18
 73
14
 74
0
 42
0.0000001
 43
0.0000001
 44
0.0000000001
 40
0.0
 40
0.0
 40
0.0
 40
0.0
 40
0.2155951879
 40
0.4039575929
 40
0.5651193651
 40
0.6993260007
 40
0.80717821
 40
0.851645073
 40
0.8901713041
 40
0.9232471333
 40
0.951659515
 40
0.9766464209
 40
1.0
 40
1.0
 40
1.0
 40
1.0
 10
10.881942583
 20
13.9309872399
 30
0.0
 10
10.8817596186
 20
13.9309508485
 30
0.0
 10
10.8814175743
 20
13.9308786058
 30
0.0
 10
10.8809425674
 20
13.9307621388
 30
0.0
 10
10.8805404855
 20
13.9306451293
 30
0.0
 10
10.8802117037
 20
13.9305277925
 30
0.0
 10
10.8799856519
 20
13.930424405
 30
0.0
 10
10.8798440293
 20
13.9303391197
 30
0.0
 10
10.8797632144
 20
13.9302791515
 30
0.0
 10
10.8797006886
 20
13.9302188657
 30
0.0
 10
10.8796564691
 20
13.9301578505
 30
0.0
 10
10.8796310571
 20
13.9300956404
 30
0.0
 10
10.8796274727
 20
13.9300531581
 30
0.0
 10
10.8796289827
 20
13.9300330075
 30
0.0
  0
SPLINE
  5
4AB
100
AcDbEntity
  8
0
100
AcDbSpline
 62
7
  6
CONTINUOUS
 70
0
 71
3
 72
24
 73
20
 74
0
 42
0.0000001
 43
0.0000001
 44
0.0000000001
 40
0.0
 40
0.0
 40
0.0
 40
0.0
 40
0.2249316712
 40
0.4220070582
 40
0.5098422832
 40
0.5904245014
 40
0.6636838458
 40
0.7295610614
 40
0.7880196974
 40
0.8390426926
 40
0.8826501041
 40
0.9189161957
 40
0.9480151658
 40
0.9599965966
 40
0.9703686774
 40
0.9792691093
 40
0.9869186931
 40
0.9936634621
 40
1.0
 40
1.0
 40
1.0
 40
1.0
 10
10.4054530744
 20
13.9326507675
 30
0.0
 10
10.4048223701
 20
13.9326055575
 30
0.0
 10
10.4036395989
 20
13.9325130459
 30
0.0
 10
10.4022127553
 20
13.9323764279
 30
0.0
 10
10.4011918894
 20
13.9322599296
 30
0.0
 10
10.4005179883
 20
13.9321734912
 30
0.0
 10
10.3999066944
 20
13.9320847429
 30
0.0
 10
10.3993586692
 20
13.9319937966
 30
0.0
 10
10.398874482
 20
13.9319008171
 30
0.0
 10
10.3984546173
 20
13.9318059565
 30
0.0
 10
10.3980993389
 20
13.9317094425
 30
0.0
 10
10.3978089136
 20
13.9316114351
 30
0.0
 10
10.3976091948
 20
13.9315239943
 30
0.0
 10
10.3974840752
 20
13.9314510881
 30
0.0
 10
10.3974127101
 20
13.9313995235
 30
0.0
 10
10.3973574881
 20
13.931347351
 30
0.0
 10
10.3973184262
 20
13.9312941911
 30
0.0
 10
10.397296004
 20
13.9312396262
 30
0.0
 10
10.3972928879
 20
13.9312022691
 30
0.0
 10
10.3972942188
 20
13.9311845057
 30
0.0
  0
LINE
  5
4AC
100
AcDbEntity
  8
0
100
AcDbLine
 62
9
  6
CONTINUOUS
 10
10.0890950833
 20
13.9268579813
 11
10.3975613284
 21
13.9268561255
  0
SPLINE
  5
4AD
100
AcDbEntity
  8
0
100
AcDbSpline
 62
7
  6
CONTINUOUS
 70
0
 71
3
 72
31
 73
27
 74
0
 42
0.0000001
 43
0.0000001
 44
0.0000000001
 40
0.0
 40
0.0
 40
0.0
 40
0.0
 40
0.0018531293
 40
0.0038784156
 40
0.0062190705
 40
0.0089688635
 40
0.0121848965
 40
0.0159019833
 40
0.0201417321
 40
0.0249172808
 40
0.0361033503
 40
0.0494926743
 40
0.0650851471
 40
0.0828629867
 40
0.1027970407
 40
0.1248486869
 40
0.1489718987
 40
0.1751144576
 40
0.2332174442
 40
0.2986294924
 40
0.3707452631
 40
0.4488915776
 40
0.5323348024
 40
0.6202879848
 40
0.8063510586
 40
1.0
 40
1.0
 40
1.0
 40
1.0
 10
9.6612487584
 20
13.9919073768
 30
0.0
 10
9.6612514706
 20
13.9919435588
 30
0.0
 10
9.6612441265
 20
13.9920207138
 30
0.0
 10
9.6611959436
 20
13.9921340637
 30
0.0
 10
9.6611129564
 20
13.9922470845
 30
0.0
 10
9.6609958756
 20
13.9923607226
 30
0.0
 10
9.6608446787
 20
13.9924756508
 30
0.0
 10
9.6606592225
 20
13.9925920808
 30
0.0
 10
9.6604394487
 20
13.9927100672
 30
0.0
 10
9.6600813609
 20
13.9928783924
 30
0.0
 10
9.6595458691
 20
13.9930884635
 30
0.0
 10
9.6587987339
 20
13.9933347955
 30
0.0
 10
9.6579181188
 20
13.9935859768
 30
0.0
 10
9.6569060413
 20
13.9938413342
 30
0.0
 10
9.6557647721
 20
13.9941000956
 30
0.0
 10
9.6544970059
 20
13.9943615689
 30
0.0
 10
9.6531057463
 20
13.9946250825
 30
0.0
 10
9.6510157169
 20
13.9949912651
 30
0.0
 10
9.648120541
 20
13.9954446883
 30
0.0
 10
9.6443261892
 20
13.9959697569
 30
0.0
 10
9.6401351465
 20
13.9964877429
 30
0.0
 10
9.6355872442
 20
13.9969935277
 30
0.0
 10
9.6307257154
 20
13.9974821026
 30
0.0
 10
9.6237555011
 20
13.9981160357
 30
0.0
 10
9.6146259791
 20
13.9988261904
 30
0.0
 10
9.6072056042
 20
13.999290655
 30
0.0
 10
9.60341982
 20
13.9994998475
 30
0.0
  0
LINE
  5
4AE
100
AcDbEntity
  8
0
100
AcDbLine
 62
7
  6
CONTINUOUS
 10
9.9576923427
 20
13.9089471696
 11
9.8991589083
 21
13.9113006481
  0
SPLINE
  5
4AF
100
AcDbEntity
  8
0
100
AcDbSpline
 62
7
  6
CONTINUOUS
 70
0
 71
3
 72
31
 73
27
 74
0
 42
0.0000001
 43
0.0000001
 44
0.0000000001
 40
0.0
 40
0.0
 40
0.0
 40
0.0
 40
0.0015473254
 40
0.0033082941
 40
0.005434887
 40
0.008014575
 40
0.0110953113
 40
0.0147042198
 40
0.0188571462
 40
0.0235630017
 40
0.0346499799
 40
0.0479800854
 40
0.0635431069
 40
0.0813145541
 40
0.1012604951
 40
0.1233387958
 40
0.1475005682
 40
0.1736913125
 40
0.2319123733
 40
0.2974611488
 40
0.3697232067
 40
0.448018915
 40
0.531610567
 40
0.619709303
 40
0.8060572603
 40
1.0
 40
1.0
 40
1.0
 40
1.0
 10
9.3085198881
 20
13.9910721882
 30
0.0
 10
9.308522146
 20
13.9911023136
 30
0.0
 10
9.3085132005
 20
13.9911681814
 30
0.0
 10
9.3084626808
 20
13.9912631319
 30
0.0
 10
9.3083782742
 20
13.9913580644
 30
0.0
 10
9.3082601132
 20
13.9914544094
 30
0.0
 10
9.3081079254
 20
13.991552805
 30
0.0
 10
9.307921472
 20
13.9916533814
 30
0.0
 10
9.3077006889
 20
13.9917561406
 30
0.0
 10
9.3073403962
 20
13.9919041851
 30
0.0
 10
9.3068028753
 20
13.9920907587
 30
0.0
 10
9.3060542334
 20
13.9923122656
 30
0.0
 10
9.305172196
 20
13.9925410212
 30
0.0
 10
9.3041588496
 20
13.9927764041
 30
0.0
 10
9.3030165441
 20
13.9930176928
 30
0.0
 10
9.3017480244
 20
13.9932642409
 30
0.0
 10
9.3003563384
 20
13.9935154155
 30
0.0
 10
9.2982660795
 20
13.9938681984
 30
0.0
 10
9.295371968
 20
13.9943122755
 30
0.0
 10
9.2915806936
 20
13.9948369967
 30
0.0
 10
9.2873945589
 20
13.9953652834
 30
0.0
 10
9.2828534161
 20
13.995891967
 30
0.0
 10
9.2780004191
 20
13.9964118964
 30
0.0
 10
9.2710442216
 20
13.997102316
 30
0.0
 10
9.2619346409
 20
13.9979074801
 30
0.0
 10
9.2545309264
 20
13.9984690137
 30
0.0
 10
9.2507535889
 20
13.9987326401
 30
0.0
  0
SPLINE
  5
4B0
100
AcDbEntity
  8
0
100
AcDbSpline
 62
7
  6
CONTINUOUS
 70
0
 71
3
 72
18
 73
14
 74
0
 42
0.0000001
 43
0.0000001
 44
0.0000000001
 40
0.0
 40
0.0
 40
0.0
 40
0.0
 40
0.2212935472
 40
0.4140638931
 40
0.5783108649
 40
0.7141593975
 40
0.8220142996
 40
0.86573787
 40
0.9029267438
 40
0.9339705737
 40
0.9595496214
 40
0.9808775947
 40
1.0
 40
1.0
 40
1.0
 40
1.0
 10
10.8811333231
 20
13.9095322049
 30
0.0
 10
10.8809915591
 20
13.9095097788
 30
0.0
 10
10.8807266801
 20
13.9094653312
 30
0.0
 10
10.8803584489
 20
13.9093937363
 30
0.0
 10
10.8800468325
 20
13.9093219977
 30
0.0
 10
10.8797920741
 20
13.9092502082
 30
0.0
 10
10.879616322
 20
13.9091870223
 30
0.0
 10
10.8795055386
 20
13.909134662
 30
0.0
 10
10.8794426411
 20
13.9090981481
 30
0.0
 10
10.8793938054
 20
13.9090615304
 30
0.0
 10
10.8793588755
 20
13.9090244925
 30
0.0
 10
10.8793380025
 20
13.9089863331
 30
0.0
 10
10.8793344925
 20
13.9089595373
 30
0.0
 10
10.8793354194
 20
13.9089471696
 30
0.0
  0
SPLINE
  5
4B1
100
AcDbEntity
  8
0
100
AcDbSpline
 62
7
  6
CONTINUOUS
 70
0
 71
3
 72
25
 73
21
 74
0
 42
0.0000001
 43
0.0000001
 44
0.0000000001
 40
0.0
 40
0.0
 40
0.0
 40
0.0
 40
0.227572438
 40
0.4272112434
 40
0.5162302631
 40
0.5978963996
 40
0.6721083242
 40
0.7387793167
 40
0.797832871
 40
0.8492123869
 40
0.8928766324
 40
0.9288175209
 40
0.9439020342
 40
0.957076281
 40
0.9683628927
 40
0.9778002666
 40
0.9854572846
 40
0.9914682964
 40
0.9961171184
 40
1.0
 40
1.0
 40
1.0
 40
1.0
 10
10.3987664098
 20
13.9110483808
 30
0.0
 10
10.3980354292
 20
13.9110241608
 30
0.0
 10
10.396663362
 20
13.910973311
 30
0.0
 10
10.3950061043
 20
13.9108945257
 30
0.0
 10
10.3938179602
 20
13.9108250488
 30
0.0
 10
10.3930326427
 20
13.9107725341
 30
0.0
 10
10.3923194968
 20
13.910717694
 30
0.0
 10
10.3916794513
 20
13.9106606288
 30
0.0
 10
10.391113327
 20
13.9106014394
 30
0.0
 10
10.3906218244
 20
13.9105402947
 30
0.0
 10
10.3902055501
 20
13.9104773036
 30
0.0
 10
10.3899063945
 20
13.9104207693
 30
0.0
 10
10.3897055625
 20
13.9103733057
 30
0.0
 10
10.3895830332
 20
13.9103394136
 30
0.0
 10
10.3894795478
 20
13.9103051622
 30
0.0
 10
10.38939505
 20
13.9102705739
 30
0.0
 10
10.3893292996
 20
13.9102356305
 30
0.0
 10
10.3892819989
 20
13.9102000753
 30
0.0
 10
10.3892523424
 20
13.9101627366
 30
0.0
 10
10.389246371
 20
13.9101345473
 30
0.0
 10
10.389247303
 20
13.9101221032
 30
0.0
  0
LINE
  5
4B2
100
AcDbEntity
  8
0
100
AcDbLine
 62
7
  6
CONTINUOUS
 10
10.088987447
 20
13.9101221033
 11
10.0879340719
 21
13.9101586466
  0
LINE
  5
4B3
100
AcDbEntity
  8
0
100
AcDbLine
 62
7
  6
CONTINUOUS
 10
9.9749383482
 20
13.9082537957
 11
9.9576923427
 21
13.9089471696
  0
LINE
  5
4B4
100
AcDbEntity
  8
0
100
AcDbLine
 62
7
  6
CONTINUOUS
 10
10.8803138517
 20
13.8956645864
 11
10.8795971677
 21
13.8954572002
  0
SPLINE
  5
4B5
100
AcDbEntity
  8
0
100
AcDbSpline
 62
7
  6
CONTINUOUS
 70
0
 71
3
 72
33
 73
29
 74
0
 42
0.0000001
 43
0.0000001
 44
0.0000000001
 40
0.0
 40
0.0
 40
0.0
 40
0.0
 40
0.0011785312
 40
0.0018621377
 40
0.0026391108
 40
0.0045285765
 40
0.0069238568
 40
0.0098588026
 40
0.0133506413
 40
0.0174085453
 40
0.0220368313
 40
0.0330094392
 40
0.0462657028
 40
0.0617855747
 40
0.0795382224
 40
0.0994852728
 40
0.1215812943
 40
0.1457747846
 40
0.1720090963
 40
0.2303460082
 40
0.2960388114
 40
0.3684634262
 40
0.4469326403
 40
0.5307030675
 40
0.618982105
 40
0.7109346014
 40
0.8056907387
 40
1.0
 40
1.0
 40
1.0
 40
1.0
 10
9.029531529
 20
13.9904129023
 30
0.0
 10
9.0295332426
 20
13.9904357692
 30
0.0
 10
9.0295251388
 20
13.9904729574
 30
0.0
 10
9.0294994843
 20
13.9905175239
 30
0.0
 10
9.0294584015
 20
13.9905684752
 30
0.0
 10
9.0293826043
 20
13.9906324251
 30
0.0
 10
9.0292635305
 20
13.9907073241
 30
0.0
 10
9.0291102386
 20
13.9907849982
 30
0.0
 10
9.0289226675
 20
13.9908654333
 30
0.0
 10
9.0287007064
 20
13.9909485704
 30
0.0
 10
9.0283378911
 20
13.9910699067
 30
0.0
 10
9.0277980093
 20
13.9912249698
 30
0.0
 10
9.0270475083
 20
13.9914121488
 30
0.0
 10
9.0261636802
 20
13.9916086448
 30
0.0
 10
9.0251486728
 20
13.9918139194
 30
0.0
 10
9.0240049127
 20
13.9920273398
 30
0.0
 10
9.022735189
 20
13.992248336
 30
0.0
 10
9.0213425901
 20
13.99247634
 30
0.0
 10
9.0192512741
 20
13.9928005156
 30
0.0
 10
9.016357129
 20
13.9932160823
 30
0.0
 10
9.0125676582
 20
13.9937177502
 30
0.0
 10
9.0083850789
 20
13.9942334161
 30
0.0
 10
9.0038493443
 20
13.994758071
 30
0.0
 10
8.9990036272
 20
13.9952866129
 30
0.0
 10
8.9938939668
 20
13.9958139557
 30
0.0
 10
8.9885688499
 20
13.9963350524
 30
0.0
 10
8.981186997
 20
13.9970205548
 30
0.0
 10
8.9755830044
 20
13.9975009835
 30
0.0
 10
8.9718146761
 20
13.9978070919
 30
0.0
  0
LINE
  5
4B6
100
AcDbEntity
  8
0
100
AcDbLine
 62
7
  6
CONTINUOUS
 10
12.7776923427
 20
13.9587362627
 11
12.7729344798
 21
13.95837637
  0
LINE
  5
4B7
100
AcDbEntity
  8
0
100
AcDbLine
 62
7
  6
CONTINUOUS
 10
12.7149958631
 20
13.9598727985
 11
12.6736710767
 21
13.9565081155
  0
SPLINE
  5
4B8
100
AcDbEntity
  8
0
100
AcDbSpline
 62
7
  6
CONTINUOUS
 70
0
 71
3
 72
34
 73
30
 74
0
 42
0.0000001
 43
0.0000001
 44
0.0000000001
 40
0.0
 40
0.0
 40
0.0
 40
0.0
 40
0.1946581805
 40
0.28959188
 40
0.3817158816
 40
0.4701540518
 40
0.554064875
 40
0.6326498383
 40
0.7051607207
 40
0.770906256
 40
0.8292594366
 40
0.8796639908
 40
0.9017328975
 40
0.9216419538
 40
0.9393448175
 40
0.9548017656
 40
0.9679802337
 40
0.9737072453
 40
0.9788566929
 40
0.9834276297
 40
0.9874202752
 40
0.9908372399
 40
0.9936843338
 40
0.9959734542
 40
0.9977305066
 40
0.9984275776
 40
0.9990204971
 40
0.999532688
 40
1.0
 40
1.0
 40
1.0
 40
1.0
 10
12.5311790857
 20
13.9609349425
 30
0.0
 10
12.5274158963
 20
13.9606876993
 30
0.0
 10
12.5218187213
 20
13.960299581
 30
0.0
 10
12.5144441302
 20
13.9597456294
 30
0.0
 10
12.5091233078
 20
13.9593244457
 30
0.0
 10
12.5040171615
 20
13.9588981536
 30
0.0
 10
12.4991743685
 20
13.9584708488
 30
0.0
 10
12.494641133
 20
13.9580466675
 30
0.0
 10
12.4904607644
 20
13.9576297308
 30
0.0
 10
12.4866732629
 20
13.9572241733
 30
0.0
 10
12.4833149828
 20
13.9568339916
 30
0.0
 10
12.4808007328
 20
13.9565124585
 30
0.0
 10
12.4790283578
 20
13.9562630303
 30
0.0
 10
12.4778850244
 20
13.956090503
 30
0.0
 10
12.4768703072
 20
13.9559246004
 30
0.0
 10
12.475986674
 20
13.9557657565
 30
0.0
 10
12.4753339541
 20
13.9556343266
 30
0.0
 10
12.4748793431
 20
13.9555316571
 30
0.0
 10
12.4745886722
 20
13.9554603104
 30
0.0
 10
12.4743321588
 20
13.9553910325
 30
0.0
 10
12.4741099223
 20
13.9553238838
 30
0.0
 10
12.4739220609
 20
13.9552589499
 30
0.0
 10
12.4737684742
 20
13.9551963285
 30
0.0
 10
12.4736491688
 20
13.9551360794
 30
0.0
 10
12.4735724126
 20
13.9550844785
 30
0.0
 10
12.4735301679
 20
13.9550429773
 30
0.0
 10
12.4735095141
 20
13.9550145544
 30
0.0
 10
12.4734975193
 20
13.954986179
 30
0.0
 10
12.4734956844
 20
13.9549669004
 30
0.0
 10
12.4734963624
 20
13.9549578721
 30
0.0
  0
SPLINE
  5
4B9
100
AcDbEntity
  8
0
100
AcDbSpline
 62
7
  6
CONTINUOUS
 70
0
 71
3
 72
30
 73
26
 74
0
 42
0.0000001
 43
0.0000001
 44
0.0000000001
 40
0.0
 40
0.0
 40
0.0
 40
0.0
 40
0.2099982674
 40
0.4029194033
 40
0.4915894772
 40
0.5743846492
 40
0.650835863
 40
0.720511265
 40
0.783019362
 40
0.8380121642
 40
0.8625947503
 40
0.8851903602
 40
0.9057696188
 40
0.9243083311
 40
0.9407861323
 40
0.9551897625
 40
0.9675131262
 40
0.9777637489
 40
0.9859703063
 40
0.9893301803
 40
0.9922154522
 40
0.9946556198
 40
0.9967008104
 40
0.9984364442
 40
1.0
 40
1.0
 40
1.0
 40
1.0
 10
12.2185916648
 20
13.9605715141
 30
0.0
 10
12.215933032
 20
13.9603758009
 30
0.0
 10
12.2108335924
 20
13.9599777255
 30
0.0
 10
12.2046172573
 20
13.959427422
 30
0.0
 10
12.2000137668
 20
13.9589742397
 30
0.0
 10
12.1968840331
 20
13.9586430095
 30
0.0
 10
12.1939967666
 20
13.9583127708
 30
0.0
 10
12.1913684914
 20
13.9579855
 30
0.0
 10
12.1890142802
 20
13.9576631544
 30
0.0
 10
12.1872311095
 20
13.9573911875
 30
0.0
 10
12.185952155
 20
13.9571753626
 30
0.0
 10
12.1851057675
 20
13.9570219816
 30
0.0
 10
12.1843369556
 20
13.9568712082
 30
0.0
 10
12.1836468242
 20
13.9567232943
 30
0.0
 10
12.1830363315
 20
13.9565784944
 30
0.0
 10
12.1825063252
 20
13.956437091
 30
0.0
 10
12.1820573781
 20
13.9562994128
 30
0.0
 10
12.1816900448
 20
13.9561657265
 30
0.0
 10
12.1814370455
 20
13.9560516947
 30
0.0
 10
12.181277941
 20
13.9559600351
 30
0.0
 10
12.1811873131
 20
13.9558969305
 30
0.0
 10
12.1811170565
 20
13.9558346995
 30
0.0
 10
12.1810670607
 20
13.9557729141
 30
0.0
 10
12.1810376199
 20
13.9557108331
 30
0.0
 10
12.1810328203
 20
13.9556681987
 30
0.0
 10
12.1810343041
 20
13.9556484056
 30
0.0
  0
SPLINE
  5
4BA
100
AcDbEntity
  8
0
100
AcDbSpline
 62
7
  6
CONTINUOUS
 70
0
 71
3
 72
23
 73
19
 74
0
 42
0.0000001
 43
0.0000001
 44
0.0000000001
 40
0.0
 40
0.0
 40
0.0
 40
0.0
 40
0.2218500762
 40
0.4168039941
 40
0.5039135007
 40
0.5839822277
 40
0.6569324245
 40
0.7227009616
 40
0.781247875
 40
0.8325571264
 40
0.8766554473
 40
0.9136282452
 40
0.943676808
 40
0.9672274671
 40
0.9768540652
 40
0.9852966396
 40
0.992868341
 40
1.0
 40
1.0
 40
1.0
 40
1.0
 10
11.8089516622
 20
13.9589501196
 30
0.0
 10
11.8082519708
 20
13.9588516259
 30
0.0
 10
11.8069387534
 20
13.9586568454
 30
0.0
 10
11.8053559487
 20
13.9583901348
 30
0.0
 10
11.8042227088
 20
13.9581752976
 30
0.0
 10
11.8034735671
 20
13.9580211182
 30
0.0
 10
11.8027937123
 20
13.9578680069
 30
0.0
 10
11.8021839784
 20
13.957716172
 30
0.0
 10
11.8016450973
 20
13.9575658668
 30
0.0
 10
11.8011776455
 20
13.9574173231
 30
0.0
 10
11.8007820922
 20
13.9572708384
 30
0.0
 10
11.8004584389
 20
13.9571266077
 30
0.0
 10
11.8002067495
 20
13.9569848785
 30
0.0
 10
11.8000459445
 20
13.9568610883
 30
0.0
 10
11.799958541
 20
13.9567608117
 30
0.0
 10
11.7999157331
 20
13.9566906706
 30
0.0
 10
11.7998915827
 20
13.9566202916
 30
0.0
 10
11.7998884946
 20
13.9565728701
 30
0.0
 10
11.7998901943
 20
13.9565502195
 30
0.0
  0
SPLINE
  5
4BB
100
AcDbEntity
  8
0
100
AcDbSpline
 62
7
  6
CONTINUOUS
 70
0
 71
3
 72
16
 73
12
 74
0
 42
0.0000001
 43
0.0000001
 44
0.0000000001
 40
0.0
 40
0.0
 40
0.0
 40
0.0
 40
0.2040861499
 40
0.3835257473
 40
0.5386104801
 40
0.6699074548
 40
0.7785043134
 40
0.8664442832
 40
0.9377034878
 40
0.9693844833
 40
1.0
 40
1.0
 40
1.0
 40
1.0
 10
11.357838801
 20
13.9587091826
 30
0.0
 10
11.3576949362
 20
13.958665192
 30
0.0
 10
11.3574258736
 20
13.9585781439
 30
0.0
 10
11.3570536554
 20
13.958439543
 30
0.0
 10
11.356738984
 20
13.9583014863
 30
0.0
 10
11.3564818393
 20
13.9581641263
 30
0.0
 10
11.3562818542
 20
13.9580271636
 30
0.0
 10
11.356138228
 20
13.9578901429
 30
0.0
 10
11.3560630018
 20
13.9577679233
 30
0.0
 10
11.3560382271
 20
13.9576719459
 30
0.0
 10
11.3560365783
 20
13.9576256175
 30
0.0
 10
11.3560382668
 20
13.9576031129
 30
0.0
  0
SPLINE
  5
4BC
100
AcDbEntity
  8
0
100
AcDbSpline
 62
7
  6
CONTINUOUS
 70
0
 71
3
 72
34
 73
30
 74
0
 42
0.0000001
 43
0.0000001
 44
0.0000000001
 40
0.0
 40
0.0
 40
0.0
 40
0.0
 40
0.194922169
 40
0.289993726
 40
0.3822530075
 40
0.4708184544
 40
0.5548435985
 40
0.6335253155
 40
0.706111077
 40
0.7719063455
 40
0.8302814777
 40
0.8806780182
 40
0.902730847
 40
0.9226152729
 40
0.9402843345
 40
0.9556971711
 40
0.9688195851
 40
0.9745131365
 40
0.9796248292
 40
0.984152779
 40
0.9880960949
 40
0.9914555679
 40
0.9942339681
 40
0.9964383072
 40
0.9980855568
 40
0.9987132219
 40
0.9992238203
 40
0.9996393988
 40
1.0
 40
1.0
 40
1.0
 40
1.0
 10
12.1587881621
 20
13.9317175613
 30
0.0
 10
12.1550172173
 20
13.9315280615
 30
0.0
 10
12.1494077925
 20
13.9312305344
 30
0.0
 10
12.1420156182
 20
13.9308057745
 30
0.0
 10
12.1366811827
 20
13.9304827537
 30
0.0
 10
12.131561379
 20
13.9301557711
 30
0.0
 10
12.1267051947
 20
13.9298279789
 30
0.0
 10
12.122159121
 20
13.9295025613
 30
0.0
 10
12.1179667154
 20
13.9291826906
 30
0.0
 10
12.1141681832
 20
13.9288715498
 30
0.0
 10
12.1108000136
 20
13.9285722127
 30
0.0
 10
12.1082778823
 20
13.9283255209
 30
0.0
 10
12.1064996035
 20
13.928134133
 30
0.0
 10
12.1053526078
 20
13.9280017831
 30
0.0
 10
12.1043345357
 20
13.9278745233
 30
0.0
 10
12.1034478516
 20
13.927752686
 30
0.0
 10
12.1027924905
 20
13.9276518531
 30
0.0
 10
12.1023357391
 20
13.9275730553
 30
0.0
 10
12.1020438013
 20
13.9275183347
 30
0.0
 10
12.1017860984
 20
13.9274652063
 30
0.0
 10
12.101562758
 20
13.9274137271
 30
0.0
 10
12.1013738994
 20
13.9273639655
 30
0.0
 10
12.1012194614
 20
13.9273160556
 30
0.0
 10
12.1010995214
 20
13.9272700312
 30
0.0
 10
12.1010217153
 20
13.9272306699
 30
0.0
 10
12.1009781662
 20
13.927198563
 30
0.0
 10
12.1009569821
 20
13.9271769272
 30
0.0
 10
12.1009441555
 20
13.9271551192
 30
0.0
 10
12.1009417999
 20
13.9271397565
 30
0.0
 10
12.1009423231
 20
13.9271327911
 30
0.0
  0
SPLINE
  5
4BD
100
AcDbEntity
  8
0
100
AcDbSpline
 62
7
  6
CONTINUOUS
 70
0
 71
3
 72
27
 73
23
 74
0
 42
0.0000001
 43
0.0000001
 44
0.0000000001
 40
0.0
 40
0.0
 40
0.0
 40
0.0
 40
0.2232025395
 40
0.4209888646
 40
0.5097896426
 40
0.5915932396
 40
0.6662204138
 40
0.7335101152
 40
0.7933198882
 40
0.8455314379
 40
0.890050981
 40
0.9268196349
 40
0.9422945872
 40
0.9558365773
 40
0.9674612731
 40
0.9772008716
 40
0.9851154002
 40
0.991323685
 40
0.9938657281
 40
0.9960991839
 40
0.9981064843
 40
1.0
 40
1.0
 40
1.0
 40
1.0
 10
11.8021332654
 20
13.9302584025
 30
0.0
 10
11.8009239751
 20
13.9301570663
 30
0.0
 10
11.7986438715
 20
13.9299564936
 30
0.0
 10
11.7958855496
 20
13.9296839567
 30
0.0
 10
11.7938946135
 20
13.9294651804
 30
0.0
 10
11.7925705369
 20
13.9293084831
 30
0.0
 10
11.7913640698
 20
13.9291536025
 30
0.0
 10
11.7902779483
 20
13.9290009286
 30
0.0
 10
11.7893146307
 20
13.9288508575
 30
0.0
 10
11.7884762477
 20
13.9287038644
 30
0.0
 10
11.7877646737
 20
13.9285603451
 30
0.0
 10
11.7872527302
 20
13.9284382489
 30
0.0
 10
11.7869086613
 20
13.9283403539
 30
0.0
 10
11.7866983699
 20
13.9282722998
 30
0.0
 10
11.7865206811
 20
13.9282054114
 30
0.0
 10
11.7863754686
 20
13.9281397299
 30
0.0
 10
11.786262652
 20
13.9280753139
 30
0.0
 10
11.7861906698
 20
13.9280191346
 30
0.0
 10
11.7861516033
 20
13.9279736928
 30
0.0
 10
11.7861324771
 20
13.9279418982
 30
0.0
 10
11.7861217083
 20
13.9279100109
 30
0.0
 10
11.7861203473
 20
13.9278885401
 30
0.0
 10
11.7861211167
 20
13.927878274
 30
0.0
  0
LINE
  5
4BE
100
AcDbEntity
  8
0
100
AcDbLine
 62
9
  6
CONTINUOUS
 10
11.4778233583
 20
13.9268561254
 11
11.7862896046
 21
13.9268579813
  0
LINE
  5
4BF
100
AcDbEntity
  8
0
100
AcDbLine
 62
7
  6
CONTINUOUS
 10
11.9176923427
 20
13.9089471696
 11
11.9004463373
 21
13.9082537957
  0
SPLINE
  5
4C0
100
AcDbEntity
  8
0
100
AcDbSpline
 62
7
  6
CONTINUOUS
 70
0
 71
3
 72
37
 73
33
 74
0
 42
0.0000001
 43
0.0000001
 44
0.0000000001
 40
0.0
 40
0.0
 40
0.0
 40
0.0
 40
0.0980312587
 40
0.1950941954
 40
0.2902603035
 40
0.382614961
 40
0.4712726267
 40
0.5553830061
 40
0.634139228
 40
0.706785545
 40
0.7726247726
 40
0.8027916914
 40
0.8310252962
 40
0.8572579231
 40
0.8814267519
 40
0.9034736988
 40
0.9233461586
 40
0.9409969119
 40
0.9563841127
 40
0.9694721542
 40
0.9802319501
 40
0.9847316892
 40
0.9886421934
 40
0.9919624962
 40
0.994692942
 40
0.9968366054
 40
0.9976908603
 40
0.9984024872
 40
0.9989753474
 40
0.9994171248
 40
0.9997449239
 40
1.0
 40
1.0
 40
1.0
 40
1.0
 10
11.7863972384
 20
13.9101221033
 30
0.0
 10
11.7844920794
 20
13.9100556642
 30
0.0
 10
11.7807007085
 20
13.9099197238
 30
0.0
 10
11.7750603358
 20
13.909706297
 30
0.0
 10
11.7695307091
 20
13.9094857666
 30
0.0
 10
11.764164872
 20
13.9092602572
 30
0.0
 10
11.7590143452
 20
13.9090319491
 30
0.0
 10
11.7541285542
 20
13.908803053
 30
0.0
 10
11.7495544014
 20
13.9085758001
 30
0.0
 10
11.745335818
 20
13.908352403
 30
0.0
 10
11.7420614739
 20
13.9081662781
 30
0.0
 10
11.7396499259
 20
13.9080201646
 30
0.0
 10
11.7380074406
 20
13.907916082
 30
0.0
 10
11.7364816747
 20
13.9078145353
 30
0.0
 10
11.7350763041
 20
13.9077157766
 30
0.0
 10
11.7337947161
 20
13.9076200569
 30
0.0
 10
11.7326400003
 20
13.9075276296
 30
0.0
 10
11.7316149415
 20
13.9074387442
 30
0.0
 10
11.7307220012
 20
13.9073536836
 30
0.0
 10
11.7299633309
 20
13.9072726872
 30
0.0
 10
11.7294161439
 20
13.9072055359
 30
0.0
 10
11.7290470883
 20
13.9071528725
 30
0.0
 10
11.7288218147
 20
13.9071169248
 30
0.0
 10
11.7286312161
 20
13.907082216
 30
0.0
 10
11.7284753945
 20
13.9070487709
 30
0.0
 10
11.7283675787
 20
13.9070204093
 30
0.0
 10
11.7282991287
 20
13.9069975463
 30
0.0
 10
11.7282605011
 20
13.9069820595
 30
0.0
 10
11.7282304432
 20
13.9069669442
 30
0.0
 10
11.7282088761
 20
13.9069520786
 30
0.0
 10
11.7281951373
 20
13.9069371729
 30
0.0
 10
11.7281919343
 20
13.9069255655
 30
0.0
 10
11.728192305
 20
13.9069206191
 30
0.0
  0
SPLINE
  5
4C1
100
AcDbEntity
  8
0
100
AcDbSpline
 62
7
  6
CONTINUOUS
 70
0
 71
3
 72
28
 73
24
 74
0
 42
0.0000001
 43
0.0000001
 44
0.0000000001
 40
0.0
 40
0.0
 40
0.0
 40
0.0
 40
0.2282774392
 40
0.3321755102
 40
0.429030346
 40
0.5186910891
 40
0.6010212331
 40
0.6758927452
 40
0.7431920228
 40
0.8028149999
 40
0.8546720325
 40
0.8986848358
 40
0.9347897354
 40
0.9498610205
 40
0.962939161
 40
0.974021071
 40
0.9831064109
 40
0.9901999377
 40
0.9930038725
 40
0.9953167768
 40
0.9971455352
 40
0.9985049185
 40
1.0
 40
1.0
 40
1.0
 40
1.0
 10
11.3670797323
 20
13.8949261277
 30
0.0
 10
11.3662347505
 20
13.8948965021
 30
0.0
 10
11.3650052335
 20
13.8948519378
 30
0.0
 10
11.3634173671
 20
13.8947904461
 30
0.0
 10
11.3623426076
 20
13.8947468377
 30
0.0
 10
11.3613477546
 20
13.8947043461
 30
0.0
 10
11.3604343502
 20
13.894663042
 30
0.0
 10
11.3596038002
 20
13.8946229937
 30
0.0
 10
11.3588573916
 20
13.894584275
 30
0.0
 10
11.3581962732
 20
13.8945469559
 30
0.0
 10
11.3576214646
 20
13.8945111272
 30
0.0
 10
11.3571338503
 20
13.8944768587
 30
0.0
 10
11.3567824321
 20
13.8944482782
 30
0.0
 10
11.3565455126
 20
13.894425725
 30
0.0
 10
11.3564010244
 20
13.8944102765
 30
0.0
 10
11.3562788003
 20
13.894395303
 30
0.0
 10
11.3561788556
 20
13.8943807904
 30
0.0
 10
11.3561096472
 20
13.8943684562
 30
0.0
 10
11.3560654856
 20
13.8943583743
 30
0.0
 10
11.3560407794
 20
13.8943516705
 30
0.0
 10
11.356021176
 20
13.8943448175
 30
0.0
 10
11.3560062695
 20
13.8943380962
 30
0.0
 10
11.3559956988
 20
13.8943297846
 30
0.0
 10
11.3559961133
 20
13.8943242626
 30
0.0
  0
SPLINE
  5
4C2
100
AcDbEntity
  8
0
100
AcDbSpline
 62
7
  6
CONTINUOUS
 70
0
 71
3
 72
37
 73
33
 74
0
 42
0.0000001
 43
0.0000001
 44
0.0000000001
 40
0.0
 40
0.0
 40
0.0
 40
0.0
 40
0.0002550762
 40
0.0005828755
 40
0.0010246532
 40
0.0015975141
 40
0.0023091422
 40
0.0031633989
 40
0.0053070664
 40
0.0080375133
 40
0.0113578124
 40
0.0152683124
 40
0.0197680491
 40
0.0305278499
 40
0.0436159052
 40
0.0590031287
 40
0.0766539117
 40
0.0965263858
 40
0.1185733423
 40
0.1427422039
 40
0.1689748867
 40
0.1972085557
 40
0.2273754976
 40
0.2932147016
 40
0.365860953
 40
0.4446170199
 40
0.5287272144
 40
0.6173849302
 40
0.7097396813
 40
0.804905802
 40
0.9019688502
 40
1.0
 40
1.0
 40
1.0
 40
1.0
 10
10.1471923805
 20
13.9069206191
 30
0.0
 10
10.1471927512
 20
13.9069255655
 30
0.0
 10
10.1471895482
 20
13.9069371729
 30
0.0
 10
10.1471758094
 20
13.9069520786
 30
0.0
 10
10.1471542422
 20
13.9069669443
 30
0.0
 10
10.1471241843
 20
13.9069820596
 30
0.0
 10
10.1470855567
 20
13.9069975464
 30
0.0
 10
10.1470171065
 20
13.9070204094
 30
0.0
 10
10.1469092905
 20
13.907048771
 30
0.0
 10
10.1467534689
 20
13.9070822161
 30
0.0
 10
10.1465628704
 20
13.9071169248
 30
0.0
 10
10.146337597
 20
13.9071528726
 30
0.0
 10
10.1459685414
 20
13.907205536
 30
0.0
 10
10.1454213542
 20
13.9072726872
 30
0.0
 10
10.1446626831
 20
13.9073536837
 30
0.0
 10
10.1437697415
 20
13.9074387444
 30
0.0
 10
10.1427446814
 20
13.9075276299
 30
0.0
 10
10.1415899645
 20
13.9076200573
 30
0.0
 10
10.1403083755
 20
13.907715777
 30
0.0
 10
10.1389030029
 20
13.9078145358
 30
0.0
 10
10.137377234
 20
13.9079160828
 30
0.0
 10
10.135734746
 20
13.9080201654
 30
0.0
 10
10.1333231968
 20
13.908166279
 30
0.0
 10
10.1300488539
 20
13.9083524038
 30
0.0
 10
10.1258302753
 20
13.9085758006
 30
0.0
 10
10.1212561304
 20
13.9088030531
 30
0.0
 10
10.116370345
 20
13.9090319489
 30
0.0
 10
10.1112198189
 20
13.9092602569
 30
0.0
 10
10.1058539788
 20
13.9094857665
 30
0.0
 10
10.1003243479
 20
13.9097062971
 30
0.0
 10
10.0946839749
 20
13.9099197239
 30
0.0
 10
10.0908926039
 20
13.9100556643
 30
0.0
 10
10.088987447
 20
13.9101221033
 30
0.0
  0
LINE
  5
4C3
100
AcDbEntity
  8
0
100
AcDbLine
 62
7
  6
CONTINUOUS
 10
11.7874506148
 20
13.9101586467
 11
11.7863972384
 21
13.9101221033
  0
SPLINE
  5
4C4
100
AcDbEntity
  8
0
100
AcDbSpline
 62
7
  6
CONTINUOUS
 70
0
 71
3
 72
39
 73
35
 74
0
 42
0.0000001
 43
0.0000001
 44
0.0000000001
 40
0.0
 40
0.0
 40
0.0
 40
0.0
 40
0.0001365245
 40
0.0002425141
 40
0.0003810186
 40
0.0007628766
 40
0.0012899508
 40
0.0019647296
 40
0.0027883296
 40
0.0048838014
 40
0.0075777329
 40
0.0108696214
 40
0.0147583381
 40
0.019241788
 40
0.024317359
 40
0.029982328
 40
0.0430664708
 40
0.0584628619
 40
0.0761340809
 40
0.0960374513
 40
0.1181241767
 40
0.142340394
 40
0.1686271228
 40
0.1969198781
 40
0.227149758
 40
0.2931208391
 40
0.3658970403
 40
0.4447694448
 40
0.5289710163
 40
0.61768439
 40
0.7100496891
 40
0.8051733771
 40
0.902134431
 40
1.0
 40
1.0
 40
1.0
 40
1.0
 10
12.3845840146
 20
13.9333580589
 30
0.0
 10
12.3845842129
 20
13.9333607087
 30
0.0
 10
12.3845807657
 20
13.9333651676
 30
0.0
 10
12.3845744413
 20
13.9333687096
 30
0.0
 10
12.3845630896
 20
13.9333734428
 30
0.0
 10
12.3845432867
 20
13.9333783638
 30
0.0
 10
12.3845128951
 20
13.9333836384
 30
0.0
 10
12.3844737527
 20
13.9333884063
 30
0.0
 10
12.3844040802
 20
13.9333947049
 30
0.0
 10
12.384294973
 20
13.9334007476
 30
0.0
 10
12.3841377578
 20
13.9334057677
 30
0.0
 10
12.3839455813
 20
13.9334088236
 30
0.0
 10
12.3837185572
 20
13.9334099141
 30
0.0
 10
12.3834568155
 20
13.9334090006
 30
0.0
 10
12.3831605154
 20
13.933406078
 30
0.0
 10
12.3826968527
 20
13.9333991387
 30
0.0
 10
12.3820324051
 20
13.9333849501
 30
0.0
 10
12.381134452
 20
13.9333607127
 30
0.0
 10
12.3801039488
 20
13.9333285098
 30
0.0
 10
12.3789434185
 20
13.9332884058
 30
0.0
 10
12.3776556985
 20
13.9332404795
 30
0.0
 10
12.3762439404
 20
13.9331848389
 30
0.0
 10
12.3747115989
 20
13.9331216123
 30
0.0
 10
12.3730624195
 20
13.9330509519
 30
0.0
 10
12.3706416949
 20
13.9329438853
 30
0.0
 10
12.3673562837
 20
13.9327924482
 30
0.0
 10
12.3631255058
 20
13.9325892423
 30
0.0
 10
12.3585406711
 20
13.9323615507
 30
0.0
 10
12.3536463718
 20
13.9321115765
 30
0.0
 10
12.3484901296
 20
13.9318417334
 30
0.0
 10
12.3431219201
 20
13.9315546307
 30
0.0
 10
12.3375937299
 20
13.9312530448
 30
0.0
 10
12.3319589599
 20
13.9309398878
 30
0.0
 10
12.328172993
 20
13.9307257188
 30
0.0
 10
12.3262712745
 20
13.9306172039
 30
0.0
  0
SPLINE
  5
4C5
100
AcDbEntity
  8
0
100
AcDbSpline
 62
7
  6
CONTINUOUS
 70
0
 71
3
 72
48
 73
44
 74
0
 42
0.0000001
 43
0.0000001
 44
0.0000000001
 40
0.0
 40
0.0
 40
0.0
 40
0.0
 40
0.0000749112
 40
0.0001668058
 40
0.000285589
 40
0.0004359376
 40
0.000620136
 40
0.0008394099
 40
0.0010944769
 40
0.0013857881
 40
0.0020781958
 40
0.0029181109
 40
0.0039062211
 40
0.0050428894
 40
0.006328296
 40
0.0077624627
 40
0.0110767351
 40
0.0149846788
 40
0.0194844076
 40
0.0245736076
 40
0.0302493919
 40
0.0365085656
 40
0.0433474277
 40
0.0507620093
 40
0.0587478661
 40
0.076414154
 40
0.0963041061
 40
0.1183700515
 40
0.1425590161
 40
0.1688128732
 40
0.1970684786
 40
0.2272578415
 40
0.2593083143
 40
0.2931427463
 40
0.3286796701
 40
0.3658335128
 40
0.4446304342
 40
0.5287748905
 40
0.6174567643
 40
0.7098221492
 40
0.8049817048
 40
0.9020191123
 40
1.0
 40
1.0
 40
1.0
 40
1.0
 10
10.531442343
 20
16.9658676239
 30
0.0
 10
10.5314423426
 20
16.9658777726
 30
0.0
 10
10.5314490076
 20
16.9659004599
 30
0.0
 10
10.5314745251
 20
16.9659303372
 30
0.0
 10
10.5315141006
 20
16.9659594558
 30
0.0
 10
10.5315684043
 20
16.9659884425
 30
0.0
 10
10.5316376484
 20
16.9660175064
 30
0.0
 10
10.5317220205
 20
16.966046645
 30
0.0
 10
10.5318215792
 20
16.9660758562
 30
0.0
 10
10.531984238
 20
16.9661172916
 30
0.0
 10
10.5322261632
 20
16.9661678816
 30
0.0
 10
10.5325626795
 20
16.9662259881
 30
0.0
 10
10.5329601074
 20
16.966284283
 30
0.0
 10
10.5334184131
 20
16.9663427353
 30
0.0
 10
10.5339375654
 20
16.9664012911
 30
0.0
 10
10.5347508802
 20
16.9664834799
 30
0.0
 10
10.535919317
 20
16.9665844407
 30
0.0
 10
10.5375031045
 20
16.9667010033
 30
0.0
 10
10.5393278957
 20
16.9668178498
 30
0.0
 10
10.5413925991
 20
16.9669349252
 30
0.0
 10
10.5436959978
 20
16.9670521535
 30
0.0
 10
10.5462367041
 20
16.9671694955
 30
0.0
 10
10.5490132007
 20
16.9672869237
 30
0.0
 10
10.5520238106
 20
16.967404422
 30
0.0
 10
10.5565006327
 20
16.9675666727
 30
0.0
 10
10.5626672562
 20
16.9677675303
 30
0.0
 10
10.5707412667
 20
16.9680016102
 30
0.0
 10
10.5796992702
 20
16.9682359785
 30
0.0
 10
10.5895196921
 20
16.968470584
 30
0.0
 10
10.6001788811
 20
16.9687053597
 30
0.0
 10
10.6116511608
 20
16.9689402692
 30
0.0
 10
10.6239088955
 20
16.9691752829
 30
0.0
 10
10.6369225575
 20
16.9694103803
 30
0.0
 10
10.6506607974
 20
16.9696455442
 30
0.0
 10
10.6650905179
 20
16.9698807674
 30
0.0
 10
10.685611011
 20
16.9702007571
 30
0.0
 10
10.7127162572
 20
16.9705981688
 30
0.0
 10
10.7468020201
 20
16.9710666345
 30
0.0
 10
10.7827261478
 20
16.971535386
 30
0.0
 10
10.8201426781
 20
16.972004355
 30
0.0
 10
10.858691269
 20
16.9724734683
 30
0.0
 10
10.8980006809
 20
16.9729426735
 30
0.0
 10
10.9244191854
 20
16.9732550011
 30
0.0
 10
10.9376923427
 20
16.9734119216
 30
0.0
  0
SPLINE
  5
4C6
100
AcDbEntity
  8
0
100
AcDbSpline
 62
7
  6
CONTINUOUS
 70
0
 71
3
 72
38
 73
34
 74
0
 42
0.0000001
 43
0.0000001
 44
0.0000000001
 40
0.0
 40
0.0
 40
0.0
 40
0.0
 40
0.0007157208
 40
0.0015618278
 40
0.0025419502
 40
0.0036583232
 40
0.0049123755
 40
0.0063050569
 40
0.0095084553
 40
0.0132711962
 40
0.0175937598
 40
0.0224752486
 40
0.0279139799
 40
0.0339074837
 40
0.0404528313
 40
0.0551845466
 40
0.0720763346
 40
0.0910890319
 40
0.1121777415
 40
0.1352921593
 40
0.1603768191
 40
0.1873713024
 40
0.2162104319
 40
0.2468244612
 40
0.3130765071
 40
0.3854855007
 40
0.4633491265
 40
0.5459117428
 40
0.6323718308
 40
0.7218898514
 40
0.8135964522
 40
0.9066009555
 40
1.0
 40
1.0
 40
1.0
 40
1.0
 10
11.3434663724
 20
16.9357085378
 30
0.0
 10
11.3433777621
 20
16.9356573192
 30
0.0
 10
11.3431778714
 20
16.9355568427
 30
0.0
 10
11.3428416697
 20
16.9354181385
 30
0.0
 10
11.3424442994
 20
16.9352791851
 30
0.0
 10
11.3419857163
 20
16.9351400364
 30
0.0
 10
11.3414658611
 20
16.9350007092
 30
0.0
 10
11.3406522972
 20
16.9348055508
 30
0.0
 10
11.3394810236
 20
16.9345655279
 30
0.0
 10
11.3378905839
 20
16.9342882657
 30
0.0
 10
11.3360571451
 20
16.9340104083
 30
0.0
 10
11.3339817369
 20
16.9337320435
 30
0.0
 10
11.331665524
 20
16.9334533513
 30
0.0
 10
11.32910987
 20
16.9331743779
 30
0.0
 10
11.3252294549
 20
16.9327867077
 30
0.0
 10
11.3197921456
 20
16.9323082174
 30
0.0
 10
11.312572413
 20
16.931752778
 30
0.0
 10
11.3044413251
 20
16.9311964012
 30
0.0
 10
11.2954186021
 20
16.9306392587
 30
0.0
 10
11.2855261229
 20
16.9300815867
 30
0.0
 10
11.2747879152
 20
16.9295235038
 30
0.0
 10
11.2632300695
 20
16.9289651117
 30
0.0
 10
11.2508806781
 20
16.9284064554
 30
0.0
 10
11.2329211334
 20
16.9276410238
 30
0.0
 10
11.2087333327
 20
16.9266926105
 30
0.0
 10
11.1777902619
 20
16.9255806774
 30
0.0
 10
11.1445134282
 20
16.9244676322
 30
0.0
 10
11.109226269
 20
16.9233537207
 30
0.0
 10
11.0722717637
 20
16.9222392154
 30
0.0
 10
11.0340091119
 20
16.9211242898
 30
0.0
 10
10.9948102322
 20
16.9200090905
 30
0.0
 10
10.9550561507
 20
16.918893736
 30
0.0
 10
10.9284108587
 20
16.9181492997
 30
0.0
 10
10.9150600427
 20
16.9177752685
 30
0.0
  0
SPLINE
  5
4C7
100
AcDbEntity
  8
0
100
AcDbSpline
 62
7
  6
CONTINUOUS
 70
0
 71
3
 72
40
 73
36
 74
0
 42
0.0000001
 43
0.0000001
 44
0.0000000001
 40
0.0
 40
0.0
 40
0.0
 40
0.0
 40
0.0007383268
 40
0.0016387976
 40
0.0027059701
 40
0.0039423901
 40
0.0053495077
 40
0.0069280683
 40
0.0086784284
 40
0.010600672
 40
0.0149599064
 40
0.020002993
 40
0.0257252231
 40
0.0321206003
 40
0.0391820721
 40
0.046901586
 40
0.0552702589
 40
0.0642784215
 40
0.0841705755
 40
0.106485981
 40
0.1311217536
 40
0.1579650582
 40
0.1868938184
 40
0.2177774182
 40
0.2504773588
 40
0.284848021
 40
0.3579876896
 40
0.4359163739
 40
0.5172870683
 40
0.6007100994
 40
0.6847774196
 40
0.7680864837
 40
0.8492634327
 40
0.9269851852
 40
1.0
 40
1.0
 40
1.0
 40
1.0
 10
10.5783453969
 20
16.9372677173
 30
0.0
 10
10.5784691143
 20
16.9373394114
 30
0.0
 10
10.578755118
 20
16.9374787507
 30
0.0
 10
10.5792440412
 20
16.9376682245
 30
0.0
 10
10.579835083
 20
16.9378581705
 30
0.0
 10
10.580528236
 20
16.9380484421
 30
0.0
 10
10.5813235383
 20
16.9382389389
 30
0.0
 10
10.5822208025
 20
16.9384295805
 30
0.0
 10
10.5832197935
 20
16.9386203235
 30
0.0
 10
10.5847525059
 20
16.9388859702
 30
0.0
 10
10.5869213944
 20
16.9392132492
 30
0.0
 10
10.5898260508
 20
16.939592071
 30
0.0
 10
10.5931279265
 20
16.9399711908
 30
0.0
 10
10.5968229362
 20
16.9403504849
 30
0.0
 10
10.6009065781
 20
16.9407297738
 30
0.0
 10
10.6053738803
 20
16.9411089678
 30
0.0
 10
10.6102194457
 20
16.9414880153
 30
0.0
 10
10.6174183145
 20
16.9420105664
 30
0.0
 10
10.6273162172
 20
16.9426561321
 30
0.0
 10
10.6402398295
 20
16.9434074095
 30
0.0
 10
10.654511725
 20
16.944158128
 30
0.0
 10
10.6700660495
 20
16.9449081103
 30
0.0
 10
10.6868317098
 20
16.945657136
 30
0.0
 10
10.7047327046
 20
16.9464050802
 30
0.0
 10
10.7236885256
 20
16.9471518747
 30
0.0
 10
10.7508236789
 20
16.9481670686
 30
0.0
 10
10.7867153055
 20
16.9494202322
 30
0.0
 10
10.8317071009
 20
16.9508909688
 30
0.0
 10
10.8786915955
 20
16.952357212
 30
0.0
 10
10.9268656463
 20
16.953818565
 30
0.0
 10
10.9754154242
 20
16.9552746086
 30
0.0
 10
11.0235301835
 20
16.9567250118
 30
0.0
 10
11.0704156341
 20
16.9581694119
 30
0.0
 10
11.1153066501
 20
16.9596074277
 30
0.0
 10
11.1444826136
 20
16.9605973942
 30
0.0
 10
11.1586143449
 20
16.9610973079
 30
0.0
  0
SPLINE
  5
4C8
100
AcDbEntity
  8
0
100
AcDbSpline
 62
7
  6
CONTINUOUS
 70
0
 71
3
 72
48
 73
44
 74
0
 42
0.0000001
 43
0.0000001
 44
0.0000000001
 40
0.0
 40
0.0
 40
0.0
 40
0.0
 40
0.0001712653
 40
0.0003548155
 40
0.0005607798
 40
0.000796397
 40
0.0010665159
 40
0.0013743457
 40
0.0021107689
 40
0.0030165924
 40
0.0040970236
 40
0.005354912
 40
0.0067918599
 40
0.0084086815
 40
0.0102057589
 40
0.0121831725
 40
0.0143407258
 40
0.0191947199
 40
0.0247635548
 40
0.0310413569
 40
0.0380209326
 40
0.0456939998
 40
0.0540513321
 40
0.0630827623
 40
0.072777273
 40
0.0941075144
 40
0.1179384261
 40
0.144154898
 40
0.1726311547
 40
0.2032315514
 40
0.2358114217
 40
0.2702178056
 40
0.3062902901
 40
0.3438618381
 40
0.3827596059
 40
0.4228058114
 40
0.5056127345
 40
0.5907939042
 40
0.6768363249
 40
0.7622298074
 40
0.8454932569
 40
0.9251997755
 40
1.0
 40
1.0
 40
1.0
 40
1.0
 10
10.5778130111
 20
16.9393504939
 30
0.0
 10
10.5778130102
 20
16.9393837108
 30
0.0
 10
10.5778228977
 20
16.9394528398
 30
0.0
 10
10.5778660751
 20
16.9395537211
 30
0.0
 10
10.5779365104
 20
16.9396532657
 30
0.0
 10
10.5780336618
 20
16.9397519419
 30
0.0
 10
10.5781574671
 20
16.9398502473
 30
0.0
 10
10.5783713215
 20
16.9399895123
 30
0.0
 10
10.5787103152
 20
16.9401594892
 30
0.0
 10
10.5792017802
 20
16.9403535806
 30
0.0
 10
10.5798004903
 20
16.9405481298
 30
0.0
 10
10.5805064464
 20
16.9407430765
 30
0.0
 10
10.5813197243
 20
16.9409382702
 30
0.0
 10
10.5822401256
 20
16.9411336363
 30
0.0
 10
10.583267405
 20
16.9413290991
 30
0.0
 10
10.5844012387
 20
16.9415246232
 30
0.0
 10
10.5861234279
 20
16.9417961302
 30
0.0
 10
10.5885404979
 20
16.9421311068
 30
0.0
 10
10.5917563288
 20
16.9425195096
 30
0.0
 10
10.595387032
 20
16.9429081173
 30
0.0
 10
10.5994279054
 20
16.9432968238
 30
0.0
 10
10.6038737873
 20
16.9436854759
 30
0.0
 10
10.6087190189
 20
16.9440739881
 30
0.0
 10
10.6139574803
 20
16.9444623178
 30
0.0
 10
10.6217079973
 20
16.9449969511
 30
0.0
 10
10.632326846
 20
16.9456577476
 30
0.0
 10
10.6461492116
 20
16.9464274009
 30
0.0
 10
10.6613595209
 20
16.9471963831
 30
0.0
 10
10.6778843373
 20
16.9479645255
 30
0.0
 10
10.6956446124
 20
16.9487316201
 30
0.0
 10
10.7145560839
 20
16.9494975527
 30
0.0
 10
10.7345297349
 20
16.9502622341
 30
0.0
 10
10.7554722436
 20
16.9510256047
 30
0.0
 10
10.7772864577
 20
16.9517876161
 30
0.0
 10
10.7998718745
 20
16.952548246
 30
0.0
 10
10.8312268021
 20
16.9535719347
 30
0.0
 10
10.8715552504
 20
16.9548381549
 30
0.0
 10
10.9208017595
 20
16.956336202
 30
0.0
 10
10.9705503262
 20
16.9578287173
 30
0.0
 10
11.0199269595
 20
16.9593153514
 30
0.0
 10
11.068074373
 20
16.9607956861
 30
0.0
 10
11.1141664293
 20
16.9622692954
 30
0.0
 10
11.1441158902
 20
16.9632844213
 30
0.0
 10
11.1586143449
 20
16.9637973079
 30
0.0
  0
LINE
  5
4C9
100
AcDbEntity
  8
0
100
AcDbLine
 62
7
  6
CONTINUOUS
 10
12.8359892064
 20
13.9631463701
 11
12.7776923427
 21
13.9587362627
  0
SPLINE
  5
4CA
100
AcDbEntity
  8
0
100
AcDbSpline
 62
7
  6
CONTINUOUS
 70
0
 71
3
 72
28
 73
24
 74
0
 42
0.0000001
 43
0.0000001
 44
0.0000000001
 40
0.0
 40
0.0
 40
0.0
 40
0.0
 40
0.0014950818
 40
0.0028544653
 40
0.004683224
 40
0.0069961281
 40
0.0098000625
 40
0.0168935881
 40
0.0259789272
 40
0.0370608373
 40
0.0501389767
 40
0.0652102603
 40
0.1013151574
 40
0.145327956
 40
0.197184987
 40
0.2568079619
 40
0.3241072385
 40
0.398978749
 40
0.4813088933
 40
0.570969637
 40
0.6678244741
 40
0.7717225478
 40
1.0
 40
1.0
 40
1.0
 40
1.0
 10
10.5193885722
 20
13.8943242626
 30
0.0
 10
10.5193889867
 20
13.8943297846
 30
0.0
 10
10.519378416
 20
13.8943380962
 30
0.0
 10
10.5193635095
 20
13.8943448175
 30
0.0
 10
10.5193439061
 20
13.8943516704
 30
0.0
 10
10.5193192
 20
13.8943583743
 30
0.0
 10
10.5192750385
 20
13.8943684562
 30
0.0
 10
10.5192058302
 20
13.8943807903
 30
0.0
 10
10.5191058856
 20
13.894395303
 30
0.0
 10
10.5189836618
 20
13.8944102764
 30
0.0
 10
10.5188391737
 20
13.8944257249
 30
0.0
 10
10.5186022546
 20
13.8944482781
 30
0.0
 10
10.5182508371
 20
13.8944768585
 30
0.0
 10
10.5177632235
 20
13.894511127
 30
0.0
 10
10.5171884159
 20
13.8945469557
 30
0.0
 10
10.5165272985
 20
13.8945842748
 30
0.0
 10
10.5157808911
 20
13.8946229934
 30
0.0
 10
10.5149503424
 20
13.8946630416
 30
0.0
 10
10.5140369394
 20
13.8947043457
 30
0.0
 10
10.513042088
 20
13.8947468373
 30
0.0
 10
10.5119673301
 20
13.8947904457
 30
0.0
 10
10.5103794662
 20
13.8948519373
 30
0.0
 10
10.5091499511
 20
13.8948965015
 30
0.0
 10
10.5083049704
 20
13.8949261271
 30
0.0
  0
SPLINE
  5
4CB
100
AcDbEntity
  8
0
100
AcDbSpline
 62
7
  6
CONTINUOUS
 70
0
 71
3
 72
38
 73
34
 74
0
 42
0.0000001
 43
0.0000001
 44
0.0000000001
 40
0.0
 40
0.0
 40
0.0
 40
0.0
 40
0.0002424107
 40
0.0005487395
 40
0.0009667255
 40
0.0015156674
 40
0.0022038978
 40
0.0030355429
 40
0.0040128735
 40
0.0051371549
 40
0.0078290591
 40
0.0111143799
 40
0.0149938135
 40
0.0194663748
 40
0.0245301646
 40
0.0301829519
 40
0.0432427965
 40
0.0586164655
 40
0.076267552
 40
0.0961539284
 40
0.1182270439
 40
0.1424330671
 40
0.1687128962
 40
0.2272304708
 40
0.2932056161
 40
0.3659911031
 40
0.4448737684
 40
0.5290824223
 40
0.6177959987
 40
0.7101516506
 40
0.8052539026
 40
0.9021808779
 40
1.0
 40
1.0
 40
1.0
 40
1.0
 10
12.7732813932
 20
13.9629952579
 30
0.0
 10
12.7732817459
 20
13.9629999648
 30
0.0
 10
12.7732786195
 20
13.9630109877
 30
0.0
 10
12.7732645588
 20
13.9630241849
 30
0.0
 10
12.7732428452
 20
13.9630363005
 30
0.0
 10
12.7732126293
 20
13.9630477679
 30
0.0
 10
12.7731738255
 20
13.9630586706
 30
0.0
 10
12.7731262825
 20
13.9630689805
 30
0.0
 10
12.7730699864
 20
13.9630786839
 30
0.0
 10
12.7729775308
 20
13.9630915684
 30
0.0
 10
12.7728399044
 20
13.9631053953
 30
0.0
 10
12.7726484296
 20
13.963118734
 30
0.0
 10
12.7724220763
 20
13.9631295189
 30
0.0
 10
12.7721609728
 20
13.9631377293
 30
0.0
 10
12.7718652652
 20
13.9631433307
 30
0.0
 10
12.7714023167
 20
13.9631474793
 30
0.0
 10
12.7707385879
 20
13.9631451336
 30
0.0
 10
12.7698413383
 20
13.9631320802
 30
0.0
 10
12.7688113417
 20
13.9631085326
 30
0.0
 10
12.7676511302
 20
13.963074521
 30
0.0
 10
12.766363554
 20
13.9630300903
 30
0.0
 10
12.7649517842
 20
13.962975336
 30
0.0
 10
12.7628312319
 20
13.9628854277
 30
0.0
 10
12.7598987139
 20
13.9627471793
 30
0.0
 10
12.7560625563
 20
13.9625484686
 30
0.0
 10
12.7518312509
 20
13.9623132696
 30
0.0
 10
12.7472462919
 20
13.9620438574
 30
0.0
 10
12.7423525323
 20
13.9617428283
 30
0.0
 10
12.7371977197
 20
13.9614131037
 30
0.0
 10
12.7318320045
 20
13.961057882
 30
0.0
 10
12.7263074846
 20
13.9606806089
 30
0.0
 10
12.7206776035
 20
13.9602849353
 30
0.0
 10
12.7168954632
 20
13.960011803
 30
0.0
 10
12.7149958631
 20
13.9598727985
 30
0.0
  0
SPLINE
  5
4CC
100
AcDbEntity
  8
0
100
AcDbSpline
 62
7
  6
CONTINUOUS
 70
0
 71
3
 72
32
 73
28
 74
0
 42
0.0000001
 43
0.0000001
 44
0.0000000001
 40
0.0
 40
0.0
 40
0.0
 40
0.0
 40
0.1934947214
 40
0.2878826197
 40
0.379466429
 40
0.4673602814
 40
0.5507184548
 40
0.6287449876
 40
0.7007019676
 40
0.7659180424
 40
0.8237970273
 40
0.8498225918
 40
0.8738295282
 40
0.8957696987
 40
0.9156025634
 40
0.9332962739
 40
0.9488309066
 40
0.9622016056
 40
0.9734270678
 40
0.9782535331
 40
0.9825714473
 40
0.9864011333
 40
0.9897734392
 40
0.9927345429
 40
0.9953536009
 40
0.9977310269
 40
1.0
 40
1.0
 40
1.0
 40
1.0
 10
10.9376923427
 20
14.0005497811
 30
0.0
 10
10.9338913074
 20
14.0005497811
 30
0.0
 10
10.9282358984
 20
14.0004984634
 30
0.0
 10
10.9207835753
 20
14.0003237317
 30
0.0
 10
10.9154066387
 20
14.0001435845
 30
0.0
 10
10.9102484045
 20
13.9999152056
 30
0.0
 10
10.9053591026
 20
13.9996409517
 30
0.0
 10
10.9007861514
 20
13.9993236828
 30
0.0
 10
10.8965736352
 20
13.9989667684
 30
0.0
 10
10.8927619705
 20
13.9985739204
 30
0.0
 10
10.8898551201
 20
13.9982085873
 30
0.0
 10
10.8877582828
 20
13.9978966624
 30
0.0
 10
10.8863635362
 20
13.9976645851
 30
0.0
 10
10.885093334
 20
13.9974266532
 30
0.0
 10
10.8839505999
 20
13.9971834991
 30
0.0
 10
10.8829379271
 20
13.9969357899
 30
0.0
 10
10.8820574308
 20
13.9966842827
 30
0.0
 10
10.881310972
 20
13.996429655
 30
0.0
 10
10.8807772538
 20
13.9962056965
 30
0.0
 10
10.8804215935
 20
13.9960218655
 30
0.0
 10
10.8802029548
 20
13.9958904778
 30
0.0
 10
10.8800187061
 20
13.995758564
 30
0.0
 10
10.8798688218
 20
13.9956260039
 30
0.0
 10
10.879753308
 20
13.995492519
 30
0.0
 10
10.8796724645
 20
13.9953575431
 30
0.0
 10
10.8796272452
 20
13.9952207687
 30
0.0
 10
10.8796218291
 20
13.995128386
 30
0.0
 10
10.8796251617
 20
13.9950839388
 30
0.0
  0
SPLINE
  5
4CD
100
AcDbEntity
  8
0
100
AcDbSpline
 62
7
  6
CONTINUOUS
 70
0
 71
3
 72
11
 73
7
 74
0
 42
0.0000001
 43
0.0000001
 44
0.0000000001
 40
0.0
 40
0.0
 40
0.0
 40
0.0
 40
0.2197090038
 40
0.4651807835
 40
0.7282007593
 40
1.0
 40
1.0
 40
1.0
 40
1.0
 10
12.5699628083
 20
13.9629225526
 30
0.0
 10
12.5671200353
 20
13.9628318246
 30
0.0
 10
12.5611023745
 20
13.9626009486
 30
0.0
 10
12.5516860568
 20
13.9621535059
 30
0.0
 10
12.5416001821
 20
13.9615960679
 30
0.0
 10
12.5346900655
 20
13.9611656154
 30
0.0
 10
12.5311790857
 20
13.9609349425
 30
0.0
  0
SPLINE
  5
4CE
100
AcDbEntity
  8
0
100
AcDbSpline
 62
7
  6
CONTINUOUS
 70
0
 71
3
 72
34
 73
30
 74
0
 42
0.0000001
 43
0.0000001
 44
0.0000000001
 40
0.0
 40
0.0
 40
0.0
 40
0.0
 40
0.1946004272
 40
0.2896341869
 40
0.3819189769
 40
0.4705543018
 40
0.5546721124
 40
0.6334467534
 40
0.7061038966
 40
0.7719296098
 40
0.8302792906
 40
0.8564704929
 40
0.8805865636
 40
0.9025704465
 40
0.9223711042
 40
0.9399437596
 40
0.9552516165
 40
0.9682661567
 40
0.97390787
 40
0.9789710879
 40
0.9834567249
 40
0.9873673704
 40
0.990708803
 40
0.9934924522
 40
0.9957395879
 40
0.9974928897
 40
0.9988447854
 40
0.9994305116
 40
1.0
 40
1.0
 40
1.0
 40
1.0
 10
8.9718146761
 20
13.9978070919
 30
0.0
 10
8.9680219919
 20
13.9981151788
 30
0.0
 10
8.9623750263
 20
13.9985483501
 30
0.0
 10
8.9549250411
 20
13.9990665555
 30
0.0
 10
8.9495402793
 20
13.9994141816
 30
0.0
 10
8.9443668153
 20
13.9997204833
 30
0.0
 10
8.939455443
 20
13.9999824564
 30
0.0
 10
8.9348545426
 20
14.0001975542
 30
0.0
 10
8.9306095357
 20
14.0003637441
 30
0.0
 10
8.9267623956
 20
14.0004794602
 30
0.0
 10
8.9238225896
 20
14.0005350659
 30
0.0
 10
8.9216979724
 20
14.000551053
 30
0.0
 10
8.920284386
 20
14.0005494179
 30
0.0
 10
8.9189958357
 20
14.0005346797
 30
0.0
 10
8.9178354741
 20
14.000506911
 30
0.0
 10
8.9168061028
 20
14.0004662723
 30
0.0
 10
8.9159102025
 20
14.0004129318
 30
0.0
 10
8.9152483928
 20
14.0003558918
 30
0.0
 10
8.9147876668
 20
14.0003022347
 30
0.0
 10
8.9144934975
 20
14.0002608381
 30
0.0
 10
8.9142340384
 20
14.0002164219
 30
0.0
 10
8.9140093911
 20
14.0001690483
 30
0.0
 10
8.9138195831
 20
14.0001187666
 30
0.0
 10
8.9136645197
 20
14.0000657322
 30
0.0
 10
8.9135438164
 20
14.0000097415
 30
0.0
 10
8.9134566701
 20
13.9999508352
 30
0.0
 10
8.9134091767
 20
13.9998938638
 30
0.0
 10
8.913393265
 20
13.999846929
 30
0.0
 10
8.9133919864
 20
13.9998240561
 30
0.0
 10
8.913392819
 20
13.9998129516
 30
0.0
  0
SPLINE
  5
4CF
100
AcDbEntity
  8
0
100
AcDbSpline
 62
7
  6
CONTINUOUS
 70
0
 71
3
 72
31
 73
27
 74
0
 42
0.0000001
 43
0.0000001
 44
0.0000000001
 40
0.0
 40
0.0
 40
0.0
 40
0.0
 40
0.1944417328
 40
0.3815471731
 40
0.4700520217
 40
0.5540233675
 40
0.6326381443
 40
0.705126831
 40
0.7707828972
 40
0.8289719305
 40
0.8550904799
 40
0.8791416787
 40
0.9010710091
 40
0.9208305361
 40
0.9383793939
 40
0.9536859931
 40
0.9667292215
 40
0.977503458
 40
0.9820457232
 40
0.9860319562
 40
0.9894734266
 40
0.9923896655
 40
0.9948140825
 40
0.9968064429
 40
0.9984752096
 40
1.0
 40
1.0
 40
1.0
 40
1.0
 10
9.2507535889
 20
13.9987326401
 30
0.0
 10
9.246957937
 20
13.9989975447
 30
0.0
 10
9.239506625
 20
13.9994723007
 30
0.0
 10
9.2303202447
 20
13.999942197
 30
0.0
 10
9.2232895021
 20
14.0002253914
 30
0.0
 10
9.2183786098
 20
14.0003844969
 30
0.0
 10
9.2137798165
 20
14.0004928538
 30
0.0
 10
9.2095384996
 20
14.0005495128
 30
0.0
 10
9.2056964907
 20
14.000554046
 30
0.0
 10
9.2027620746
 20
14.0005134997
 30
0.0
 10
9.2006425431
 20
14.0004517645
 30
0.0
 10
9.1992328252
 20
14.0003942467
 30
0.0
 10
9.197948275
 20
14.0003240632
 30
0.0
 10
9.196791976
 20
14.0002414468
 30
0.0
 10
9.1957666762
 20
14.0001466794
 30
0.0
 10
9.1948746978
 20
14.0000401897
 30
0.0
 10
9.1941180657
 20
13.9999223367
 30
0.0
 10
9.1935741761
 20
13.9998099263
 30
0.0
 10
9.1932094367
 20
13.999711301
 30
0.0
 10
9.1929865384
 20
13.9996389217
 30
0.0
 10
9.1927983235
 20
13.9995639418
 30
0.0
 10
9.1926446467
 20
13.9994863473
 30
0.0
 10
9.1925251806
 20
13.9994059231
 30
0.0
 10
9.1924395014
 20
13.99932183
 30
0.0
 10
9.1923882979
 20
13.9992320877
 30
0.0
 10
9.1923800938
 20
13.9991681339
 30
0.0
 10
9.1923823247
 20
13.9991383799
 30
0.0
  0
SPLINE
  5
4D0
100
AcDbEntity
  8
0
100
AcDbSpline
 62
7
  6
CONTINUOUS
 70
0
 71
3
 72
32
 73
28
 74
0
 42
0.0000001
 43
0.0000001
 44
0.0000000001
 40
0.0
 40
0.0
 40
0.0
 40
0.0
 40
0.1941984074
 40
0.2889922582
 40
0.3810072515
 40
0.4693432932
 40
0.5531362121
 40
0.6315682315
 40
0.7038772778
 40
0.7693664216
 40
0.8274132351
 40
0.8534745895
 40
0.8774806597
 40
0.8993794827
 40
0.9191262053
 40
0.9366838032
 40
0.9520257612
 40
0.9651381315
 40
0.9760261881
 40
0.9806477411
 40
0.9847322431
 40
0.9882955893
 40
0.9913635796
 40
0.9939777569
 40
0.9962064434
 40
0.9981601542
 40
1.0
 40
1.0
 40
1.0
 40
1.0
 10
9.60341982
 20
13.9994998475
 30
0.0
 10
9.599621244
 20
13.9997097469
 30
0.0
 10
9.5939660555
 20
13.9999807738
 30
0.0
 10
9.5865069398
 20
14.0002516891
 30
0.0
 10
9.5811188924
 20
14.0004036437
 30
0.0
 10
9.5759451947
 20
14.0005045893
 30
0.0
 10
9.5710368348
 20
14.0005535711
 30
0.0
 10
9.5664421878
 20
14.0005502037
 30
0.0
 10
9.5622064421
 20
14.0004947155
 30
0.0
 10
9.5583711526
 20
14.0003878323
 30
0.0
 10
9.5554433786
 20
14.0002529677
 30
0.0
 10
9.5533297623
 20
14.0001163393
 30
0.0
 10
9.551924238
 20
14.00000556
 30
0.0
 10
9.550643885
 20
13.9998831269
 30
0.0
 10
9.5494917231
 20
13.9997494067
 30
0.0
 10
9.5484704337
 20
13.9996048152
 30
0.0
 10
9.5475822395
 20
13.9994499064
 30
0.0
 10
9.546829082
 20
13.9992851604
 30
0.0
 10
9.546288705
 20
13.9991332781
 30
0.0
 10
9.5459272559
 20
13.999003584
 30
0.0
 10
9.5457059267
 20
13.9989094201
 30
0.0
 10
9.5455191635
 20
13.9988130248
 30
0.0
 10
9.5453668442
 20
13.9987143097
 30
0.0
 10
9.5452487744
 20
13.9986129694
 30
0.0
 10
9.5451649468
 20
13.9985081464
 30
0.0
 10
9.5451165213
 20
13.9983987684
 30
0.0
 10
9.5451096989
 20
13.9983231492
 30
0.0
 10
9.5451123938
 20
13.9982872073
 30
0.0
  0
SPLINE
  5
4D1
100
AcDbEntity
  8
0
100
AcDbSpline
 62
9
  6
CONTINUOUS
 70
0
 71
3
 72
39
 73
35
 74
0
 42
0.0000001
 43
0.0000001
 44
0.0000000001
 40
0.0
 40
0.0
 40
0.0
 40
0.0
 40
0.0261370279
 40
0.052306077
 40
0.0785359597
 40
0.1048582495
 40
0.1313043434
 40
0.1579056151
 40
0.1846939622
 40
0.2117018946
 40
0.238961972
 40
0.2665073874
 40
0.2943720123
 40
0.3225900373
 40
0.3511962767
 40
0.3802257202
 40
0.4097132891
 40
0.4396938898
 40
0.4702018147
 40
0.5012700187
 40
0.5329296703
 40
0.5652090991
 40
0.5981323903
 40
0.6317179715
 40
0.6659767041
 40
0.7009099226
 40
0.7365069412
 40
0.7727428585
 40
0.8095762471
 40
0.8469477436
 40
0.8847792068
 40
0.9229748335
 40
0.9614225398
 40
1.0
 40
1.0
 40
1.0
 40
1.0
 10
10.5626923427
 20
7.1427752685
 30
0.0
 10
10.5626933602
 20
7.1477036172
 30
0.0
 10
10.5629231539
 20
7.1575678455
 30
0.0
 10
10.5639562121
 20
7.1723454892
 30
0.0
 10
10.5656824584
 20
7.1870937955
 30
0.0
 10
10.5681027381
 20
7.2017970655
 30
0.0
 10
10.5712203872
 20
7.2164400831
 30
0.0
 10
10.5750405575
 20
7.2310066309
 30
0.0
 10
10.5795691097
 20
7.2454798353
 30
0.0
 10
10.5848123832
 20
7.2598420954
 30
0.0
 10
10.5907783852
 20
7.2740744944
 30
0.0
 10
10.5974756846
 20
7.288156927
 30
0.0
 10
10.604913684
 20
7.3020678577
 30
0.0
 10
10.613102708
 20
7.3157839753
 30
0.0
 10
10.6220534215
 20
7.3292801271
 30
0.0
 10
10.6317770512
 20
7.3425288117
 30
0.0
 10
10.6422850328
 20
7.3554998908
 30
0.0
 10
10.6535885409
 20
7.3681603906
 30
0.0
 10
10.6656980906
 20
7.3804741466
 30
0.0
 10
10.6786230972
 20
7.392401308
 30
0.0
 10
10.6923708992
 20
7.4038982596
 30
0.0
 10
10.7069459218
 20
7.414917322
 30
0.0
 10
10.7223487977
 20
7.4254061143
 30
0.0
 10
10.7385743514
 20
7.4353083617
 30
0.0
 10
10.7556107494
 20
7.4445629495
 30
0.0
 10
10.7734368595
 20
7.4531057016
 30
0.0
 10
10.7920210941
 20
7.4608688137
 30
0.0
 10
10.8113187368
 20
7.4677835907
 30
0.0
 10
10.831270787
 20
7.4737811884
 30
0.0
 10
10.8518024511
 20
7.4787956467
 30
0.0
 10
10.8728227761
 20
7.4827670747
 30
0.0
 10
10.894225837
 20
7.4856436204
 30
0.0
 10
10.9158915187
 20
7.48738629
 30
0.0
 10
10.9304182494
 20
7.4877752429
 30
0.0
 10
10.9376923427
 20
7.4877752685
 30
0.0
  0
SPLINE
  5
4D2
100
AcDbEntity
  8
0
100
AcDbSpline
 62
7
  6
CONTINUOUS
 70
0
 71
3
 72
32
 73
28
 74
0
 42
0.0000001
 43
0.0000001
 44
0.0000000001
 40
0.0
 40
0.0
 40
0.0
 40
0.0
 40
0.1939259505
 40
0.2885637145
 40
0.380410917
 40
0.4685708938
 40
0.5521847705
 40
0.6304418376
 40
0.7025887338
 40
0.7679386794
 40
0.8258808285
 40
0.8519069961
 40
0.8758917083
 40
0.8977851208
 40
0.9175448866
 40
0.9351370563
 40
0.9505391179
 40
0.9637427142
 40
0.9747614507
 40
0.979467305
 40
0.9836516142
 40
0.9873333433
 40
0.9905420749
 40
0.993323499
 40
0.9957487308
 40
0.9979252742
 40
1.0
 40
1.0
 40
1.0
 40
1.0
 10
10.014400163
 20
14.000074139
 30
0.0
 10
10.0105993068
 20
14.0002195834
 30
0.0
 10
10.0049416332
 20
14.0003892028
 30
0.0
 10
9.9974812943
 20
14.0005149893
 30
0.0
 10
9.9920945175
 20
14.0005563722
 30
0.0
 10
9.9869238119
 20
14.0005452782
 30
0.0
 10
9.9820200413
 20
14.0004818893
 30
0.0
 10
9.9774313596
 20
14.000366967
 30
0.0
 10
9.973202643
 20
14.0002018839
 30
0.0
 10
9.9693750807
 20
13.9999884819
 30
0.0
 10
9.9664545577
 20
13.9997654766
 30
0.0
 10
9.9643470816
 20
13.9995602196
 30
0.0
 10
9.9629456807
 20
13.9994012239
 30
0.0
 10
9.9616693348
 20
13.9992321023
 30
0.0
 10
9.9605210117
 20
13.9990533343
 30
0.0
 10
9.9595033405
 20
13.9988654451
 30
0.0
 10
9.9586184727
 20
13.9986690808
 30
0.0
 10
9.9578682903
 20
13.9984648125
 30
0.0
 10
9.9573309522
 20
13.9982803092
 30
0.0
 10
9.9569722703
 20
13.9981254492
 30
0.0
 10
9.9567522339
 20
13.99801371
 30
0.0
 10
9.9565666852
 20
13.9979002167
 30
0.0
 10
9.9564155463
 20
13.9977848481
 30
0.0
 10
9.9562987374
 20
13.9976672855
 30
0.0
 10
9.9562164731
 20
13.9975468041
 30
0.0
 10
9.9561698811
 20
13.9974228328
 30
0.0
 10
9.9561639089
 20
13.9973382548
 30
0.0
 10
9.9561669516
 20
13.9972976753
 30
0.0
  0
SPLINE
  5
4D3
100
AcDbEntity
  8
0
100
AcDbSpline
 62
7
  6
CONTINUOUS
 70
0
 71
3
 72
14
 73
10
 74
0
 42
0.0000001
 43
0.0000001
 44
0.0000000001
 40
0.0
 40
0.0
 40
0.0
 40
0.0
 40
0.075495603
 40
0.1562596295
 40
0.2489595204
 40
0.3580886471
 40
0.4863986002
 40
0.6355524242
 40
1.0
 40
1.0
 40
1.0
 40
1.0
 10
11.9158233485
 20
13.9609349424
 30
0.0
 10
11.9158254058
 20
13.9609623897
 30
0.0
 10
11.9158199393
 20
13.9610203702
 30
0.0
 10
11.9157821737
 20
13.9611042846
 30
0.0
 10
11.9157170544
 20
13.9611851571
 30
0.0
 10
11.9156253908
 20
13.961263872
 30
0.0
 10
11.9155071387
 20
13.9613410994
 30
0.0
 10
11.9152995663
 20
13.961449713
 30
0.0
 10
11.9151243887
 20
13.961517522
 30
0.0
 10
11.914998833
 20
13.961561
 30
0.0
  0
SPLINE
  5
4D4
100
AcDbEntity
  8
0
100
AcDbSpline
 62
7
  6
CONTINUOUS
 70
0
 71
3
 72
32
 73
28
 74
0
 42
0.0000001
 43
0.0000001
 44
0.0000000001
 40
0.0
 40
0.0
 40
0.0
 40
0.0
 40
0.1936759832
 40
0.2881704049
 40
0.3798657997
 40
0.4678704927
 40
0.5513320955
 40
0.6294475747
 40
0.7014720677
 40
0.7667277933
 40
0.8246131217
 40
0.8506279427
 40
0.8746142868
 40
0.8965236465
 40
0.9163151848
 40
0.9339567555
 40
0.9494281361
 40
0.9627241141
 40
0.9738628849
 40
0.9786413369
 40
0.9829080662
 40
0.9866834551
 40
0.9899986168
 40
0.9929004699
 40
0.9954598875
 40
0.9977804946
 40
1.0
 40
1.0
 40
1.0
 40
1.0
 10
10.4657328046
 20
14.0004295013
 30
0.0
 10
10.4619309476
 20
14.0005039027
 30
0.0
 10
10.4562729872
 20
14.0005644082
 30
0.0
 10
10.4488147609
 20
14.0005393251
 30
0.0
 10
10.4434316658
 20
14.0004682768
 30
0.0
 10
10.4382661685
 20
14.0003456946
 30
0.0
 10
10.4333688691
 20
14.0001728865
 30
0.0
 10
10.428787587
 20
13.9999517161
 30
0.0
 10
10.4245668121
 20
13.9996846217
 30
0.0
 10
10.4207473349
 20
13.9993744568
 30
0.0
 10
10.4178339917
 20
13.999073483
 30
0.0
 10
10.4157322783
 20
13.9988089373
 30
0.0
 10
10.414334565
 20
13.998608918
 30
0.0
 10
10.4130616893
 20
13.9984007375
 30
0.0
 10
10.4119165857
 20
13.9981849644
 30
0.0
 10
10.410901853
 20
13.9979622075
 30
0.0
 10
10.410019607
 20
13.9977331786
 30
0.0
 10
10.4092717027
 20
13.9974985136
 30
0.0
 10
10.4087366482
 20
13.9972896527
 30
0.0
 10
10.4083799468
 20
13.9971165226
 30
0.0
 10
10.4081608294
 20
13.9969921986
 30
0.0
 10
10.4079761449
 20
13.9968666977
 30
0.0
 10
10.4078258504
 20
13.9967398931
 30
0.0
 10
10.4077099318
 20
13.9966114848
 30
0.0
 10
10.4076286832
 20
13.9964808579
 30
0.0
 10
10.4075831303
 20
13.9963476572
 30
0.0
 10
10.4075776158
 20
13.9962573855
 30
0.0
 10
10.4075808741
 20
13.9962139303
 30
0.0
  0
ENDSEC
  0
SECTION
  2
OBJECTS
  0
DICTIONARY
  5
C
100
AcDbDictionary
280
0
281
1
  3
ACAD_GROUP
350
D
  3
ACAD_MLINESTYLE
350
17
  3
ACAD_LAYOUT
350
1A
  3
ACAD_PLOTSETTINGS
350
19
  3
ACAD_PLOTSTYLENAME
350
E
  0
DICTIONARY
  5
D
102
{ACAD_REACTORS
330
C
102
}
100
AcDbDictionary
280
0
281
1
  0
ACDBDICTIONARYWDFLT
  5
E
102
{ACAD_REACTORS
330
C
102
}
100
AcDbDictionary
281
1
  3
Normal
350
F
100
AcDbDictionaryWithDefault
340
F
  0
DICTIONARY
  5
17
102
{ACAD_REACTORS
330
C
102
}
100
AcDbDictionary
280
0
281
1
  3
Standard
350
18
  0
DICTIONARY
  5
19
102
{ACAD_REACTORS
330
C
102
}
100
AcDbDictionary
281
1
  0
DICTIONARY
  5
1A
102
{ACAD_REACTORS
330
C
102
}
100
AcDbDictionary
281
1
  3
Model
350
4D5
  3
Layout1
350
4D6
  0
ACDBPLACEHOLDER
  5
F
102
{ACAD_REACTORS
330
E
102
}
  0
MLINESTYLE
  5
18
102
{ACAD_REACTORS
330
17
102
}
100
AcDbMlineStyle
  2
STANDARD
 70
0
  3

 62
256
 51
90.0
 52
90.0
 71
2
 49
0.5
 62
256
  6
BYLAYER
 49
-0.5
 62
256
  6
BYLAYER
  0
LAYOUT
  5
4D5
102
{ACAD_REACTORS
330
1A
102
}
100
AcDbPlotSettings
  1

  2
none_device
  4
ANSI_C_(22.00_x_17.00_Inches)
  6

 40
0.0
 41
0.0
 42
0.0
 43
0.0
 44
558.8
 45
431.8
 46
0.0
 47
0.0
 48
0.0
 49
0.0
140
0.0
141
0.0
142
1.0
143
1.0
 70
1024
 72
0
 73
0
 74
0
  7

 75
0
147
1.0
148
0.0
149
0.0
100
AcDbLayout
  1
Model
 70
0
 71
0
 10
0.0
 20
0.0
 11
22.0
 21
17.0
 12
0.0
 22
0.0
 32
0.0
 14
0.0
 24
0.0
 34
0.0
 15
0.0
 25
0.0
 35
0.0
146
0.0
 13
0.0
 23
0.0
 33
0.0
 16
1.0
 26
0.0
 36
0.0
 17
0.0
 27
1.0
 37
0.0
 76
0
330
205
345
0
346
0
  0
LAYOUT
  5
4D6
102
{ACAD_REACTORS
330
1A
102
}
100
AcDbPlotSettings
  1

  2
none_device
  4
ANSI_C_(22.00_x_17.00_Inches)
  6

 40
0.0
 41
0.0
 42
0.0
 43
0.0
 44
558.8
 45
431.8
 46
0.0
 47
0.0
 48
0.0
 49
0.0
140
0.0
141
0.0
142
1.0
143
1.0
 70
0
 72
0
 73
0
 74
0
  7

 75
0
147
1.0
148
0.0
149
0.0
100
AcDbLayout
  1
Layout1
 70
0
 71
1
 10
0.0
 20
0.0
 11
22.0
 21
17.0
 12
0.0
 22
0.0
 32
0.0
 14
0.0
 24
0.0
 34
0.0
 15
0.0
 25
0.0
 35
0.0
146
0.0
 13
0.0
 23
0.0
 33
0.0
 16
1.0
 26
0.0
 36
0.0
 17
0.0
 27
1.0
 37
0.0
 76
0
330
206
345
0
346
0
  0
ENDSEC
  0
EOF
