999
DXF file: E:\BT Custom\CADOUTPUT\_RIGHT.dxf
999
Pro/ENGINEER 2018400 by Parametric Technology Corporation
  0
SECTION
  2
HEADER
  9
$ACADVER
  1
AC1018
  9
$DWGCODEPAGE
  3
ANSI_1252
  9
$EXTMAX
 10
22.0
 20
17.0
 30
0.0
  9
$EXTMIN
 10
0.0
 20
0.0
 30
0.0
  9
$LIMMIN
 10
0.0
 20
0.0
  9
$LIMMAX
 10
22.0
 20
17.0
  9
$VIEWCTR
 10
11.0
 20
8.5
  9
$VIEWSIZE
 40
17.0
  9
$CLAYER
  8
0
  9
$LTSCALE
 40
1.21
  9
$CELTYPE
  6
BYLAYER
  9
$DIMSCALE
 40
1.0
  9
$DIMASZ
 40
0.1
  9
$DIMEXO
 40
0.0625
  9
$DIMDLI
 40
0.836
  9
$DIMEXE
 40
0.125
  9
$DIMCEN
 40
0.198
  9
$DIMLFAC
 40
1.0
  9
$DIMBLK
  1
_FILLED
  9
$DIMALT
 70
1
  9
$DIMALTD
 70
2
  9
$DIMALTTD
 70
2
  9
$DIMALTF
 40
25.4
  9
$DIMTXT
 40
0.08
  9
$DIMTOL
 70
1
  9
$DIMLIM
 70
0
  9
$DIMTFAC
 40
1.0
  9
$DIMTP
 40
0.001
  9
$DIMTM
 40
0.001
  9
$DIMGAP
 40
0.09
  9
$DIMDSEP
 70
46
  9
$AUNITS
 70
0
  9
$PDMODE
 70
3
  9
$PDSIZE
 40
0.06
  9
$HANDSEED
  5
4A9
  9
$TILEMODE
 70
1
  9
$MEASUREMENT
 70
0
  9
$INSUNITS
 70
1
  0
ENDSEC
  0
SECTION
  2
CLASSES
  0
CLASS
  1
ACDBDICTIONARYWDFLT
  2
AcDbDictionaryWithDefault
  3
AutoCAD 2000
 90
0
 91
1
280
0
281
0
  0
CLASS
  1
ACDBPLACEHOLDER
  2
AcDbPlaceHolder
  3
AutoCAD 2000
 90
0
 91
1
280
0
281
0
  0
CLASS
  1
LAYOUT
  2
AcDbLayout
  3
AutoCAD 2000
 90
0
 91
0
280
0
281
0
  0
ENDSEC
  0
SECTION
  2
TABLES
  0
TABLE
  2
VPORT
  5
8
100
AcDbSymbolTable
 70
2
  0
VPORT
  5
1F4
100
AcDbSymbolTableRecord
100
AcDbViewportTableRecord
  2
*ACTIVE
 70
0
 10
0.0
 20
0.0
 11
1.0
 21
1.0
 12
11.0
 22
8.5
 13
0.0
 23
0.0
 14
1.0
 24
1.0
 15
0.0
 25
0.0
 16
0.0
 26
0.0
 36
1.0
 17
0.0
 27
0.0
 37
0.0
 40
17.0
 41
1.2941176471
 42
50.0
 43
0.0
 44
0.0
 50
0.0
 51
0.0
 71
0
 72
100
 73
1
 74
1
 75
0
 76
0
 77
0
 78
0
  0
ENDTAB
  0
TABLE
  2
LTYPE
  5
5
100
AcDbSymbolTable
 70
6
  0
LTYPE
  5
14
100
AcDbSymbolTableRecord
100
AcDbLinetypeTableRecord
  2
BYBLOCK
 70
0
  3

 72
65
 73
0
 40
0.0
  0
LTYPE
  5
15
100
AcDbSymbolTableRecord
100
AcDbLinetypeTableRecord
  2
BYLAYER
 70
0
  3

 72
65
 73
0
 40
0.0
  0
LTYPE
  5
16
100
AcDbSymbolTableRecord
100
AcDbLinetypeTableRecord
  2
CONTINUOUS
 70
64
  3
Solid line
 72
65
 73
0
 40
0.0
  0
LTYPE
  5
1F5
100
AcDbSymbolTableRecord
100
AcDbLinetypeTableRecord
  2
CENTER
 70
64
  3
____ _ ____ _ ____ _ ____ _ ____ _ ____ _ ____
 72
65
 73
4
 40
0.6
 49
0.375
 74
0
 49
-0.075
 74
0
 49
0.075
 74
0
 49
-0.075
 74
0
  0
LTYPE
  5
1F6
100
AcDbSymbolTableRecord
100
AcDbLinetypeTableRecord
  2
HIDDEN
 70
64
  3
- - - - - - - - - - - - - - - - - - - -
 72
65
 73
2
 40
0.2
 49
0.1
 74
0
 49
-0.1
 74
0
  0
LTYPE
  5
1F7
100
AcDbSymbolTableRecord
100
AcDbLinetypeTableRecord
  2
PHANTOM
 70
64
  3
_____ _ _ _____ _ _ _____ _ _ _____
 72
65
 73
6
 40
0.8
 49
0.45
 74
0
 49
-0.05
 74
0
 49
0.1
 74
0
 49
-0.05
 74
0
 49
0.1
 74
0
 49
-0.05
 74
0
  0
LTYPE
  5
1F8
100
AcDbSymbolTableRecord
100
AcDbLinetypeTableRecord
  2
DOT
 70
64
  3
. . . . . . . . . . . . . . . . . . . .
 72
65
 73
2
 40
0.2
 49
0.1
 74
0
 49
-0.1
 74
0
  0
LTYPE
  5
1F9
100
AcDbSymbolTableRecord
100
AcDbLinetypeTableRecord
  2
DASHED
 70
64
  3
- - - - - - - - - - - - - - - - - - - -
 72
65
 73
2
 40
0.2
 49
0.1
 74
0
 49
-0.1
 74
0
  0
ENDTAB
  0
TABLE
  2
LAYER
  5
2
100
AcDbSymbolTable
 70
36
  0
LAYER
  5
10
100
AcDbSymbolTableRecord
100
AcDbLayerTableRecord
  2
0
 70
0
 62
7
  6
CONTINUOUS
370
-3
390
F
  0
LAYER
  5
1FA
100
AcDbSymbolTableRecord
100
AcDbLayerTableRecord
  2
DEFAULT_1
 70
0
 62
7
  6
CENTER
370
-3
390
F
  0
LAYER
  5
1FB
100
AcDbSymbolTableRecord
100
AcDbLayerTableRecord
  2
DEFAULT_2
 70
0
 62
8
  6
HIDDEN
370
-3
390
F
  0
LAYER
  5
1FC
100
AcDbSymbolTableRecord
100
AcDbLayerTableRecord
  2
DEFAULT_3
 70
0
 62
7
  6
PHANTOM
370
-3
390
F
  0
LAYER
  5
1FD
100
AcDbSymbolTableRecord
100
AcDbLayerTableRecord
  2
ALL_FEATURES
 70
0
 62
7
  6
CONTINUOUS
370
-3
390
F
  0
LAYER
  5
1FE
100
AcDbSymbolTableRecord
100
AcDbLayerTableRecord
  2
AXES_FEATURES
 70
0
 62
7
  6
CONTINUOUS
370
-3
390
F
  0
LAYER
  5
1FF
100
AcDbSymbolTableRecord
100
AcDbLayerTableRecord
  2
DEFAULT_COORDINATE_SYSTEM
 70
0
 62
7
  6
CONTINUOUS
370
-3
390
F
  0
LAYER
  5
200
100
AcDbSymbolTableRecord
100
AcDbLayerTableRecord
  2
DEFAULT_DATUM_AXES
 70
0
 62
7
  6
CONTINUOUS
370
-3
390
F
  0
LAYER
  5
201
100
AcDbSymbolTableRecord
100
AcDbLayerTableRecord
  2
DEFAULT_DATUM_PLANES
 70
0
 62
7
  6
CONTINUOUS
370
-3
390
F
  0
LAYER
  5
202
100
AcDbSymbolTableRecord
100
AcDbLayerTableRecord
  2
DIMENSIONS
 70
0
 62
7
  6
CONTINUOUS
370
-3
390
F
  0
ENDTAB
  0
TABLE
  2
STYLE
  5
3
100
AcDbSymbolTable
 70
1
  0
STYLE
  5
11
100
AcDbSymbolTableRecord
100
AcDbTextStyleTableRecord
  2
STANDARD
 70
0
 40
0.0
 41
0.8
 50
0.0
 71
0
 42
0.2
  3
txt
  4

  0
STYLE
  5
203
100
AcDbSymbolTableRecord
100
AcDbTextStyleTableRecord
  2
TEXTSTYLE_1
 70
0
 40
0.0
 41
0.8
 50
0.0
 71
0
 42
0.2
  3
gdt
  4

  0
ENDTAB
  0
TABLE
  2
VIEW
  5
6
100
AcDbSymbolTable
 70
0
  0
ENDTAB
  0
TABLE
  2
UCS
  5
7
100
AcDbSymbolTable
 70
0
  0
ENDTAB
  0
TABLE
  2
APPID
  5
9
100
AcDbSymbolTable
 70
1
  0
APPID
  5
204
100
AcDbSymbolTableRecord
100
AcDbRegAppTableRecord
  2
ACAD
 70
0
  0
ENDTAB
  0
TABLE
  2
BLOCK_RECORD
  5
1
100
AcDbSymbolTable
 70
0
  0
BLOCK_RECORD
  5
205
100
AcDbSymbolTableRecord
100
AcDbBlockTableRecord
  2
*Model_Space
  0
BLOCK_RECORD
  5
206
100
AcDbSymbolTableRecord
100
AcDbBlockTableRecord
  2
*Paper_Space
  0
BLOCK_RECORD
  5
207
100
AcDbSymbolTableRecord
100
AcDbBlockTableRecord
  2
_FILLED
  0
ENDTAB
  0
TABLE
  2
DIMSTYLE
  5
A
100
AcDbSymbolTable
 70
1
100
AcDbDimStyleTable
 71
0
  0
DIMSTYLE
105
208
100
AcDbSymbolTableRecord
100
AcDbDimStyleTableRecord
  2
STANDARD
 70
0
  3

  4

 40
1.0
 41
0.1
 42
0.0625
 43
0.38
 44
0.125
 45
0.0
 46
0.0
 47
0.001
 48
0.001
140
0.08
141
0.09
142
0.0
143
25.4
144
1.0
145
0.0
146
1.0
147
0.09
 71
1.0
 72
0.0
 73
1
 74
1
 75
0
 76
0
 77
0
 78
4
 79
1
170
1
171
2
172
0
173
0
174
0
175
0
176
0
177
0
178
0
270
2
179
3
271
3
272
3
273
2
274
2
275
0
280
0
281
0
282
0
283
1
284
4
285
0
286
0
287
3
288
0
340
11
278
46
341
207
342
207
343
207
344
207
  0
ENDTAB
  0
ENDSEC
  0
SECTION
  2
BLOCKS
  0
BLOCK
  5
20
100
AcDbEntity
  8
0
100
AcDbBlockBegin
  2
*Model_Space
 70
0
 10
0.0
 20
0.0
 30
0.0
  3
*Model_Space
  1

  0
ENDBLK
  5
21
100
AcDbEntity
  8
0
100
AcDbBlockEnd
  0
BLOCK
  5
1C
100
AcDbEntity
  8
0
100
AcDbBlockBegin
  2
*Paper_Space
 70
0
 10
0.0
 20
0.0
 30
0.0
  3
*Paper_Space
  1

  0
ENDBLK
  5
1D
100
AcDbEntity
  8
0
100
AcDbBlockEnd
  0
BLOCK
  5
209
100
AcDbEntity
  8
0
100
AcDbBlockBegin
  2
_FILLED
 70
64
 10
0.0
 20
0.0
  3
_FILLED
  1

  0
SOLID
  5
20A
100
AcDbEntity
  8
0
  6
BYBLOCK
 62
0
100
AcDbTrace
 10
0.0
 20
0.0
 11
-1.0
 21
0.2
 12
-1.0
 22
-0.2
 13
-1.0
 23
-0.2
  0
ENDBLK
  5
20B
100
AcDbEntity
  8
0
  6
BYBLOCK
 62
0
100
AcDbBlockEnd
  0
ENDSEC
  0
SECTION
  2
ENTITIES
  0
LINE
  5
20C
100
AcDbEntity
  8
0
100
AcDbLine
 62
7
  6
CONTINUOUS
 10
17.7924834891
 20
-1.9900024296
 11
18.0124834891
 21
-1.9900024296
  0
LINE
  5
20D
100
AcDbEntity
  8
0
100
AcDbLine
 62
7
  6
CONTINUOUS
 10
10.2624834891
 20
-1.8664166431
 11
9.2624834891
 21
-1.8664166431
  0
LINE
  5
20E
100
AcDbEntity
  8
0
100
AcDbLine
 62
7
  6
CONTINUOUS
 10
17.7624834891
 20
-1.6150024296
 11
10.2624834891
 21
-1.6150024296
  0
LINE
  5
20F
100
AcDbEntity
  8
0
100
AcDbLine
 62
7
  6
CONTINUOUS
 10
17.7624834891
 20
-0.6150024296
 11
9.2624834891
 21
-0.6150024296
  0
LINE
  5
210
100
AcDbEntity
  8
0
100
AcDbLine
 62
7
  6
CONTINUOUS
 10
5.9852703646
 20
16.6972943285
 11
5.9574146105
 21
16.6811614718
  0
LINE
  5
211
100
AcDbEntity
  8
0
100
AcDbLine
 62
7
  6
CONTINUOUS
 10
17.7924834891
 20
-0.2400024296
 11
18.0124834891
 21
-0.2400024296
  0
LINE
  5
212
100
AcDbEntity
  8
0
100
AcDbLine
 62
7
  6
CONTINUOUS
 10
6.7687334891
 20
16.6963309712
 11
6.7682575243
 21
16.6957808397
  0
LINE
  5
213
100
AcDbEntity
  8
0
100
AcDbLine
 62
7
  6
CONTINUOUS
 10
6.759919564
 20
16.2049336453
 11
6.7080772067
 21
16.153091288
  0
LINE
  5
214
100
AcDbEntity
  8
0
100
AcDbLine
 62
7
  6
CONTINUOUS
 10
6.7110800432
 20
16.6627243558
 11
6.7682575243
 21
16.6957808397
  0
LINE
  5
215
100
AcDbEntity
  8
0
100
AcDbLine
 62
7
  6
CONTINUOUS
 10
9.2624834846
 20
-0.6164166386
 11
10.2624834891
 21
-1.6164166431
  0
LINE
  5
216
100
AcDbEntity
  8
0
100
AcDbLine
 62
7
  6
CONTINUOUS
 10
10.2624834953
 20
-1.6150024358
 11
9.262483483
 21
-0.6150024234
  0
LINE
  5
217
100
AcDbEntity
  8
0
100
AcDbLine
 62
7
  6
CONTINUOUS
 10
3.4074834891
 20
14.8274104901
 11
3.4074834891
 21
13.9487309982
  0
LINE
  5
218
100
AcDbEntity
  8
0
100
AcDbLine
 62
7
  6
CONTINUOUS
 10
4.0340063697
 20
13.742772083
 11
4.0364426278
 21
13.7102886409
  0
LINE
  5
219
100
AcDbEntity
  8
0
100
AcDbLine
 62
7
  6
CONTINUOUS
 10
4.083620337
 20
13.7426518032
 11
4.0860475742
 21
13.7102886409
  0
LINE
  5
21A
100
AcDbEntity
  8
0
100
AcDbLine
 62
7
  6
CONTINUOUS
 10
4.230293854
 20
13.7422964409
 11
4.232694439
 21
13.7102886409
  0
LINE
  5
21B
100
AcDbEntity
  8
0
100
AcDbLine
 62
7
  6
CONTINUOUS
 10
4.1997602466
 20
13.7320346392
 11
4.1981292968
 21
13.7102886409
  0
LINE
  5
21C
100
AcDbEntity
  8
0
100
AcDbLine
 62
7
  6
CONTINUOUS
 10
4.3464330551
 20
13.7323805541
 11
4.3447761616
 21
13.7102886409
  0
LINE
  5
21D
100
AcDbEntity
  8
0
100
AcDbLine
 62
7
  6
CONTINUOUS
 10
4.5837546946
 20
13.7329409263
 11
4.5820557732
 21
13.7102886409
  0
LINE
  5
21E
100
AcDbEntity
  8
0
100
AcDbLine
 62
7
  6
CONTINUOUS
 10
4.6428301868
 20
13.69674673
 11
4.6412208301
 21
13.6752886409
  0
LINE
  5
21F
100
AcDbEntity
  8
0
100
AcDbLine
 62
7
  6
CONTINUOUS
 10
4.8266217462
 20
13.6964104901
 11
4.8250376075
 21
13.6752886409
  0
LINE
  5
220
100
AcDbEntity
  8
0
100
AcDbLine
 62
7
  6
CONTINUOUS
 10
4.9013531372
 20
13.7336921495
 11
4.899597874
 21
13.7102886409
  0
LINE
  5
221
100
AcDbEntity
  8
0
100
AcDbLine
 62
7
  6
CONTINUOUS
 10
4.4641866255
 20
13.7053686721
 11
4.4664426278
 21
13.6752886409
  0
LINE
  5
222
100
AcDbEntity
  8
0
100
AcDbLine
 62
7
  6
CONTINUOUS
 10
4.4676165375
 20
13.7417221494
 11
4.4699740506
 21
13.7102886409
  0
LINE
  5
223
100
AcDbEntity
  8
0
100
AcDbLine
 62
7
  6
CONTINUOUS
 10
4.5275549688
 20
13.6964104901
 11
4.5291391075
 21
13.6752886409
  0
LINE
  5
224
100
AcDbEntity
  8
0
100
AcDbLine
 62
7
  6
CONTINUOUS
 10
4.710744418
 20
13.7047748651
 11
4.7129558849
 21
13.6752886409
  0
LINE
  5
225
100
AcDbEntity
  8
0
100
AcDbLine
 62
7
  6
CONTINUOUS
 10
4.7852161788
 20
13.740954942
 11
4.7875161514
 21
13.7102886409
  0
LINE
  5
226
100
AcDbEntity
  8
0
100
AcDbLine
 62
7
  6
CONTINUOUS
 10
4.8941668847
 20
13.6756318824
 11
4.8964426278
 21
13.6452886409
  0
LINE
  5
227
100
AcDbEntity
  8
0
100
AcDbLine
 62
7
  6
CONTINUOUS
 10
4.9792156254
 20
13.6754274023
 11
4.9814760325
 21
13.6452886409
  0
LINE
  5
228
100
AcDbEntity
  8
0
100
AcDbLine
 62
7
  6
CONTINUOUS
 10
5.0032074214
 20
13.7040716947
 11
5.0053661504
 21
13.6752886409
  0
LINE
  5
229
100
AcDbEntity
  8
0
100
AcDbLine
 62
7
  6
CONTINUOUS
 10
5.1692120714
 20
13.7400293938
 11
5.1714426278
 21
13.7102886409
  0
LINE
  5
22A
100
AcDbEntity
  8
0
100
AcDbLine
 62
7
  6
CONTINUOUS
 10
4.9024834891
 20
15.1184104901
 11
4.9024834891
 21
14.8874104901
  0
LINE
  5
22B
100
AcDbEntity
  8
0
100
AcDbLine
 62
7
  6
CONTINUOUS
 10
5.0947668938
 20
13.6614104901
 11
5.0935577551
 21
13.6452886409
  0
LINE
  5
22C
100
AcDbEntity
  8
0
100
AcDbLine
 62
7
  6
CONTINUOUS
 10
5.1191415281
 20
13.6978707075
 11
5.1174478731
 21
13.6752886409
  0
LINE
  5
22D
100
AcDbEntity
  8
0
100
AcDbLine
 62
7
  6
CONTINUOUS
 10
5.2853478833
 20
13.7346024125
 11
5.2835243504
 21
13.7102886409
  0
LINE
  5
22E
100
AcDbEntity
  8
0
100
AcDbLine
 62
7
  6
CONTINUOUS
 10
5.3402316968
 20
13.6696887895
 11
5.3384016856
 21
13.6452886409
  0
LINE
  5
22F
100
AcDbEntity
  8
0
100
AcDbLine
 62
7
  6
CONTINUOUS
 10
5.4406661036
 20
13.6488453495
 11
5.4385243504
 21
13.6202886409
  0
LINE
  5
230
100
AcDbEntity
  8
0
100
AcDbLine
 62
7
  6
CONTINUOUS
 10
5.5002856415
 20
13.6987725213
 11
5.4985243504
 21
13.6752886409
  0
LINE
  5
231
100
AcDbEntity
  8
0
100
AcDbLine
 62
7
  6
CONTINUOUS
 10
5.5719835257
 20
13.6491429211
 11
5.5698194547
 21
13.6202886409
  0
LINE
  5
232
100
AcDbEntity
  8
0
100
AcDbLine
 62
7
  6
CONTINUOUS
 10
5.7189565938
 20
13.7356329153
 11
5.7170557732
 21
13.7102886409
  0
LINE
  5
233
100
AcDbEntity
  8
0
100
AcDbLine
 62
7
  6
CONTINUOUS
 10
5.7154210652
 20
13.6705781709
 11
5.7135243504
 21
13.6452886409
  0
LINE
  5
234
100
AcDbEntity
  8
0
100
AcDbLine
 62
7
  6
CONTINUOUS
 10
5.2241036685
 20
13.6748392353
 11
5.226319963
 21
13.6452886409
  0
LINE
  5
235
100
AcDbEntity
  8
0
100
AcDbLine
 62
7
  6
CONTINUOUS
 10
5.3255953806
 20
13.6315852701
 11
5.3264426278
 21
13.6202886409
  0
LINE
  5
236
100
AcDbEntity
  8
0
100
AcDbLine
 62
7
  6
CONTINUOUS
 10
5.3843524826
 20
13.7031572444
 11
5.3864426278
 21
13.6752886409
  0
LINE
  5
237
100
AcDbEntity
  8
0
100
AcDbLine
 62
7
  6
CONTINUOUS
 10
5.4552688698
 20
13.6532068047
 11
5.4577377321
 21
13.6202886409
  0
LINE
  5
238
100
AcDbEntity
  8
0
100
AcDbLine
 62
7
  6
CONTINUOUS
 10
5.5992937862
 20
13.6739398632
 11
5.6014426278
 21
13.6452886409
  0
LINE
  5
239
100
AcDbEntity
  8
0
100
AcDbLine
 62
7
  6
CONTINUOUS
 10
5.6028216776
 20
13.7389869475
 11
5.6049740506
 21
13.7102886409
  0
LINE
  5
23A
100
AcDbEntity
  8
0
100
AcDbLine
 62
7
  6
CONTINUOUS
 10
5.7542898828
 20
13.6389919079
 11
5.7564426278
 21
13.6102886409
  0
LINE
  5
23B
100
AcDbEntity
  8
0
100
AcDbLine
 62
7
  6
CONTINUOUS
 10
5.8140384455
 20
13.6523444052
 11
5.8164426278
 21
13.6202886409
  0
LINE
  5
23C
100
AcDbEntity
  8
0
100
AcDbLine
 62
7
  6
CONTINUOUS
 10
5.8282051004
 20
13.7020951004
 11
5.8302155848
 21
13.6752886409
  0
LINE
  5
23D
100
AcDbEntity
  8
0
100
AcDbLine
 62
7
  6
CONTINUOUS
 10
6.0293391403
 20
13.6383351407
 11
6.0314426278
 21
13.6102886409
  0
LINE
  5
23E
100
AcDbEntity
  8
0
100
AcDbLine
 62
7
  6
CONTINUOUS
 10
6.0595323825
 20
13.6728395058
 11
6.0615986973
 21
13.6452886409
  0
LINE
  5
23F
100
AcDbEntity
  8
0
100
AcDbLine
 62
7
  6
CONTINUOUS
 10
5.6624834891
 20
15.3624104901
 11
5.6624834891
 21
15.1784104901
  0
LINE
  5
240
100
AcDbEntity
  8
0
100
AcDbLine
 62
7
  6
CONTINUOUS
 10
5.6624834891
 20
15.4024104901
 11
5.6624834891
 21
15.5914104901
  0
LINE
  5
241
100
AcDbEntity
  8
0
100
AcDbLine
 62
7
  6
CONTINUOUS
 10
5.7124834891
 20
15.5914104901
 11
5.7124834891
 21
15.9414104901
  0
LINE
  5
242
100
AcDbEntity
  8
0
100
AcDbLine
 62
7
  6
CONTINUOUS
 10
5.9099834891
 20
16.6599975704
 11
5.9099834891
 21
16.3378697201
  0
LINE
  5
243
100
AcDbEntity
  8
0
100
AcDbLine
 62
7
  6
CONTINUOUS
 10
5.9562334891
 20
19.2912475704
 11
5.9562334891
 21
16.7156342235
  0
LINE
  5
244
100
AcDbEntity
  8
0
100
AcDbLine
 62
7
  6
CONTINUOUS
 10
5.9562334891
 20
16.6797943181
 11
5.9562334891
 21
16.6606309712
  0
LINE
  5
245
100
AcDbEntity
  8
0
100
AcDbLine
 62
7
  6
CONTINUOUS
 10
5.9847626167
 20
16.6994058871
 11
5.9847626167
 21
16.6970002274
  0
LINE
  5
246
100
AcDbEntity
  8
0
100
AcDbLine
 62
7
  6
CONTINUOUS
 10
6.0299835686
 20
16.7185738957
 11
6.0299835686
 21
16.690765324
  0
LINE
  5
247
100
AcDbEntity
  8
0
100
AcDbLine
 62
7
  6
CONTINUOUS
 10
6.2378590533
 20
16.5349975704
 11
6.2378590533
 21
16.3378697201
  0
LINE
  5
248
100
AcDbEntity
  8
0
100
AcDbLine
 62
7
  6
CONTINUOUS
 10
5.9307525623
 20
13.649998132
 11
5.9285243504
 21
13.6202886409
  0
LINE
  5
249
100
AcDbEntity
  8
0
100
AcDbLine
 62
7
  6
CONTINUOUS
 10
5.9441375655
 20
13.6998254147
 11
5.9422973075
 21
13.6752886409
  0
LINE
  5
24A
100
AcDbEntity
  8
0
100
AcDbLine
 62
7
  6
CONTINUOUS
 10
6.1451084891
 20
13.6314104901
 11
6.1435243504
 21
13.6102886409
  0
LINE
  5
24B
100
AcDbEntity
  8
0
100
AcDbLine
 62
7
  6
CONTINUOUS
 10
6.1756591724
 20
13.6716720073
 11
6.1736804199
 21
13.6452886409
  0
LINE
  5
24C
100
AcDbEntity
  8
0
100
AcDbLine
 62
7
  6
CONTINUOUS
 10
6.1832285455
 20
13.736739396
 11
6.1812447388
 21
13.7102886409
  0
LINE
  5
24D
100
AcDbEntity
  8
0
100
AcDbLine
 62
7
  6
CONTINUOUS
 10
6.4204495947
 20
13.7009585646
 11
6.4185243504
 21
13.6752886409
  0
LINE
  5
24E
100
AcDbEntity
  8
0
100
AcDbLine
 62
7
  6
CONTINUOUS
 10
6.4208404127
 20
13.6511694715
 11
6.4185243504
 21
13.6202886409
  0
LINE
  5
24F
100
AcDbEntity
  8
0
100
AcDbLine
 62
7
  6
CONTINUOUS
 10
6.6578728587
 20
13.73787393
 11
6.6558039621
 21
13.7102886409
  0
LINE
  5
250
100
AcDbEntity
  8
0
100
AcDbLine
 62
7
  6
CONTINUOUS
 10
6.6654345958
 20
13.6728395058
 11
6.663368281
 21
13.6452886409
  0
LINE
  5
251
100
AcDbEntity
  8
0
100
AcDbLine
 62
7
  6
CONTINUOUS
 10
6.6956278379
 20
13.6383351407
 11
6.6935243504
 21
13.6102886409
  0
LINE
  5
252
100
AcDbEntity
  8
0
100
AcDbLine
 62
7
  6
CONTINUOUS
 10
9.3024834891
 20
13.9227502361
 11
9.0166142538
 21
13.7577035561
  0
LINE
  5
253
100
AcDbEntity
  8
0
100
AcDbLine
 62
7
  6
CONTINUOUS
 10
16.7504885196
 20
5.1641980737
 11
16.6144885196
 21
5.1326980737
  0
LINE
  5
254
100
AcDbEntity
  8
0
100
AcDbLine
 62
7
  6
CONTINUOUS
 10
15.9404833218
 20
3.8849975704
 11
15.2304836565
 21
3.8849975704
  0
LINE
  5
255
100
AcDbEntity
  8
0
100
AcDbLine
 62
9
  6
CONTINUOUS
 10
15.9604834891
 20
3.9049975704
 11
15.2104834891
 21
3.9049975704
  0
LINE
  5
256
100
AcDbEntity
  8
0
100
AcDbLine
 62
7
  6
CONTINUOUS
 10
16.8474834891
 20
4.2649975704
 11
16.7574834891
 21
4.2649975704
  0
LINE
  5
257
100
AcDbEntity
  8
0
100
AcDbLine
 62
7
  6
CONTINUOUS
 10
17.0834834891
 20
4.5379975704
 11
17.6624834891
 21
4.5379975704
  0
LINE
  5
258
100
AcDbEntity
  8
0
100
AcDbLine
 62
7
  6
CONTINUOUS
 10
18.0124834891
 20
3.8849975704
 11
17.6807403743
 21
3.9140213322
  0
LINE
  5
259
100
AcDbEntity
  8
0
100
AcDbLine
 62
7
  6
CONTINUOUS
 10
6.0670941195
 20
13.73787393
 11
6.0691630162
 21
13.7102886409
  0
LINE
  5
25A
100
AcDbEntity
  8
0
100
AcDbLine
 62
7
  6
CONTINUOUS
 10
6.3041265655
 20
13.6511694715
 11
6.3064426278
 21
13.6202886409
  0
LINE
  5
25B
100
AcDbEntity
  8
0
100
AcDbLine
 62
7
  6
CONTINUOUS
 10
6.3045173835
 20
13.7009585646
 11
6.3064426278
 21
13.6752886409
  0
LINE
  5
25C
100
AcDbEntity
  8
0
100
AcDbLine
 62
7
  6
CONTINUOUS
 10
6.5417384328
 20
13.736739396
 11
6.5437222394
 21
13.7102886409
  0
LINE
  5
25D
100
AcDbEntity
  8
0
100
AcDbLine
 62
7
  6
CONTINUOUS
 10
6.5493078059
 20
13.6716720073
 11
6.5512865583
 21
13.6452886409
  0
LINE
  5
25E
100
AcDbEntity
  8
0
100
AcDbLine
 62
7
  6
CONTINUOUS
 10
6.5798584891
 20
13.6314104901
 11
6.5814426278
 21
13.6102886409
  0
LINE
  5
25F
100
AcDbEntity
  8
0
100
AcDbLine
 62
7
  6
CONTINUOUS
 10
6.7808294128
 20
13.6998254147
 11
6.7826696708
 21
13.6752886409
  0
LINE
  5
260
100
AcDbEntity
  8
0
100
AcDbLine
 62
7
  6
CONTINUOUS
 10
6.794214416
 20
13.649998132
 11
6.7964426278
 21
13.6202886409
  0
LINE
  5
261
100
AcDbEntity
  8
0
100
AcDbLine
 62
7
  6
CONTINUOUS
 10
6.4871079249
 20
16.5349975704
 11
6.4871079249
 21
16.3378697201
  0
LINE
  5
262
100
AcDbEntity
  8
0
100
AcDbLine
 62
7
  6
CONTINUOUS
 10
6.7116334891
 20
16.6606642708
 11
6.7116334891
 21
16.6630443715
  0
LINE
  5
263
100
AcDbEntity
  8
0
100
AcDbLine
 62
7
  6
CONTINUOUS
 10
6.7687334891
 20
16.6963309712
 11
6.7687334891
 21
18.4787475704
  0
LINE
  5
264
100
AcDbEntity
  8
0
100
AcDbLine
 62
7
  6
CONTINUOUS
 10
6.8149834891
 20
16.6599975704
 11
6.8149834891
 21
16.3378697201
  0
LINE
  5
265
100
AcDbEntity
  8
0
100
AcDbLine
 62
7
  6
CONTINUOUS
 10
7.0124834891
 20
15.5914104901
 11
7.0124834891
 21
15.9414104901
  0
LINE
  5
266
100
AcDbEntity
  8
0
100
AcDbLine
 62
7
  6
CONTINUOUS
 10
7.0624834891
 20
15.3624104901
 11
7.0624834891
 21
15.1784104901
  0
LINE
  5
267
100
AcDbEntity
  8
0
100
AcDbLine
 62
7
  6
CONTINUOUS
 10
7.0624834891
 20
15.4024104901
 11
7.0624834891
 21
15.5914104901
  0
LINE
  5
268
100
AcDbEntity
  8
0
100
AcDbLine
 62
7
  6
CONTINUOUS
 10
6.8967618779
 20
13.7020951004
 11
6.8947513934
 21
13.6752886409
  0
LINE
  5
269
100
AcDbEntity
  8
0
100
AcDbLine
 62
7
  6
CONTINUOUS
 10
6.9109285328
 20
13.6523444052
 11
6.9085243504
 21
13.6202886409
  0
LINE
  5
26A
100
AcDbEntity
  8
0
100
AcDbLine
 62
7
  6
CONTINUOUS
 10
6.9706770955
 20
13.6389919079
 11
6.9685243504
 21
13.6102886409
  0
LINE
  5
26B
100
AcDbEntity
  8
0
100
AcDbLine
 62
7
  6
CONTINUOUS
 10
7.1221453007
 20
13.7389869475
 11
7.1199929277
 21
13.7102886409
  0
LINE
  5
26C
100
AcDbEntity
  8
0
100
AcDbLine
 62
7
  6
CONTINUOUS
 10
7.1256731921
 20
13.6739398632
 11
7.1235243504
 21
13.6452886409
  0
LINE
  5
26D
100
AcDbEntity
  8
0
100
AcDbLine
 62
7
  6
CONTINUOUS
 10
7.2696981084
 20
13.6532068047
 11
7.2672292462
 21
13.6202886409
  0
LINE
  5
26E
100
AcDbEntity
  8
0
100
AcDbLine
 62
7
  6
CONTINUOUS
 10
7.3406144957
 20
13.7031572444
 11
7.3385243504
 21
13.6752886409
  0
LINE
  5
26F
100
AcDbEntity
  8
0
100
AcDbLine
 62
7
  6
CONTINUOUS
 10
7.3993715976
 20
13.6315852701
 11
7.3985243504
 21
13.6202886409
  0
LINE
  5
270
100
AcDbEntity
  8
0
100
AcDbLine
 62
7
  6
CONTINUOUS
 10
7.5008633098
 20
13.6748392353
 11
7.4986470152
 21
13.6452886409
  0
LINE
  5
271
100
AcDbEntity
  8
0
100
AcDbLine
 62
7
  6
CONTINUOUS
 10
7.5557549069
 20
13.7400293938
 11
7.5535243504
 21
13.7102886409
  0
LINE
  5
272
100
AcDbEntity
  8
0
100
AcDbLine
 62
7
  6
CONTINUOUS
 10
17.0834834891
 20
4.8919975704
 11
17.6624834891
 21
4.8919975704
  0
LINE
  5
273
100
AcDbEntity
  8
0
100
AcDbLine
 62
7
  6
CONTINUOUS
 10
16.8474834891
 20
5.1649975704
 11
16.7574834891
 21
5.1649975704
  0
LINE
  5
274
100
AcDbEntity
  8
0
100
AcDbLine
 62
7
  6
CONTINUOUS
 10
7.0095459131
 20
13.6705781709
 11
7.0114426278
 21
13.6452886409
  0
LINE
  5
275
100
AcDbEntity
  8
0
100
AcDbLine
 62
7
  6
CONTINUOUS
 10
7.0060103845
 20
13.7356329153
 11
7.0079112051
 21
13.7102886409
  0
LINE
  5
276
100
AcDbEntity
  8
0
100
AcDbLine
 62
7
  6
CONTINUOUS
 10
7.1529834525
 20
13.6491429211
 11
7.1551475235
 21
13.6202886409
  0
LINE
  5
277
100
AcDbEntity
  8
0
100
AcDbLine
 62
7
  6
CONTINUOUS
 10
7.2246813368
 20
13.6987725213
 11
7.2264426278
 21
13.6752886409
  0
LINE
  5
278
100
AcDbEntity
  8
0
100
AcDbLine
 62
7
  6
CONTINUOUS
 10
7.2843008747
 20
13.6488453495
 11
7.2864426278
 21
13.6202886409
  0
LINE
  5
279
100
AcDbEntity
  8
0
100
AcDbLine
 62
7
  6
CONTINUOUS
 10
7.3847352815
 20
13.6696887895
 11
7.3865652926
 21
13.6452886409
  0
LINE
  5
27A
100
AcDbEntity
  8
0
100
AcDbLine
 62
7
  6
CONTINUOUS
 10
7.439619095
 20
13.7346024125
 11
7.4414426278
 21
13.7102886409
  0
LINE
  5
27B
100
AcDbEntity
  8
0
100
AcDbLine
 62
7
  6
CONTINUOUS
 10
7.6058254502
 20
13.6978707075
 11
7.6075191052
 21
13.6752886409
  0
LINE
  5
27C
100
AcDbEntity
  8
0
100
AcDbLine
 62
7
  6
CONTINUOUS
 10
7.6302000844
 20
13.6614104901
 11
7.6314092231
 21
13.6452886409
  0
LINE
  5
27D
100
AcDbEntity
  8
0
100
AcDbLine
 62
7
  6
CONTINUOUS
 10
7.8236138411
 20
13.7336921495
 11
7.8253691043
 21
13.7102886409
  0
LINE
  5
27E
100
AcDbEntity
  8
0
100
AcDbLine
 62
7
  6
CONTINUOUS
 10
7.8224834891
 20
15.1184104901
 11
7.8224834891
 21
14.8874104901
  0
LINE
  5
27F
100
AcDbEntity
  8
0
100
AcDbLine
 62
7
  6
CONTINUOUS
 10
7.7217595569
 20
13.7040716947
 11
7.7196008278
 21
13.6752886409
  0
LINE
  5
280
100
AcDbEntity
  8
0
100
AcDbLine
 62
7
  6
CONTINUOUS
 10
7.7457513529
 20
13.6754274023
 11
7.7434909457
 21
13.6452886409
  0
LINE
  5
281
100
AcDbEntity
  8
0
100
AcDbLine
 62
7
  6
CONTINUOUS
 10
7.8308000936
 20
13.6756318824
 11
7.8285243504
 21
13.6452886409
  0
LINE
  5
282
100
AcDbEntity
  8
0
100
AcDbLine
 62
7
  6
CONTINUOUS
 10
7.9397507995
 20
13.740954942
 11
7.9374508269
 21
13.7102886409
  0
LINE
  5
283
100
AcDbEntity
  8
0
100
AcDbLine
 62
7
  6
CONTINUOUS
 10
8.0142225602
 20
13.7047748651
 11
8.0120110934
 21
13.6752886409
  0
LINE
  5
284
100
AcDbEntity
  8
0
100
AcDbLine
 62
7
  6
CONTINUOUS
 10
8.1974120095
 20
13.6964104901
 11
8.1958278708
 21
13.6752886409
  0
LINE
  5
285
100
AcDbEntity
  8
0
100
AcDbLine
 62
7
  6
CONTINUOUS
 10
8.2573504408
 20
13.7417221494
 11
8.2549929277
 21
13.7102886409
  0
LINE
  5
286
100
AcDbEntity
  8
0
100
AcDbLine
 62
7
  6
CONTINUOUS
 10
8.2607803528
 20
13.7053686721
 11
8.2585243504
 21
13.6752886409
  0
LINE
  5
287
100
AcDbEntity
  8
0
100
AcDbLine
 62
7
  6
CONTINUOUS
 10
8.4946731243
 20
13.7422964409
 11
8.4922725393
 21
13.7102886409
  0
LINE
  5
288
100
AcDbEntity
  8
0
100
AcDbLine
 62
7
  6
CONTINUOUS
 10
17.5314834891
 20
6.4549975704
 11
17.6314834891
 21
6.4549975704
  0
LINE
  5
289
100
AcDbEntity
  8
0
100
AcDbLine
 62
7
  6
CONTINUOUS
 10
16.7504885196
 20
4.2657970671
 11
16.6144885196
 21
4.2972970671
  0
LINE
  5
28A
100
AcDbEntity
  8
0
100
AcDbLine
 62
7
  6
CONTINUOUS
 10
7.8983452321
 20
13.6964104901
 11
7.8999293708
 21
13.6752886409
  0
LINE
  5
28B
100
AcDbEntity
  8
0
100
AcDbLine
 62
7
  6
CONTINUOUS
 10
8.0821367915
 20
13.69674673
 11
8.0837461482
 21
13.6752886409
  0
LINE
  5
28C
100
AcDbEntity
  8
0
100
AcDbLine
 62
7
  6
CONTINUOUS
 10
8.1412122837
 20
13.7329409263
 11
8.1429112051
 21
13.7102886409
  0
LINE
  5
28D
100
AcDbEntity
  8
0
100
AcDbLine
 62
7
  6
CONTINUOUS
 10
8.3785339232
 20
13.7323805541
 11
8.3801908167
 21
13.7102886409
  0
LINE
  5
28E
100
AcDbEntity
  8
0
100
AcDbLine
 62
7
  6
CONTINUOUS
 10
8.5252067316
 20
13.7320346392
 11
8.5268376815
 21
13.7102886409
  0
LINE
  5
28F
100
AcDbEntity
  8
0
100
AcDbLine
 62
7
  6
CONTINUOUS
 10
8.6413466413
 20
13.7426518032
 11
8.6389194041
 21
13.7102886409
  0
LINE
  5
290
100
AcDbEntity
  8
0
100
AcDbLine
 62
7
  6
CONTINUOUS
 10
8.6909606086
 20
13.742772083
 11
8.6885243504
 21
13.7102886409
  0
LINE
  5
291
100
AcDbEntity
  8
0
100
AcDbLine
 62
7
  6
CONTINUOUS
 10
17.6624834891
 20
6.5099975704
 11
17.6314834891
 21
6.5099975704
  0
LINE
  5
292
100
AcDbEntity
  8
0
100
AcDbLine
 62
7
  6
CONTINUOUS
 10
17.5314834891
 20
6.5099975704
 11
16.1914834891
 21
6.5099975704
  0
LINE
  5
293
100
AcDbEntity
  8
0
100
AcDbLine
 62
7
  6
CONTINUOUS
 10
16.1604834891
 20
6.5099975704
 11
16.0504834891
 21
6.5099975704
  0
LINE
  5
294
100
AcDbEntity
  8
0
100
AcDbLine
 62
7
  6
CONTINUOUS
 10
16.1914834891
 20
6.6319975704
 11
16.1604834891
 21
6.6319975704
  0
LINE
  5
295
100
AcDbEntity
  8
0
100
AcDbLine
 62
7
  6
CONTINUOUS
 10
16.1914834891
 20
7.1379975704
 11
16.1604834891
 21
7.1379975704
  0
LINE
  5
296
100
AcDbEntity
  8
0
100
AcDbLine
 62
7
  6
CONTINUOUS
 10
17.6624834891
 20
7.2599975704
 11
17.6314834891
 21
7.2599975704
  0
LINE
  5
297
100
AcDbEntity
  8
0
100
AcDbLine
 62
7
  6
CONTINUOUS
 10
17.5314834891
 20
7.2599975704
 11
16.1914834891
 21
7.2599975704
  0
LINE
  5
298
100
AcDbEntity
  8
0
100
AcDbLine
 62
7
  6
CONTINUOUS
 10
16.1604834891
 20
7.2599975704
 11
15.2404834891
 21
7.2599975704
  0
LINE
  5
299
100
AcDbEntity
  8
0
100
AcDbLine
 62
7
  6
CONTINUOUS
 10
17.5314834891
 20
7.3149975704
 11
17.6314834891
 21
7.3149975704
  0
LINE
  5
29A
100
AcDbEntity
  8
0
100
AcDbLine
 62
7
  6
CONTINUOUS
 10
9.2624834891
 20
-0.6164166386
 11
9.2624834891
 21
-1.8664166431
  0
LINE
  5
29B
100
AcDbEntity
  8
0
100
AcDbLine
 62
7
  6
CONTINUOUS
 10
9.3174834891
 20
14.8274104901
 11
9.3174834891
 21
13.9487309982
  0
LINE
  5
29C
100
AcDbEntity
  8
0
100
AcDbLine
 62
7
  6
CONTINUOUS
 10
10.2624834891
 20
-1.6164166431
 11
10.2624834891
 21
-1.8664166431
  0
LINE
  5
29D
100
AcDbEntity
  8
0
100
AcDbLine
 62
7
  6
CONTINUOUS
 10
18.0124834891
 20
9.8849975704
 11
17.6807403743
 21
9.8559738087
  0
LINE
  5
29E
100
AcDbEntity
  8
0
100
AcDbLine
 62
7
  6
CONTINUOUS
 10
3.4224834891
 20
13.9227502361
 11
3.7083527245
 21
13.7577035561
  0
LINE
  5
29F
100
AcDbEntity
  8
0
100
AcDbLine
 62
7
  6
CONTINUOUS
 10
5.9650474143
 20
16.2049336453
 11
6.0168897716
 21
16.153091288
  0
LINE
  5
2A0
100
AcDbEntity
  8
0
100
AcDbLine
 62
7
  6
CONTINUOUS
 10
17.0834834891
 20
4.9399975704
 11
16.8694974482
 21
5.1558238299
  0
LINE
  5
2A1
100
AcDbEntity
  8
0
100
AcDbLine
 62
7
  6
CONTINUOUS
 10
5.9563186342
 20
16.7155358893
 11
5.9562334891
 21
16.7156342235
  0
LINE
  5
2A2
100
AcDbEntity
  8
0
100
AcDbLine
 62
7
  6
CONTINUOUS
 10
15.2104834891
 20
3.9049975704
 11
15.2104834891
 21
7.2299975704
  0
LINE
  5
2A3
100
AcDbEntity
  8
0
100
AcDbLine
 62
7
  6
CONTINUOUS
 10
4.8909301878
 20
13.6758272349
 11
4.8941668847
 21
13.6756318824
  0
LINE
  5
2A4
100
AcDbEntity
  8
0
100
AcDbLine
 62
7
  6
CONTINUOUS
 10
4.4627403911
 20
13.705481578
 11
4.4641866255
 21
13.7053686721
  0
LINE
  5
2A5
100
AcDbEntity
  8
0
100
AcDbLine
 62
7
  6
CONTINUOUS
 10
6.1774834891
 20
13.632111863
 11
6.1655479812
 21
13.6330769398
  0
LINE
  5
2A6
100
AcDbEntity
  8
0
100
AcDbLine
 62
7
  6
CONTINUOUS
 10
5.9563186342
 20
16.7155358893
 11
5.9847626167
 21
16.6991100436
  0
LINE
  5
2A7
100
AcDbEntity
  8
0
100
AcDbLine
 62
7
  6
CONTINUOUS
 10
15.9604834891
 20
3.9049975704
 11
15.9604834891
 21
6.41999805
  0
LINE
  5
2A8
100
AcDbEntity
  8
0
100
AcDbLine
 62
7
  6
CONTINUOUS
 10
6.5474834891
 20
13.632111863
 11
6.5594189971
 21
13.6330769398
  0
LINE
  5
2A9
100
AcDbEntity
  8
0
100
AcDbLine
 62
7
  6
CONTINUOUS
 10
8.2622265872
 20
13.705481578
 11
8.2607803528
 21
13.7053686721
  0
LINE
  5
2AA
100
AcDbEntity
  8
0
100
AcDbLine
 62
7
  6
CONTINUOUS
 10
7.8340367904
 20
13.6758272349
 11
7.8308000936
 21
13.6756318824
  0
LINE
  5
2AB
100
AcDbEntity
  8
0
100
AcDbLine
 62
7
  6
CONTINUOUS
 10
6.9535663608
 20
13.5964104901
 11
6.8714006175
 21
13.5964104901
  0
LINE
  5
2AC
100
AcDbEntity
  8
0
100
AcDbLine
 62
7
  6
CONTINUOUS
 10
6.6785663608
 20
13.5964104901
 11
6.5964006175
 21
13.5964104901
  0
LINE
  5
2AD
100
AcDbEntity
  8
0
100
AcDbLine
 62
7
  6
CONTINUOUS
 10
6.1285663608
 20
13.5964104901
 11
6.0464006175
 21
13.5964104901
  0
LINE
  5
2AE
100
AcDbEntity
  8
0
100
AcDbLine
 62
7
  6
CONTINUOUS
 10
5.8535663608
 20
13.5964104901
 11
5.7714006175
 21
13.5964104901
  0
LINE
  5
2AF
100
AcDbEntity
  8
0
100
AcDbLine
 62
7
  6
CONTINUOUS
 10
7.3835663608
 20
13.6064104901
 11
7.3014006175
 21
13.6064104901
  0
LINE
  5
2B0
100
AcDbEntity
  8
0
100
AcDbLine
 62
7
  6
CONTINUOUS
 10
7.2522712565
 20
13.6064104901
 11
7.1701055132
 21
13.6064104901
  0
LINE
  5
2B1
100
AcDbEntity
  8
0
100
AcDbLine
 62
7
  6
CONTINUOUS
 10
6.8935663608
 20
13.6064104901
 11
6.8114006175
 21
13.6064104901
  0
LINE
  5
2B2
100
AcDbEntity
  8
0
100
AcDbLine
 62
7
  6
CONTINUOUS
 10
6.4035663608
 20
13.6064104901
 11
6.3214006175
 21
13.6064104901
  0
LINE
  5
2B3
100
AcDbEntity
  8
0
100
AcDbLine
 62
7
  6
CONTINUOUS
 10
5.9135663608
 20
13.6064104901
 11
5.8314006175
 21
13.6064104901
  0
LINE
  5
2B4
100
AcDbEntity
  8
0
100
AcDbLine
 62
7
  6
CONTINUOUS
 10
5.5548614651
 20
13.6064104901
 11
5.4726957218
 21
13.6064104901
  0
LINE
  5
2B5
100
AcDbEntity
  8
0
100
AcDbLine
 62
7
  6
CONTINUOUS
 10
5.4235663608
 20
13.6064104901
 11
5.3414006175
 21
13.6064104901
  0
LINE
  5
2B6
100
AcDbEntity
  8
0
100
AcDbLine
 62
9
  6
CONTINUOUS
 10
6.9685243504
 20
13.6102886409
 11
6.9036176436
 21
13.6102886409
  0
LINE
  5
2B7
100
AcDbEntity
  8
0
100
AcDbLine
 62
9
  6
CONTINUOUS
 10
6.6935243504
 20
13.6102886409
 11
6.5814426278
 21
13.6102886409
  0
LINE
  5
2B8
100
AcDbEntity
  8
0
100
AcDbLine
 62
9
  6
CONTINUOUS
 10
6.1435243504
 20
13.6102886409
 11
6.0314426278
 21
13.6102886409
  0
LINE
  5
2B9
100
AcDbEntity
  8
0
100
AcDbLine
 62
9
  6
CONTINUOUS
 10
5.8213493346
 20
13.6102886409
 11
5.7564426278
 21
13.6102886409
  0
LINE
  5
2BA
100
AcDbEntity
  8
0
100
AcDbLine
 62
9
  6
CONTINUOUS
 10
7.3985243504
 20
13.6202886409
 11
7.2864426278
 21
13.6202886409
  0
LINE
  5
2BB
100
AcDbEntity
  8
0
100
AcDbLine
 62
9
  6
CONTINUOUS
 10
7.2672292462
 20
13.6202886409
 11
7.1551475235
 21
13.6202886409
  0
LINE
  5
2BC
100
AcDbEntity
  8
0
100
AcDbLine
 62
9
  6
CONTINUOUS
 10
6.9085243504
 20
13.6202886409
 11
6.7964426278
 21
13.6202886409
  0
LINE
  5
2BD
100
AcDbEntity
  8
0
100
AcDbLine
 62
9
  6
CONTINUOUS
 10
6.4185243504
 20
13.6202886409
 11
6.3064426278
 21
13.6202886409
  0
LINE
  5
2BE
100
AcDbEntity
  8
0
100
AcDbLine
 62
9
  6
CONTINUOUS
 10
5.9285243504
 20
13.6202886409
 11
5.8164426278
 21
13.6202886409
  0
LINE
  5
2BF
100
AcDbEntity
  8
0
100
AcDbLine
 62
9
  6
CONTINUOUS
 10
5.5698194547
 20
13.6202886409
 11
5.4577377321
 21
13.6202886409
  0
LINE
  5
2C0
100
AcDbEntity
  8
0
100
AcDbLine
 62
9
  6
CONTINUOUS
 10
5.4385243504
 20
13.6202886409
 11
5.3264426278
 21
13.6202886409
  0
LINE
  5
2C1
100
AcDbEntity
  8
0
100
AcDbLine
 62
7
  6
CONTINUOUS
 10
7.8135663608
 20
13.6314104901
 11
7.7314006175
 21
13.6314104901
  0
LINE
  5
2C2
100
AcDbEntity
  8
0
100
AcDbLine
 62
7
  6
CONTINUOUS
 10
7.7285329561
 20
13.6314104901
 11
7.6463672128
 21
13.6314104901
  0
LINE
  5
2C3
100
AcDbEntity
  8
0
100
AcDbLine
 62
7
  6
CONTINUOUS
 10
7.4836890256
 20
13.6314104901
 11
7.4015232823
 21
13.6314104901
  0
LINE
  5
2C4
100
AcDbEntity
  8
0
100
AcDbLine
 62
7
  6
CONTINUOUS
 10
7.1085663608
 20
13.6314104901
 11
7.0264006175
 21
13.6314104901
  0
LINE
  5
2C5
100
AcDbEntity
  8
0
100
AcDbLine
 62
7
  6
CONTINUOUS
 10
6.6484102913
 20
13.6314104901
 11
6.566244548
 21
13.6314104901
  0
LINE
  5
2C6
100
AcDbEntity
  8
0
100
AcDbLine
 62
7
  6
CONTINUOUS
 10
6.1587224303
 20
13.6314104901
 11
6.076556687
 21
13.6314104901
  0
LINE
  5
2C7
100
AcDbEntity
  8
0
100
AcDbLine
 62
7
  6
CONTINUOUS
 10
5.6985663608
 20
13.6314104901
 11
5.6164006175
 21
13.6314104901
  0
LINE
  5
2C8
100
AcDbEntity
  8
0
100
AcDbLine
 62
7
  6
CONTINUOUS
 10
5.323443696
 20
13.6314104901
 11
5.2412779527
 21
13.6314104901
  0
LINE
  5
2C9
100
AcDbEntity
  8
0
100
AcDbLine
 62
7
  6
CONTINUOUS
 10
5.0785997655
 20
13.6314104901
 11
4.9964340222
 21
13.6314104901
  0
LINE
  5
2CA
100
AcDbEntity
  8
0
100
AcDbLine
 62
7
  6
CONTINUOUS
 10
4.9935663608
 20
13.6314104901
 11
4.9114006175
 21
13.6314104901
  0
LINE
  5
2CB
100
AcDbEntity
  8
0
100
AcDbLine
 62
7
  6
CONTINUOUS
 10
6.1774834891
 20
13.632111863
 11
6.3055558862
 21
13.632111863
  0
LINE
  5
2CC
100
AcDbEntity
  8
0
100
AcDbLine
 62
7
  6
CONTINUOUS
 10
6.4194110921
 20
13.632111863
 11
6.5474834891
 21
13.632111863
  0
LINE
  5
2CD
100
AcDbEntity
  8
0
100
AcDbLine
 62
7
  6
CONTINUOUS
 10
5.9348577663
 20
13.6353183407
 11
6.0295654003
 21
13.6353183407
  0
LINE
  5
2CE
100
AcDbEntity
  8
0
100
AcDbLine
 62
7
  6
CONTINUOUS
 10
6.1688093671
 20
13.6353183407
 11
6.3053154003
 21
13.6353183407
  0
LINE
  5
2CF
100
AcDbEntity
  8
0
100
AcDbLine
 62
7
  6
CONTINUOUS
 10
6.4196515779
 20
13.6353183407
 11
6.5561576112
 21
13.6353183407
  0
LINE
  5
2D0
100
AcDbEntity
  8
0
100
AcDbLine
 62
7
  6
CONTINUOUS
 10
6.6954015779
 20
13.6353183407
 11
6.790109212
 21
13.6353183407
  0
LINE
  5
2D1
100
AcDbEntity
  8
0
100
AcDbLine
 62
9
  6
CONTINUOUS
 10
5.9296641037
 20
13.6354853505
 11
6.0295528746
 21
13.6354853505
  0
LINE
  5
2D2
100
AcDbEntity
  8
0
100
AcDbLine
 62
9
  6
CONTINUOUS
 10
6.1689934018
 20
13.6354853505
 11
6.3053028746
 21
13.6354853505
  0
LINE
  5
2D3
100
AcDbEntity
  8
0
100
AcDbLine
 62
9
  6
CONTINUOUS
 10
6.4196641037
 20
13.6354853505
 11
6.5559735765
 21
13.6354853505
  0
LINE
  5
2D4
100
AcDbEntity
  8
0
100
AcDbLine
 62
9
  6
CONTINUOUS
 10
6.6954141037
 20
13.6354853505
 11
6.7953028746
 21
13.6354853505
  0
LINE
  5
2D5
100
AcDbEntity
  8
0
100
AcDbLine
 62
9
  6
CONTINUOUS
 10
6.9778021453
 20
13.639170611
 11
6.9099404982
 21
13.639170611
  0
LINE
  5
2D6
100
AcDbEntity
  8
0
100
AcDbLine
 62
9
  6
CONTINUOUS
 10
6.7950264801
 20
13.639170611
 11
6.6615461011
 21
13.639170611
  0
LINE
  5
2D7
100
AcDbEntity
  8
0
100
AcDbLine
 62
9
  6
CONTINUOUS
 10
6.5531087382
 20
13.639170611
 11
6.4199404982
 21
13.639170611
  0
LINE
  5
2D8
100
AcDbEntity
  8
0
100
AcDbLine
 62
9
  6
CONTINUOUS
 10
6.3050264801
 20
13.639170611
 11
6.1718582401
 21
13.639170611
  0
LINE
  5
2D9
100
AcDbEntity
  8
0
100
AcDbLine
 62
9
  6
CONTINUOUS
 10
6.0634208771
 20
13.639170611
 11
5.9299404982
 21
13.639170611
  0
LINE
  5
2DA
100
AcDbEntity
  8
0
100
AcDbLine
 62
9
  6
CONTINUOUS
 10
5.8150264801
 20
13.639170611
 11
5.7471648329
 21
13.639170611
  0
LINE
  5
2DB
100
AcDbEntity
  8
0
100
AcDbLine
 62
9
  6
CONTINUOUS
 10
7.8285243504
 20
13.6452886409
 11
7.6314092231
 21
13.6452886409
  0
LINE
  5
2DC
100
AcDbEntity
  8
0
100
AcDbLine
 62
9
  6
CONTINUOUS
 10
7.4986470152
 20
13.6452886409
 11
7.3865652926
 21
13.6452886409
  0
LINE
  5
2DD
100
AcDbEntity
  8
0
100
AcDbLine
 62
9
  6
CONTINUOUS
 10
7.1235243504
 20
13.6452886409
 11
7.0114426278
 21
13.6452886409
  0
LINE
  5
2DE
100
AcDbEntity
  8
0
100
AcDbLine
 62
9
  6
CONTINUOUS
 10
6.663368281
 20
13.6452886409
 11
6.5512865583
 21
13.6452886409
  0
LINE
  5
2DF
100
AcDbEntity
  8
0
100
AcDbLine
 62
9
  6
CONTINUOUS
 10
6.1736804199
 20
13.6452886409
 11
6.0615986973
 21
13.6452886409
  0
LINE
  5
2E0
100
AcDbEntity
  8
0
100
AcDbLine
 62
9
  6
CONTINUOUS
 10
5.7135243504
 20
13.6452886409
 11
5.6014426278
 21
13.6452886409
  0
LINE
  5
2E1
100
AcDbEntity
  8
0
100
AcDbLine
 62
9
  6
CONTINUOUS
 10
5.3384016856
 20
13.6452886409
 11
5.226319963
 21
13.6452886409
  0
LINE
  5
2E2
100
AcDbEntity
  8
0
100
AcDbLine
 62
9
  6
CONTINUOUS
 10
5.0935577551
 20
13.6452886409
 11
4.8964426278
 21
13.6452886409
  0
LINE
  5
2E3
100
AcDbEntity
  8
0
100
AcDbLine
 62
7
  6
CONTINUOUS
 10
5.5719217863
 20
13.6483197286
 11
5.6012152963
 21
13.6483197286
  0
LINE
  5
2E4
100
AcDbEntity
  8
0
100
AcDbLine
 62
7
  6
CONTINUOUS
 10
5.713751682
 20
13.6483197286
 11
5.8143402963
 21
13.6483197286
  0
LINE
  5
2E5
100
AcDbEntity
  8
0
100
AcDbLine
 62
7
  6
CONTINUOUS
 10
5.930626682
 20
13.6483197286
 11
6.0613713657
 21
13.6483197286
  0
LINE
  5
2E6
100
AcDbEntity
  8
0
100
AcDbLine
 62
7
  6
CONTINUOUS
 10
6.1739077515
 20
13.6483197286
 11
6.3043402963
 21
13.6483197286
  0
LINE
  5
2E7
100
AcDbEntity
  8
0
100
AcDbLine
 62
7
  6
CONTINUOUS
 10
6.420626682
 20
13.6483197286
 11
6.5510592268
 21
13.6483197286
  0
LINE
  5
2E8
100
AcDbEntity
  8
0
100
AcDbLine
 62
7
  6
CONTINUOUS
 10
6.6635956125
 20
13.6483197286
 11
6.7943402963
 21
13.6483197286
  0
LINE
  5
2E9
100
AcDbEntity
  8
0
100
AcDbLine
 62
7
  6
CONTINUOUS
 10
6.910626682
 20
13.6483197286
 11
7.0112152963
 21
13.6483197286
  0
LINE
  5
2EA
100
AcDbEntity
  8
0
100
AcDbLine
 62
7
  6
CONTINUOUS
 10
7.123751682
 20
13.6483197286
 11
7.153045192
 21
13.6483197286
  0
LINE
  5
2EB
100
AcDbEntity
  8
0
100
AcDbLine
 62
9
  6
CONTINUOUS
 10
5.4353913676
 20
13.6490423787
 11
5.4555812018
 21
13.6490423787
  0
LINE
  5
2EC
100
AcDbEntity
  8
0
100
AcDbLine
 62
9
  6
CONTINUOUS
 10
5.5719835257
 20
13.6490423787
 11
5.6011610975
 21
13.6490423787
  0
LINE
  5
2ED
100
AcDbEntity
  8
0
100
AcDbLine
 62
9
  6
CONTINUOUS
 10
5.7138058808
 20
13.6490423787
 11
5.8142860975
 21
13.6490423787
  0
LINE
  5
2EE
100
AcDbEntity
  8
0
100
AcDbLine
 62
9
  6
CONTINUOUS
 10
5.9306808808
 20
13.6490423787
 11
6.061317167
 21
13.6490423787
  0
LINE
  5
2EF
100
AcDbEntity
  8
0
100
AcDbLine
 62
9
  6
CONTINUOUS
 10
6.1739619503
 20
13.6490423787
 11
6.3042860975
 21
13.6490423787
  0
LINE
  5
2F0
100
AcDbEntity
  8
0
100
AcDbLine
 62
9
  6
CONTINUOUS
 10
6.4206808808
 20
13.6490423787
 11
6.551005028
 21
13.6490423787
  0
LINE
  5
2F1
100
AcDbEntity
  8
0
100
AcDbLine
 62
9
  6
CONTINUOUS
 10
6.6636498113
 20
13.6490423787
 11
6.7942860975
 21
13.6490423787
  0
LINE
  5
2F2
100
AcDbEntity
  8
0
100
AcDbLine
 62
9
  6
CONTINUOUS
 10
6.9106808808
 20
13.6490423787
 11
7.0111610975
 21
13.6490423787
  0
LINE
  5
2F3
100
AcDbEntity
  8
0
100
AcDbLine
 62
9
  6
CONTINUOUS
 10
7.1238058808
 20
13.6490423787
 11
7.1529834525
 21
13.6490423787
  0
LINE
  5
2F4
100
AcDbEntity
  8
0
100
AcDbLine
 62
9
  6
CONTINUOUS
 10
7.2693857765
 20
13.6490423787
 11
7.2895756107
 21
13.6490423787
  0
LINE
  5
2F5
100
AcDbEntity
  8
0
100
AcDbLine
 62
9
  6
CONTINUOUS
 10
7.3859320949
 20
13.6537312766
 11
7.1241575481
 21
13.6537312766
  0
LINE
  5
2F6
100
AcDbEntity
  8
0
100
AcDbLine
 62
9
  6
CONTINUOUS
 10
7.0108094302
 20
13.6537312766
 11
6.6640014786
 21
13.6537312766
  0
LINE
  5
2F7
100
AcDbEntity
  8
0
100
AcDbLine
 62
9
  6
CONTINUOUS
 10
6.5506533607
 20
13.6537312766
 11
6.1743136176
 21
13.6537312766
  0
LINE
  5
2F8
100
AcDbEntity
  8
0
100
AcDbLine
 62
9
  6
CONTINUOUS
 10
6.0609654996
 20
13.6537312766
 11
5.7141575481
 21
13.6537312766
  0
LINE
  5
2F9
100
AcDbEntity
  8
0
100
AcDbLine
 62
9
  6
CONTINUOUS
 10
5.6008094302
 20
13.6537312766
 11
5.3390348833
 21
13.6537312766
  0
LINE
  5
2FA
100
AcDbEntity
  8
0
100
AcDbLine
 62
7
  6
CONTINUOUS
 10
8.2435663608
 20
13.6614104901
 11
8.0987041378
 21
13.6614104901
  0
LINE
  5
2FB
100
AcDbEntity
  8
0
100
AcDbLine
 62
7
  6
CONTINUOUS
 10
7.9970531038
 20
13.6614104901
 11
7.9148873604
 21
13.6614104901
  0
LINE
  5
2FC
100
AcDbEntity
  8
0
100
AcDbLine
 62
7
  6
CONTINUOUS
 10
7.7046428382
 20
13.6614104901
 11
7.6224770949
 21
13.6614104901
  0
LINE
  5
2FD
100
AcDbEntity
  8
0
100
AcDbLine
 62
7
  6
CONTINUOUS
 10
7.3235663608
 20
13.6614104901
 11
7.2414006175
 21
13.6614104901
  0
LINE
  5
2FE
100
AcDbEntity
  8
0
100
AcDbLine
 62
7
  6
CONTINUOUS
 10
6.8797934038
 20
13.6614104901
 11
6.7976276605
 21
13.6614104901
  0
LINE
  5
2FF
100
AcDbEntity
  8
0
100
AcDbLine
 62
7
  6
CONTINUOUS
 10
6.4035663608
 20
13.6614104901
 11
6.3214006175
 21
13.6614104901
  0
LINE
  5
300
100
AcDbEntity
  8
0
100
AcDbLine
 62
7
  6
CONTINUOUS
 10
5.9273393178
 20
13.6614104901
 11
5.8451735745
 21
13.6614104901
  0
LINE
  5
301
100
AcDbEntity
  8
0
100
AcDbLine
 62
7
  6
CONTINUOUS
 10
5.4835663608
 20
13.6614104901
 11
5.4014006175
 21
13.6614104901
  0
LINE
  5
302
100
AcDbEntity
  8
0
100
AcDbLine
 62
7
  6
CONTINUOUS
 10
5.1024898834
 20
13.6614104901
 11
5.0203241401
 21
13.6614104901
  0
LINE
  5
303
100
AcDbEntity
  8
0
100
AcDbLine
 62
7
  6
CONTINUOUS
 10
4.8100796178
 20
13.6614104901
 11
4.7279138745
 21
13.6614104901
  0
LINE
  5
304
100
AcDbEntity
  8
0
100
AcDbLine
 62
7
  6
CONTINUOUS
 10
4.6262628404
 20
13.6614104901
 11
4.4814006175
 21
13.6614104901
  0
LINE
  5
305
100
AcDbEntity
  8
0
100
AcDbLine
 62
7
  6
CONTINUOUS
 10
5.1145644009
 20
13.6675363714
 11
5.2246513832
 21
13.6675363714
  0
LINE
  5
306
100
AcDbEntity
  8
0
100
AcDbLine
 62
7
  6
CONTINUOUS
 10
5.3400702654
 20
13.6675363714
 11
5.3893261
 21
13.6675363714
  0
LINE
  5
307
100
AcDbEntity
  8
0
100
AcDbLine
 62
7
  6
CONTINUOUS
 10
5.4956408783
 20
13.6675363714
 11
5.599774048
 21
13.6675363714
  0
LINE
  5
308
100
AcDbEntity
  8
0
100
AcDbLine
 62
7
  6
CONTINUOUS
 10
5.7151929302
 20
13.6675363714
 11
5.833099057
 21
13.6675363714
  0
LINE
  5
309
100
AcDbEntity
  8
0
100
AcDbLine
 62
7
  6
CONTINUOUS
 10
5.9394138353
 20
13.6675363714
 11
6.0599301175
 21
13.6675363714
  0
LINE
  5
30A
100
AcDbEntity
  8
0
100
AcDbLine
 62
7
  6
CONTINUOUS
 10
6.1753489997
 20
13.6675363714
 11
6.3093261
 21
13.6675363714
  0
LINE
  5
30B
100
AcDbEntity
  8
0
100
AcDbLine
 62
7
  6
CONTINUOUS
 10
6.4156408783
 20
13.6675363714
 11
6.5496179786
 21
13.6675363714
  0
LINE
  5
30C
100
AcDbEntity
  8
0
100
AcDbLine
 62
7
  6
CONTINUOUS
 10
6.6650368607
 20
13.6675363714
 11
6.7855531429
 21
13.6675363714
  0
LINE
  5
30D
100
AcDbEntity
  8
0
100
AcDbLine
 62
7
  6
CONTINUOUS
 10
6.8918679213
 20
13.6675363714
 11
7.009774048
 21
13.6675363714
  0
LINE
  5
30E
100
AcDbEntity
  8
0
100
AcDbLine
 62
7
  6
CONTINUOUS
 10
7.1251929302
 20
13.6675363714
 11
7.2293261
 21
13.6675363714
  0
LINE
  5
30F
100
AcDbEntity
  8
0
100
AcDbLine
 62
7
  6
CONTINUOUS
 10
7.3356408783
 20
13.6675363714
 11
7.3848967128
 21
13.6675363714
  0
LINE
  5
310
100
AcDbEntity
  8
0
100
AcDbLine
 62
7
  6
CONTINUOUS
 10
7.500315595
 20
13.6675363714
 11
7.6104025773
 21
13.6675363714
  0
LINE
  5
311
100
AcDbEntity
  8
0
100
AcDbLine
 62
9
  6
CONTINUOUS
 10
5.3402316968
 20
13.6690802831
 11
5.3883208986
 21
13.6690802831
  0
LINE
  5
312
100
AcDbEntity
  8
0
100
AcDbLine
 62
9
  6
CONTINUOUS
 10
5.4966460797
 20
13.6690802831
 11
5.5996582547
 21
13.6690802831
  0
LINE
  5
313
100
AcDbEntity
  8
0
100
AcDbLine
 62
9
  6
CONTINUOUS
 10
5.7153087236
 20
13.6690802831
 11
5.8320938556
 21
13.6690802831
  0
LINE
  5
314
100
AcDbEntity
  8
0
100
AcDbLine
 62
9
  6
CONTINUOUS
 10
5.9404190367
 20
13.6690802831
 11
6.0598143241
 21
13.6690802831
  0
LINE
  5
315
100
AcDbEntity
  8
0
100
AcDbLine
 62
9
  6
CONTINUOUS
 10
6.1754647931
 20
13.6690802831
 11
6.3083208986
 21
13.6690802831
  0
LINE
  5
316
100
AcDbEntity
  8
0
100
AcDbLine
 62
9
  6
CONTINUOUS
 10
6.4166460797
 20
13.6690802831
 11
6.5495021852
 21
13.6690802831
  0
LINE
  5
317
100
AcDbEntity
  8
0
100
AcDbLine
 62
9
  6
CONTINUOUS
 10
6.6651526541
 20
13.6690802831
 11
6.7845479416
 21
13.6690802831
  0
LINE
  5
318
100
AcDbEntity
  8
0
100
AcDbLine
 62
9
  6
CONTINUOUS
 10
6.8928731227
 20
13.6690802831
 11
7.0096582547
 21
13.6690802831
  0
LINE
  5
319
100
AcDbEntity
  8
0
100
AcDbLine
 62
9
  6
CONTINUOUS
 10
7.1253087236
 20
13.6690802831
 11
7.2283208986
 21
13.6690802831
  0
LINE
  5
31A
100
AcDbEntity
  8
0
100
AcDbLine
 62
9
  6
CONTINUOUS
 10
7.3366460797
 20
13.6690802831
 11
7.3847352815
 21
13.6690802831
  0
LINE
  5
31B
100
AcDbEntity
  8
0
100
AcDbLine
 62
9
  6
CONTINUOUS
 10
8.2585243504
 20
13.6752886409
 11
8.0837461482
 21
13.6752886409
  0
LINE
  5
31C
100
AcDbEntity
  8
0
100
AcDbLine
 62
9
  6
CONTINUOUS
 10
8.0120110934
 20
13.6752886409
 11
7.8999293708
 21
13.6752886409
  0
LINE
  5
31D
100
AcDbEntity
  8
0
100
AcDbLine
 62
9
  6
CONTINUOUS
 10
7.7196008278
 20
13.6752886409
 11
7.6075191052
 21
13.6752886409
  0
LINE
  5
31E
100
AcDbEntity
  8
0
100
AcDbLine
 62
9
  6
CONTINUOUS
 10
7.3385243504
 20
13.6752886409
 11
7.2264426278
 21
13.6752886409
  0
LINE
  5
31F
100
AcDbEntity
  8
0
100
AcDbLine
 62
9
  6
CONTINUOUS
 10
6.8947513934
 20
13.6752886409
 11
6.7826696708
 21
13.6752886409
  0
LINE
  5
320
100
AcDbEntity
  8
0
100
AcDbLine
 62
9
  6
CONTINUOUS
 10
6.4185243504
 20
13.6752886409
 11
6.3064426278
 21
13.6752886409
  0
LINE
  5
321
100
AcDbEntity
  8
0
100
AcDbLine
 62
9
  6
CONTINUOUS
 10
5.9422973075
 20
13.6752886409
 11
5.8302155848
 21
13.6752886409
  0
LINE
  5
322
100
AcDbEntity
  8
0
100
AcDbLine
 62
9
  6
CONTINUOUS
 10
5.4985243504
 20
13.6752886409
 11
5.3864426278
 21
13.6752886409
  0
LINE
  5
323
100
AcDbEntity
  8
0
100
AcDbLine
 62
9
  6
CONTINUOUS
 10
5.1174478731
 20
13.6752886409
 11
5.0053661504
 21
13.6752886409
  0
LINE
  5
324
100
AcDbEntity
  8
0
100
AcDbLine
 62
9
  6
CONTINUOUS
 10
4.8250376075
 20
13.6752886409
 11
4.7129558849
 21
13.6752886409
  0
LINE
  5
325
100
AcDbEntity
  8
0
100
AcDbLine
 62
9
  6
CONTINUOUS
 10
4.6412208301
 20
13.6752886409
 11
4.4664426278
 21
13.6752886409
  0
LINE
  5
326
100
AcDbEntity
  8
0
100
AcDbLine
 62
9
  6
CONTINUOUS
 10
7.8340367904
 20
13.6758272349
 11
7.7196008278
 21
13.6758272349
  0
LINE
  5
327
100
AcDbEntity
  8
0
100
AcDbLine
 62
9
  6
CONTINUOUS
 10
7.6074787107
 20
13.6758272349
 11
7.3385243504
 21
13.6758272349
  0
LINE
  5
328
100
AcDbEntity
  8
0
100
AcDbLine
 62
9
  6
CONTINUOUS
 10
7.2264426278
 20
13.6758272349
 11
6.8947513934
 21
13.6758272349
  0
LINE
  5
329
100
AcDbEntity
  8
0
100
AcDbLine
 62
9
  6
CONTINUOUS
 10
6.7826696708
 20
13.6758272349
 11
6.4185243504
 21
13.6758272349
  0
LINE
  5
32A
100
AcDbEntity
  8
0
100
AcDbLine
 62
9
  6
CONTINUOUS
 10
6.3064426278
 20
13.6758272349
 11
5.9422973075
 21
13.6758272349
  0
LINE
  5
32B
100
AcDbEntity
  8
0
100
AcDbLine
 62
9
  6
CONTINUOUS
 10
5.8302155848
 20
13.6758272349
 11
5.4985243504
 21
13.6758272349
  0
LINE
  5
32C
100
AcDbEntity
  8
0
100
AcDbLine
 62
9
  6
CONTINUOUS
 10
5.3864426278
 20
13.6758272349
 11
5.1174882676
 21
13.6758272349
  0
LINE
  5
32D
100
AcDbEntity
  8
0
100
AcDbLine
 62
9
  6
CONTINUOUS
 10
5.0053661504
 20
13.6758272349
 11
4.8909301878
 21
13.6758272349
  0
LINE
  5
32E
100
AcDbEntity
  8
0
100
AcDbLine
 62
7
  6
CONTINUOUS
 10
4.6524603031
 20
13.6939794699
 11
4.7115540727
 21
13.6939794699
  0
LINE
  5
32F
100
AcDbEntity
  8
0
100
AcDbLine
 62
7
  6
CONTINUOUS
 10
4.8264394196
 20
13.6939794699
 11
5.0039643383
 21
13.6939794699
  0
LINE
  5
330
100
AcDbEntity
  8
0
100
AcDbLine
 62
7
  6
CONTINUOUS
 10
5.1188496852
 20
13.6939794699
 11
5.3850408157
 21
13.6939794699
  0
LINE
  5
331
100
AcDbEntity
  8
0
100
AcDbLine
 62
7
  6
CONTINUOUS
 10
5.4999261626
 20
13.6939794699
 11
5.8288137727
 21
13.6939794699
  0
LINE
  5
332
100
AcDbEntity
  8
0
100
AcDbLine
 62
7
  6
CONTINUOUS
 10
5.9436991196
 20
13.6939794699
 11
6.3050408157
 21
13.6939794699
  0
LINE
  5
333
100
AcDbEntity
  8
0
100
AcDbLine
 62
7
  6
CONTINUOUS
 10
6.4199261626
 20
13.6939794699
 11
6.7812678586
 21
13.6939794699
  0
LINE
  5
334
100
AcDbEntity
  8
0
100
AcDbLine
 62
7
  6
CONTINUOUS
 10
6.8961532056
 20
13.6939794699
 11
7.2250408157
 21
13.6939794699
  0
LINE
  5
335
100
AcDbEntity
  8
0
100
AcDbLine
 62
7
  6
CONTINUOUS
 10
7.3399261626
 20
13.6939794699
 11
7.606117293
 21
13.6939794699
  0
LINE
  5
336
100
AcDbEntity
  8
0
100
AcDbLine
 62
7
  6
CONTINUOUS
 10
7.72100264
 20
13.6939794699
 11
7.8985275586
 21
13.6939794699
  0
LINE
  5
337
100
AcDbEntity
  8
0
100
AcDbLine
 62
7
  6
CONTINUOUS
 10
8.0134129056
 20
13.6939794699
 11
8.0725066752
 21
13.6939794699
  0
LINE
  5
338
100
AcDbEntity
  8
0
100
AcDbLine
 62
7
  6
CONTINUOUS
 10
8.6735663608
 20
13.6964104901
 11
8.5417956711
 21
13.6964104901
  0
LINE
  5
339
100
AcDbEntity
  8
0
100
AcDbLine
 62
7
  6
CONTINUOUS
 10
8.4773145496
 20
13.6964104901
 11
8.3951488063
 21
13.6964104901
  0
LINE
  5
33A
100
AcDbEntity
  8
0
100
AcDbLine
 62
7
  6
CONTINUOUS
 10
8.240034938
 20
13.6964104901
 11
8.1578691947
 21
13.6964104901
  0
LINE
  5
33B
100
AcDbEntity
  8
0
100
AcDbLine
 62
7
  6
CONTINUOUS
 10
7.9224928372
 20
13.6964104901
 11
7.8403270939
 21
13.6964104901
  0
LINE
  5
33C
100
AcDbEntity
  8
0
100
AcDbLine
 62
7
  6
CONTINUOUS
 10
7.5385663608
 20
13.6964104901
 11
7.4564006175
 21
13.6964104901
  0
LINE
  5
33D
100
AcDbEntity
  8
0
100
AcDbLine
 62
7
  6
CONTINUOUS
 10
7.105034938
 20
13.6964104901
 11
7.0228691947
 21
13.6964104901
  0
LINE
  5
33E
100
AcDbEntity
  8
0
100
AcDbLine
 62
7
  6
CONTINUOUS
 10
6.6408459724
 20
13.6964104901
 11
6.5586802291
 21
13.6964104901
  0
LINE
  5
33F
100
AcDbEntity
  8
0
100
AcDbLine
 62
7
  6
CONTINUOUS
 10
6.1662867492
 20
13.6964104901
 11
6.0841210059
 21
13.6964104901
  0
LINE
  5
340
100
AcDbEntity
  8
0
100
AcDbLine
 62
7
  6
CONTINUOUS
 10
5.7020977836
 20
13.6964104901
 11
5.6199320402
 21
13.6964104901
  0
LINE
  5
341
100
AcDbEntity
  8
0
100
AcDbLine
 62
7
  6
CONTINUOUS
 10
5.2685663608
 20
13.6964104901
 11
5.1864006175
 21
13.6964104901
  0
LINE
  5
342
100
AcDbEntity
  8
0
100
AcDbLine
 62
7
  6
CONTINUOUS
 10
4.8846398844
 20
13.6964104901
 11
4.802474141
 21
13.6964104901
  0
LINE
  5
343
100
AcDbEntity
  8
0
100
AcDbLine
 62
7
  6
CONTINUOUS
 10
4.5670977836
 20
13.6964104901
 11
4.4849320402
 21
13.6964104901
  0
LINE
  5
344
100
AcDbEntity
  8
0
100
AcDbLine
 62
7
  6
CONTINUOUS
 10
4.3298181719
 20
13.6964104901
 11
4.2476524286
 21
13.6964104901
  0
LINE
  5
345
100
AcDbEntity
  8
0
100
AcDbLine
 62
7
  6
CONTINUOUS
 10
4.1831713071
 20
13.6964104901
 11
4.0514006175
 21
13.6964104901
  0
LINE
  5
346
100
AcDbEntity
  8
0
100
AcDbLine
 62
9
  6
CONTINUOUS
 10
4.6428301868
 20
13.6966534803
 11
4.7113535219
 21
13.6966534803
  0
LINE
  5
347
100
AcDbEntity
  8
0
100
AcDbLine
 62
9
  6
CONTINUOUS
 10
4.8872134902
 20
13.6966534803
 11
5.0037637875
 21
13.6966534803
  0
LINE
  5
348
100
AcDbEntity
  8
0
100
AcDbLine
 62
9
  6
CONTINUOUS
 10
5.119050236
 20
13.6966534803
 11
5.1838270116
 21
13.6966534803
  0
LINE
  5
349
100
AcDbEntity
  8
0
100
AcDbLine
 62
9
  6
CONTINUOUS
 10
5.2711399667
 20
13.6966534803
 11
5.3848402649
 21
13.6966534803
  0
LINE
  5
34A
100
AcDbEntity
  8
0
100
AcDbLine
 62
9
  6
CONTINUOUS
 10
5.5001267134
 20
13.6966534803
 11
5.6173584344
 21
13.6966534803
  0
LINE
  5
34B
100
AcDbEntity
  8
0
100
AcDbLine
 62
9
  6
CONTINUOUS
 10
5.7046713894
 20
13.6966534803
 11
5.8286132219
 21
13.6966534803
  0
LINE
  5
34C
100
AcDbEntity
  8
0
100
AcDbLine
 62
9
  6
CONTINUOUS
 10
5.9438996704
 20
13.6966534803
 11
6.0815474
 21
13.6966534803
  0
LINE
  5
34D
100
AcDbEntity
  8
0
100
AcDbLine
 62
9
  6
CONTINUOUS
 10
6.1688603551
 20
13.6966534803
 11
6.3048402649
 21
13.6966534803
  0
LINE
  5
34E
100
AcDbEntity
  8
0
100
AcDbLine
 62
9
  6
CONTINUOUS
 10
6.4201267134
 20
13.6966534803
 11
6.5561066232
 21
13.6966534803
  0
LINE
  5
34F
100
AcDbEntity
  8
0
100
AcDbLine
 62
9
  6
CONTINUOUS
 10
6.6434195783
 20
13.6966534803
 11
6.7810673079
 21
13.6966534803
  0
LINE
  5
350
100
AcDbEntity
  8
0
100
AcDbLine
 62
9
  6
CONTINUOUS
 10
6.8963537564
 20
13.6966534803
 11
7.0202955888
 21
13.6966534803
  0
LINE
  5
351
100
AcDbEntity
  8
0
100
AcDbLine
 62
9
  6
CONTINUOUS
 10
7.1076085439
 20
13.6966534803
 11
7.2248402649
 21
13.6966534803
  0
LINE
  5
352
100
AcDbEntity
  8
0
100
AcDbLine
 62
9
  6
CONTINUOUS
 10
7.3401267134
 20
13.6966534803
 11
7.4538270116
 21
13.6966534803
  0
LINE
  5
353
100
AcDbEntity
  8
0
100
AcDbLine
 62
9
  6
CONTINUOUS
 10
7.5411399667
 20
13.6966534803
 11
7.6059167423
 21
13.6966534803
  0
LINE
  5
354
100
AcDbEntity
  8
0
100
AcDbLine
 62
9
  6
CONTINUOUS
 10
7.7212031908
 20
13.6966534803
 11
7.837753488
 21
13.6966534803
  0
LINE
  5
355
100
AcDbEntity
  8
0
100
AcDbLine
 62
9
  6
CONTINUOUS
 10
8.0136134564
 20
13.6966534803
 11
8.0821367915
 21
13.6966534803
  0
LINE
  5
356
100
AcDbEntity
  8
0
100
AcDbLine
 62
9
  6
CONTINUOUS
 10
8.2622265872
 20
13.705481578
 11
8.2538047448
 21
13.705481578
  0
LINE
  5
357
100
AcDbEntity
  8
0
100
AcDbLine
 62
9
  6
CONTINUOUS
 10
8.1440993879
 20
13.705481578
 11
7.936262644
 21
13.705481578
  0
LINE
  5
358
100
AcDbEntity
  8
0
100
AcDbLine
 62
9
  6
CONTINUOUS
 10
7.8265572871
 20
13.705481578
 11
7.5523361676
 21
13.705481578
  0
LINE
  5
359
100
AcDbEntity
  8
0
100
AcDbLine
 62
9
  6
CONTINUOUS
 10
7.4426308107
 20
13.705481578
 11
7.1188047448
 21
13.705481578
  0
LINE
  5
35A
100
AcDbEntity
  8
0
100
AcDbLine
 62
9
  6
CONTINUOUS
 10
7.0090993879
 20
13.705481578
 11
6.6546157792
 21
13.705481578
  0
LINE
  5
35B
100
AcDbEntity
  8
0
100
AcDbLine
 62
9
  6
CONTINUOUS
 10
6.5449104223
 20
13.705481578
 11
6.180056556
 21
13.705481578
  0
LINE
  5
35C
100
AcDbEntity
  8
0
100
AcDbLine
 62
9
  6
CONTINUOUS
 10
6.070351199
 20
13.705481578
 11
5.7158675904
 21
13.705481578
  0
LINE
  5
35D
100
AcDbEntity
  8
0
100
AcDbLine
 62
9
  6
CONTINUOUS
 10
5.6061622334
 20
13.705481578
 11
5.2823361676
 21
13.705481578
  0
LINE
  5
35E
100
AcDbEntity
  8
0
100
AcDbLine
 62
9
  6
CONTINUOUS
 10
5.1726308107
 20
13.705481578
 11
4.8984096912
 21
13.705481578
  0
LINE
  5
35F
100
AcDbEntity
  8
0
100
AcDbLine
 62
9
  6
CONTINUOUS
 10
4.7887043342
 20
13.705481578
 11
4.5808675904
 21
13.705481578
  0
LINE
  5
360
100
AcDbEntity
  8
0
100
AcDbLine
 62
9
  6
CONTINUOUS
 10
4.4711622334
 20
13.705481578
 11
4.4627403911
 21
13.705481578
  0
LINE
  5
361
100
AcDbEntity
  8
0
100
AcDbLine
 62
9
  6
CONTINUOUS
 10
8.6885243504
 20
13.7102886409
 11
8.5268376815
 21
13.7102886409
  0
LINE
  5
362
100
AcDbEntity
  8
0
100
AcDbLine
 62
9
  6
CONTINUOUS
 10
8.4922725393
 20
13.7102886409
 11
8.3801908167
 21
13.7102886409
  0
LINE
  5
363
100
AcDbEntity
  8
0
100
AcDbLine
 62
9
  6
CONTINUOUS
 10
8.2549929277
 20
13.7102886409
 11
8.1429112051
 21
13.7102886409
  0
LINE
  5
364
100
AcDbEntity
  8
0
100
AcDbLine
 62
9
  6
CONTINUOUS
 10
7.9374508269
 20
13.7102886409
 11
7.8253691043
 21
13.7102886409
  0
LINE
  5
365
100
AcDbEntity
  8
0
100
AcDbLine
 62
9
  6
CONTINUOUS
 10
7.5535243504
 20
13.7102886409
 11
7.4414426278
 21
13.7102886409
  0
LINE
  5
366
100
AcDbEntity
  8
0
100
AcDbLine
 62
9
  6
CONTINUOUS
 10
7.1199929277
 20
13.7102886409
 11
7.0079112051
 21
13.7102886409
  0
LINE
  5
367
100
AcDbEntity
  8
0
100
AcDbLine
 62
9
  6
CONTINUOUS
 10
6.6558039621
 20
13.7102886409
 11
6.5437222394
 21
13.7102886409
  0
LINE
  5
368
100
AcDbEntity
  8
0
100
AcDbLine
 62
9
  6
CONTINUOUS
 10
6.1812447388
 20
13.7102886409
 11
6.0691630162
 21
13.7102886409
  0
LINE
  5
369
100
AcDbEntity
  8
0
100
AcDbLine
 62
9
  6
CONTINUOUS
 10
5.7170557732
 20
13.7102886409
 11
5.6049740506
 21
13.7102886409
  0
LINE
  5
36A
100
AcDbEntity
  8
0
100
AcDbLine
 62
9
  6
CONTINUOUS
 10
5.2835243504
 20
13.7102886409
 11
5.1714426278
 21
13.7102886409
  0
LINE
  5
36B
100
AcDbEntity
  8
0
100
AcDbLine
 62
9
  6
CONTINUOUS
 10
4.899597874
 20
13.7102886409
 11
4.7875161514
 21
13.7102886409
  0
LINE
  5
36C
100
AcDbEntity
  8
0
100
AcDbLine
 62
9
  6
CONTINUOUS
 10
4.5820557732
 20
13.7102886409
 11
4.4699740506
 21
13.7102886409
  0
LINE
  5
36D
100
AcDbEntity
  8
0
100
AcDbLine
 62
9
  6
CONTINUOUS
 10
4.3447761616
 20
13.7102886409
 11
4.232694439
 21
13.7102886409
  0
LINE
  5
36E
100
AcDbEntity
  8
0
100
AcDbLine
 62
9
  6
CONTINUOUS
 10
4.1981292968
 20
13.7102886409
 11
4.0364426278
 21
13.7102886409
  0
LINE
  5
36F
100
AcDbEntity
  8
0
100
AcDbLine
 62
9
  6
CONTINUOUS
 10
8.3790067859
 20
13.7260757175
 11
8.2561769584
 21
13.7260757175
  0
LINE
  5
370
100
AcDbEntity
  8
0
100
AcDbLine
 62
9
  6
CONTINUOUS
 10
8.1417271743
 20
13.7260757175
 11
7.9386348576
 21
13.7260757175
  0
LINE
  5
371
100
AcDbEntity
  8
0
100
AcDbLine
 62
9
  6
CONTINUOUS
 10
7.8241850735
 20
13.7260757175
 11
7.5547083812
 21
13.7260757175
  0
LINE
  5
372
100
AcDbEntity
  8
0
100
AcDbLine
 62
9
  6
CONTINUOUS
 10
7.4402585971
 20
13.7260757175
 11
7.1211769584
 21
13.7260757175
  0
LINE
  5
373
100
AcDbEntity
  8
0
100
AcDbLine
 62
9
  6
CONTINUOUS
 10
7.0067271743
 20
13.7260757175
 11
6.6569879928
 21
13.7260757175
  0
LINE
  5
374
100
AcDbEntity
  8
0
100
AcDbLine
 62
9
  6
CONTINUOUS
 10
6.5425382087
 20
13.7260757175
 11
6.1824287696
 21
13.7260757175
  0
LINE
  5
375
100
AcDbEntity
  8
0
100
AcDbLine
 62
9
  6
CONTINUOUS
 10
6.0679789855
 20
13.7260757175
 11
5.718239804
 21
13.7260757175
  0
LINE
  5
376
100
AcDbEntity
  8
0
100
AcDbLine
 62
9
  6
CONTINUOUS
 10
5.6037900198
 20
13.7260757175
 11
5.2847083812
 21
13.7260757175
  0
LINE
  5
377
100
AcDbEntity
  8
0
100
AcDbLine
 62
9
  6
CONTINUOUS
 10
5.1702585971
 20
13.7260757175
 11
4.9007819048
 21
13.7260757175
  0
LINE
  5
378
100
AcDbEntity
  8
0
100
AcDbLine
 62
9
  6
CONTINUOUS
 10
4.7863321206
 20
13.7260757175
 11
4.583239804
 21
13.7260757175
  0
LINE
  5
379
100
AcDbEntity
  8
0
100
AcDbLine
 62
9
  6
CONTINUOUS
 10
4.4687900198
 20
13.7260757175
 11
4.3459601923
 21
13.7260757175
  0
LINE
  5
37A
100
AcDbEntity
  8
0
100
AcDbLine
 62
7
  6
CONTINUOUS
 10
4.3460798512
 20
13.7276711697
 11
4.4686703609
 21
13.7276711697
  0
LINE
  5
37B
100
AcDbEntity
  8
0
100
AcDbLine
 62
7
  6
CONTINUOUS
 10
4.5833594629
 20
13.7276711697
 11
4.7862124617
 21
13.7276711697
  0
LINE
  5
37C
100
AcDbEntity
  8
0
100
AcDbLine
 62
7
  6
CONTINUOUS
 10
4.9009015637
 20
13.7276711697
 11
5.1701389382
 21
13.7276711697
  0
LINE
  5
37D
100
AcDbEntity
  8
0
100
AcDbLine
 62
7
  6
CONTINUOUS
 10
5.2848280401
 20
13.7276711697
 11
5.6036703609
 21
13.7276711697
  0
LINE
  5
37E
100
AcDbEntity
  8
0
100
AcDbLine
 62
7
  6
CONTINUOUS
 10
5.7183594629
 20
13.7276711697
 11
6.0678593266
 21
13.7276711697
  0
LINE
  5
37F
100
AcDbEntity
  8
0
100
AcDbLine
 62
7
  6
CONTINUOUS
 10
6.1825484285
 20
13.7276711697
 11
6.5424185498
 21
13.7276711697
  0
LINE
  5
380
100
AcDbEntity
  8
0
100
AcDbLine
 62
7
  6
CONTINUOUS
 10
6.6571076517
 20
13.7276711697
 11
7.0066075154
 21
13.7276711697
  0
LINE
  5
381
100
AcDbEntity
  8
0
100
AcDbLine
 62
7
  6
CONTINUOUS
 10
7.1212966173
 20
13.7276711697
 11
7.4401389382
 21
13.7276711697
  0
LINE
  5
382
100
AcDbEntity
  8
0
100
AcDbLine
 62
7
  6
CONTINUOUS
 10
7.5548280401
 20
13.7276711697
 11
7.8240654146
 21
13.7276711697
  0
LINE
  5
383
100
AcDbEntity
  8
0
100
AcDbLine
 62
7
  6
CONTINUOUS
 10
7.9387545165
 20
13.7276711697
 11
8.1416075154
 21
13.7276711697
  0
LINE
  5
384
100
AcDbEntity
  8
0
100
AcDbLine
 62
7
  6
CONTINUOUS
 10
8.2562966173
 20
13.7276711697
 11
8.378887127
 21
13.7276711697
  0
LINE
  5
385
100
AcDbEntity
  8
0
100
AcDbLine
 62
9
  6
CONTINUOUS
 10
4.1997602466
 20
13.7317850623
 11
4.2310822074
 21
13.7317850623
  0
LINE
  5
386
100
AcDbEntity
  8
0
100
AcDbLine
 62
9
  6
CONTINUOUS
 10
4.3464330551
 20
13.7317850623
 11
4.468361819
 21
13.7317850623
  0
LINE
  5
387
100
AcDbEntity
  8
0
100
AcDbLine
 62
9
  6
CONTINUOUS
 10
4.5836680048
 20
13.7317850623
 11
4.7859039198
 21
13.7317850623
  0
LINE
  5
388
100
AcDbEntity
  8
0
100
AcDbLine
 62
9
  6
CONTINUOUS
 10
4.9012101056
 20
13.7317850623
 11
5.1698303962
 21
13.7317850623
  0
LINE
  5
389
100
AcDbEntity
  8
0
100
AcDbLine
 62
9
  6
CONTINUOUS
 10
5.285136582
 20
13.7317850623
 11
5.603361819
 21
13.7317850623
  0
LINE
  5
38A
100
AcDbEntity
  8
0
100
AcDbLine
 62
9
  6
CONTINUOUS
 10
5.7186680048
 20
13.7317850623
 11
6.0675507846
 21
13.7317850623
  0
LINE
  5
38B
100
AcDbEntity
  8
0
100
AcDbLine
 62
9
  6
CONTINUOUS
 10
6.1828569704
 20
13.7317850623
 11
6.5421100078
 21
13.7317850623
  0
LINE
  5
38C
100
AcDbEntity
  8
0
100
AcDbLine
 62
9
  6
CONTINUOUS
 10
6.6574161937
 20
13.7317850623
 11
7.0062989735
 21
13.7317850623
  0
LINE
  5
38D
100
AcDbEntity
  8
0
100
AcDbLine
 62
9
  6
CONTINUOUS
 10
7.1216051593
 20
13.7317850623
 11
7.4398303962
 21
13.7317850623
  0
LINE
  5
38E
100
AcDbEntity
  8
0
100
AcDbLine
 62
9
  6
CONTINUOUS
 10
7.555136582
 20
13.7317850623
 11
7.8237568727
 21
13.7317850623
  0
LINE
  5
38F
100
AcDbEntity
  8
0
100
AcDbLine
 62
9
  6
CONTINUOUS
 10
7.9390630585
 20
13.7317850623
 11
8.1412989735
 21
13.7317850623
  0
LINE
  5
390
100
AcDbEntity
  8
0
100
AcDbLine
 62
9
  6
CONTINUOUS
 10
8.2566051593
 20
13.7317850623
 11
8.3785339232
 21
13.7317850623
  0
LINE
  5
391
100
AcDbEntity
  8
0
100
AcDbLine
 62
9
  6
CONTINUOUS
 10
8.4938847709
 20
13.7317850623
 11
8.5252067316
 21
13.7317850623
  0
LINE
  5
392
100
AcDbEntity
  8
0
100
AcDbLine
 62
7
  6
CONTINUOUS
 10
3.7164820397
 20
13.7544816867
 11
9.0084849386
 21
13.7544816867
  0
LINE
  5
393
100
AcDbEntity
  8
0
100
AcDbLine
 62
9
  6
CONTINUOUS
 10
9.0166142538
 20
13.7577035561
 11
3.7083527245
 21
13.7577035561
  0
LINE
  5
394
100
AcDbEntity
  8
0
100
AcDbLine
 62
9
  6
CONTINUOUS
 10
9.3024834891
 20
13.9227502361
 11
3.4224834891
 21
13.9227502361
  0
LINE
  5
395
100
AcDbEntity
  8
0
100
AcDbLine
 62
9
  6
CONTINUOUS
 10
9.3174834891
 20
13.9487309982
 11
3.4074834891
 21
13.9487309982
  0
LINE
  5
396
100
AcDbEntity
  8
0
100
AcDbLine
 62
7
  6
CONTINUOUS
 10
6.713339603
 20
16.6599975704
 11
6.7116334891
 21
16.6609841496
  0
LINE
  5
397
100
AcDbEntity
  8
0
100
AcDbLine
 62
7
  6
CONTINUOUS
 10
16.1604834891
 20
6.5099975704
 11
16.1604834891
 21
7.2599975704
  0
LINE
  5
398
100
AcDbEntity
  8
0
100
AcDbLine
 62
7
  6
CONTINUOUS
 10
16.1914834891
 20
6.5099975704
 11
16.1914834891
 21
7.2599975704
  0
LINE
  5
399
100
AcDbEntity
  8
0
100
AcDbLine
 62
7
  6
CONTINUOUS
 10
16.5904834891
 20
4.3274975704
 11
16.5904834891
 21
5.1024975704
  0
LINE
  5
39A
100
AcDbEntity
  8
0
100
AcDbLine
 62
9
  6
CONTINUOUS
 10
16.6144885196
 20
4.2972970671
 11
16.6144885196
 21
5.1326980737
  0
LINE
  5
39B
100
AcDbEntity
  8
0
100
AcDbLine
 62
9
  6
CONTINUOUS
 10
16.7504885196
 20
4.2657970671
 11
16.7504885196
 21
5.1641980737
  0
LINE
  5
39C
100
AcDbEntity
  8
0
100
AcDbLine
 62
9
  6
CONTINUOUS
 10
16.7574834891
 20
4.2649975704
 11
16.7574834891
 21
5.1649975704
  0
LINE
  5
39D
100
AcDbEntity
  8
0
100
AcDbLine
 62
9
  6
CONTINUOUS
 10
16.8474834891
 20
4.2649975704
 11
16.8474834891
 21
5.1649975704
  0
LINE
  5
39E
100
AcDbEntity
  8
0
100
AcDbLine
 62
9
  6
CONTINUOUS
 10
16.8694974482
 20
4.2741713109
 11
16.8694974482
 21
5.1558238299
  0
LINE
  5
39F
100
AcDbEntity
  8
0
100
AcDbLine
 62
7
  6
CONTINUOUS
 10
9.3311483526
 20
-0.6850815066
 11
9.3318554594
 21
-0.6843743998
  0
LINE
  5
3A0
100
AcDbEntity
  8
0
100
AcDbLine
 62
9
  6
CONTINUOUS
 10
9.3174834891
 20
14.8274104901
 11
3.4074834891
 21
14.8274104901
  0
LINE
  5
3A1
100
AcDbEntity
  8
0
100
AcDbLine
 62
7
  6
CONTINUOUS
 10
9.2874834891
 20
14.8574104901
 11
3.4374834891
 21
14.8574104901
  0
LINE
  5
3A2
100
AcDbEntity
  8
0
100
AcDbLine
 62
9
  6
CONTINUOUS
 10
4.9024834891
 20
14.8874104901
 11
7.8224834891
 21
14.8874104901
  0
LINE
  5
3A3
100
AcDbEntity
  8
0
100
AcDbLine
 62
9
  6
CONTINUOUS
 10
7.8224834891
 20
15.1184104901
 11
4.9024834891
 21
15.1184104901
  0
LINE
  5
3A4
100
AcDbEntity
  8
0
100
AcDbLine
 62
7
  6
CONTINUOUS
 10
7.7924834891
 20
15.1484104901
 11
4.9324834891
 21
15.1484104901
  0
LINE
  5
3A5
100
AcDbEntity
  8
0
100
AcDbLine
 62
9
  6
CONTINUOUS
 10
5.6624834891
 20
15.1784104901
 11
7.0624834891
 21
15.1784104901
  0
LINE
  5
3A6
100
AcDbEntity
  8
0
100
AcDbLine
 62
7
  6
CONTINUOUS
 10
17.0834834891
 20
4.4899975704
 11
17.0834834891
 21
4.9399975704
  0
LINE
  5
3A7
100
AcDbEntity
  8
0
100
AcDbLine
 62
7
  6
CONTINUOUS
 10
17.5314834891
 20
6.4549975704
 11
17.5314834891
 21
7.3149975704
  0
LINE
  5
3A8
100
AcDbEntity
  8
0
100
AcDbLine
 62
7
  6
CONTINUOUS
 10
17.6314834891
 20
6.4549975704
 11
17.6314834891
 21
7.3149975704
  0
LINE
  5
3A9
100
AcDbEntity
  8
0
100
AcDbLine
 62
7
  6
CONTINUOUS
 10
17.6624834891
 20
3.9339453991
 11
17.6624834891
 21
9.8360497417
  0
LINE
  5
3AA
100
AcDbEntity
  8
0
100
AcDbLine
 62
9
  6
CONTINUOUS
 10
17.6807403743
 20
3.9140213322
 11
17.6807403743
 21
9.8559738087
  0
LINE
  5
3AB
100
AcDbEntity
  8
0
100
AcDbLine
 62
7
  6
CONTINUOUS
 10
17.7024834891
 20
17.7899975704
 11
17.7024834891
 21
19.9799975704
  0
LINE
  5
3AC
100
AcDbEntity
  8
0
100
AcDbLine
 62
9
  6
CONTINUOUS
 10
17.7324834891
 20
17.7599975704
 11
17.7324834891
 21
20.0099975704
  0
LINE
  5
3AD
100
AcDbEntity
  8
0
100
AcDbLine
 62
7
  6
CONTINUOUS
 10
17.7624834891
 20
-0.2700024296
 11
17.7624834891
 21
-1.960002321
  0
LINE
  5
3AE
100
AcDbEntity
  8
0
100
AcDbLine
 62
9
  6
CONTINUOUS
 10
17.7924834891
 20
-1.9900024296
 11
17.7924834891
 21
-0.2400024296
  0
LINE
  5
3AF
100
AcDbEntity
  8
0
100
AcDbLine
 62
7
  6
CONTINUOUS
 10
10.1938186257
 20
-1.5477517797
 11
10.1945257324
 21
-1.5470446729
  0
LINE
  5
3B0
100
AcDbEntity
  8
0
100
AcDbLine
 62
9
  6
CONTINUOUS
 10
7.0624834891
 20
15.3624104901
 11
5.6624834891
 21
15.3624104901
  0
LINE
  5
3B1
100
AcDbEntity
  8
0
100
AcDbLine
 62
7
  6
CONTINUOUS
 10
5.6824834891
 20
15.3824104901
 11
7.0424834891
 21
15.3824104901
  0
LINE
  5
3B2
100
AcDbEntity
  8
0
100
AcDbLine
 62
9
  6
CONTINUOUS
 10
5.6624834891
 20
15.4024104901
 11
7.0624834891
 21
15.4024104901
  0
LINE
  5
3B3
100
AcDbEntity
  8
0
100
AcDbLine
 62
7
  6
CONTINUOUS
 10
7.0624834891
 20
15.5914104901
 11
7.0124834891
 21
15.5914104901
  0
LINE
  5
3B4
100
AcDbEntity
  8
0
100
AcDbLine
 62
7
  6
CONTINUOUS
 10
5.7124834891
 20
15.5914104901
 11
5.6624834891
 21
15.5914104901
  0
LINE
  5
3B5
100
AcDbEntity
  8
0
100
AcDbLine
 62
7
  6
CONTINUOUS
 10
7.0124834891
 20
15.9414104901
 11
5.7124834891
 21
15.9414104901
  0
LINE
  5
3B6
100
AcDbEntity
  8
0
100
AcDbLine
 62
9
  6
CONTINUOUS
 10
6.0168642533
 20
16.0399286963
 11
6.7081027249
 21
16.0399286963
  0
LINE
  5
3B7
100
AcDbEntity
  8
0
100
AcDbLine
 62
9
  6
CONTINUOUS
 10
6.0168897716
 20
16.153091288
 11
6.7080772067
 21
16.153091288
  0
LINE
  5
3B8
100
AcDbEntity
  8
0
100
AcDbLine
 62
7
  6
CONTINUOUS
 10
18.0124834891
 20
-1.9900024296
 11
18.0124834891
 21
-0.2400024296
  0
LINE
  5
3B9
100
AcDbEntity
  8
0
100
AcDbLine
 62
7
  6
CONTINUOUS
 10
18.0124834891
 20
3.8849977462
 11
18.0124834891
 21
9.8849973946
  0
LINE
  5
3BA
100
AcDbEntity
  8
0
100
AcDbLine
 62
7
  6
CONTINUOUS
 10
18.0124834891
 20
17.7599977497
 11
18.0124834891
 21
20.0099973911
  0
LINE
  5
3BB
100
AcDbEntity
  8
0
100
AcDbLine
 62
7
  6
CONTINUOUS
 10
17.0834834891
 20
4.4899975704
 11
16.8694974482
 21
4.2741713109
  0
LINE
  5
3BC
100
AcDbEntity
  8
0
100
AcDbLine
 62
9
  6
CONTINUOUS
 10
5.9650474143
 20
16.2049336453
 11
6.759919564
 21
16.2049336453
  0
LINE
  5
3BD
100
AcDbEntity
  8
0
100
AcDbLine
 62
9
  6
CONTINUOUS
 10
5.9099834891
 20
16.3378697201
 11
6.2378590533
 21
16.3378697201
  0
LINE
  5
3BE
100
AcDbEntity
  8
0
100
AcDbLine
 62
9
  6
CONTINUOUS
 10
6.4871079249
 20
16.3378697201
 11
6.8149834891
 21
16.3378697201
  0
LINE
  5
3BF
100
AcDbEntity
  8
0
100
AcDbLine
 62
7
  6
CONTINUOUS
 10
6.2378590533
 20
16.5349975704
 11
6.4871079249
 21
16.5349975704
  0
LINE
  5
3C0
100
AcDbEntity
  8
0
100
AcDbLine
 62
7
  6
CONTINUOUS
 10
5.9099834891
 20
16.6599975704
 11
6.8149834891
 21
16.6599975704
  0
LINE
  5
3C1
100
AcDbEntity
  8
0
100
AcDbLine
 62
7
  6
CONTINUOUS
 10
18.0124834891
 20
17.7599975704
 11
17.7324834891
 21
17.7599975704
  0
LINE
  5
3C2
100
AcDbEntity
  8
0
100
AcDbLine
 62
7
  6
CONTINUOUS
 10
17.7024834891
 20
18.4787475704
 11
6.7687334891
 21
18.4787475704
  0
LINE
  5
3C3
100
AcDbEntity
  8
0
100
AcDbLine
 62
7
  6
CONTINUOUS
 10
17.7024834891
 20
19.2912475704
 11
5.9562334891
 21
19.2912475704
  0
LINE
  5
3C4
100
AcDbEntity
  8
0
100
AcDbLine
 62
7
  6
CONTINUOUS
 10
18.0124834891
 20
20.0099975704
 11
17.7324834891
 21
20.0099975704
  0
ARC
  5
3C5
100
AcDbEntity
  8
0
100
AcDbCircle
 62
7
  6
CONTINUOUS
 10
3.4374834891
 20
13.9487309982
 40
0.03
100
AcDbArc
 50
180.0
 51
240.0000000021
  0
ARC
  5
3C6
100
AcDbEntity
  8
0
100
AcDbCircle
 62
7
  6
CONTINUOUS
 10
3.7233527245
 20
13.7836843182
 40
0.03
100
AcDbArc
 50
240.000000002
 51
256.7604517071
  0
ARC
  5
3C7
100
AcDbEntity
  8
0
100
AcDbCircle
 62
7
  6
CONTINUOUS
 10
4.7279138745
 20
13.6764104901
 40
0.015
100
AcDbArc
 50
184.2891533288
 51
270.0
  0
ARC
  5
3C8
100
AcDbEntity
  8
0
100
AcDbCircle
 62
7
  6
CONTINUOUS
 10
4.8100796178
 20
13.6764104901
 40
0.015
100
AcDbArc
 50
270.0
 51
355.7108466712
  0
ARC
  5
3C9
100
AcDbEntity
  8
0
100
AcDbCircle
 62
7
  6
CONTINUOUS
 10
4.5440970971
 20
13.6764104901
 40
0.015
100
AcDbArc
 50
184.2891533288
 51
270.0
  0
ARC
  5
3CA
100
AcDbEntity
  8
0
100
AcDbCircle
 62
7
  6
CONTINUOUS
 10
4.6262628404
 20
13.6764104901
 40
0.015
100
AcDbArc
 50
270.0
 51
355.7108466712
  0
ARC
  5
3CB
100
AcDbEntity
  8
0
100
AcDbCircle
 62
7
  6
CONTINUOUS
 10
4.4814006175
 20
13.6764104901
 40
0.015
100
AcDbArc
 50
184.2891533288
 51
270.0
  0
ARC
  5
3CC
100
AcDbEntity
  8
0
100
AcDbCircle
 62
7
  6
CONTINUOUS
 10
4.0514006175
 20
13.7114104901
 40
0.015
100
AcDbArc
 50
184.2891533288
 51
270.0
  0
ARC
  5
3CD
100
AcDbEntity
  8
0
100
AcDbCircle
 62
7
  6
CONTINUOUS
 10
4.1831713071
 20
13.7114104901
 40
0.015
100
AcDbArc
 50
270.0
 51
355.7108466712
  0
ARC
  5
3CE
100
AcDbEntity
  8
0
100
AcDbCircle
 62
7
  6
CONTINUOUS
 10
4.1010055638
 20
13.7114104901
 40
0.015
100
AcDbArc
 50
184.2891533288
 51
270.0
  0
ARC
  5
3CF
100
AcDbEntity
  8
0
100
AcDbCircle
 62
7
  6
CONTINUOUS
 10
4.3298181719
 20
13.7114104901
 40
0.015
100
AcDbArc
 50
270.0
 51
355.7108466712
  0
ARC
  5
3D0
100
AcDbEntity
  8
0
100
AcDbCircle
 62
7
  6
CONTINUOUS
 10
4.2476524286
 20
13.7114104901
 40
0.015
100
AcDbArc
 50
184.2891533288
 51
270.0
  0
ARC
  5
3D1
100
AcDbEntity
  8
0
100
AcDbCircle
 62
7
  6
CONTINUOUS
 10
4.5670977836
 20
13.7114104901
 40
0.015
100
AcDbArc
 50
270.0
 51
355.7108466712
  0
ARC
  5
3D2
100
AcDbEntity
  8
0
100
AcDbCircle
 62
7
  6
CONTINUOUS
 10
4.4849320402
 20
13.7114104901
 40
0.015
100
AcDbArc
 50
184.2891533288
 51
270.0
  0
ARC
  5
3D3
100
AcDbEntity
  8
0
100
AcDbCircle
 62
7
  6
CONTINUOUS
 10
4.802474141
 20
13.7114104901
 40
0.015
100
AcDbArc
 50
184.2891533288
 51
270.0
  0
ARC
  5
3D4
100
AcDbEntity
  8
0
100
AcDbCircle
 62
7
  6
CONTINUOUS
 10
4.2422176072
 20
14.7276711697
 40
1.0
100
AcDbArc
 50
267.5520868017
 51
269.379137808
  0
ARC
  5
3D5
100
AcDbEntity
  8
0
100
AcDbCircle
 62
7
  6
CONTINUOUS
 10
4.6524603031
 20
14.6939794699
 40
1.0
100
AcDbArc
 50
269.4370126836
 51
270.0
  0
ARC
  5
3D6
100
AcDbEntity
  8
0
100
AcDbCircle
 62
7
  6
CONTINUOUS
 10
4.5406021338
 20
14.7024457444
 40
1.0
100
AcDbArc
 50
258.7557154425
 51
265.5343308342
  0
ARC
  5
3D7
100
AcDbEntity
  8
0
100
AcDbCircle
 62
7
  6
CONTINUOUS
 10
3.4374834891
 20
14.8274104901
 40
0.03
100
AcDbArc
 50
90.0
 51
180.0
  0
ARC
  5
3D8
100
AcDbEntity
  8
0
100
AcDbCircle
 62
7
  6
CONTINUOUS
 10
4.8724834891
 20
14.8874104901
 40
0.03
100
AcDbArc
 50
270.0000000001
 51
360.0
  0
ARC
  5
3D9
100
AcDbEntity
  8
0
100
AcDbCircle
 62
7
  6
CONTINUOUS
 10
6.0464006175
 20
13.6114104901
 40
0.015
100
AcDbArc
 50
184.2891533288
 51
270.0
  0
ARC
  5
3DA
100
AcDbEntity
  8
0
100
AcDbCircle
 62
7
  6
CONTINUOUS
 10
6.1285663608
 20
13.6114104901
 40
0.015
100
AcDbArc
 50
270.0
 51
355.7108466712
  0
ARC
  5
3DB
100
AcDbEntity
  8
0
100
AcDbCircle
 62
7
  6
CONTINUOUS
 10
5.7714006175
 20
13.6114104901
 40
0.015
100
AcDbArc
 50
184.2891533288
 51
270.0
  0
ARC
  5
3DC
100
AcDbEntity
  8
0
100
AcDbCircle
 62
7
  6
CONTINUOUS
 10
5.8535663608
 20
13.6114104901
 40
0.015
100
AcDbArc
 50
270.0
 51
340.4997694482
  0
ARC
  5
3DD
100
AcDbEntity
  8
0
100
AcDbCircle
 62
7
  6
CONTINUOUS
 10
6.3214006175
 20
13.6214104901
 40
0.015
100
AcDbArc
 50
184.2891533288
 51
270.0
  0
ARC
  5
3DE
100
AcDbEntity
  8
0
100
AcDbCircle
 62
7
  6
CONTINUOUS
 10
5.8314006175
 20
13.6214104901
 40
0.015
100
AcDbArc
 50
184.2891533288
 51
270.0
  0
ARC
  5
3DF
100
AcDbEntity
  8
0
100
AcDbCircle
 62
7
  6
CONTINUOUS
 10
5.9135663608
 20
13.6214104901
 40
0.015
100
AcDbArc
 50
270.0
 51
355.7108466712
  0
ARC
  5
3E0
100
AcDbEntity
  8
0
100
AcDbCircle
 62
7
  6
CONTINUOUS
 10
5.4726957218
 20
13.6214104901
 40
0.015
100
AcDbArc
 50
184.2891533288
 51
270.0
  0
ARC
  5
3E1
100
AcDbEntity
  8
0
100
AcDbCircle
 62
7
  6
CONTINUOUS
 10
5.5548614651
 20
13.6214104901
 40
0.015
100
AcDbArc
 50
270.0
 51
355.7108466712
  0
ARC
  5
3E2
100
AcDbEntity
  8
0
100
AcDbCircle
 62
7
  6
CONTINUOUS
 10
5.3414006175
 20
13.6214104901
 40
0.015
100
AcDbArc
 50
184.2891533288
 51
270.0
  0
ARC
  5
3E3
100
AcDbEntity
  8
0
100
AcDbCircle
 62
7
  6
CONTINUOUS
 10
5.4235663608
 20
13.6214104901
 40
0.015
100
AcDbArc
 50
270.0
 51
355.7108466712
  0
ARC
  5
3E4
100
AcDbEntity
  8
0
100
AcDbCircle
 62
7
  6
CONTINUOUS
 10
6.076556687
 20
13.6464104901
 40
0.015
100
AcDbArc
 50
184.2891533288
 51
270.0
  0
ARC
  5
3E5
100
AcDbEntity
  8
0
100
AcDbCircle
 62
7
  6
CONTINUOUS
 10
6.1587224303
 20
13.6464104901
 40
0.015
100
AcDbArc
 50
270.0
 51
355.7108466712
  0
ARC
  5
3E6
100
AcDbEntity
  8
0
100
AcDbCircle
 62
7
  6
CONTINUOUS
 10
5.6164006175
 20
13.6464104901
 40
0.015
100
AcDbArc
 50
184.2891533288
 51
270.0
  0
ARC
  5
3E7
100
AcDbEntity
  8
0
100
AcDbCircle
 62
7
  6
CONTINUOUS
 10
5.6985663608
 20
13.6464104901
 40
0.015
100
AcDbArc
 50
270.0
 51
355.7108466712
  0
ARC
  5
3E8
100
AcDbEntity
  8
0
100
AcDbCircle
 62
7
  6
CONTINUOUS
 10
5.2412779527
 20
13.6464104901
 40
0.015
100
AcDbArc
 50
184.2891533288
 51
270.0
  0
ARC
  5
3E9
100
AcDbEntity
  8
0
100
AcDbCircle
 62
7
  6
CONTINUOUS
 10
5.323443696
 20
13.6464104901
 40
0.015
100
AcDbArc
 50
270.0
 51
355.7108466712
  0
ARC
  5
3EA
100
AcDbEntity
  8
0
100
AcDbCircle
 62
7
  6
CONTINUOUS
 10
4.9964340222
 20
13.6464104901
 40
0.015
100
AcDbArc
 50
184.2891533288
 51
270.0
  0
ARC
  5
3EB
100
AcDbEntity
  8
0
100
AcDbCircle
 62
7
  6
CONTINUOUS
 10
5.0785997655
 20
13.6464104901
 40
0.015
100
AcDbArc
 50
270.0
 51
355.7108466712
  0
ARC
  5
3EC
100
AcDbEntity
  8
0
100
AcDbCircle
 62
7
  6
CONTINUOUS
 10
4.9114006175
 20
13.6464104901
 40
0.015
100
AcDbArc
 50
184.2891533288
 51
270.0
  0
ARC
  5
3ED
100
AcDbEntity
  8
0
100
AcDbCircle
 62
7
  6
CONTINUOUS
 10
4.9935663608
 20
13.6464104901
 40
0.015
100
AcDbArc
 50
270.0
 51
275.4872656207
  0
ARC
  5
3EE
100
AcDbEntity
  8
0
100
AcDbCircle
 62
7
  6
CONTINUOUS
 10
6.3214006175
 20
13.6764104901
 40
0.015
100
AcDbArc
 50
184.2891533288
 51
270.0
  0
ARC
  5
3EF
100
AcDbEntity
  8
0
100
AcDbCircle
 62
7
  6
CONTINUOUS
 10
5.8451735745
 20
13.6764104901
 40
0.015
100
AcDbArc
 50
184.2891533288
 51
270.0
  0
ARC
  5
3F0
100
AcDbEntity
  8
0
100
AcDbCircle
 62
7
  6
CONTINUOUS
 10
5.9273393178
 20
13.6764104901
 40
0.015
100
AcDbArc
 50
270.0
 51
355.7108466712
  0
ARC
  5
3F1
100
AcDbEntity
  8
0
100
AcDbCircle
 62
7
  6
CONTINUOUS
 10
5.4014006175
 20
13.6764104901
 40
0.015
100
AcDbArc
 50
184.2891533288
 51
270.0
  0
ARC
  5
3F2
100
AcDbEntity
  8
0
100
AcDbCircle
 62
7
  6
CONTINUOUS
 10
5.4835663608
 20
13.6764104901
 40
0.015
100
AcDbArc
 50
270.0
 51
355.7108466712
  0
ARC
  5
3F3
100
AcDbEntity
  8
0
100
AcDbCircle
 62
7
  6
CONTINUOUS
 10
5.0203241401
 20
13.6764104901
 40
0.015
100
AcDbArc
 50
184.2891533288
 51
270.0
  0
ARC
  5
3F4
100
AcDbEntity
  8
0
100
AcDbCircle
 62
7
  6
CONTINUOUS
 10
5.1024898834
 20
13.6764104901
 40
0.015
100
AcDbArc
 50
270.0
 51
355.7108466712
  0
ARC
  5
3F5
100
AcDbEntity
  8
0
100
AcDbCircle
 62
7
  6
CONTINUOUS
 10
4.8846398844
 20
13.7114104901
 40
0.015
100
AcDbArc
 50
270.0
 51
355.7108466712
  0
ARC
  5
3F6
100
AcDbEntity
  8
0
100
AcDbCircle
 62
7
  6
CONTINUOUS
 10
5.2685663608
 20
13.7114104901
 40
0.015
100
AcDbArc
 50
270.0
 51
355.7108466712
  0
ARC
  5
3F7
100
AcDbEntity
  8
0
100
AcDbCircle
 62
7
  6
CONTINUOUS
 10
5.1864006175
 20
13.7114104901
 40
0.015
100
AcDbArc
 50
184.2891533288
 51
270.0
  0
ARC
  5
3F8
100
AcDbEntity
  8
0
100
AcDbCircle
 62
7
  6
CONTINUOUS
 10
5.7020977836
 20
13.7114104901
 40
0.015
100
AcDbArc
 50
270.0
 51
355.7108466712
  0
ARC
  5
3F9
100
AcDbEntity
  8
0
100
AcDbCircle
 62
7
  6
CONTINUOUS
 10
5.6199320402
 20
13.7114104901
 40
0.015
100
AcDbArc
 50
184.2891533288
 51
270.0
  0
ARC
  5
3FA
100
AcDbEntity
  8
0
100
AcDbCircle
 62
7
  6
CONTINUOUS
 10
6.1662867492
 20
13.7114104901
 40
0.015
100
AcDbArc
 50
270.0
 51
355.7108466712
  0
ARC
  5
3FB
100
AcDbEntity
  8
0
100
AcDbCircle
 62
7
  6
CONTINUOUS
 10
6.0841210059
 20
13.7114104901
 40
0.015
100
AcDbArc
 50
184.2891533288
 51
270.0
  0
ARC
  5
3FC
100
AcDbEntity
  8
0
100
AcDbCircle
 62
7
  6
CONTINUOUS
 10
5.9348577663
 20
14.6353183407
 40
1.0
100
AcDbArc
 50
269.701895091
 51
270.0
  0
ARC
  5
3FD
100
AcDbEntity
  8
0
100
AcDbCircle
 62
7
  6
CONTINUOUS
 10
5.4730847024
 20
14.6483197286
 40
1.0
100
AcDbArc
 50
268.1422256028
 51
268.998836011
  0
ARC
  5
3FE
100
AcDbEntity
  8
0
100
AcDbCircle
 62
7
  6
CONTINUOUS
 10
4.9512423977
 20
14.6740067966
 40
1.0
100
AcDbArc
 50
262.7783136043
 51
266.542266468
  0
ARC
  5
3FF
100
AcDbEntity
  8
0
100
AcDbCircle
 62
7
  6
CONTINUOUS
 10
5.3618362786
 20
14.6528164501
 40
1.0
100
AcDbArc
 50
260.2020724392
 51
262.1365541428
  0
ARC
  5
400
100
AcDbEntity
  8
0
100
AcDbCircle
 62
7
  6
CONTINUOUS
 10
5.772383918
 20
14.6388525593
 40
1.0
100
AcDbArc
 50
266.5620799247
 51
268.5548996513
  0
ARC
  5
401
100
AcDbEntity
  8
0
100
AcDbCircle
 62
7
  6
CONTINUOUS
 10
6.0979834891
 20
16.3378697201
 40
0.188
100
AcDbArc
 50
180.0
 51
225.0
  0
ARC
  5
402
100
AcDbEntity
  8
0
100
AcDbCircle
 62
7
  6
CONTINUOUS
 10
5.9603212291
 20
16.0965227455
 40
0.08
100
AcDbArc
 50
314.9741595356
 51
45.0
  0
ARC
  5
403
100
AcDbEntity
  8
0
100
AcDbCircle
 62
7
  6
CONTINUOUS
 10
4.9324834891
 20
15.1184104901
 40
0.03
100
AcDbArc
 50
90.0
 51
180.0
  0
ARC
  5
404
100
AcDbEntity
  8
0
100
AcDbCircle
 62
7
  6
CONTINUOUS
 10
5.6324834891
 20
15.1784104901
 40
0.03
100
AcDbArc
 50
270.0000000036
 51
360.0
  0
ARC
  5
405
100
AcDbEntity
  8
0
100
AcDbCircle
 62
7
  6
CONTINUOUS
 10
5.6824834891
 20
15.3624104901
 40
0.02
100
AcDbArc
 50
90.0
 51
180.0
  0
ARC
  5
406
100
AcDbEntity
  8
0
100
AcDbCircle
 62
7
  6
CONTINUOUS
 10
5.6824834891
 20
15.4024104901
 40
0.02
100
AcDbArc
 50
180.0
 51
270.0
  0
ARC
  5
407
100
AcDbEntity
  8
0
100
AcDbCircle
 62
7
  6
CONTINUOUS
 10
6.8714006175
 20
13.6114104901
 40
0.015
100
AcDbArc
 50
199.5002305518
 51
270.0
  0
ARC
  5
408
100
AcDbEntity
  8
0
100
AcDbCircle
 62
7
  6
CONTINUOUS
 10
6.9535663608
 20
13.6114104901
 40
0.015
100
AcDbArc
 50
270.0
 51
355.7108466712
  0
ARC
  5
409
100
AcDbEntity
  8
0
100
AcDbCircle
 62
7
  6
CONTINUOUS
 10
6.5964006175
 20
13.6114104901
 40
0.015
100
AcDbArc
 50
184.2891533288
 51
270.0
  0
ARC
  5
40A
100
AcDbEntity
  8
0
100
AcDbCircle
 62
7
  6
CONTINUOUS
 10
6.6785663608
 20
13.6114104901
 40
0.015
100
AcDbArc
 50
270.0
 51
355.7108466712
  0
ARC
  5
40B
100
AcDbEntity
  8
0
100
AcDbCircle
 62
7
  6
CONTINUOUS
 10
7.3014006175
 20
13.6214104901
 40
0.015
100
AcDbArc
 50
184.2891533288
 51
270.0
  0
ARC
  5
40C
100
AcDbEntity
  8
0
100
AcDbCircle
 62
7
  6
CONTINUOUS
 10
7.3835663608
 20
13.6214104901
 40
0.015
100
AcDbArc
 50
270.0
 51
355.7108466712
  0
ARC
  5
40D
100
AcDbEntity
  8
0
100
AcDbCircle
 62
7
  6
CONTINUOUS
 10
7.1701055132
 20
13.6214104901
 40
0.015
100
AcDbArc
 50
184.2891533288
 51
270.0
  0
ARC
  5
40E
100
AcDbEntity
  8
0
100
AcDbCircle
 62
7
  6
CONTINUOUS
 10
7.2522712565
 20
13.6214104901
 40
0.015
100
AcDbArc
 50
270.0
 51
355.7108466712
  0
ARC
  5
40F
100
AcDbEntity
  8
0
100
AcDbCircle
 62
7
  6
CONTINUOUS
 10
6.8114006175
 20
13.6214104901
 40
0.015
100
AcDbArc
 50
184.2891533288
 51
270.0
  0
ARC
  5
410
100
AcDbEntity
  8
0
100
AcDbCircle
 62
7
  6
CONTINUOUS
 10
6.8935663608
 20
13.6214104901
 40
0.015
100
AcDbArc
 50
270.0
 51
355.7108466712
  0
ARC
  5
411
100
AcDbEntity
  8
0
100
AcDbCircle
 62
7
  6
CONTINUOUS
 10
6.4035663608
 20
13.6214104901
 40
0.015
100
AcDbArc
 50
270.0
 51
355.7108466712
  0
ARC
  5
412
100
AcDbEntity
  8
0
100
AcDbCircle
 62
7
  6
CONTINUOUS
 10
7.7314006175
 20
13.6464104901
 40
0.015
100
AcDbArc
 50
264.5127343793
 51
270.0
  0
ARC
  5
413
100
AcDbEntity
  8
0
100
AcDbCircle
 62
7
  6
CONTINUOUS
 10
7.8135663608
 20
13.6464104901
 40
0.015
100
AcDbArc
 50
270.0
 51
355.7108466712
  0
ARC
  5
414
100
AcDbEntity
  8
0
100
AcDbCircle
 62
7
  6
CONTINUOUS
 10
7.6463672128
 20
13.6464104901
 40
0.015
100
AcDbArc
 50
184.2891533288
 51
270.0
  0
ARC
  5
415
100
AcDbEntity
  8
0
100
AcDbCircle
 62
7
  6
CONTINUOUS
 10
7.7285329561
 20
13.6464104901
 40
0.015
100
AcDbArc
 50
270.0
 51
355.7108466712
  0
ARC
  5
416
100
AcDbEntity
  8
0
100
AcDbCircle
 62
7
  6
CONTINUOUS
 10
7.4015232823
 20
13.6464104901
 40
0.015
100
AcDbArc
 50
184.2891533288
 51
270.0
  0
ARC
  5
417
100
AcDbEntity
  8
0
100
AcDbCircle
 62
7
  6
CONTINUOUS
 10
7.4836890256
 20
13.6464104901
 40
0.015
100
AcDbArc
 50
270.0
 51
355.7108466712
  0
ARC
  5
418
100
AcDbEntity
  8
0
100
AcDbCircle
 62
7
  6
CONTINUOUS
 10
7.0264006175
 20
13.6464104901
 40
0.015
100
AcDbArc
 50
184.2891533288
 51
270.0
  0
ARC
  5
419
100
AcDbEntity
  8
0
100
AcDbCircle
 62
7
  6
CONTINUOUS
 10
7.1085663608
 20
13.6464104901
 40
0.015
100
AcDbArc
 50
270.0
 51
355.7108466712
  0
ARC
  5
41A
100
AcDbEntity
  8
0
100
AcDbCircle
 62
7
  6
CONTINUOUS
 10
6.566244548
 20
13.6464104901
 40
0.015
100
AcDbArc
 50
184.2891533288
 51
270.0
  0
ARC
  5
41B
100
AcDbEntity
  8
0
100
AcDbCircle
 62
7
  6
CONTINUOUS
 10
6.6484102913
 20
13.6464104901
 40
0.015
100
AcDbArc
 50
270.0
 51
355.7108466712
  0
ARC
  5
41C
100
AcDbEntity
  8
0
100
AcDbCircle
 62
7
  6
CONTINUOUS
 10
7.6224770949
 20
13.6764104901
 40
0.015
100
AcDbArc
 50
184.2891533288
 51
270.0
  0
ARC
  5
41D
100
AcDbEntity
  8
0
100
AcDbCircle
 62
7
  6
CONTINUOUS
 10
7.7046428382
 20
13.6764104901
 40
0.015
100
AcDbArc
 50
270.0
 51
355.7108466712
  0
ARC
  5
41E
100
AcDbEntity
  8
0
100
AcDbCircle
 62
7
  6
CONTINUOUS
 10
7.2414006175
 20
13.6764104901
 40
0.015
100
AcDbArc
 50
184.2891533288
 51
270.0
  0
ARC
  5
41F
100
AcDbEntity
  8
0
100
AcDbCircle
 62
7
  6
CONTINUOUS
 10
7.3235663608
 20
13.6764104901
 40
0.015
100
AcDbArc
 50
270.0
 51
355.7108466712
  0
ARC
  5
420
100
AcDbEntity
  8
0
100
AcDbCircle
 62
7
  6
CONTINUOUS
 10
6.7976276605
 20
13.6764104901
 40
0.015
100
AcDbArc
 50
184.2891533288
 51
270.0
  0
ARC
  5
421
100
AcDbEntity
  8
0
100
AcDbCircle
 62
7
  6
CONTINUOUS
 10
6.8797934038
 20
13.6764104901
 40
0.015
100
AcDbArc
 50
270.0
 51
355.7108466712
  0
ARC
  5
422
100
AcDbEntity
  8
0
100
AcDbCircle
 62
7
  6
CONTINUOUS
 10
6.4035663608
 20
13.6764104901
 40
0.015
100
AcDbArc
 50
270.0
 51
355.7108466712
  0
ARC
  5
423
100
AcDbEntity
  8
0
100
AcDbCircle
 62
7
  6
CONTINUOUS
 10
6.6408459724
 20
13.7114104901
 40
0.015
100
AcDbArc
 50
270.0
 51
355.7108466712
  0
ARC
  5
424
100
AcDbEntity
  8
0
100
AcDbCircle
 62
7
  6
CONTINUOUS
 10
6.5586802291
 20
13.7114104901
 40
0.015
100
AcDbArc
 50
184.2891533288
 51
270.0
  0
ARC
  5
425
100
AcDbEntity
  8
0
100
AcDbCircle
 62
7
  6
CONTINUOUS
 10
7.105034938
 20
13.7114104901
 40
0.015
100
AcDbArc
 50
270.0
 51
355.7108466712
  0
ARC
  5
426
100
AcDbEntity
  8
0
100
AcDbCircle
 62
7
  6
CONTINUOUS
 10
7.0228691947
 20
13.7114104901
 40
0.015
100
AcDbArc
 50
184.2891533288
 51
270.0
  0
ARC
  5
427
100
AcDbEntity
  8
0
100
AcDbCircle
 62
7
  6
CONTINUOUS
 10
7.5385663608
 20
13.7114104901
 40
0.015
100
AcDbArc
 50
270.0
 51
355.7108466712
  0
ARC
  5
428
100
AcDbEntity
  8
0
100
AcDbCircle
 62
7
  6
CONTINUOUS
 10
7.4564006175
 20
13.7114104901
 40
0.015
100
AcDbArc
 50
184.2891533288
 51
270.0
  0
ARC
  5
429
100
AcDbEntity
  8
0
100
AcDbCircle
 62
7
  6
CONTINUOUS
 10
7.8403270939
 20
13.7114104901
 40
0.015
100
AcDbArc
 50
184.2891533288
 51
270.0
  0
ARC
  5
42A
100
AcDbEntity
  8
0
100
AcDbCircle
 62
7
  6
CONTINUOUS
 10
6.790109212
 20
14.6353183407
 40
1.0
100
AcDbArc
 50
270.0
 51
270.298104909
  0
ARC
  5
42B
100
AcDbEntity
  8
0
100
AcDbCircle
 62
7
  6
CONTINUOUS
 10
7.2518822759
 20
14.6483197286
 40
1.0
100
AcDbArc
 50
271.001163989
 51
271.8577743972
  0
ARC
  5
42C
100
AcDbEntity
  8
0
100
AcDbCircle
 62
7
  6
CONTINUOUS
 10
7.7737245805
 20
14.6740067966
 40
1.0
100
AcDbArc
 50
273.457733532
 51
277.2216863957
  0
ARC
  5
42D
100
AcDbEntity
  8
0
100
AcDbCircle
 62
7
  6
CONTINUOUS
 10
7.3631306997
 20
14.6528164501
 40
1.0
100
AcDbArc
 50
277.8634458572
 51
279.7979275608
  0
ARC
  5
42E
100
AcDbEntity
  8
0
100
AcDbCircle
 62
7
  6
CONTINUOUS
 10
6.9525830602
 20
14.6388525593
 40
1.0
100
AcDbArc
 50
271.4451003487
 51
273.4379200753
  0
ARC
  5
42F
100
AcDbEntity
  8
0
100
AcDbCircle
 62
7
  6
CONTINUOUS
 10
7.252398135
 20
14.5736288728
 40
0.9253336424
100
AcDbArc
 50
271.9757788691
 51
272.3026137235
  0
ARC
  5
430
100
AcDbEntity
  8
0
100
AcDbCircle
 62
7
  6
CONTINUOUS
 10
9.2874834891
 20
13.9487309982
 40
0.03
100
AcDbArc
 50
299.9999999979
 51
360.0
  0
ARC
  5
431
100
AcDbEntity
  8
0
100
AcDbCircle
 62
7
  6
CONTINUOUS
 10
9.0016142538
 20
13.7836843182
 40
0.03
100
AcDbArc
 50
283.2395482929
 51
299.999999998
  0
ARC
  5
432
100
AcDbEntity
  8
0
100
AcDbCircle
 62
7
  6
CONTINUOUS
 10
8.2435663608
 20
13.6764104901
 40
0.015
100
AcDbArc
 50
270.0
 51
355.7108466712
  0
ARC
  5
433
100
AcDbEntity
  8
0
100
AcDbCircle
 62
7
  6
CONTINUOUS
 10
8.0987041378
 20
13.6764104901
 40
0.015
100
AcDbArc
 50
184.2891533288
 51
270.0
  0
ARC
  5
434
100
AcDbEntity
  8
0
100
AcDbCircle
 62
7
  6
CONTINUOUS
 10
8.1808698812
 20
13.6764104901
 40
0.015
100
AcDbArc
 50
270.0
 51
355.7108466712
  0
ARC
  5
435
100
AcDbEntity
  8
0
100
AcDbCircle
 62
7
  6
CONTINUOUS
 10
7.9148873604
 20
13.6764104901
 40
0.015
100
AcDbArc
 50
184.2891533288
 51
270.0
  0
ARC
  5
436
100
AcDbEntity
  8
0
100
AcDbCircle
 62
7
  6
CONTINUOUS
 10
7.9970531038
 20
13.6764104901
 40
0.015
100
AcDbArc
 50
270.0
 51
355.7108466712
  0
ARC
  5
437
100
AcDbEntity
  8
0
100
AcDbCircle
 62
7
  6
CONTINUOUS
 10
7.9224928372
 20
13.7114104901
 40
0.015
100
AcDbArc
 50
270.0
 51
355.7108466712
  0
ARC
  5
438
100
AcDbEntity
  8
0
100
AcDbCircle
 62
7
  6
CONTINUOUS
 10
8.240034938
 20
13.7114104901
 40
0.015
100
AcDbArc
 50
270.0
 51
355.7108466712
  0
ARC
  5
439
100
AcDbEntity
  8
0
100
AcDbCircle
 62
7
  6
CONTINUOUS
 10
8.1578691947
 20
13.7114104901
 40
0.015
100
AcDbArc
 50
184.2891533288
 51
270.0
  0
ARC
  5
43A
100
AcDbEntity
  8
0
100
AcDbCircle
 62
7
  6
CONTINUOUS
 10
8.4773145496
 20
13.7114104901
 40
0.015
100
AcDbArc
 50
270.0
 51
355.7108466712
  0
ARC
  5
43B
100
AcDbEntity
  8
0
100
AcDbCircle
 62
7
  6
CONTINUOUS
 10
8.3951488063
 20
13.7114104901
 40
0.015
100
AcDbArc
 50
184.2891533288
 51
270.0
  0
ARC
  5
43C
100
AcDbEntity
  8
0
100
AcDbCircle
 62
7
  6
CONTINUOUS
 10
8.6239614145
 20
13.7114104901
 40
0.015
100
AcDbArc
 50
270.0
 51
355.7108466712
  0
ARC
  5
43D
100
AcDbEntity
  8
0
100
AcDbCircle
 62
7
  6
CONTINUOUS
 10
8.5417956711
 20
13.7114104901
 40
0.015
100
AcDbArc
 50
184.2891533288
 51
270.0
  0
ARC
  5
43E
100
AcDbEntity
  8
0
100
AcDbCircle
 62
7
  6
CONTINUOUS
 10
8.6735663608
 20
13.7114104901
 40
0.015
100
AcDbArc
 50
270.0
 51
355.7108466712
  0
ARC
  5
43F
100
AcDbEntity
  8
0
100
AcDbCircle
 62
7
  6
CONTINUOUS
 10
8.4827493711
 20
14.7276711697
 40
1.0
100
AcDbArc
 50
270.6208621919
 51
272.4479131983
  0
ARC
  5
440
100
AcDbEntity
  8
0
100
AcDbCircle
 62
7
  6
CONTINUOUS
 10
8.0725066752
 20
14.6939794699
 40
1.0
100
AcDbArc
 50
270.0
 51
270.5629873164
  0
ARC
  5
441
100
AcDbEntity
  8
0
100
AcDbCircle
 62
7
  6
CONTINUOUS
 10
8.1843648445
 20
14.7024457444
 40
1.0
100
AcDbArc
 50
274.4656691658
 51
281.2442845575
  0
ARC
  5
442
100
AcDbEntity
  8
0
100
AcDbCircle
 62
7
  6
CONTINUOUS
 10
9.2874834891
 20
14.8274104901
 40
0.03
100
AcDbArc
 50
0.0
 51
90.0
  0
ARC
  5
443
100
AcDbEntity
  8
0
100
AcDbCircle
 62
7
  6
CONTINUOUS
 10
7.8524834891
 20
14.8874104901
 40
0.03
100
AcDbArc
 50
180.0
 51
269.9999999999
  0
ARC
  5
444
100
AcDbEntity
  8
0
100
AcDbCircle
 62
7
  6
CONTINUOUS
 10
6.3624834891
 20
15.6939975704
 40
0.489
100
AcDbArc
 50
30.394893546
 51
45.0258404644
  0
ARC
  5
445
100
AcDbEntity
  8
0
100
AcDbCircle
 62
7
  6
CONTINUOUS
 10
6.3624834891
 20
15.6939975704
 40
0.489
100
AcDbArc
 50
134.9741595356
 51
149.605106454
  0
ARC
  5
446
100
AcDbEntity
  8
0
100
AcDbCircle
 62
7
  6
CONTINUOUS
 10
6.6269834891
 20
16.3378697201
 40
0.188
100
AcDbArc
 50
315.0
 51
360.0
  0
ARC
  5
447
100
AcDbEntity
  8
0
100
AcDbCircle
 62
7
  6
CONTINUOUS
 10
6.7646457492
 20
16.0965227455
 40
0.08
100
AcDbArc
 50
135.0
 51
225.0258404644
  0
ARC
  5
448
100
AcDbEntity
  8
0
100
AcDbCircle
 62
7
  6
CONTINUOUS
 10
7.7924834891
 20
15.1184104901
 40
0.03
100
AcDbArc
 50
0.0
 51
90.0
  0
ARC
  5
449
100
AcDbEntity
  8
0
100
AcDbCircle
 62
7
  6
CONTINUOUS
 10
7.0924834891
 20
15.1784104901
 40
0.03
100
AcDbArc
 50
180.0
 51
269.9999999964
  0
ARC
  5
44A
100
AcDbEntity
  8
0
100
AcDbCircle
 62
7
  6
CONTINUOUS
 10
7.0424834891
 20
15.3624104901
 40
0.02
100
AcDbArc
 50
0.0
 51
90.0
  0
ARC
  5
44B
100
AcDbEntity
  8
0
100
AcDbCircle
 62
7
  6
CONTINUOUS
 10
7.0424834891
 20
15.4024104901
 40
0.02
100
AcDbArc
 50
270.0
 51
360.0
  0
ARC
  5
44C
100
AcDbEntity
  8
0
100
AcDbCircle
 62
7
  6
CONTINUOUS
 10
6.3624834891
 20
38.0303390616
 40
24.3989285714
100
AcDbArc
 50
264.2430588061
 51
264.5237244568
  0
ARC
  5
44D
100
AcDbEntity
  8
0
100
AcDbCircle
 62
7
  6
CONTINUOUS
 10
6.3624834891
 20
38.0303390616
 40
24.3989285714
100
AcDbArc
 50
275.4762755432
 51
275.7569411939
  0
ARC
  5
44E
100
AcDbEntity
  8
0
100
AcDbCircle
 62
7
  6
CONTINUOUS
 10
6.3624834891
 20
38.0303390616
 40
24.3989285714
100
AcDbArc
 50
271.4283633978
 51
271.4451003487
  0
ARC
  5
44F
100
AcDbEntity
  8
0
100
AcDbCircle
 62
7
  6
CONTINUOUS
 10
6.3624834891
 20
38.0303390616
 40
24.3989285714
100
AcDbArc
 50
268.5548996513
 51
268.5716366022
  0
ARC
  5
450
100
AcDbEntity
  8
0
100
AcDbCircle
 62
7
  6
CONTINUOUS
 10
16.0504829469
 20
6.4199981126
 40
0.0899998951
100
AcDbArc
 50
89.9996548234
 51
180.0003451766
  0
ARC
  5
451
100
AcDbEntity
  8
0
100
AcDbCircle
 62
7
  6
CONTINUOUS
 10
16.8474834891
 20
5.1339975704
 40
0.031
100
AcDbArc
 50
44.7546926505
 51
90.0
  0
ARC
  5
452
100
AcDbEntity
  8
0
100
AcDbCircle
 62
7
  6
CONTINUOUS
 10
16.7574834891
 20
5.1339975704
 40
0.031
100
AcDbArc
 50
90.0
 51
103.0407610339
  0
ARC
  5
453
100
AcDbEntity
  8
0
100
AcDbCircle
 62
7
  6
CONTINUOUS
 10
16.8474834891
 20
4.2959975704
 40
0.031
100
AcDbArc
 50
270.0
 51
315.2453073495
  0
ARC
  5
454
100
AcDbEntity
  8
0
100
AcDbCircle
 62
7
  6
CONTINUOUS
 10
16.7574834891
 20
4.2959975704
 40
0.031
100
AcDbArc
 50
256.9592389661
 51
270.0
  0
ARC
  5
455
100
AcDbEntity
  8
0
100
AcDbCircle
 62
7
  6
CONTINUOUS
 10
16.6214834891
 20
5.1024975704
 40
0.031
100
AcDbArc
 50
103.0407610339
 51
180.0
  0
ARC
  5
456
100
AcDbEntity
  8
0
100
AcDbCircle
 62
7
  6
CONTINUOUS
 10
16.6214834891
 20
4.3274975704
 40
0.031
100
AcDbArc
 50
180.0
 51
256.9592389661
  0
ARC
  5
457
100
AcDbEntity
  8
0
100
AcDbCircle
 62
7
  6
CONTINUOUS
 10
15.2404834891
 20
7.2299975704
 40
0.03
100
AcDbArc
 50
89.9999999998
 51
180.0000000021
  0
ARC
  5
458
100
AcDbEntity
  8
0
100
AcDbCircle
 62
7
  6
CONTINUOUS
 10
17.7324834891
 20
17.7899975704
 40
0.03
100
AcDbArc
 50
180.0
 51
270.0
  0
ARC
  5
459
100
AcDbEntity
  8
0
100
AcDbCircle
 62
7
  6
CONTINUOUS
 10
17.7924834891
 20
-1.9600024296
 40
0.03
100
AcDbArc
 50
180.0
 51
270.0
  0
ARC
  5
45A
100
AcDbEntity
  8
0
100
AcDbCircle
 62
7
  6
CONTINUOUS
 10
17.7924834891
 20
-0.2700024296
 40
0.03
100
AcDbArc
 50
90.0
 51
180.0
  0
ARC
  5
45B
100
AcDbEntity
  8
0
100
AcDbCircle
 62
7
  6
CONTINUOUS
 10
15.9404834891
 20
3.9049975704
 40
0.02
100
AcDbArc
 50
270.0
 51
360.0
  0
ARC
  5
45C
100
AcDbEntity
  8
0
100
AcDbCircle
 62
7
  6
CONTINUOUS
 10
15.2304834891
 20
3.9049975704
 40
0.02
100
AcDbArc
 50
180.0
 51
270.0
  0
ARC
  5
45D
100
AcDbEntity
  8
0
100
AcDbCircle
 62
7
  6
CONTINUOUS
 10
17.6824834891
 20
9.8360499147
 40
0.02
100
AcDbArc
 50
95.0
 51
180.0
  0
ARC
  5
45E
100
AcDbEntity
  8
0
100
AcDbCircle
 62
7
  6
CONTINUOUS
 10
17.6824834891
 20
3.9339452261
 40
0.02
100
AcDbArc
 50
180.0
 51
265.0
  0
ARC
  5
45F
100
AcDbEntity
  8
0
100
AcDbCircle
 62
7
  6
CONTINUOUS
 10
17.7324834891
 20
19.9799975704
 40
0.03
100
AcDbArc
 50
90.0
 51
180.0
  0
LINE
  5
460
100
AcDbEntity
  8
0
100
AcDbLine
 62
7
  6
CONTINUOUS
 10
5.9562334874
 20
16.6606309712
 11
5.9567094571
 21
16.6600808397
  0
SPLINE
  5
461
100
AcDbEntity
  8
0
100
AcDbSpline
 62
7
  6
CONTINUOUS
 70
0
 71
3
 72
14
 73
10
 74
0
 42
0.0000001
 43
0.0000001
 44
0.0000000001
 40
0.0
 40
0.0
 40
0.0
 40
0.0
 40
0.0912775163
 40
0.1866741616
 40
0.2898167603
 40
0.4035910127
 40
0.5301524139
 40
0.6710670942
 40
1.0
 40
1.0
 40
1.0
 40
1.0
 10
5.9562334952
 20
16.6797943181
 30
0.0
 10
5.9562334951
 20
16.6798516142
 30
0.0
 10
5.9562464831
 20
16.6799691492
 30
0.0
 10
5.9563040536
 20
16.6801429021
 30
0.0
 10
5.9563989925
 20
16.6803154817
 30
0.0
 10
5.9565306752
 20
16.6804870304
 30
0.0
 10
5.9566988408
 20
16.6806579854
 30
0.0
 10
5.9569867829
 20
16.6808979297
 30
0.0
 10
5.9572359277
 20
16.681058009
 30
0.0
 10
5.957414611
 20
16.6811614718
 30
0.0
  0
SPLINE
  5
462
100
AcDbEntity
  8
0
100
AcDbSpline
 62
7
  6
CONTINUOUS
 70
0
 71
3
 72
66
 73
62
 74
0
 42
0.0000001
 43
0.0000001
 44
0.0000000001
 40
0.0
 40
0.0
 40
0.0
 40
0.0
 40
0.0002831788
 40
0.0005079596
 40
0.0007996997
 40
0.0011617626
 40
0.0015958578
 40
0.0026834377
 40
0.004066276
 40
0.0057454563
 40
0.0099925159
 40
0.0154186131
 40
0.0220122416
 40
0.0297578831
 40
0.0386367373
 40
0.0486272082
 40
0.0597046236
 40
0.0718417541
 40
0.0850088667
 40
0.099173543
 40
0.114301185
 40
0.1472954454
 40
0.1836709603
 40
0.2230758906
 40
0.2651308986
 40
0.3094328271
 40
0.3555582424
 40
0.4030673198
 40
0.4515076298
 40
0.5004180308
 40
0.5493326333
 40
0.5977848139
 40
0.645311295
 40
0.6914561774
 40
0.7357752447
 40
0.7778401033
 40
0.817242472
 40
0.8535982772
 40
0.8865517954
 40
0.9157797037
 40
0.9289053179
 40
0.9409947577
 40
0.9520183689
 40
0.9619492164
 40
0.970762938
 40
0.9784384
 40
0.9849573841
 40
0.9877784267
 40
0.9903050758
 40
0.9925361941
 40
0.9944708053
 40
0.9961084443
 40
0.9974494447
 40
0.9980091247
 40
0.9984953344
 40
0.9989087159
 40
0.9992504072
 40
0.9995224763
 40
0.999729125
 40
0.9998801626
 40
1.0
 40
1.0
 40
1.0
 40
1.0
 10
4.1997602466
 20
13.7320346392
 30
0.0
 10
4.1997610707
 20
13.7320456269
 30
0.0
 10
4.1997468234
 20
13.7320639933
 30
0.0
 10
4.1997220286
 20
13.7320813373
 30
0.0
 10
4.1996917356
 20
13.7320979528
 30
0.0
 10
4.199653088
 20
13.7321150245
 30
0.0
 10
4.1995845035
 20
13.7321410894
 30
0.0
 10
4.1994765345
 20
13.7321746597
 30
0.0
 10
4.1993204165
 20
13.7322159792
 30
0.0
 10
4.1990434131
 20
13.7322805357
 30
0.0
 10
4.1986101349
 20
13.732366939
 30
0.0
 10
4.1979867873
 20
13.7324768528
 30
0.0
 10
4.1972274202
 20
13.732598826
 30
0.0
 10
4.1963339354
 20
13.7327325297
 30
0.0
 10
4.1953085295
 20
13.7328775067
 30
0.0
 10
4.1941537592
 20
13.733033363
 30
0.0
 10
4.1928724892
 20
13.7331996817
 30
0.0
 10
4.1914678947
 20
13.7333760356
 30
0.0
 10
4.189943445
 20
13.7335619768
 30
0.0
 10
4.1883028929
 20
13.7337570457
 30
0.0
 10
4.1858955107
 20
13.7340368473
 30
0.0
 10
4.1826283388
 20
13.7344047917
 30
0.0
 10
4.1784207452
 20
13.7348628829
 30
0.0
 10
4.1738611424
 20
13.735344916
 30
0.0
 10
4.16899346
 20
13.7358462308
 30
0.0
 10
4.1638644025
 20
13.736361995
 30
0.0
 10
4.1585230251
 20
13.7368872648
 30
0.0
 10
4.1530202985
 20
13.737417019
 30
0.0
 10
4.1474086624
 20
13.7379462019
 30
0.0
 10
4.1417415749
 20
13.7384697656
 30
0.0
 10
4.1360730529
 20
13.7389827136
 30
0.0
 10
4.1304572055
 20
13.7394801437
 30
0.0
 10
4.1249477643
 20
13.7399572914
 30
0.0
 10
4.1195976031
 20
13.7404095737
 30
0.0
 10
4.1144582545
 20
13.7408326329
 30
0.0
 10
4.1095794177
 20
13.7412223824
 30
0.0
 10
4.1050084738
 20
13.7415750465
 30
0.0
 10
4.1007900024
 20
13.7418872183
 30
0.0
 10
4.0969653091
 20
13.7421558655
 30
0.0
 10
4.0940413656
 20
13.7423477154
 30
0.0
 10
4.0919268905
 20
13.7424764801
 30
0.0
 10
4.0905191413
 20
13.7425571494
 30
0.0
 10
4.0892351963
 20
13.7426252641
 30
0.0
 10
4.0880782292
 20
13.7426806693
 30
0.0
 10
4.0870510928
 20
13.7427232656
 30
0.0
 10
4.0861563218
 20
13.7427529746
 30
0.0
 10
4.0854943857
 20
13.7427677027
 30
0.0
 10
4.085032667
 20
13.7427722361
 30
0.0
 10
4.0847377675
 20
13.7427722042
 30
0.0
 10
4.0844773781
 20
13.7427689383
 30
0.0
 10
4.0842516457
 20
13.7427624696
 30
0.0
 10
4.0840606985
 20
13.742752817
 30
0.0
 10
4.083923431
 20
13.7427416733
 30
0.0
 10
4.0838312044
 20
13.7427306167
 30
0.0
 10
4.0837750635
 20
13.7427220428
 30
0.0
 10
4.0837276518
 20
13.7427127036
 30
0.0
 10
4.0836889563
 20
13.7427026152
 30
0.0
 10
4.0836588211
 20
13.7426918059
 30
0.0
 10
4.0836371614
 20
13.742680201
 30
0.0
 10
4.0836230906
 20
13.7426673426
 30
0.0
 10
4.0836199883
 20
13.742656453
 30
0.0
 10
4.083620337
 20
13.7426518032
 30
0.0
  0
SPLINE
  5
463
100
AcDbEntity
  8
0
100
AcDbSpline
 62
7
  6
CONTINUOUS
 70
0
 71
3
 72
60
 73
56
 74
0
 42
0.0000001
 43
0.0000001
 44
0.0000000001
 40
0.0
 40
0.0
 40
0.0
 40
0.0
 40
0.0002349682
 40
0.0004937839
 40
0.0007940195
 40
0.0011470871
 40
0.0020363011
 40
0.0031931486
 40
0.0046301349
 40
0.0063531117
 40
0.0083649814
 40
0.0106668482
 40
0.0161400974
 40
0.0227674221
 40
0.0305364113
 40
0.0394301721
 40
0.0605071697
 40
0.0857989557
 40
0.1150622731
 40
0.148015275
 40
0.184341147
 40
0.2236916636
 40
0.2656907204
 40
0.3099378512
 40
0.356011628
 40
0.4034734848
 40
0.5007438741
 40
0.5980435299
 40
0.6455369065
 40
0.6916457791
 40
0.7359235483
 40
0.7779397554
 40
0.8172846507
 40
0.8535735399
 40
0.8864511768
 40
0.9155960574
 40
0.9286785386
 40
0.9407245298
 40
0.951705166
 40
0.9615945196
 40
0.9703695307
 40
0.97801082
 40
0.9845026739
 40
0.9873140008
 40
0.9898343525
 40
0.9920635522
 40
0.9940019959
 40
0.9956512873
 40
0.9970150892
 40
0.9981006483
 40
0.9989236079
 40
0.9992478794
 40
0.9995246324
 40
0.9997683924
 40
1.0
 40
1.0
 40
1.0
 40
1.0
 10
4.3464330551
 20
13.7323805541
 30
0.0
 10
4.34643374
 20
13.7323896859
 30
0.0
 10
4.3464318638
 20
13.7324092304
 30
0.0
 10
4.3464197736
 20
13.7324380795
 30
0.0
 10
4.3463989732
 20
13.7324671705
 30
0.0
 10
4.3463564262
 20
13.7325098991
 30
0.0
 10
4.3462791177
 20
13.7325635199
 30
0.0
 10
4.3461588738
 20
13.7326267404
 30
0.0
 10
4.3460040836
 20
13.7326930385
 30
0.0
 10
4.3458147539
 20
13.7327623457
 30
0.0
 10
4.3455907943
 20
13.732834573
 30
0.0
 10
4.345224442
 20
13.7329408957
 30
0.0
 10
4.3446800202
 20
13.7330781687
 30
0.0
 10
4.3439239357
 20
13.7332457622
 30
0.0
 10
4.3430337884
 20
13.7334236227
 30
0.0
 10
4.3415870632
 20
13.7336890896
 30
0.0
 10
4.3394615201
 20
13.7340376024
 30
0.0
 10
4.3365455716
 20
13.7344690048
 30
0.0
 10
4.3331661948
 20
13.7349289363
 30
0.0
 10
4.3293562593
 20
13.7354128041
 30
0.0
 10
4.3251525708
 20
13.735915691
 30
0.0
 10
4.3205955944
 20
13.7364326702
 30
0.0
 10
4.315729022
 20
13.7369587103
 30
0.0
 10
4.3105993878
 20
13.7374887325
 30
0.0
 10
4.3052556546
 20
13.7380176493
 30
0.0
 10
4.2978525994
 20
13.7387203384
 30
0.0
 10
4.2884569936
 20
13.7395576318
 30
0.0
 10
4.2790543179
 20
13.7403266198
 30
0.0
 10
4.2716356336
 20
13.7408902802
 30
0.0
 10
4.2662758407
 20
13.7412757411
 30
0.0
 10
4.2611274056
 20
13.741623615
 30
0.0
 10
4.2562404687
 20
13.7419305152
 30
0.0
 10
4.2516627987
 20
13.7421934661
 30
0.0
 10
4.2474392781
 20
13.742409959
 30
0.0
 10
4.2436114181
 20
13.7425779232
 30
0.0
 10
4.2406860478
 20
13.7426797183
 30
0.0
 10
4.2385715188
 20
13.7427337047
 30
0.0
 10
4.2371644591
 20
13.7427596931
 30
0.0
 10
4.2358816668
 20
13.74277266
 30
0.0
 10
4.2347262843
 20
13.7427726028
 30
0.0
 10
4.2337011152
 20
13.7427595969
 30
0.0
 10
4.2328086447
 20
13.742733729
 30
0.0
 10
4.2321490193
 20
13.7427003433
 30
0.0
 10
4.2316894935
 20
13.7426657923
 30
0.0
 10
4.2313961154
 20
13.7426379635
 30
0.0
 10
4.231137275
 20
13.7426070267
 30
0.0
 10
4.2309130783
 20
13.7425730303
 30
0.0
 10
4.2307236187
 20
13.7425360488
 30
0.0
 10
4.2305687441
 20
13.7424961936
 30
0.0
 10
4.2304484359
 20
13.7424535481
 30
0.0
 10
4.2303706216
 20
13.7424129604
 30
0.0
 10
4.2303278217
 20
13.7423772596
 30
0.0
 10
4.2303068933
 20
13.7423514781
 30
0.0
 10
4.2302948298
 20
13.7423242983
 30
0.0
 10
4.2302931789
 20
13.7423054421
 30
0.0
 10
4.230293854
 20
13.7422964409
 30
0.0
  0
SPLINE
  5
464
100
AcDbEntity
  8
0
100
AcDbSpline
 62
7
  6
CONTINUOUS
 70
0
 71
3
 72
56
 73
52
 74
0
 42
0.0000001
 43
0.0000001
 44
0.0000000001
 40
0.0
 40
0.0
 40
0.0
 40
0.0
 40
0.0006851924
 40
0.0014919462
 40
0.0024981447
 40
0.0037445153
 40
0.0052518813
 40
0.007031394
 40
0.0090893396
 40
0.0114290649
 40
0.01695894
 40
0.023623909
 40
0.0314161263
 40
0.0403215981
 40
0.0503220483
 40
0.0613953292
 40
0.0735161594
 40
0.0866564987
 40
0.1158693808
 40
0.1487584573
 40
0.1850119423
 40
0.2242858525
 40
0.2662075083
 40
0.3103790258
 40
0.3563806843
 40
0.4037747561
 40
0.5009216186
 40
0.5981059937
 40
0.6915863867
 40
0.7357967347
 40
0.7777397295
 40
0.8170056627
 40
0.8532109708
 40
0.8860027953
 40
0.915063517
 40
0.9281063038
 40
0.9401153479
 40
0.9510629083
 40
0.9609244613
 40
0.9696787431
 40
0.9773087831
 40
0.9838023242
 40
0.9891537398
 40
0.9914026849
 40
0.9933695764
 40
0.9950587397
 40
0.9964779938
 40
0.9976412199
 40
0.9985746247
 40
0.9993295647
 40
1.0
 40
1.0
 40
1.0
 40
1.0
 10
4.5837546946
 20
13.7329409263
 30
0.0
 10
4.5837566958
 20
13.732967609
 30
0.0
 10
4.583746549
 20
13.7330271468
 30
0.0
 10
4.5836943645
 20
13.7331112665
 30
0.0
 10
4.5836089049
 20
13.7331956815
 30
0.0
 10
4.5834896445
 20
13.7332819701
 30
0.0
 10
4.5833362177
 20
13.7333706917
 30
0.0
 10
4.5831483394
 20
13.7334619135
 30
0.0
 10
4.5829259594
 20
13.7335556072
 30
0.0
 10
4.5825627497
 20
13.7336914033
 30
0.0
 10
4.5820215948
 20
13.7338636194
 30
0.0
 10
4.5812686297
 20
13.7340696335
 30
0.0
 10
4.580381719
 20
13.7342840128
 30
0.0
 10
4.5793630008
 20
13.7345061645
 30
0.0
 10
4.5782148874
 20
13.7347354026
 30
0.0
 10
4.5769401723
 20
13.7349711122
 30
0.0
 10
4.5755419531
 20
13.7352126833
 30
0.0
 10
4.5734421954
 20
13.7355539463
 30
0.0
 10
4.5705358909
 20
13.7359872785
 30
0.0
 10
4.5667299107
 20
13.7365046253
 30
0.0
 10
4.5625288608
 20
13.7370307554
 30
0.0
 10
4.5579729745
 20
13.7375605215
 30
0.0
 10
4.5531057663
 20
13.7380887264
 30
0.0
 10
4.5479736902
 20
13.7386102426
 30
0.0
 10
4.5426257248
 20
13.739120035
 30
0.0
 10
4.5352143503
 20
13.739782944
 30
0.0
 10
4.5258053189
 20
13.7405455148
 30
0.0
 10
4.5145934776
 20
13.7413350072
 30
0.0
 10
4.5054372078
 20
13.7418788465
 30
0.0
 10
4.4984309408
 20
13.7422281453
 30
0.0
 10
4.4935376237
 20
13.7424382512
 30
0.0
 10
4.488955233
 20
13.7425994559
 30
0.0
 10
4.4847288067
 20
13.7427102712
 30
0.0
 10
4.4808999062
 20
13.7427697124
 30
0.0
 10
4.4779750264
 20
13.7427765998
 30
0.0
 10
4.4758619631
 20
13.742753167
 30
0.0
 10
4.4744564322
 20
13.7427231748
 30
0.0
 10
4.4731755226
 20
13.7426802841
 30
0.0
 10
4.472022323
 20
13.7426246551
 30
0.0
 10
4.4709995903
 20
13.7425564942
 30
0.0
 10
4.4701096795
 20
13.742476151
 30
0.0
 10
4.4693546416
 20
13.7423839152
 30
0.0
 10
4.4688114125
 20
13.74229336
 30
0.0
 10
4.4684466261
 20
13.7422121976
 30
0.0
 10
4.4682239019
 20
13.7421520771
 30
0.0
 10
4.4680357755
 20
13.7420892203
 30
0.0
 10
4.4678821185
 20
13.7420236605
 30
0.0
 10
4.4677625504
 20
13.7419552547
 30
0.0
 10
4.4676764547
 20
13.7418833326
 30
0.0
 10
4.4676237496
 20
13.7418054517
 30
0.0
 10
4.4676145794
 20
13.7417482575
 30
0.0
 10
4.4676165375
 20
13.7417221494
 30
0.0
  0
SPLINE
  5
465
100
AcDbEntity
  8
0
100
AcDbSpline
 62
7
  6
CONTINUOUS
 70
0
 71
3
 72
55
 73
51
 74
0
 42
0.0000001
 43
0.0000001
 44
0.0000000001
 40
0.0
 40
0.0
 40
0.0
 40
0.0
 40
0.0008553307
 40
0.0018066458
 40
0.0029278321
 40
0.0042646172
 40
0.0058436005
 40
0.007680396
 40
0.0097844576
 40
0.0121613754
 40
0.0177446946
 40
0.0244422502
 40
0.0322513423
 40
0.0411613386
 40
0.0511563444
 40
0.062216026
 40
0.0743165246
 40
0.0874309935
 40
0.1165793229
 40
0.1493923639
 40
0.1855635687
 40
0.224753016
 40
0.2665910106
 40
0.3106816501
 40
0.4039265771
 40
0.5009357092
 40
0.5979841477
 40
0.6913180119
 40
0.7354490269
 40
0.7773088636
 40
0.8164892847
 40
0.8526093158
 40
0.8853199289
 40
0.9143086713
 40
0.9273210782
 40
0.9393048038
 40
0.9502333636
 40
0.9600837697
 40
0.9688367014
 40
0.9764777804
 40
0.9829984504
 40
0.9883987826
 40
0.9906833432
 40
0.992695494
 40
0.9944421502
 40
0.9959347968
 40
0.9971924349
 40
0.9982475351
 40
0.9991551864
 40
1.0
 40
1.0
 40
1.0
 40
1.0
 10
4.9013531372
 20
13.7336921495
 30
0.0
 10
4.9013556404
 20
13.7337255267
 30
0.0
 10
4.9013475388
 20
13.7337974808
 30
0.0
 10
4.9012980929
 20
13.7339024175
 30
0.0
 10
4.9012141247
 20
13.7340071742
 30
0.0
 10
4.9010961241
 20
13.7341129285
 30
0.0
 10
4.9009439476
 20
13.7342203525
 30
0.0
 10
4.9007574083
 20
13.7343296322
 30
0.0
 10
4.9005364402
 20
13.7344407992
 30
0.0
 10
4.9001761366
 20
13.7346001308
 30
0.0
 10
4.8996379568
 20
13.7347998923
 30
0.0
 10
4.8988877307
 20
13.7350355061
 30
0.0
 10
4.8980036622
 20
13.73527722
 30
0.0
 10
4.8969878167
 20
13.735524375
 30
0.0
 10
4.8958425192
 20
13.7357762179
 30
0.0
 10
4.8945705071
 20
13.7360320728
 30
0.0
 10
4.8931748252
 20
13.7362912803
 30
0.0
 10
4.8910784667
 20
13.7366533496
 30
0.0
 10
4.8881753599
 20
13.7371053071
 30
0.0
 10
4.8843716579
 20
13.7376339186
 30
0.0
 10
4.8801713896
 20
13.7381607014
 30
0.0
 10
4.8756146259
 20
13.7386804614
 30
0.0
 10
4.8707448051
 20
13.7391880693
 30
0.0
 10
4.8637650335
 20
13.7398544543
 30
0.0
 10
4.8546259833
 20
13.7406166035
 30
0.0
 10
4.843409909
 20
13.7413954657
 30
0.0
 10
4.8321809104
 20
13.7420238205
 30
0.0
 10
4.8230116185
 20
13.742408982
 30
0.0
 10
4.8159973303
 20
13.7426188426
 30
0.0
 10
4.8111001383
 20
13.7427224426
 30
0.0
 10
4.8065156205
 20
13.7427743601
 30
0.0
 10
4.8022888079
 20
13.7427742296
 30
0.0
 10
4.7984611556
 20
13.7427222112
 30
0.0
 10
4.7955386577
 20
13.7426336756
 30
0.0
 10
4.7934284326
 20
13.742533752
 30
0.0
 10
4.792025131
 20
13.7424490444
 30
0.0
 10
4.790746665
 20
13.7423521506
 30
0.0
 10
4.7895960661
 20
13.7422433734
 30
0.0
 10
4.7885760301
 20
13.742123063
 30
0.0
 10
4.7876888108
 20
13.7419917125
 30
0.0
 10
4.7869363755
 20
13.7418497472
 30
0.0
 10
4.7863960271
 20
13.7417169892
 30
0.0
 10
4.7860341576
 20
13.7416023084
 30
0.0
 10
4.7858127919
 20
13.7415186758
 30
0.0
 10
4.7856259339
 20
13.7414326241
 30
0.0
 10
4.785473444
 20
13.7413440924
 30
0.0
 10
4.7853550648
 20
13.7412528023
 30
0.0
 10
4.7852706066
 20
13.7411578747
 30
0.0
 10
4.7852211035
 20
13.7410578578
 30
0.0
 10
4.7852137063
 20
13.7409879088
 30
0.0
 10
4.7852161788
 20
13.740954942
 30
0.0
  0
LINE
  5
466
100
AcDbEntity
  8
0
100
AcDbLine
 62
9
  6
CONTINUOUS
 10
15.9604834891
 20
6.4199975704
 11
15.5854834891
 21
6.8849975704
  0
SPLINE
  5
467
100
AcDbEntity
  8
0
100
AcDbSpline
 62
7
  6
CONTINUOUS
 70
0
 71
3
 72
56
 73
52
 74
0
 42
0.0000001
 43
0.0000001
 44
0.0000000001
 40
0.0
 40
0.0
 40
0.0
 40
0.0
 40
0.0009897204
 40
0.0020580696
 40
0.0032747777
 40
0.0046875293
 40
0.0063265369
 40
0.0082107071
 40
0.0103520583
 40
0.0127581071
 40
0.0183804223
 40
0.0250978394
 40
0.0329125608
 40
0.0418172364
 40
0.0517983311
 40
0.062837297
 40
0.0749116983
 40
0.0879958559
 40
0.1170745509
 40
0.1498111051
 40
0.1859035103
 40
0.2250150241
 40
0.2667779796
 40
0.3107974465
 40
0.4039108207
 40
0.500795711
 40
0.5977149016
 40
0.6450085913
 40
0.6909066241
 40
0.7349611168
 40
0.776742797
 40
0.8158459871
 40
0.851893251
 40
0.8845400558
 40
0.9134794411
 40
0.9264747022
 40
0.9384475533
 40
0.9493726571
 40
0.9592284038
 40
0.9679972001
 40
0.9756669466
 40
0.9822323079
 40
0.9876982307
 40
0.9900259042
 40
0.9920897975
 40
0.9938987633
 40
0.9954667974
 40
0.9968159108
 40
0.9979811979
 40
0.9990171139
 40
1.0
 40
1.0
 40
1.0
 40
1.0
 10
5.2853478833
 20
13.7346024125
 30
0.0
 10
5.2853507852
 20
13.7346411044
 30
0.0
 10
5.2853439934
 20
13.7347229752
 30
0.0
 10
5.2852966082
 20
13.7348437704
 30
0.0
 10
5.2852140916
 20
13.7349640904
 30
0.0
 10
5.2850972505
 20
13.7350846684
 30
0.0
 10
5.2849461654
 20
13.7352061528
 30
0.0
 10
5.2847607407
 20
13.7353287849
 30
0.0
 10
5.2845409269
 20
13.7354526405
 30
0.0
 10
5.284182997
 20
13.7356286175
 30
0.0
 10
5.2836472156
 20
13.7358473326
 30
0.0
 10
5.2828991201
 20
13.7361024145
 30
0.0
 10
5.2820172269
 20
13.7363610654
 30
0.0
 10
5.2810035264
 20
13.7366225907
 30
0.0
 10
5.2798602611
 20
13.736886205
 30
0.0
 10
5.2785901117
 20
13.7371512008
 30
0.0
 10
5.2771960721
 20
13.7374168961
 30
0.0
 10
5.2751016816
 20
13.7377842158
 30
0.0
 10
5.2721999422
 20
13.7382353582
 30
0.0
 10
5.2683964291
 20
13.7387524391
 30
0.0
 10
5.2641948259
 20
13.739257103
 30
0.0
 10
5.2596351502
 20
13.7397443192
 30
0.0
 10
5.2547608827
 20
13.7402092163
 30
0.0
 10
5.2477727146
 20
13.7408042485
 30
0.0
 10
5.2386209327
 20
13.7414544747
 30
0.0
 10
5.227389132
 20
13.742069498
 30
0.0
 10
5.2179439771
 20
13.7424382781
 30
0.0
 10
5.2104935109
 20
13.7426366448
 30
0.0
 10
5.2051137552
 20
13.7427331028
 30
0.0
 10
5.1999494118
 20
13.7427776182
 30
0.0
 10
5.1950512498
 20
13.7427698078
 30
0.0
 10
5.1904673684
 20
13.7427098668
 30
0.0
 10
5.186242641
 20
13.7425986042
 30
0.0
 10
5.1824182853
 20
13.742437314
 30
0.0
 10
5.1794996887
 20
13.7422572516
 30
0.0
 10
5.1773932626
 20
13.7420853065
 30
0.0
 10
5.1759926087
 20
13.7419496639
 30
0.0
 10
5.1747168573
 20
13.7418030966
 30
0.0
 10
5.1735689881
 20
13.7416460313
 30
0.0
 10
5.1725516428
 20
13.7414789402
 30
0.0
 10
5.1716669942
 20
13.7413024242
 30
0.0
 10
5.1709169412
 20
13.7411170151
 30
0.0
 10
5.1703792778
 20
13.740948002
 30
0.0
 10
5.1700200497
 20
13.740805044
 30
0.0
 10
5.1697998682
 20
13.7407016042
 30
0.0
 10
5.1696141377
 20
13.7405961644
 30
0.0
 10
5.1694627584
 20
13.7404886106
 30
0.0
 10
5.1693456042
 20
13.7403786177
 30
0.0
 10
5.169262805
 20
13.7402654
 30
0.0
 10
5.1692155164
 20
13.7401482014
 30
0.0
 10
5.1692091895
 20
13.7400678185
 30
0.0
 10
5.1692120714
 20
13.7400293938
 30
0.0
  0
SPLINE
  5
468
100
AcDbEntity
  8
0
100
AcDbSpline
 62
7
  6
CONTINUOUS
 70
0
 71
3
 72
57
 73
53
 74
0
 42
0.0000001
 43
0.0000001
 44
0.0000000001
 40
0.0
 40
0.0
 40
0.0
 40
0.0
 40
0.0010822255
 40
0.0022307232
 40
0.0035125096
 40
0.0049762004
 40
0.0066542779
 40
0.0085679197
 40
0.010731019
 40
0.0131525582
 40
0.0187911312
 40
0.0255104211
 40
0.0333166142
 40
0.0422050824
 40
0.052164268
 40
0.0631770931
 40
0.0752223218
 40
0.0882752163
 40
0.1172879943
 40
0.1499579844
 40
0.1859862901
 40
0.2250379452
 40
0.2667459248
 40
0.3107149981
 40
0.3565255047
 40
0.4037375905
 40
0.5005317462
 40
0.5973492202
 40
0.6445862945
 40
0.6904244044
 40
0.7344171837
 40
0.7761377376
 40
0.8151835389
 40
0.851180948
 40
0.8837897671
 40
0.9127078204
 40
0.9257003634
 40
0.9376767412
 40
0.9486124538
 40
0.9584868672
 40
0.967283593
 40
0.9749920977
 40
0.981609233
 40
0.9871431964
 40
0.9895125898
 40
0.9916244107
 40
0.9934886239
 40
0.9951205279
 40
0.9965434133
 40
0.9977928878
 40
0.9989215563
 40
1.0
 40
1.0
 40
1.0
 40
1.0
 10
5.7189565938
 20
13.7356329153
 30
0.0
 10
5.7189597712
 20
13.7356752808
 30
0.0
 10
5.7189538165
 20
13.7357639854
 30
0.0
 10
5.7189077972
 20
13.7358953805
 30
0.0
 10
5.7188263545
 20
13.7360258888
 30
0.0
 10
5.7187103781
 20
13.7361559639
 30
0.0
 10
5.7185600848
 20
13.7362861962
 30
0.0
 10
5.7183754457
 20
13.7364168487
 30
0.0
 10
5.71815643
 20
13.736548024
 30
0.0
 10
5.7178001085
 20
13.7367330964
 30
0.0
 10
5.7172659025
 20
13.7369613363
 30
0.0
 10
5.7165191437
 20
13.737224851
 30
0.0
 10
5.715638551
 20
13.7374892603
 30
0.0
 10
5.7146260489
 20
13.7377538601
 30
0.0
 10
5.7134838114
 20
13.7380178601
 30
0.0
 10
5.7122144715
 20
13.7382805496
 30
0.0
 10
5.7108209823
 20
13.7385412483
 30
0.0
 10
5.7087268614
 20
13.7388979546
 30
0.0
 10
5.705824457
 20
13.739328737
 30
0.0
 10
5.7020189874
 20
13.7398117956
 30
0.0
 10
5.697814055
 20
13.7402723043
 30
0.0
 10
5.6932497477
 20
13.7407056112
 30
0.0
 10
5.6883697141
 20
13.7411072797
 30
0.0
 10
5.6832208563
 20
13.741473252
 30
0.0
 10
5.6778528697
 20
13.7417998548
 30
0.0
 10
5.6704110012
 20
13.7421815126
 30
0.0
 10
5.6609632516
 20
13.7425370026
 30
0.0
 10
5.6515097966
 20
13.7427296487
 30
0.0
 10
5.6440553355
 20
13.7427797233
 30
0.0
 10
5.6386744482
 20
13.7427644357
 30
0.0
 10
5.6335105331
 20
13.7426969028
 30
0.0
 10
5.6286142476
 20
13.7425778775
 30
0.0
 10
5.6240334894
 20
13.7424086829
 30
0.0
 10
5.6198128539
 20
13.7421912377
 30
0.0
 10
5.6159932432
 20
13.7419279042
 30
0.0
 10
5.6130794125
 20
13.7416644256
 30
0.0
 10
5.6109771449
 20
13.7414282236
 30
0.0
 10
5.6095791784
 20
13.7412477415
 30
0.0
 10
5.6083060464
 20
13.7410580788
 30
0.0
 10
5.607160691
 20
13.7408597635
 30
0.0
 10
5.6061457168
 20
13.7406533648
 30
0.0
 10
5.6052632476
 20
13.740439562
 30
0.0
 10
5.6045151424
 20
13.7402189646
 30
0.0
 10
5.6039796643
 20
13.74002127
 30
0.0
 10
5.6036224938
 20
13.7398564495
 30
0.0
 10
5.6034032201
 20
13.7397378167
 30
0.0
 10
5.6032183648
 20
13.7396177111
 30
0.0
 10
5.6030678696
 20
13.7394960018
 30
0.0
 10
5.6029516994
 20
13.7393723716
 30
0.0
 10
5.602870122
 20
13.739246166
 30
0.0
 10
5.6028242019
 20
13.7391169648
 30
0.0
 10
5.6028185113
 20
13.7390291649
 30
0.0
 10
5.6028216776
 20
13.7389869475
 30
0.0
  0
SPLINE
  5
469
100
AcDbEntity
  8
0
100
AcDbSpline
 62
7
  6
CONTINUOUS
 70
0
 71
3
 72
57
 73
53
 74
0
 42
0.0000001
 43
0.0000001
 44
0.0000000001
 40
0.0
 40
0.0
 40
0.0
 40
0.0
 40
0.0011288924
 40
0.0023153371
 40
0.0036254785
 40
0.0051088378
 40
0.006799427
 40
0.0087198864
 40
0.0108853077
 40
0.0133056159
 40
0.0189336325
 40
0.0256349466
 40
0.033418285
 40
0.0422807947
 40
0.0522122019
 40
0.0631963577
 40
0.0752128129
 40
0.0882373805
 40
0.1171965666
 40
0.149818997
 40
0.1858068867
 40
0.224825251
 40
0.2665061491
 40
0.3104527812
 40
0.3562435358
 40
0.4034364657
 40
0.5001865236
 40
0.5969448385
 40
0.6441466134
 40
0.6899471321
 40
0.7339021396
 40
0.7755874625
 40
0.8146037208
 40
0.8505806403
 40
0.8831813961
 40
0.9121070545
 40
0.925110272
 40
0.9371023855
 40
0.9480592927
 40
0.9579607691
 40
0.9667909224
 40
0.9745398457
 40
0.9812052346
 40
0.9867965477
 40
0.9891986123
 40
0.9913461386
 40
0.9932494124
 40
0.9949240304
 40
0.9963933748
 40
0.9976925244
 40
0.9988723099
 40
1.0
 40
1.0
 40
1.0
 40
1.0
 10
6.1832285455
 20
13.736739396
 30
0.0
 10
6.1832318622
 20
13.7367836199
 30
0.0
 10
6.1832263553
 20
13.7368756863
 30
0.0
 10
6.1831810346
 20
13.7370121025
 30
0.0
 10
6.183100141
 20
13.7371470677
 30
0.0
 10
6.182984598
 20
13.7372808988
 30
0.0
 10
6.1828346908
 20
13.737414154
 30
0.0
 10
6.1826504251
 20
13.7375471097
 30
0.0
 10
6.1824317775
 20
13.7376798845
 30
0.0
 10
6.1820761444
 20
13.7378661326
 30
0.0
 10
6.1815425268
 20
13.7380940134
 30
0.0
 10
6.1807962005
 20
13.7383544777
 30
0.0
 10
6.1799159223
 20
13.7386131417
 30
0.0
 10
6.178903568
 20
13.7388693129
 30
0.0
 10
6.1777612656
 20
13.7391222182
 30
0.0
 10
6.1764916166
 20
13.7393711702
 30
0.0
 10
6.1750975498
 20
13.7396155135
 30
0.0
 10
6.173001997
 20
13.7399460648
 30
0.0
 10
6.1700970218
 20
13.7403376334
 30
0.0
 10
6.1662877571
 20
13.7407654263
 30
0.0
 10
6.1620779869
 20
13.7411614328
 30
0.0
 10
6.1575079919
 20
13.7415215785
 30
0.0
 10
6.1526216943
 20
13.7418420905
 30
0.0
 10
6.1474663318
 20
13.7421196656
 30
0.0
 10
6.1420919681
 20
13.742351468
 30
0.0
 10
6.134642326
 20
13.7425982762
 30
0.0
 10
6.125187561
 20
13.7427763852
 30
0.0
 10
6.1157307735
 20
13.7427838608
 30
0.0
 10
6.1082766679
 20
13.7426832105
 30
0.0
 10
6.1028977328
 20
13.7425567841
 30
0.0
 10
6.0977370361
 20
13.7423802097
 30
0.0
 10
6.0928449831
 20
13.7421553333
 30
0.0
 10
6.0882691643
 20
13.741884533
 30
0.0
 10
6.0840538371
 20
13.7415707315
 30
0.0
 10
6.0802395703
 20
13.7412172321
 30
0.0
 10
6.0773305556
 20
13.7408822128
 30
0.0
 10
6.075232125
 20
13.7405923784
 30
0.0
 10
6.0738364771
 20
13.74037514
 30
0.0
 10
6.0725654892
 20
13.74015086
 30
0.0
 10
6.0714220855
 20
13.7399201432
 30
0.0
 10
6.070408857
 20
13.7396836299
 30
0.0
 10
6.0695279135
 20
13.7394420556
 30
0.0
 10
6.0687811069
 20
13.7391960826
 30
0.0
 10
6.06824704
 20
13.7389785022
 30
0.0
 10
6.067891112
 20
13.7387990772
 30
0.0
 10
6.0676723717
 20
13.7386705311
 30
0.0
 10
6.0674880282
 20
13.7385411287
 30
0.0
 10
6.0673380497
 20
13.738410741
 30
0.0
 10
6.0672224421
 20
13.7382790732
 30
0.0
 10
6.0671415096
 20
13.7381455498
 30
0.0
 10
6.0670962276
 20
13.7380098706
 30
0.0
 10
6.0670908063
 20
13.7379181069
 30
0.0
 10
6.0670941195
 20
13.73787393
 30
0.0
  0
SPLINE
  5
46A
100
AcDbEntity
  8
0
100
AcDbSpline
 62
7
  6
CONTINUOUS
 70
0
 71
3
 72
57
 73
53
 74
0
 42
0.0000001
 43
0.0000001
 44
0.0000000001
 40
0.0
 40
0.0
 40
0.0
 40
0.0
 40
0.0011276901
 40
0.0023074756
 40
0.0036066252
 40
0.0050759696
 40
0.0067505876
 40
0.0086538613
 40
0.0108013876
 40
0.0132034523
 40
0.0187947653
 40
0.0254601542
 40
0.0332090775
 40
0.0420392307
 40
0.051940707
 40
0.0628976141
 40
0.0748897274
 40
0.0878929451
 40
0.1168186028
 40
0.149419359
 40
0.1853962781
 40
0.2244125369
 40
0.2660978598
 40
0.3100528669
 40
0.3558533856
 40
0.4030551599
 40
0.4998134739
 40
0.5965635324
 40
0.6437564637
 40
0.6895472187
 40
0.7334938519
 40
0.7751747499
 40
0.8141931138
 40
0.8501810033
 40
0.8828034335
 40
0.9117626198
 40
0.9247871874
 40
0.9368036426
 40
0.9477877984
 40
0.9577192056
 40
0.9665817152
 40
0.9743650536
 40
0.9810663675
 40
0.9866943842
 40
0.9891146924
 40
0.9912801137
 40
0.993200573
 40
0.9948911623
 40
0.9963745215
 40
0.9976846629
 40
0.9988711076
 40
1.0
 40
1.0
 40
1.0
 40
1.0
 10
6.6578728587
 20
13.73787393
 30
0.0
 10
6.657876172
 20
13.7379181069
 30
0.0
 10
6.6578707507
 20
13.7380098706
 30
0.0
 10
6.6578254686
 20
13.7381455498
 30
0.0
 10
6.6577445362
 20
13.7382790732
 30
0.0
 10
6.6576289286
 20
13.738410741
 30
0.0
 10
6.6574789501
 20
13.7385411287
 30
0.0
 10
6.6572946066
 20
13.7386705311
 30
0.0
 10
6.6570758663
 20
13.7387990772
 30
0.0
 10
6.6567199383
 20
13.7389785022
 30
0.0
 10
6.6561858714
 20
13.7391960826
 30
0.0
 10
6.6554390648
 20
13.7394420556
 30
0.0
 10
6.6545581213
 20
13.7396836299
 30
0.0
 10
6.6535448928
 20
13.7399201432
 30
0.0
 10
6.6524014891
 20
13.74015086
 30
0.0
 10
6.6511305012
 20
13.74037514
 30
0.0
 10
6.6497348533
 20
13.7405923784
 30
0.0
 10
6.6476364228
 20
13.7408822127
 30
0.0
 10
6.644727408
 20
13.7412172321
 30
0.0
 10
6.6409131413
 20
13.7415707315
 30
0.0
 10
6.636697814
 20
13.741884533
 30
0.0
 10
6.6321219953
 20
13.7421553333
 30
0.0
 10
6.6272299422
 20
13.7423802097
 30
0.0
 10
6.6220692456
 20
13.7425567841
 30
0.0
 10
6.6166903105
 20
13.7426832105
 30
0.0
 10
6.609236205
 20
13.7427838608
 30
0.0
 10
6.5997794175
 20
13.7427763852
 30
0.0
 10
6.5903246525
 20
13.7425982762
 30
0.0
 10
6.5828750103
 20
13.742351468
 30
0.0
 10
6.5775006465
 20
13.7421196656
 30
0.0
 10
6.5723452839
 20
13.7418420905
 30
0.0
 10
6.5674589862
 20
13.7415215785
 30
0.0
 10
6.5628889913
 20
13.7411614328
 30
0.0
 10
6.5586792211
 20
13.7407654263
 30
0.0
 10
6.5548699564
 20
13.7403376334
 30
0.0
 10
6.5519649813
 20
13.7399460648
 30
0.0
 10
6.5498694284
 20
13.7396155135
 30
0.0
 10
6.5484753616
 20
13.7393711702
 30
0.0
 10
6.5472057126
 20
13.7391222182
 30
0.0
 10
6.5460634102
 20
13.7388693129
 30
0.0
 10
6.5450510559
 20
13.7386131417
 30
0.0
 10
6.5441707777
 20
13.7383544777
 30
0.0
 10
6.5434244514
 20
13.7380940134
 30
0.0
 10
6.5428908338
 20
13.7378661326
 30
0.0
 10
6.5425352007
 20
13.7376798845
 30
0.0
 10
6.5423165532
 20
13.7375471097
 30
0.0
 10
6.5421322874
 20
13.737414154
 30
0.0
 10
6.5419823802
 20
13.7372808988
 30
0.0
 10
6.5418668373
 20
13.7371470677
 30
0.0
 10
6.5417859437
 20
13.7370121025
 30
0.0
 10
6.5417406229
 20
13.7368756863
 30
0.0
 10
6.541735116
 20
13.7367836199
 30
0.0
 10
6.5417384328
 20
13.736739396
 30
0.0
  0
SPLINE
  5
46B
100
AcDbEntity
  8
0
100
AcDbSpline
 62
7
  6
CONTINUOUS
 70
0
 71
3
 72
57
 73
53
 74
0
 42
0.0000001
 43
0.0000001
 44
0.0000000001
 40
0.0
 40
0.0
 40
0.0
 40
0.0
 40
0.0010784437
 40
0.0022071122
 40
0.0034565867
 40
0.0048794721
 40
0.0065113761
 40
0.0083755893
 40
0.0104874102
 40
0.0128568036
 40
0.018390767
 40
0.0250079022
 40
0.032716407
 40
0.0415131328
 40
0.0513875461
 40
0.0623232586
 40
0.0742996362
 40
0.0872921793
 40
0.1162102318
 40
0.1488190514
 40
0.1848164598
 40
0.2238622616
 40
0.2655828155
 40
0.3095755946
 40
0.3554137047
 40
0.4026507786
 40
0.4994682524
 40
0.5962624091
 40
0.6434744965
 40
0.6892850036
 40
0.7332540781
 40
0.7749620578
 40
0.8140137126
 40
0.8500420175
 40
0.8827120077
 40
0.9117247851
 40
0.9247776795
 40
0.9368229081
 40
0.9478357329
 40
0.9577949183
 40
0.9666833864
 40
0.9744895794
 40
0.9812088691
 40
0.986847442
 40
0.9892689812
 40
0.9914320805
 40
0.9933457223
 40
0.9950237996
 40
0.9964874904
 40
0.9977692769
 40
0.9989177745
 40
1.0
 40
1.0
 40
1.0
 40
1.0
 10
7.1221453007
 20
13.7389869475
 30
0.0
 10
7.122148467
 20
13.7390291649
 30
0.0
 10
7.1221427763
 20
13.7391169648
 30
0.0
 10
7.1220968563
 20
13.739246166
 30
0.0
 10
7.1220152788
 20
13.7393723716
 30
0.0
 10
7.1218991086
 20
13.7394960018
 30
0.0
 10
7.1217486134
 20
13.7396177111
 30
0.0
 10
7.1215637581
 20
13.7397378167
 30
0.0
 10
7.1213444845
 20
13.7398564495
 30
0.0
 10
7.1209873139
 20
13.74002127
 30
0.0
 10
7.1204518359
 20
13.7402189646
 30
0.0
 10
7.1197037307
 20
13.740439562
 30
0.0
 10
7.1188212615
 20
13.7406533648
 30
0.0
 10
7.1178062873
 20
13.7408597635
 30
0.0
 10
7.1166609319
 20
13.7410580787
 30
0.0
 10
7.1153877999
 20
13.7412477415
 30
0.0
 10
7.1139898334
 20
13.7414282236
 30
0.0
 10
7.1118875658
 20
13.7416644256
 30
0.0
 10
7.1089737352
 20
13.7419279042
 30
0.0
 10
7.1051541245
 20
13.7421912376
 30
0.0
 10
7.100933489
 20
13.7424086829
 30
0.0
 10
7.0963527308
 20
13.7425778775
 30
0.0
 10
7.0914564452
 20
13.7426969028
 30
0.0
 10
7.0862925302
 20
13.7427644357
 30
0.0
 10
7.0809116429
 20
13.7427797233
 30
0.0
 10
7.0734571818
 20
13.7427296487
 30
0.0
 10
7.0640037268
 20
13.7425370026
 30
0.0
 10
7.054555977
 20
13.7421815126
 30
0.0
 10
7.0471141085
 20
13.7417998548
 30
0.0
 10
7.0417461218
 20
13.741473252
 30
0.0
 10
7.0365972639
 20
13.7411072797
 30
0.0
 10
7.0317172302
 20
13.7407056112
 30
0.0
 10
7.0271529229
 20
13.7402723042
 30
0.0
 10
7.0229479907
 20
13.7398117956
 30
0.0
 10
7.019142521
 20
13.7393287369
 30
0.0
 10
7.0162401166
 20
13.7388979545
 30
0.0
 10
7.0141459958
 20
13.7385412482
 30
0.0
 10
7.0127525066
 20
13.7382805496
 30
0.0
 10
7.0114831668
 20
13.73801786
 30
0.0
 10
7.0103409293
 20
13.73775386
 30
0.0
 10
7.0093284272
 20
13.7374892602
 30
0.0
 10
7.0084478346
 20
13.737224851
 30
0.0
 10
7.0077010758
 20
13.7369613363
 30
0.0
 10
7.0071668698
 20
13.7367330963
 30
0.0
 10
7.0068105482
 20
13.736548024
 30
0.0
 10
7.0065915325
 20
13.7364168487
 30
0.0
 10
7.0064068935
 20
13.7362861962
 30
0.0
 10
7.0062566002
 20
13.7361559639
 30
0.0
 10
7.0061406238
 20
13.7360258888
 30
0.0
 10
7.006059181
 20
13.7358953805
 30
0.0
 10
7.0060131617
 20
13.7357639854
 30
0.0
 10
7.0060072071
 20
13.7356752808
 30
0.0
 10
7.0060103845
 20
13.7356329153
 30
0.0
  0
SPLINE
  5
46C
100
AcDbEntity
  8
0
100
AcDbSpline
 62
7
  6
CONTINUOUS
 70
0
 71
3
 72
56
 73
52
 74
0
 42
0.0000001
 43
0.0000001
 44
0.0000000001
 40
0.0
 40
0.0
 40
0.0
 40
0.0
 40
0.0009828861
 40
0.0020188021
 40
0.0031840892
 40
0.0045332026
 40
0.0061012368
 40
0.0079102025
 40
0.0099740959
 40
0.0123017694
 40
0.0177676923
 40
0.0243330536
 40
0.0320028001
 40
0.0407715965
 40
0.050627343
 40
0.0615524467
 40
0.0735252977
 40
0.0865205588
 40
0.1154599434
 40
0.1481067487
 40
0.1841540123
 40
0.2232572029
 40
0.2650388831
 40
0.3090933757
 40
0.3549914085
 40
0.4022850979
 40
0.4992042885
 40
0.5960891797
 40
0.6892025547
 40
0.733222022
 40
0.7749849775
 40
0.814096491
 40
0.8501888961
 40
0.8829254499
 40
0.9120041449
 40
0.9250883024
 40
0.9371627036
 40
0.9482016694
 40
0.9581827641
 40
0.9670874395
 40
0.9749021608
 40
0.9816195779
 40
0.987241893
 40
0.9896479418
 40
0.991789293
 40
0.9936734632
 40
0.9953124708
 40
0.9967252224
 40
0.9979419304
 40
0.9990102796
 40
1.0
 40
1.0
 40
1.0
 40
1.0
 10
7.5557549069
 20
13.7400293938
 30
0.0
 10
7.5557577888
 20
13.7400678185
 30
0.0
 10
7.5557514619
 20
13.7401482014
 30
0.0
 10
7.5557041733
 20
13.7402654
 30
0.0
 10
7.555621374
 20
13.7403786177
 30
0.0
 10
7.5555042198
 20
13.7404886106
 30
0.0
 10
7.5553528406
 20
13.7405961644
 30
0.0
 10
7.5551671101
 20
13.7407016042
 30
0.0
 10
7.5549469285
 20
13.740805044
 30
0.0
 10
7.5545877005
 20
13.740948002
 30
0.0
 10
7.5540500371
 20
13.7411170151
 30
0.0
 10
7.5532999841
 20
13.7413024242
 30
0.0
 10
7.5524153355
 20
13.7414789402
 30
0.0
 10
7.5513979901
 20
13.7416460313
 30
0.0
 10
7.550250121
 20
13.7418030966
 30
0.0
 10
7.5489743696
 20
13.7419496639
 30
0.0
 10
7.5475737157
 20
13.7420853065
 30
0.0
 10
7.5454672896
 20
13.7422572516
 30
0.0
 10
7.542548693
 20
13.742437314
 30
0.0
 10
7.5387243373
 20
13.7425986042
 30
0.0
 10
7.5344996099
 20
13.7427098668
 30
0.0
 10
7.5299157285
 20
13.7427698078
 30
0.0
 10
7.5250175665
 20
13.7427776182
 30
0.0
 10
7.5198532231
 20
13.7427331028
 30
0.0
 10
7.5144734674
 20
13.7426366448
 30
0.0
 10
7.5070230012
 20
13.7424382781
 30
0.0
 10
7.4975778463
 20
13.742069498
 30
0.0
 10
7.4863460456
 20
13.7414544747
 30
0.0
 10
7.4771942635
 20
13.7408042485
 30
0.0
 10
7.4702060954
 20
13.7402092163
 30
0.0
 10
7.4653318279
 20
13.7397443192
 30
0.0
 10
7.4607721522
 20
13.7392571029
 30
0.0
 10
7.456570549
 20
13.7387524391
 30
0.0
 10
7.452767036
 20
13.7382353582
 30
0.0
 10
7.4498652966
 20
13.7377842158
 30
0.0
 10
7.4477709061
 20
13.7374168961
 30
0.0
 10
7.4463768665
 20
13.7371512008
 30
0.0
 10
7.4451067171
 20
13.7368862049
 30
0.0
 10
7.4439634518
 20
13.7366225906
 30
0.0
 10
7.4429497514
 20
13.7363610654
 30
0.0
 10
7.4420678581
 20
13.7361024145
 30
0.0
 10
7.4413197627
 20
13.7358473326
 30
0.0
 10
7.4407839813
 20
13.7356286175
 30
0.0
 10
7.4404260514
 20
13.7354526405
 30
0.0
 10
7.4402062376
 20
13.7353287849
 30
0.0
 10
7.4400208129
 20
13.7352061528
 30
0.0
 10
7.4398697278
 20
13.7350846684
 30
0.0
 10
7.4397528867
 20
13.7349640904
 30
0.0
 10
7.43967037
 20
13.7348437704
 30
0.0
 10
7.4396229849
 20
13.7347229752
 30
0.0
 10
7.4396161931
 20
13.7346411044
 30
0.0
 10
7.439619095
 20
13.7346024125
 30
0.0
  0
SPLINE
  5
46D
100
AcDbEntity
  8
0
100
AcDbSpline
 62
7
  6
CONTINUOUS
 70
0
 71
3
 72
55
 73
51
 74
0
 42
0.0000001
 43
0.0000001
 44
0.0000000001
 40
0.0
 40
0.0
 40
0.0
 40
0.0
 40
0.0008448135
 40
0.0017524649
 40
0.0028075651
 40
0.0040652034
 40
0.0055578502
 40
0.0073045066
 40
0.0093166573
 40
0.0116012178
 40
0.0170015501
 40
0.0235222209
 40
0.0311633005
 40
0.0399162323
 40
0.0497666381
 40
0.060695199
 40
0.0726789266
 40
0.0856913316
 40
0.1146800792
 40
0.1473906869
 40
0.1835107216
 40
0.2226911384
 40
0.2645509754
 40
0.3086819873
 40
0.4020158496
 40
0.4990642873
 40
0.5960734138
 40
0.6893183377
 40
0.7334089767
 40
0.7752469728
 40
0.8144364221
 40
0.8506076281
 40
0.8834206718
 40
0.9125690025
 40
0.9256834728
 40
0.937783972
 40
0.948843654
 40
0.9588386605
 40
0.9677486573
 40
0.9755577496
 40
0.9822553052
 40
0.9878386246
 40
0.9902155424
 40
0.9923196041
 40
0.9941563996
 40
0.9957353828
 40
0.9970721679
 40
0.9981933542
 40
0.9991446693
 40
1.0
 40
1.0
 40
1.0
 40
1.0
 10
7.9397507995
 20
13.740954942
 30
0.0
 10
7.939753272
 20
13.7409879088
 30
0.0
 10
7.9397458748
 20
13.7410578578
 30
0.0
 10
7.9396963716
 20
13.7411578747
 30
0.0
 10
7.9396119134
 20
13.7412528023
 30
0.0
 10
7.9394935342
 20
13.7413440924
 30
0.0
 10
7.9393410444
 20
13.7414326241
 30
0.0
 10
7.9391541863
 20
13.7415186759
 30
0.0
 10
7.9389328206
 20
13.7416023084
 30
0.0
 10
7.9385709511
 20
13.7417169892
 30
0.0
 10
7.9380306027
 20
13.7418497472
 30
0.0
 10
7.9372781673
 20
13.7419917125
 30
0.0
 10
7.936390948
 20
13.7421230631
 30
0.0
 10
7.9353709119
 20
13.7422433735
 30
0.0
 10
7.934220313
 20
13.7423521506
 30
0.0
 10
7.9329418469
 20
13.7424490444
 30
0.0
 10
7.9315385453
 20
13.742533752
 30
0.0
 10
7.9294283199
 20
13.7426336757
 30
0.0
 10
7.9265058222
 20
13.7427222112
 30
0.0
 10
7.9226781697
 20
13.7427742296
 30
0.0
 10
7.9184513573
 20
13.7427743601
 30
0.0
 10
7.9138668396
 20
13.7427224426
 30
0.0
 10
7.9089696478
 20
13.7426188426
 30
0.0
 10
7.9019553598
 20
13.742408982
 30
0.0
 10
7.8927860681
 20
13.7420238205
 30
0.0
 10
7.8815570699
 20
13.7413954658
 30
0.0
 10
7.8703409959
 20
13.7406166035
 30
0.0
 10
7.8612019461
 20
13.7398544544
 30
0.0
 10
7.8542221746
 20
13.7391880695
 30
0.0
 10
7.8493523537
 20
13.7386804615
 30
0.0
 10
7.8447955898
 20
13.7381607015
 30
0.0
 10
7.8405953212
 20
13.7376339187
 30
0.0
 10
7.8367916191
 20
13.7371053072
 30
0.0
 10
7.833888512
 20
13.7366533497
 30
0.0
 10
7.8317921534
 20
13.7362912804
 30
0.0
 10
7.8303964714
 20
13.7360320729
 30
0.0
 10
7.8291244592
 20
13.735776218
 30
0.0
 10
7.8279791617
 20
13.7355243751
 30
0.0
 10
7.8269633161
 20
13.7352772201
 30
0.0
 10
7.8260792476
 20
13.7350355061
 30
0.0
 10
7.8253290215
 20
13.7347998923
 30
0.0
 10
7.8247908417
 20
13.7346001308
 30
0.0
 10
7.8244305381
 20
13.7344407992
 30
0.0
 10
7.8242095699
 20
13.7343296322
 30
0.0
 10
7.8240230307
 20
13.7342203525
 30
0.0
 10
7.8238708541
 20
13.7341129285
 30
0.0
 10
7.8237528536
 20
13.7340071742
 30
0.0
 10
7.8236688854
 20
13.7339024175
 30
0.0
 10
7.8236194395
 20
13.7337974808
 30
0.0
 10
7.8236113378
 20
13.7337255267
 30
0.0
 10
7.8236138411
 20
13.7336921495
 30
0.0
  0
SPLINE
  5
46E
100
AcDbEntity
  8
0
100
AcDbSpline
 62
7
  6
CONTINUOUS
 70
0
 71
3
 72
56
 73
52
 74
0
 42
0.0000001
 43
0.0000001
 44
0.0000000001
 40
0.0
 40
0.0
 40
0.0
 40
0.0
 40
0.0006704353
 40
0.0014253753
 40
0.0023587801
 40
0.0035220061
 40
0.0049412602
 40
0.0066304234
 40
0.0085973149
 40
0.01084626
 40
0.0161976756
 40
0.0226912163
 40
0.0303212561
 40
0.0390755378
 40
0.0489370912
 40
0.0598846514
 40
0.0718936951
 40
0.0849364825
 40
0.1139972039
 40
0.1467890294
 40
0.182994337
 40
0.222260271
 40
0.2642032658
 40
0.3084136143
 40
0.4018940077
 40
0.4990783826
 40
0.5962252464
 40
0.6436193189
 40
0.6896209773
 40
0.7337924947
 40
0.7757141497
 40
0.8149880591
 40
0.8512415436
 40
0.8841306191
 40
0.9133435013
 40
0.9264838405
 40
0.9386046707
 40
0.9496779516
 40
0.9596784019
 40
0.9685838736
 40
0.9763760909
 40
0.9830410599
 40
0.988570935
 40
0.9909106603
 40
0.9929686059
 40
0.9947481187
 40
0.9962554847
 40
0.9975018553
 40
0.9985080538
 40
0.9993148076
 40
1.0
 40
1.0
 40
1.0
 40
1.0
 10
8.2573504408
 20
13.7417221494
 30
0.0
 10
8.2573523989
 20
13.7417482575
 30
0.0
 10
8.2573432287
 20
13.7418054517
 30
0.0
 10
8.2572905236
 20
13.7418833326
 30
0.0
 10
8.2572044279
 20
13.7419552547
 30
0.0
 10
8.2570848597
 20
13.7420236605
 30
0.0
 10
8.2569312028
 20
13.7420892203
 30
0.0
 10
8.2567430764
 20
13.7421520771
 30
0.0
 10
8.2565203522
 20
13.7422121976
 30
0.0
 10
8.2561555658
 20
13.74229336
 30
0.0
 10
8.2556123367
 20
13.7423839152
 30
0.0
 10
8.2548572989
 20
13.742476151
 30
0.0
 10
8.253967388
 20
13.7425564942
 30
0.0
 10
8.2529446554
 20
13.7426246551
 30
0.0
 10
8.2517914558
 20
13.7426802841
 30
0.0
 10
8.2505105462
 20
13.7427231748
 30
0.0
 10
8.2491050152
 20
13.742753167
 30
0.0
 10
8.246991952
 20
13.7427765998
 30
0.0
 10
8.2440670721
 20
13.7427697124
 30
0.0
 10
8.2402381716
 20
13.7427102712
 30
0.0
 10
8.2360117452
 20
13.7425994559
 30
0.0
 10
8.2314293545
 20
13.7424382512
 30
0.0
 10
8.2265360374
 20
13.7422281453
 30
0.0
 10
8.2195297704
 20
13.7418788465
 30
0.0
 10
8.2103735006
 20
13.7413350072
 30
0.0
 10
8.1991616592
 20
13.7405455148
 30
0.0
 10
8.1897526277
 20
13.739782944
 30
0.0
 10
8.1823412531
 20
13.739120035
 30
0.0
 10
8.1769932877
 20
13.7386102425
 30
0.0
 10
8.1718612117
 20
13.7380887264
 30
0.0
 10
8.1669940035
 20
13.7375605215
 30
0.0
 10
8.1624381173
 20
13.7370307554
 30
0.0
 10
8.1582370675
 20
13.7365046253
 30
0.0
 10
8.1544310873
 20
13.7359872785
 30
0.0
 10
8.1515247828
 20
13.7355539463
 30
0.0
 10
8.1494250252
 20
13.7352126833
 30
0.0
 10
8.148026806
 20
13.7349711122
 30
0.0
 10
8.1467520909
 20
13.7347354026
 30
0.0
 10
8.1456039775
 20
13.7345061645
 30
0.0
 10
8.1445852593
 20
13.7342840128
 30
0.0
 10
8.1436983486
 20
13.7340696335
 30
0.0
 10
8.1429453835
 20
13.7338636194
 30
0.0
 10
8.1424042286
 20
13.7336914033
 30
0.0
 10
8.1420410189
 20
13.7335556072
 30
0.0
 10
8.1418186389
 20
13.7334619135
 30
0.0
 10
8.1416307606
 20
13.7333706917
 30
0.0
 10
8.1414773338
 20
13.7332819701
 30
0.0
 10
8.1413580734
 20
13.7331956815
 30
0.0
 10
8.1412726138
 20
13.7331112665
 30
0.0
 10
8.1412204293
 20
13.7330271468
 30
0.0
 10
8.1412102825
 20
13.732967609
 30
0.0
 10
8.1412122837
 20
13.7329409263
 30
0.0
  0
SPLINE
  5
46F
100
AcDbEntity
  8
0
100
AcDbSpline
 62
7
  6
CONTINUOUS
 70
0
 71
3
 72
60
 73
56
 74
0
 42
0.0000001
 43
0.0000001
 44
0.0000000001
 40
0.0
 40
0.0
 40
0.0
 40
0.0
 40
0.0002316076
 40
0.0004753676
 40
0.0007521206
 40
0.0010763921
 40
0.0018993517
 40
0.0029849108
 40
0.0043487126
 40
0.005998004
 40
0.0079364476
 40
0.0101656474
 40
0.012685999
 40
0.0154973259
 40
0.0219891796
 40
0.0296304688
 40
0.0384054799
 40
0.0482948335
 40
0.0592754697
 40
0.0713214607
 40
0.0844039421
 40
0.1135488224
 40
0.1464264599
 40
0.1827153491
 40
0.2220602449
 40
0.2640764522
 40
0.3083542213
 40
0.3544630939
 40
0.4019564704
 40
0.4992561262
 40
0.5965265157
 40
0.6439883726
 40
0.6900621492
 40
0.73430928
 40
0.7763083368
 40
0.8156588531
 40
0.8519847249
 40
0.8849377266
 40
0.9142010441
 40
0.9394928303
 40
0.9605698279
 40
0.9694635888
 40
0.977232578
 40
0.9838599026
 40
0.9893331518
 40
0.9916350187
 40
0.9936468884
 40
0.9953698651
 40
0.9968068514
 40
0.9979636989
 40
0.9988529129
 40
0.9992059805
 40
0.9995062161
 40
0.9997650318
 40
1.0
 40
1.0
 40
1.0
 40
1.0
 10
8.4946731243
 20
13.7422964409
 30
0.0
 10
8.4946737994
 20
13.7423054421
 30
0.0
 10
8.4946721485
 20
13.7423242983
 30
0.0
 10
8.494660085
 20
13.7423514781
 30
0.0
 10
8.4946391566
 20
13.7423772596
 30
0.0
 10
8.4945963566
 20
13.7424129604
 30
0.0
 10
8.4945185424
 20
13.7424535481
 30
0.0
 10
8.4943982342
 20
13.7424961936
 30
0.0
 10
8.4942433596
 20
13.7425360488
 30
0.0
 10
8.4940539
 20
13.7425730303
 30
0.0
 10
8.4938297033
 20
13.7426070267
 30
0.0
 10
8.4935708629
 20
13.7426379635
 30
0.0
 10
8.4932774848
 20
13.7426657923
 30
0.0
 10
8.492817959
 20
13.7427003433
 30
0.0
 10
8.4921583336
 20
13.742733729
 30
0.0
 10
8.4912658632
 20
13.7427595968
 30
0.0
 10
8.4902406941
 20
13.7427726028
 30
0.0
 10
8.4890853115
 20
13.74277266
 30
0.0
 10
8.4878025192
 20
13.7427596931
 30
0.0
 10
8.4863954595
 20
13.7427337047
 30
0.0
 10
8.4842809305
 20
13.7426797183
 30
0.0
 10
8.4813555602
 20
13.7425779233
 30
0.0
 10
8.4775277002
 20
13.742409959
 30
0.0
 10
8.4733041796
 20
13.7421934662
 30
0.0
 10
8.4687265096
 20
13.7419305152
 30
0.0
 10
8.4638395726
 20
13.741623615
 30
0.0
 10
8.4586911375
 20
13.7412757411
 30
0.0
 10
8.4533313446
 20
13.7408902802
 30
0.0
 10
8.4459126603
 20
13.7403266198
 30
0.0
 10
8.4365099846
 20
13.7395576318
 30
0.0
 10
8.4271143788
 20
13.7387203384
 30
0.0
 10
8.4197113236
 20
13.7380176493
 30
0.0
 10
8.4143675904
 20
13.7374887325
 30
0.0
 10
8.4092379563
 20
13.7369587103
 30
0.0
 10
8.4043713839
 20
13.7364326702
 30
0.0
 10
8.3998144075
 20
13.735915691
 30
0.0
 10
8.395610719
 20
13.7354128041
 30
0.0
 10
8.3918007834
 20
13.7349289363
 30
0.0
 10
8.3884214066
 20
13.7344690048
 30
0.0
 10
8.3855054582
 20
13.7340376024
 30
0.0
 10
8.3833799151
 20
13.7336890896
 30
0.0
 10
8.3819331898
 20
13.7334236227
 30
0.0
 10
8.3810430426
 20
13.7332457622
 30
0.0
 10
8.380286958
 20
13.7330781687
 30
0.0
 10
8.3797425363
 20
13.7329408957
 30
0.0
 10
8.3793761839
 20
13.732834573
 30
0.0
 10
8.3791522243
 20
13.7327623457
 30
0.0
 10
8.3789628947
 20
13.7326930385
 30
0.0
 10
8.3788081045
 20
13.7326267404
 30
0.0
 10
8.3786878605
 20
13.7325635199
 30
0.0
 10
8.378610552
 20
13.7325098991
 30
0.0
 10
8.3785680051
 20
13.7324671705
 30
0.0
 10
8.3785472047
 20
13.7324380795
 30
0.0
 10
8.3785351145
 20
13.7324092304
 30
0.0
 10
8.3785332383
 20
13.7323896859
 30
0.0
 10
8.3785339232
 20
13.7323805541
 30
0.0
  0
SPLINE
  5
470
100
AcDbEntity
  8
0
100
AcDbSpline
 62
7
  6
CONTINUOUS
 70
0
 71
3
 72
66
 73
62
 74
0
 42
0.0000001
 43
0.0000001
 44
0.0000000001
 40
0.0
 40
0.0
 40
0.0
 40
0.0
 40
0.0001198374
 40
0.000270875
 40
0.0004775237
 40
0.0007495928
 40
0.0010912841
 40
0.0015046656
 40
0.0019908753
 40
0.0025505553
 40
0.0038915557
 40
0.0055291947
 40
0.0074638059
 40
0.0096949242
 40
0.0122215732
 40
0.0150426159
 40
0.0215616
 40
0.029237062
 40
0.0380507836
 40
0.0479816311
 40
0.0590052423
 40
0.071094682
 40
0.0842202962
 40
0.1134482047
 40
0.1464017228
 40
0.1827575287
 40
0.2221598974
 40
0.2642247564
 40
0.3085438231
 40
0.3546887055
 40
0.402215186
 40
0.4506673665
 40
0.4995819693
 40
0.5484923695
 40
0.5969326798
 40
0.6444417572
 40
0.6905671734
 40
0.7348691027
 40
0.7769241111
 40
0.8163290418
 40
0.8527045562
 40
0.8856988171
 40
0.9008264585
 40
0.9149911348
 40
0.9281582476
 40
0.9402953779
 40
0.951372793
 40
0.9613632639
 40
0.970242118
 40
0.9779877593
 40
0.9845813874
 40
0.9900074844
 40
0.994254544
 40
0.9959337242
 40
0.9973165624
 40
0.9984041423
 40
0.9988382374
 40
0.9992003003
 40
0.9994920404
 40
0.9997168212
 40
1.0
 40
1.0
 40
1.0
 40
1.0
 10
8.6413466413
 20
13.7426518032
 30
0.0
 10
8.64134699
 20
13.742656453
 30
0.0
 10
8.6413438877
 20
13.7426673426
 30
0.0
 10
8.6413298169
 20
13.742680201
 30
0.0
 10
8.6413081571
 20
13.7426918059
 30
0.0
 10
8.641278022
 20
13.7427026152
 30
0.0
 10
8.6412393264
 20
13.7427127036
 30
0.0
 10
8.6411919148
 20
13.7427220428
 30
0.0
 10
8.6411357739
 20
13.7427306167
 30
0.0
 10
8.6410435473
 20
13.7427416733
 30
0.0
 10
8.6409062797
 20
13.742752817
 30
0.0
 10
8.6407153326
 20
13.7427624696
 30
0.0
 10
8.6404896001
 20
13.7427689383
 30
0.0
 10
8.6402292108
 20
13.7427722042
 30
0.0
 10
8.6399343113
 20
13.7427722361
 30
0.0
 10
8.6394725926
 20
13.7427677027
 30
0.0
 10
8.6388106565
 20
13.7427529746
 30
0.0
 10
8.6379158854
 20
13.7427232656
 30
0.0
 10
8.6368887491
 20
13.7426806693
 30
0.0
 10
8.635731782
 20
13.7426252641
 30
0.0
 10
8.6344478369
 20
13.7425571494
 30
0.0
 10
8.6330400878
 20
13.7424764801
 30
0.0
 10
8.6309256127
 20
13.7423477154
 30
0.0
 10
8.6280016692
 20
13.7421558655
 30
0.0
 10
8.6241769758
 20
13.7418872183
 30
0.0
 10
8.6199585044
 20
13.7415750465
 30
0.0
 10
8.6153875605
 20
13.7412223824
 30
0.0
 10
8.6105087236
 20
13.7408326329
 30
0.0
 10
8.6053693751
 20
13.7404095737
 30
0.0
 10
8.6000192139
 20
13.7399572914
 30
0.0
 10
8.5945097728
 20
13.7394801437
 30
0.0
 10
8.5888939253
 20
13.7389827136
 30
0.0
 10
8.5832254034
 20
13.7384697657
 30
0.0
 10
8.5775583159
 20
13.7379462019
 30
0.0
 10
8.5719466798
 20
13.737417019
 30
0.0
 10
8.5664439532
 20
13.7368872648
 30
0.0
 10
8.5611025757
 20
13.736361995
 30
0.0
 10
8.5559735182
 20
13.7358462308
 30
0.0
 10
8.5511058357
 20
13.735344916
 30
0.0
 10
8.5465462328
 20
13.7348628828
 30
0.0
 10
8.5423386392
 20
13.7344047917
 30
0.0
 10
8.5390714674
 20
13.7340368473
 30
0.0
 10
8.5366640852
 20
13.7337570457
 30
0.0
 10
8.5350235331
 20
13.7335619768
 30
0.0
 10
8.5334990834
 20
13.7333760355
 30
0.0
 10
8.5320944889
 20
13.7331996817
 30
0.0
 10
8.5308132189
 20
13.733033363
 30
0.0
 10
8.5296584486
 20
13.7328775066
 30
0.0
 10
8.5286330428
 20
13.7327325297
 30
0.0
 10
8.527739558
 20
13.732598826
 30
0.0
 10
8.5269801909
 20
13.7324768527
 30
0.0
 10
8.5263568433
 20
13.732366939
 30
0.0
 10
8.5259235651
 20
13.7322805356
 30
0.0
 10
8.5256465617
 20
13.7322159792
 30
0.0
 10
8.5254904437
 20
13.7321746597
 30
0.0
 10
8.5253824747
 20
13.7321410894
 30
0.0
 10
8.5253138903
 20
13.7321150245
 30
0.0
 10
8.5252752426
 20
13.7320979528
 30
0.0
 10
8.5252449497
 20
13.7320813373
 30
0.0
 10
8.5252201548
 20
13.7320639933
 30
0.0
 10
8.5252059075
 20
13.7320456269
 30
0.0
 10
8.5252067316
 20
13.7320346392
 30
0.0
  0
LINE
  5
471
100
AcDbEntity
  8
0
100
AcDbLine
 62
9
  6
CONTINUOUS
 10
15.2104834891
 20
7.2299975704
 11
15.5854834891
 21
6.8849975704
  0
SPLINE
  5
472
100
AcDbEntity
  8
0
100
AcDbSpline
 62
7
  6
CONTINUOUS
 70
0
 71
3
 72
33
 73
29
 74
0
 42
0.0000001
 43
0.0000001
 44
0.0000000001
 40
0.0
 40
0.0
 40
0.0
 40
0.0
 40
0.0003002513
 40
0.0006472899
 40
0.001080833
 40
0.0016218368
 40
0.0030632736
 40
0.0050143097
 40
0.0074897471
 40
0.0104960614
 40
0.0140361075
 40
0.0181111511
 40
0.0278670341
 40
0.0397592725
 40
0.053776585
 40
0.0699038696
 40
0.0881215463
 40
0.1084079922
 40
0.1550819916
 40
0.2096907519
 40
0.2719562366
 40
0.3415600521
 40
0.41814561
 40
0.5013199796
 40
0.5906557712
 40
0.6856935633
 40
0.7859446478
 40
1.0
 40
1.0
 40
1.0
 40
1.0
 10
6.6956278379
 20
13.6383351407
 30
0.0
 10
6.6956280941
 20
13.6383385565
 30
0.0
 10
6.6956267931
 20
13.6383461297
 30
0.0
 10
6.6956197896
 20
13.6383565523
 30
0.0
 10
6.6956083852
 20
13.6383665597
 30
0.0
 10
6.6955848889
 20
13.6383811215
 30
0.0
 10
6.6955431249
 20
13.6383981328
 30
0.0
 10
6.6954789253
 20
13.6384171598
 30
0.0
 10
6.6953962108
 20
13.6384360847
 30
0.0
 10
6.695295007
 20
13.6384549035
 30
0.0
 10
6.695175259
 20
13.6384735474
 30
0.0
 10
6.694978807
 20
13.6384997306
 30
0.0
 10
6.6946869559
 20
13.6385308806
 30
0.0
 10
6.6942815322
 20
13.6385656031
 30
0.0
 10
6.6938031235
 20
13.6385993385
 30
0.0
 10
6.6932523379
 20
13.6386320166
 30
0.0
 10
6.6926298617
 20
13.6386635548
 30
0.0
 10
6.6916590193
 20
13.6387059994
 30
0.0
 10
6.6902729079
 20
13.6387544978
 30
0.0
 10
6.6884077279
 20
13.638805218
 30
0.0
 10
6.6862807421
 20
13.6388503908
 30
0.0
 10
6.6839028812
 20
13.638889742
 30
0.0
 10
6.6812863664
 20
13.6389230096
 30
0.0
 10
6.6784446551
 20
13.6389499947
 30
0.0
 10
6.6753923712
 20
13.6389705351
 30
0.0
 10
6.6721452272
 20
13.6389845134
 30
0.0
 10
6.6674751876
 20
13.6389944953
 30
0.0
 10
6.6638893795
 20
13.638991442
 30
0.0
 10
6.6614473133
 20
13.6389854482
 30
0.0
  0
SPLINE
  5
473
100
AcDbEntity
  8
0
100
AcDbSpline
 62
7
  6
CONTINUOUS
 70
0
 71
3
 72
33
 73
29
 74
0
 42
0.0000001
 43
0.0000001
 44
0.0000000001
 40
0.0
 40
0.0
 40
0.0
 40
0.0
 40
0.2140556099
 40
0.3143067779
 40
0.4093446367
 40
0.4986804619
 40
0.5818548403
 40
0.6584403834
 40
0.7280441356
 40
0.7903094639
 40
0.8449180651
 40
0.8915919918
 40
0.9118784325
 40
0.9300961109
 40
0.9462234014
 40
0.9602407166
 40
0.9721329578
 40
0.9818888414
 40
0.9859638858
 40
0.9895039329
 40
0.992510248
 40
0.9949856857
 40
0.9969367225
 40
0.9983781602
 40
0.9989191645
 40
0.9993527083
 40
0.9996997478
 40
1.0
 40
1.0
 40
1.0
 40
1.0
 10
6.0635194318
 20
13.6389854488
 30
0.0
 10
6.0610773793
 20
13.6389914423
 30
0.0
 10
6.0574915917
 20
13.6389944952
 30
0.0
 10
6.0528215793
 20
13.6389845129
 30
0.0
 10
6.0495744553
 20
13.6389705343
 30
0.0
 10
6.046522191
 20
13.6389499936
 30
0.0
 10
6.0436804987
 20
13.6389230083
 30
0.0
 10
6.0410640025
 20
13.6388897406
 30
0.0
 10
6.0386861605
 20
13.6388503894
 30
0.0
 10
6.0365591936
 20
13.6388052166
 30
0.0
 10
6.0346940307
 20
13.6387544966
 30
0.0
 10
6.0333079314
 20
13.6387059983
 30
0.0
 10
6.0323370966
 20
13.6386635539
 30
0.0
 10
6.0317146246
 20
13.6386320157
 30
0.0
 10
6.0311638426
 20
13.6385993377
 30
0.0
 10
6.0306854371
 20
13.6385656024
 30
0.0
 10
6.0302800161
 20
13.63853088
 30
0.0
 10
6.0299881669
 20
13.6384997301
 30
0.0
 10
6.0297917162
 20
13.6384735469
 30
0.0
 10
6.029671969
 20
13.6384549031
 30
0.0
 10
6.0295707659
 20
13.6384360844
 30
0.0
 10
6.029488052
 20
13.6384171595
 30
0.0
 10
6.0294238528
 20
13.6383981326
 30
0.0
 10
6.0293820891
 20
13.6383811213
 30
0.0
 10
6.0293585929
 20
13.6383665595
 30
0.0
 10
6.0293471886
 20
13.6383565522
 30
0.0
 10
6.0293401852
 20
13.6383461297
 30
0.0
 10
6.0293388842
 20
13.6383385565
 30
0.0
 10
6.0293391403
 20
13.6383351407
 30
0.0
  0
LINE
  5
474
100
AcDbEntity
  8
0
100
AcDbLine
 62
7
  6
CONTINUOUS
 10
5.8151449142
 20
13.6376194823
 11
5.7542898828
 21
13.6389919079
  0
LINE
  5
475
100
AcDbEntity
  8
0
100
AcDbLine
 62
7
  6
CONTINUOUS
 10
6.9706770955
 20
13.6389919079
 11
6.9098220608
 21
13.6376194822
  0
LINE
  5
476
100
AcDbEntity
  8
0
100
AcDbLine
 62
7
  6
CONTINUOUS
 10
5.4353913676
 20
13.6490423787
 11
5.3389460751
 21
13.6529199769
  0
SPLINE
  5
477
100
AcDbEntity
  8
0
100
AcDbSpline
 62
7
  6
CONTINUOUS
 70
0
 71
3
 72
69
 73
65
 74
0
 42
0.0000001
 43
0.0000001
 44
0.0000000001
 40
0.0
 40
0.0
 40
0.0
 40
0.0
 40
0.0001274693
 40
0.0002914041
 40
0.0005124279
 40
0.0007990679
 40
0.001155145
 40
0.0015826025
 40
0.0020825307
 40
0.0026555481
 40
0.004022069
 40
0.0056836995
 40
0.0076407648
 40
0.0098927591
 40
0.0152775451
 40
0.0218275023
 40
0.0295280107
 40
0.0383610455
 40
0.0483057662
 40
0.0593384319
 40
0.0714325139
 40
0.0845590392
 40
0.0986864212
 40
0.1137806076
 40
0.1467220286
 40
0.1830661961
 40
0.2224634353
 40
0.2645348971
 40
0.3088757805
 40
0.355059508
 40
0.4026419243
 40
0.4511651019
 40
0.5001618051
 40
0.5491602667
 40
0.5976883179
 40
0.6452778681
 40
0.6914697304
 40
0.7358179158
 40
0.7778939549
 40
0.8172911596
 40
0.853628623
 40
0.886554976
 40
0.9157521191
 40
0.9288627631
 40
0.9409385141
 40
0.9519502968
 40
0.9618718717
 40
0.970679468
 40
0.9783524632
 40
0.9848731586
 40
0.9876967352
 40
0.990227127
 40
0.9924632257
 40
0.9944040942
 40
0.9960493445
 40
0.9973993772
 40
0.9979641386
 40
0.9984558301
 40
0.9988751223
 40
0.9992231825
 40
0.9995021033
 40
0.9997160504
 40
0.9998744501
 40
1.0
 40
1.0
 40
1.0
 40
1.0
 10
5.5719835257
 20
13.6491429211
 30
0.0
 10
5.5719838972
 20
13.6491478743
 30
0.0
 10
5.571980679
 20
13.6491595022
 30
0.0
 10
5.5719668962
 20
13.6491744252
 30
0.0
 10
5.5719452653
 20
13.6491893128
 30
0.0
 10
5.5719151204
 20
13.6492044523
 30
0.0
 10
5.5718763822
 20
13.649219962
 30
0.0
 10
5.5718289245
 20
13.6492358124
 30
0.0
 10
5.571772731
 20
13.6492519979
 30
0.0
 10
5.5716805848
 20
13.6492753978
 30
0.0
 10
5.5715433192
 20
13.6493047549
 30
0.0
 10
5.5713521852
 20
13.6493395476
 30
0.0
 10
5.571126257
 20
13.6493755481
 30
0.0
 10
5.5707561432
 20
13.6494283061
 30
0.0
 10
5.5702073906
 20
13.6494955769
 30
0.0
 10
5.5694465621
 20
13.6495767207
 30
0.0
 10
5.5685510966
 20
13.6496619373
 30
0.0
 10
5.5675231591
 20
13.6497509889
 30
0.0
 10
5.5663652257
 20
13.6498435886
 30
0.0
 10
5.5650800975
 20
13.6499394867
 30
0.0
 10
5.563670881
 20
13.65003843
 30
0.0
 10
5.5621409831
 20
13.6501401645
 30
0.0
 10
5.5604940996
 20
13.6502444375
 30
0.0
 10
5.5580762176
 20
13.6503908135
 30
0.0
 10
5.5547934682
 20
13.6505772621
 30
0.0
 10
5.5505643306
 20
13.6508010341
 30
0.0
 10
5.5459791534
 20
13.651028645
 30
0.0
 10
5.5410820856
 20
13.6512578727
 30
0.0
 10
5.5359202671
 20
13.6514864766
 30
0.0
 10
5.5305433814
 20
13.651712237
 30
0.0
 10
5.5250031824
 20
13.6519329658
 30
0.0
 10
5.5193530097
 20
13.6521465274
 30
0.0
 10
5.5136472809
 20
13.652350858
 30
0.0
 10
5.5079409719
 20
13.6525439853
 30
0.0
 10
5.5022890957
 20
13.6527240462
 30
0.0
 10
5.4967461795
 20
13.6528893055
 30
0.0
 10
5.4913657359
 20
13.6530381735
 30
0.0
 10
5.4861997397
 20
13.6531692225
 30
0.0
 10
5.4812981272
 20
13.6532812041
 30
0.0
 10
5.4767083077
 20
13.6533730598
 30
0.0
 10
5.4724746962
 20
13.6534439504
 30
0.0
 10
5.4686382724
 20
13.6534932326
 30
0.0
 10
5.4657067001
 20
13.6535168309
 30
0.0
 10
5.4635875426
 20
13.6535235287
 30
0.0
 10
5.462177004
 20
13.653522734
 30
0.0
 10
5.4608907484
 20
13.653516339
 30
0.0
 10
5.4597318874
 20
13.6535043758
 30
0.0
 10
5.4587032116
 20
13.6534869136
 30
0.0
 10
5.4578072008
 20
13.6534640232
 30
0.0
 10
5.4571445147
 20
13.6534395681
 30
0.0
 10
5.4566823607
 20
13.6534165583
 30
0.0
 10
5.4563871242
 20
13.6533988207
 30
0.0
 10
5.4561264432
 20
13.6533797981
 30
0.0
 10
5.4559004603
 20
13.6533595304
 30
0.0
 10
5.4557093005
 20
13.6533380451
 30
0.0
 10
5.4555719522
 20
13.6533182398
 30
0.0
 10
5.4554797193
 20
13.6533012398
 30
0.0
 10
5.4554235263
 20
13.6532889671
 30
0.0
 10
5.4553760716
 20
13.653276422
 30
0.0
 10
5.4553373372
 20
13.6532636156
 30
0.0
 10
5.4553071836
 20
13.6532505712
 30
0.0
 10
5.4552855173
 20
13.6532371925
 30
0.0
 10
5.4552716071
 20
13.6532230691
 30
0.0
 10
5.4552685039
 20
13.6532116833
 30
0.0
 10
5.4552688698
 20
13.6532068047
 30
0.0
  0
SPLINE
  5
478
100
AcDbEntity
  8
0
100
AcDbSpline
 62
7
  6
CONTINUOUS
 70
0
 71
3
 72
60
 73
56
 74
0
 42
0.0000001
 43
0.0000001
 44
0.0000000001
 40
0.0
 40
0.0
 40
0.0
 40
0.0
 40
0.0002148282
 40
0.0004509093
 40
0.0007277371
 40
0.0010576365
 40
0.0019021107
 40
0.0030161237
 40
0.0044116004
 40
0.0060940197
 40
0.0080660144
 40
0.0103284964
 40
0.0157244685
 40
0.0222763367
 40
0.029972209
 40
0.0387957536
 40
0.0597436671
 40
0.0849261268
 40
0.114104891
 40
0.1470017721
 40
0.1833017293
 40
0.2226565191
 40
0.2646882351
 40
0.3089925969
 40
0.355142988
 40
0.4026948422
 40
0.5001587535
 40
0.5976292702
 40
0.6451881737
 40
0.6913464619
 40
0.7356577595
 40
0.7776934799
 40
0.817047418
 40
0.8533397565
 40
0.8862207048
 40
0.9153743695
 40
0.9284649352
 40
0.9405222769
 40
0.9515178996
 40
0.9614262263
 40
0.9702243608
 40
0.9778928628
 40
0.9844157264
 40
0.987243732
 40
0.9897813729
 40
0.9920282244
 40
0.9939843313
 40
0.9956507826
 40
0.9970303694
 40
0.9981287853
 40
0.9989585955
 40
0.9992820221
 40
0.9995534762
 40
0.9997860203
 40
1.0
 40
1.0
 40
1.0
 40
1.0
 10
5.9307525623
 20
13.649998132
 30
0.0
 10
5.9307531891
 20
13.6500064903
 30
0.0
 10
5.9307512274
 20
13.6500244069
 30
0.0
 10
5.9307388456
 20
13.650050381
 30
0.0
 10
5.9307177804
 20
13.650075926
 30
0.0
 10
5.9306746517
 20
13.6501128991
 30
0.0
 10
5.9305967197
 20
13.6501576436
 30
0.0
 10
5.930476118
 20
13.650208638
 30
0.0
 10
5.9303208504
 20
13.6502604887
 30
0.0
 10
5.9301309393
 20
13.6503131277
 30
0.0
 10
5.9299062834
 20
13.650366449
 30
0.0
 10
5.9295383701
 20
13.6504429094
 30
0.0
 10
5.9289919159
 20
13.6505373977
 30
0.0
 10
5.928233387
 20
13.6506474051
 30
0.0
 10
5.9273401458
 20
13.6507590652
 30
0.0
 10
5.9258870639
 20
13.650918984
 30
0.0
 10
5.9237518885
 20
13.6511157156
 30
0.0
 10
5.920822359
 20
13.6513426296
 30
0.0
 10
5.9174253807
 20
13.6515688431
 30
0.0
 10
5.9135936376
 20
13.6517920334
 30
0.0
 10
5.9093639818
 20
13.6520097964
 30
0.0
 10
5.9047771382
 20
13.6522199312
 30
0.0
 10
5.8998772849
 20
13.6524203262
 30
0.0
 10
5.8947116463
 20
13.652608993
 30
0.0
 10
5.8893300393
 20
13.6527840801
 30
0.0
 10
5.881874614
 20
13.6529988562
 30
0.0
 10
5.8724163409
 20
13.6532209466
 30
0.0
 10
5.862956513
 20
13.6533794285
 30
0.0
 10
5.8554976407
 20
13.6534646527
 30
0.0
 10
5.8501124921
 20
13.6535061141
 30
0.0
 10
5.8449427099
 20
13.6535252928
 30
0.0
 10
5.8400383677
 20
13.6535220308
 30
0.0
 10
5.835446959
 20
13.6534964101
 30
0.0
 10
5.8312129206
 20
13.6534487699
 30
0.0
 10
5.8273772052
 20
13.6533796514
 30
0.0
 10
5.8244470996
 20
13.6533024465
 30
0.0
 10
5.8223297523
 20
13.6532286715
 30
0.0
 10
5.8209207735
 20
13.6531704578
 30
0.0
 10
5.8196362865
 20
13.6531075411
 30
0.0
 10
5.8184793798
 20
13.6530401019
 30
0.0
 10
5.817452811
 20
13.6529683704
 30
0.0
 10
5.8165590302
 20
13.6528925683
 30
0.0
 10
5.8158985362
 20
13.652823461
 30
0.0
 10
5.8154383811
 20
13.6527649635
 30
0.0
 10
5.8151444332
 20
13.6527223026
 30
0.0
 10
5.814885041
 20
13.6526788002
 30
0.0
 10
5.8146603185
 20
13.6526345093
 30
0.0
 10
5.814470369
 20
13.6525895007
 30
0.0
 10
5.8143150754
 20
13.6525438953
 30
0.0
 10
5.8141944599
 20
13.6524977575
 30
0.0
 10
5.814116413
 20
13.6524561095
 30
0.0
 10
5.8140732148
 20
13.6524208126
 30
0.0
 10
5.8140521128
 20
13.6523960613
 30
0.0
 10
5.8140397266
 20
13.6523704852
 30
0.0
 10
5.8140378211
 20
13.6523527304
 30
0.0
 10
5.8140384455
 20
13.6523444052
 30
0.0
  0
SPLINE
  5
479
100
AcDbEntity
  8
0
100
AcDbSpline
 62
7
  6
CONTINUOUS
 70
0
 71
3
 72
63
 73
59
 74
0
 42
0.0000001
 43
0.0000001
 44
0.0000000001
 40
0.0
 40
0.0
 40
0.0
 40
0.0
 40
0.0002469249
 40
0.0005105997
 40
0.0008095568
 40
0.0011567031
 40
0.0020246545
 40
0.0031526689
 40
0.0045561776
 40
0.0062425801
 40
0.0082156864
 40
0.0104771813
 40
0.0130275784
 40
0.0158667845
 40
0.0224079831
 40
0.030090529
 40
0.0388990514
 40
0.0488146216
 40
0.0598147406
 40
0.0718740186
 40
0.0849643167
 40
0.1141115076
 40
0.1469796007
 40
0.1832543178
 40
0.2225874638
 40
0.2646007718
 40
0.3088893557
 40
0.3550257276
 40
0.4025642848
 40
0.4999999946
 40
0.5974357092
 40
0.6449742627
 40
0.6911106383
 40
0.7353992253
 40
0.7774125343
 40
0.8167456805
 40
0.8530203977
 40
0.8858884904
 40
0.9150356814
 40
0.9281259803
 40
0.9401852588
 40
0.9511853781
 40
0.9611009484
 40
0.969909471
 40
0.9775920169
 40
0.9841332154
 40
0.9869724215
 40
0.9895228186
 40
0.9917843135
 40
0.9937574198
 40
0.9954438223
 40
0.996847331
 40
0.9979753455
 40
0.9988432969
 40
0.9991904432
 40
0.9994894003
 40
0.9997530751
 40
1.0
 40
1.0
 40
1.0
 40
1.0
 10
6.4208404127
 20
13.6511694715
 30
0.0
 10
6.4208411337
 20
13.6511790839
 30
0.0
 10
6.4208394789
 20
13.651199322
 30
0.0
 10
6.4208275876
 20
13.651228998
 30
0.0
 10
6.4208068528
 20
13.6512581408
 30
0.0
 10
6.4207644726
 20
13.6512996526
 30
0.0
 10
6.4206870895
 20
13.6513497316
 30
0.0
 10
6.4205667472
 20
13.6514059867
 30
0.0
 10
6.4204118486
 20
13.651462365
 30
0.0
 10
6.4202223564
 20
13.6515187923
 30
0.0
 10
6.4199981367
 20
13.6515751801
 30
0.0
 10
6.4197392762
 20
13.6516314499
 30
0.0
 10
6.4194458815
 20
13.6516875435
 30
0.0
 10
6.4189867147
 20
13.6517657465
 30
0.0
 10
6.4183273404
 20
13.6518608771
 30
0.0
 10
6.4174347053
 20
13.651969167
 30
0.0
 10
6.4164093362
 20
13.6520758369
 30
0.0
 10
6.4152536739
 20
13.6521805737
 30
0.0
 10
6.4139704633
 20
13.6522830497
 30
0.0
 10
6.4125627805
 20
13.6523829886
 30
0.0
 10
6.4104473912
 20
13.6525173369
 30
0.0
 10
6.4075195697
 20
13.6526745369
 30
0.0
 10
6.4036862053
 20
13.6528434499
 30
0.0
 10
6.3994542658
 20
13.6529968253
 30
0.0
 10
6.394864569
 20
13.6531330874
 30
0.0
 10
6.3899614222
 20
13.6532508105
 30
0.0
 10
6.3847922103
 20
13.6533487932
 30
0.0
 10
6.3794069311
 20
13.6534260499
 30
0.0
 10
6.3719467172
 20
13.6535009553
 30
0.0
 10
6.3624834896
 20
13.6535377323
 30
0.0
 10
6.3530202621
 20
13.6535009553
 30
0.0
 10
6.345560048
 20
13.6534260499
 30
0.0
 10
6.3401747687
 20
13.6533487932
 30
0.0
 10
6.3350055565
 20
13.6532508105
 30
0.0
 10
6.3301024095
 20
13.6531330874
 30
0.0
 10
6.3255127127
 20
13.6529968253
 30
0.0
 10
6.3212807732
 20
13.6528434499
 30
0.0
 10
6.3174474088
 20
13.6526745369
 30
0.0
 10
6.3145195872
 20
13.6525173369
 30
0.0
 10
6.3124041979
 20
13.6523829886
 30
0.0
 10
6.310996515
 20
13.6522830497
 30
0.0
 10
6.3097133044
 20
13.6521805737
 30
0.0
 10
6.3085576421
 20
13.6520758369
 30
0.0
 10
6.307532273
 20
13.651969167
 30
0.0
 10
6.3066396379
 20
13.6518608771
 30
0.0
 10
6.3059802635
 20
13.6517657465
 30
0.0
 10
6.3055210968
 20
13.6516875435
 30
0.0
 10
6.3052277021
 20
13.6516314499
 30
0.0
 10
6.3049688416
 20
13.6515751801
 30
0.0
 10
6.3047446219
 20
13.6515187923
 30
0.0
 10
6.3045551296
 20
13.651462365
 30
0.0
 10
6.3044002311
 20
13.6514059867
 30
0.0
 10
6.3042798888
 20
13.6513497316
 30
0.0
 10
6.3042025057
 20
13.6512996526
 30
0.0
 10
6.3041601255
 20
13.6512581408
 30
0.0
 10
6.3041393907
 20
13.651228998
 30
0.0
 10
6.3041274993
 20
13.651199322
 30
0.0
 10
6.3041258446
 20
13.6511790839
 30
0.0
 10
6.3041265655
 20
13.6511694715
 30
0.0
  0
SPLINE
  5
47A
100
AcDbEntity
  8
0
100
AcDbSpline
 62
7
  6
CONTINUOUS
 70
0
 71
3
 72
60
 73
56
 74
0
 42
0.0000001
 43
0.0000001
 44
0.0000000001
 40
0.0
 40
0.0
 40
0.0
 40
0.0
 40
0.0002139796
 40
0.0004465236
 40
0.0007179772
 40
0.0010414033
 40
0.0018712124
 40
0.0029696267
 40
0.0043492104
 40
0.0060156586
 40
0.0079717632
 40
0.0102186099
 40
0.0127562455
 40
0.0155842477
 40
0.022107098
 40
0.0297755882
 40
0.0385737056
 40
0.0484820146
 40
0.05947762
 40
0.0715349368
 40
0.0846254818
 40
0.1137790949
 40
0.14665999
 40
0.1829522738
 40
0.2223061514
 40
0.2643418083
 40
0.3086530425
 40
0.3548112723
 40
0.4023701188
 40
0.499840538
 40
0.5973043786
 40
0.6448562084
 40
0.6910065788
 40
0.7353109279
 40
0.7773426532
 40
0.8166974977
 40
0.8529975458
 40
0.8858945404
 40
0.9150734292
 40
0.9402560255
 40
0.9612040621
 40
0.9700276505
 40
0.9777235659
 40
0.9842754682
 40
0.9896714629
 40
0.9919339568
 40
0.9939059594
 40
0.9955883845
 40
0.9969838676
 40
0.9980978848
 40
0.9989423612
 40
0.9992722617
 40
0.9995490902
 40
0.9997851717
 40
1.0
 40
1.0
 40
1.0
 40
1.0
 10
6.9109285328
 20
13.6523444052
 30
0.0
 10
6.9109291572
 20
13.6523527304
 30
0.0
 10
6.9109272516
 20
13.6523704851
 30
0.0
 10
6.9109148655
 20
13.6523960613
 30
0.0
 10
6.9108937636
 20
13.6524208126
 30
0.0
 10
6.9108505654
 20
13.6524561094
 30
0.0
 10
6.9107725186
 20
13.6524977573
 30
0.0
 10
6.9106519034
 20
13.6525438951
 30
0.0
 10
6.9104966101
 20
13.6525895005
 30
0.0
 10
6.910306661
 20
13.652634509
 30
0.0
 10
6.9100819389
 20
13.6526787999
 30
0.0
 10
6.9098225471
 20
13.6527223023
 30
0.0
 10
6.9095285998
 20
13.6527649632
 30
0.0
 10
6.9090684455
 20
13.6528234606
 30
0.0
 10
6.9084079526
 20
13.6528925679
 30
0.0
 10
6.9075141735
 20
13.6529683699
 30
0.0
 10
6.9064876065
 20
13.6530401014
 30
0.0
 10
6.9053307019
 20
13.6531075406
 30
0.0
 10
6.9040462172
 20
13.6531704572
 30
0.0
 10
6.9026372408
 20
13.653228671
 30
0.0
 10
6.9005198973
 20
13.6533024459
 30
0.0
 10
6.8975897966
 20
13.6533796509
 30
0.0
 10
6.8937540874
 20
13.6534487694
 30
0.0
 10
6.8895200556
 20
13.6534964097
 30
0.0
 10
6.8849286539
 20
13.6535220307
 30
0.0
 10
6.880024319
 20
13.6535252929
 30
0.0
 10
6.874854544
 20
13.6535061145
 30
0.0
 10
6.8694694024
 20
13.6534646533
 30
0.0
 10
6.8620105384
 20
13.6533794296
 30
0.0
 10
6.8525507193
 20
13.6532209483
 30
0.0
 10
6.8430924537
 20
13.6529988584
 30
0.0
 10
6.8356370329
 20
13.652784083
 30
0.0
 10
6.8302554282
 20
13.6526089964
 30
0.0
 10
6.8250897905
 20
13.6524203299
 30
0.0
 10
6.8201899351
 20
13.6522199353
 30
0.0
 10
6.8156030855
 20
13.6520098008
 30
0.0
 10
6.8113734195
 20
13.6517920378
 30
0.0
 10
6.8075416637
 20
13.6515688473
 30
0.0
 10
6.8041446707
 20
13.6513426332
 30
0.0
 10
6.8012151262
 20
13.6511157186
 30
0.0
 10
6.799079939
 20
13.6509189866
 30
0.0
 10
6.7976268489
 20
13.650759067
 30
0.0
 10
6.796733603
 20
13.6506474067
 30
0.0
 10
6.7959750702
 20
13.650537399
 30
0.0
 10
6.7954286134
 20
13.6504429103
 30
0.0
 10
6.7950606984
 20
13.6503664498
 30
0.0
 10
6.7948360415
 20
13.6503131284
 30
0.0
 10
6.7946461296
 20
13.6502604892
 30
0.0
 10
6.7944908614
 20
13.6502086385
 30
0.0
 10
6.7943702592
 20
13.6501576439
 30
0.0
 10
6.7942923269
 20
13.6501128992
 30
0.0
 10
6.794249198
 20
13.650075926
 30
0.0
 10
6.7942281328
 20
13.6500503811
 30
0.0
 10
6.7942157509
 20
13.650024407
 30
0.0
 10
6.7942137891
 20
13.6500064903
 30
0.0
 10
6.794214416
 20
13.649998132
 30
0.0
  0
SPLINE
  5
47B
100
AcDbEntity
  8
0
100
AcDbSpline
 62
7
  6
CONTINUOUS
 70
0
 71
3
 72
69
 73
65
 74
0
 42
0.0000001
 43
0.0000001
 44
0.0000000001
 40
0.0
 40
0.0
 40
0.0
 40
0.0
 40
0.0001255499
 40
0.0002839493
 40
0.0004978961
 40
0.0007768166
 40
0.0011248766
 40
0.0015441689
 40
0.002035861
 40
0.0026006231
 40
0.0039506579
 40
0.0055959111
 40
0.0075367837
 40
0.0097728888
 40
0.0123032865
 40
0.0151268659
 40
0.0216475654
 40
0.0293205573
 40
0.0381281484
 40
0.0480497137
 40
0.059061485
 40
0.0711372204
 40
0.0842478455
 40
0.1134449474
 40
0.1463712545
 40
0.1827086622
 40
0.2221058071
 40
0.2641818543
 40
0.3085301005
 40
0.3547219503
 40
0.4023114091
 40
0.450839272
 40
0.4998375802
 40
0.5488342088
 40
0.5973573237
 40
0.6449397044
 40
0.6911234642
 40
0.7354644498
 40
0.7775360494
 40
0.8169334572
 40
0.8532777498
 40
0.8862192387
 40
0.901313465
 40
0.9154408923
 40
0.9285674611
 40
0.9406615758
 40
0.9516942654
 40
0.9616389975
 40
0.9704720376
 40
0.9781725449
 40
0.9847224933
 40
0.9901072716
 40
0.9923592591
 40
0.9943163207
 40
0.9959779464
 40
0.9973444612
 40
0.9979174764
 40
0.9984174034
 40
0.9988448597
 40
0.9992009354
 40
0.9994875741
 40
0.9997085967
 40
0.9998725308
 40
1.0
 40
1.0
 40
1.0
 40
1.0
 10
7.2696981084
 20
13.6532068047
 30
0.0
 10
7.2696984743
 20
13.6532116833
 30
0.0
 10
7.2696953712
 20
13.6532230691
 30
0.0
 10
7.2696814611
 20
13.6532371925
 30
0.0
 10
7.2696597948
 20
13.6532505712
 30
0.0
 10
7.2696296412
 20
13.6532636156
 30
0.0
 10
7.2695909068
 20
13.6532764219
 30
0.0
 10
7.269543452
 20
13.6532889671
 30
0.0
 10
7.269487259
 20
13.6533012398
 30
0.0
 10
7.269395026
 20
13.6533182398
 30
0.0
 10
7.2692576775
 20
13.6533380451
 30
0.0
 10
7.2690665174
 20
13.6533595305
 30
0.0
 10
7.2688405339
 20
13.6533797982
 30
0.0
 10
7.2685798523
 20
13.6533988208
 30
0.0
 10
7.2682846151
 20
13.6534165584
 30
0.0
 10
7.2678224607
 20
13.6534395683
 30
0.0
 10
7.2671597745
 20
13.6534640233
 30
0.0
 10
7.2662637638
 20
13.6534869137
 30
0.0
 10
7.2652350887
 20
13.6535043758
 30
0.0
 10
7.2640762287
 20
13.6535163391
 30
0.0
 10
7.2627899745
 20
13.653522734
 30
0.0
 10
7.2613794378
 20
13.6535235287
 30
0.0
 10
7.2592602831
 20
13.653516831
 30
0.0
 10
7.256328715
 20
13.6534932327
 30
0.0
 10
7.2524922968
 20
13.6534439507
 30
0.0
 10
7.2482586916
 20
13.6533730601
 30
0.0
 10
7.2436688762
 20
13.6532812046
 30
0.0
 10
7.2387672634
 20
13.6531692231
 30
0.0
 10
7.233601265
 20
13.6530381741
 30
0.0
 10
7.2282208231
 20
13.6528893062
 30
0.0
 10
7.2226779183
 20
13.6527240473
 30
0.0
 10
7.2170260589
 20
13.652543987
 30
0.0
 10
7.2113197661
 20
13.6523508604
 30
0.0
 10
7.2056140487
 20
13.6521465303
 30
0.0
 10
7.1999638826
 20
13.6519329691
 30
0.0
 10
7.1944236862
 20
13.6517122407
 30
0.0
 10
7.1890467967
 20
13.6514864803
 30
0.0
 10
7.1838849675
 20
13.6512578761
 30
0.0
 10
7.1789878838
 20
13.6510286479
 30
0.0
 10
7.1744026898
 20
13.6508010362
 30
0.0
 10
7.1701735381
 20
13.6505772637
 30
0.0
 10
7.1668907797
 20
13.6503908147
 30
0.0
 10
7.1644728917
 20
13.6502444383
 30
0.0
 10
7.1628260031
 20
13.650140165
 30
0.0
 10
7.1612961005
 20
13.6500384303
 30
0.0
 10
7.1598868802
 20
13.6499394867
 30
0.0
 10
7.1586017493
 20
13.6498435883
 30
0.0
 10
7.1574438143
 20
13.6497509885
 30
0.0
 10
7.1564158762
 20
13.6496619368
 30
0.0
 10
7.155520411
 20
13.6495767202
 30
0.0
 10
7.1547595831
 20
13.6494955763
 30
0.0
 10
7.1542108314
 20
13.6494283057
 30
0.0
 10
7.1538407183
 20
13.6493755476
 30
0.0
 10
7.1536147907
 20
13.6493395472
 30
0.0
 10
7.1534236572
 20
13.6493047545
 30
0.0
 10
7.1532863922
 20
13.6492753975
 30
0.0
 10
7.1531942463
 20
13.6492519976
 30
0.0
 10
7.153138053
 20
13.6492358122
 30
0.0
 10
7.1530905954
 20
13.6492199619
 30
0.0
 10
7.1530518574
 20
13.6492044522
 30
0.0
 10
7.1530217126
 20
13.6491893127
 30
0.0
 10
7.1530000819
 20
13.6491744252
 30
0.0
 10
7.1529862992
 20
13.6491595022
 30
0.0
 10
7.152983081
 20
13.6491478743
 30
0.0
 10
7.1529834525
 20
13.6491429211
 30
0.0
  0
LINE
  5
47C
100
AcDbEntity
  8
0
100
AcDbLine
 62
7
  6
CONTINUOUS
 10
7.3860209173
 20
13.6529199774
 11
7.2895756107
 21
13.6490423787
  0
LINE
  5
47D
100
AcDbEntity
  8
0
100
AcDbLine
 62
7
  6
CONTINUOUS
 10
4.9795794447
 20
13.6706865944
 11
4.8941668847
 21
13.6756318824
  0
SPLINE
  5
47E
100
AcDbEntity
  8
0
100
AcDbSpline
 62
7
  6
CONTINUOUS
 70
0
 71
3
 72
30
 73
26
 74
0
 42
0.0000001
 43
0.0000001
 44
0.0000000001
 40
0.0
 40
0.0
 40
0.0
 40
0.0
 40
0.2194743921
 40
0.3211519086
 40
0.4169286232
 40
0.5064368032
 40
0.5893328423
 40
0.6652986257
 40
0.7340428298
 40
0.7953026505
 40
0.8488448995
 40
0.8944673437
 40
0.9320005814
 40
0.9613115352
 40
0.972854629
 40
0.9823134588
 40
0.9862618552
 40
0.9896908436
 40
0.9926027773
 40
0.995002305
 40
0.9968989
 40
0.9983126402
 40
0.9988533301
 40
0.9992984909
 40
1.0
 40
1.0
 40
1.0
 40
1.0
 10
5.0053279046
 20
13.67496845
 30
0.0
 10
5.003416094
 20
13.6750475218
 30
0.0
 10
5.0006183886
 20
13.6751586168
 30
0.0
 10
4.9969858923
 20
13.6752911763
 30
0.0
 10
4.9944855196
 20
13.6753765281
 30
0.0
 10
4.9921485894
 20
13.675450064
 30
0.0
 10
4.9899840915
 20
13.6755115096
 30
0.0
 10
4.9880003555
 20
13.6755606467
 30
0.0
 10
4.9862050152
 20
13.6755973091
 30
0.0
 10
4.9846049734
 20
13.6756214044
 30
0.0
 10
4.983206379
 20
13.6756328828
 30
0.0
 10
4.9820145754
 20
13.6756318876
 30
0.0
 10
4.9810341312
 20
13.6756184375
 30
0.0
 10
4.980350983
 20
13.6755962678
 30
0.0
 10
4.9799131029
 20
13.6755700168
 30
0.0
 10
4.9796963146
 20
13.6755515967
 30
0.0
 10
4.9795505013
 20
13.6755346531
 30
0.0
 10
4.9794616795
 20
13.6755219834
 30
0.0
 10
4.9793866484
 20
13.6755085969
 30
0.0
 10
4.9793253406
 20
13.6754945551
 30
0.0
 10
4.979277763
 20
13.6754798287
 30
0.0
 10
4.9792468512
 20
13.6754662048
 30
0.0
 10
4.9792296334
 20
13.6754541301
 30
0.0
 10
4.9792191724
 20
13.675443797
 30
0.0
 10
4.979215168
 20
13.6754335012
 30
0.0
 10
4.9792156254
 20
13.6754274023
 30
0.0
  0
LINE
  5
47F
100
AcDbEntity
  8
0
100
AcDbLine
 62
9
  6
CONTINUOUS
 10
5.1155277934
 20
13.6690795524
 11
5.2244500796
 21
13.6690802806
  0
SPLINE
  5
480
100
AcDbEntity
  8
0
100
AcDbSpline
 62
7
  6
CONTINUOUS
 70
0
 71
3
 72
62
 73
58
 74
0
 42
0.0000001
 43
0.0000001
 44
0.0000000001
 40
0.0
 40
0.0
 40
0.0
 40
0.0
 40
0.0002296565
 40
0.0004807575
 40
0.0007717681
 40
0.0011147416
 40
0.0019823928
 40
0.0031167507
 40
0.0045306755
 40
0.0062301767
 40
0.0082182379
 40
0.0104960081
 40
0.0130636457
 40
0.0159207881
 40
0.0224991148
 40
0.0302194655
 40
0.0390655411
 40
0.0490176395
 40
0.0600527737
 40
0.0852656872
 40
0.1144655792
 40
0.1473738951
 40
0.1836758261
 40
0.2230238029
 40
0.2650408459
 40
0.3093242041
 40
0.3554490063
 40
0.4029724429
 40
0.5003786011
 40
0.5977999327
 40
0.6453397167
 40
0.6914826619
 40
0.7357818314
 40
0.7778078086
 40
0.8171531221
 40
0.8534364167
 40
0.8863065047
 40
0.9154462551
 40
0.9285283913
 40
0.9405762097
 40
0.9515612321
 40
0.9614579258
 40
0.9702435121
 40
0.9778987774
 40
0.9844080854
 40
0.9872293932
 40
0.9897605301
 40
0.9920012422
 40
0.9939518145
 40
0.9956136906
 40
0.9969902311
 40
0.9980881182
 40
0.9989217963
 40
0.9992499558
 40
0.9995288392
 40
0.9997721197
 40
1.0
 40
1.0
 40
1.0
 40
1.0
 10
5.3402316968
 20
13.6696887895
 30
0.0
 10
5.3402323643
 20
13.6696976896
 30
0.0
 10
5.3402305075
 20
13.6697166823
 30
0.0
 10
5.3402183922
 20
13.669744509
 30
0.0
 10
5.3401975779
 20
13.6697721766
 30
0.0
 10
5.3401549986
 20
13.6698123631
 30
0.0
 10
5.3400777135
 20
13.6698617851
 30
0.0
 10
5.3399577405
 20
13.6699188529
 30
0.0
 10
5.3398032974
 20
13.6699775894
 30
0.0
 10
5.339614388
 20
13.6700379265
 30
0.0
 10
5.3393909067
 20
13.6700997619
 30
0.0
 10
5.339132954
 20
13.6701630188
 30
0.0
 10
5.3388406462
 20
13.670227635
 30
0.0
 10
5.3383833674
 20
13.6703199068
 30
0.0
 10
5.337726851
 20
13.6704365993
 30
0.0
 10
5.3368381621
 20
13.6705757085
 30
0.0
 10
5.3358175746
 20
13.6707191625
 30
0.0
 10
5.3346675548
 20
13.6708665781
 30
0.0
 10
5.3328844737
 20
13.67107733
 30
0.0
 10
5.3303549449
 20
13.6713443782
 30
0.0
 10
5.3269762666
 20
13.6716622281
 30
0.0
 10
5.3231655062
 20
13.6719866119
 30
0.0
 10
5.3189593389
 20
13.6723142946
 30
0.0
 10
5.314398196
 20
13.6726419728
 30
0.0
 10
5.3095259119
 20
13.6729664224
 30
0.0
 10
5.3043893096
 20
13.6732844615
 30
0.0
 10
5.2990377648
 20
13.6735929997
 30
0.0
 10
5.2916235002
 20
13.6739909428
 30
0.0
 10
5.2822157833
 20
13.6744423368
 30
0.0
 10
5.272804435
 20
13.6748262497
 30
0.0
 10
5.2653821394
 20
13.6750867737
 30
0.0
 10
5.2600223472
 20
13.6752535601
 30
0.0
 10
5.2548760969
 20
13.6753917625
 30
0.0
 10
5.2499933644
 20
13.6755000608
 30
0.0
 10
5.2454216022
 20
13.6755774484
 30
0.0
 10
5.2412052499
 20
13.675623263
 30
0.0
 10
5.2373852869
 20
13.6756371386
 30
0.0
 10
5.2344669791
 20
13.6756217589
 30
0.0
 10
5.2323581068
 20
13.6755914944
 30
0.0
 10
5.2309548798
 20
13.6755616461
 30
0.0
 10
5.2296756818
 20
13.6755239524
 30
0.0
 10
5.2285235982
 20
13.6754785352
 30
0.0
 10
5.2275013812
 20
13.6754255775
 30
0.0
 10
5.2266114739
 20
13.67536526
 30
0.0
 10
5.2259538664
 20
13.6753067474
 30
0.0
 10
5.2254957814
 20
13.675254961
 30
0.0
 10
5.2252032173
 20
13.6752162493
 30
0.0
 10
5.2249450776
 20
13.6751758544
 30
0.0
 10
5.2247214703
 20
13.6751338274
 30
0.0
 10
5.2245324901
 20
13.6750902428
 30
0.0
 10
5.2243780006
 20
13.6750452104
 30
0.0
 10
5.2242579951
 20
13.6749988045
 30
0.0
 10
5.2241804499
 20
13.6749561456
 30
0.0
 10
5.2241377349
 20
13.674919609
 30
0.0
 10
5.224116851
 20
13.6748936623
 30
0.0
 10
5.2241047445
 20
13.6748667026
 30
0.0
 10
5.2241030061
 20
13.6748480666
 30
0.0
 10
5.2241036685
 20
13.6748392353
 30
0.0
  0
SPLINE
  5
481
100
AcDbEntity
  8
0
100
AcDbSpline
 62
7
  6
CONTINUOUS
 70
0
 71
3
 72
58
 73
54
 74
0
 42
0.0000001
 43
0.0000001
 44
0.0000000001
 40
0.0
 40
0.0
 40
0.0
 40
0.0
 40
0.0006248344
 40
0.0013692128
 40
0.0023166717
 40
0.0035085177
 40
0.0049648819
 40
0.006696219
 40
0.0087082726
 40
0.0110039852
 40
0.0164507124
 40
0.023038064
 40
0.0307579159
 40
0.0395962812
 40
0.049535076
 40
0.060552538
 40
0.0726236496
 40
0.0857206942
 40
0.1148674317
 40
0.1477186397
 40
0.183962438
 40
0.2232533092
 40
0.2652157929
 40
0.309447795
 40
0.3555244927
 40
0.4030027045
 40
0.5003228827
 40
0.5976564274
 40
0.6451489586
 40
0.6912415712
 40
0.7354873854
 40
0.7774574911
 40
0.8167456801
 40
0.8529726397
 40
0.885789751
 40
0.9148832234
 40
0.9279461287
 40
0.9399781388
 40
0.9509515383
 40
0.9608417141
 40
0.9696270806
 40
0.9772900268
 40
0.9838172167
 40
0.9892011369
 40
0.9914648564
 40
0.9934447074
 40
0.9951439958
 40
0.9965689511
 40
0.997730873
 40
0.9986517049
 40
0.9993765868
 40
0.9996935238
 40
1.0
 40
1.0
 40
1.0
 40
1.0
 10
5.7154210652
 20
13.6705781709
 30
0.0
 10
5.715422884
 20
13.6706024217
 30
0.0
 10
5.7154122621
 20
13.6706570393
 30
0.0
 10
5.715359133
 20
13.6707318132
 30
0.0
 10
5.7152733828
 20
13.6708051522
 30
0.0
 10
5.7151540119
 20
13.6708788908
 30
0.0
 10
5.7150005727
 20
13.6709535428
 30
0.0
 10
5.7148127165
 20
13.6710291432
 30
0.0
 10
5.7145903906
 20
13.6711056471
 30
0.0
 10
5.7142267768
 20
13.6712150772
 30
0.0
 10
5.7136854725
 20
13.6713505142
 30
0.0
 10
5.7129328885
 20
13.6715082522
 30
0.0
 10
5.7120462839
 20
13.6716683037
 30
0.0
 10
5.7110277393
 20
13.6718302137
 30
0.0
 10
5.7098796181
 20
13.6719934436
 30
0.0
 10
5.7086046605
 20
13.6721575392
 30
0.0
 10
5.7072059146
 20
13.6723220671
 30
0.0
 10
5.7051042061
 20
13.6725496217
 30
0.0
 10
5.7021947372
 20
13.6728289541
 30
0.0
 10
5.6983844599
 20
13.6731489488
 30
0.0
 10
5.6941775316
 20
13.6734611718
 30
0.0
 10
5.6896143701
 20
13.6737625018
 30
0.0
 10
5.6847388344
 20
13.674049902
 30
0.0
 10
5.6795978503
 20
13.6743205208
 30
0.0
 10
5.6742409609
 20
13.6745716957
 30
0.0
 10
5.6668183564
 20
13.6748798557
 30
0.0
 10
5.6573996674
 20
13.6751985651
 30
0.0
 10
5.6479777751
 20
13.6754260116
 30
0.0
 10
5.6405480859
 20
13.6755483102
 30
0.0
 10
5.6351839264
 20
13.6756077901
 30
0.0
 10
5.6300344442
 20
13.6756352698
 30
0.0
 10
5.6251497173
 20
13.6756305211
 30
0.0
 10
5.6205772287
 20
13.6755936624
 30
0.0
 10
5.6163613726
 20
13.6755251846
 30
0.0
 10
5.6125430282
 20
13.6754258702
 30
0.0
 10
5.6096270167
 20
13.6753149596
 30
0.0
 10
5.6075206122
 20
13.6752089971
 30
0.0
 10
5.6061192799
 20
13.6751253947
 30
0.0
 10
5.604842126
 20
13.6750350438
 30
0.0
 10
5.6036921983
 20
13.6749382123
 30
0.0
 10
5.602672223
 20
13.6748351958
 30
0.0
 10
5.6017845456
 20
13.6747264048
 30
0.0
 10
5.6010312173
 20
13.6746121834
 30
0.0
 10
5.6004891684
 20
13.6745079987
 30
0.0
 10
5.6001249825
 20
13.674419503
 30
0.0
 10
5.5999025312
 20
13.6743558517
 30
0.0
 10
5.5997145914
 20
13.6742911006
 30
0.0
 10
5.5995610665
 20
13.6742253528
 30
0.0
 10
5.5994416213
 20
13.6741583997
 30
0.0
 10
5.5993555758
 20
13.6740901128
 30
0.0
 10
5.5993094564
 20
13.674026946
 30
0.0
 10
5.5992940723
 20
13.6739762858
 30
0.0
 10
5.599292894
 20
13.673951758
 30
0.0
 10
5.5992937862
 20
13.6739398632
 30
0.0
  0
LINE
  5
482
100
AcDbEntity
  8
0
100
AcDbLine
 62
7
  6
CONTINUOUS
 10
5.4406661036
 20
13.6488453495
 11
5.4353913676
 21
13.6490423787
  0
SPLINE
  5
483
100
AcDbEntity
  8
0
100
AcDbSpline
 62
7
  6
CONTINUOUS
 70
0
 71
3
 72
57
 73
53
 74
0
 42
0.0000001
 43
0.0000001
 44
0.0000000001
 40
0.0
 40
0.0
 40
0.0
 40
0.0
 40
0.000704316
 40
0.0015099333
 40
0.0025005481
 40
0.0037221757
 40
0.0051989049
 40
0.0069438338
 40
0.0089644485
 40
0.0112648784
 40
0.0167124098
 40
0.0232925951
 40
0.0309997829
 40
0.0398216305
 40
0.0497412587
 40
0.06073769
 40
0.0727866506
 40
0.085860967
 40
0.1149619609
 40
0.1477690506
 40
0.183971992
 40
0.2232259944
 40
0.2651554569
 40
0.3093578136
 40
0.4028592274
 40
0.5001261932
 40
0.5973984263
 40
0.690911776
 40
0.7351195672
 40
0.7770520196
 40
0.8163049072
 40
0.852501114
 40
0.8852946435
 40
0.9143744941
 40
0.9274352657
 40
0.9394687548
 40
0.9504477657
 40
0.960348212
 40
0.9691491902
 40
0.9768340012
 40
0.9833905962
 40
0.9862440033
 40
0.9888141042
 40
0.9911020642
 40
0.9931101599
 40
0.9948426969
 40
0.9956080482
 40
0.9963078189
 40
0.9975181225
 40
0.9984988981
 40
0.9992976028
 40
1.0
 40
1.0
 40
1.0
 40
1.0
 10
6.1756591724
 20
13.6716720073
 30
0.0
 10
6.1756612244
 20
13.6716993676
 30
0.0
 10
6.175651851
 20
13.6717595625
 30
0.0
 10
6.1756000524
 20
13.6718439741
 30
0.0
 10
6.1755147688
 20
13.6719259883
 30
0.0
 10
6.1753958724
 20
13.6720074565
 30
0.0
 10
6.1752429353
 20
13.672089019
 30
0.0
 10
6.1750556458
 20
13.672170798
 30
0.0
 10
6.1748339143
 20
13.6722527771
 30
0.0
 10
6.1744714217
 20
13.6723688869
 30
0.0
 10
6.1739311933
 20
13.6725106005
 30
0.0
 10
6.1731795905
 20
13.6726728661
 30
0.0
 10
6.172293894
 20
13.6728346929
 30
0.0
 10
6.1712761428
 20
13.6729956144
 30
0.0
 10
6.1701286559
 20
13.6731550785
 30
0.0
 10
6.1688541454
 20
13.6733126351
 30
0.0
 10
6.1674556364
 20
13.673467859
 30
0.0
 10
6.1653538174
 20
13.6736787447
 30
0.0
 10
6.1624435255
 20
13.6739300924
 30
0.0
 10
6.1586315163
 20
13.6742071094
 30
0.0
 10
6.1544219145
 20
13.6744662115
 30
0.0
 10
6.1498552239
 20
13.6747047561
 30
0.0
 10
6.14497545
 20
13.6749202979
 30
0.0
 10
6.137982455
 20
13.6751788906
 30
0.0
 10
6.1288321176
 20
13.6754265055
 30
0.0
 10
6.1176124549
 20
13.6756016055
 30
0.0
 10
6.1063910764
 20
13.6756525167
 30
0.0
 10
6.097236726
 20
13.6755891942
 30
0.0
 10
6.0902391498
 20
13.6754713814
 30
0.0
 10
6.0853557425
 20
13.6753540425
 30
0.0
 10
6.0807853682
 20
13.6752073622
 30
0.0
 10
6.0765722442
 20
13.6750329026
 30
0.0
 10
6.0727570566
 20
13.6748324972
 30
0.0
 10
6.0698441902
 20
13.6746395975
 30
0.0
 10
6.0677405256
 20
13.6744708919
 30
0.0
 10
6.066341002
 20
13.6743437402
 30
0.0
 10
6.0650656274
 20
13.6742117614
 30
0.0
 10
6.0639174341
 20
13.6740753161
 30
0.0
 10
6.0628991045
 20
13.6739348308
 30
0.0
 10
6.0620130228
 20
13.6737907164
 30
0.0
 10
6.061359266
 20
13.6736629059
 30
0.0
 10
6.0609046767
 20
13.673557094
 30
0.0
 10
6.0606140849
 20
13.673480752
 30
0.0
 10
6.0603578457
 20
13.6734037927
 30
0.0
 10
6.0601360711
 20
13.6733262633
 30
0.0
 10
6.0599738759
 20
13.6732587346
 30
0.0
 10
6.0598620558
 20
13.6732037327
 30
0.0
 10
6.0597708741
 20
13.6731532113
 30
0.0
 10
6.0596768112
 20
13.6730906339
 30
0.0
 10
6.0595914422
 20
13.6730102669
 30
0.0
 10
6.0595395831
 20
13.6729266732
 30
0.0
 10
6.059530336
 20
13.6728667915
 30
0.0
 10
6.0595323825
 20
13.6728395058
 30
0.0
  0
SPLINE
  5
484
100
AcDbEntity
  8
0
100
AcDbSpline
 62
7
  6
CONTINUOUS
 70
0
 71
3
 72
57
 73
53
 74
0
 42
0.0000001
 43
0.0000001
 44
0.0000000001
 40
0.0
 40
0.0
 40
0.0
 40
0.0
 40
0.0007023972
 40
0.0015011018
 40
0.0024818775
 40
0.0036921811
 40
0.0043919518
 40
0.005157303
 40
0.0068898401
 40
0.0088979358
 40
0.0111858957
 40
0.0137559967
 40
0.0166094038
 40
0.0231659988
 40
0.0308508097
 40
0.039651788
 40
0.0495522342
 40
0.0605312449
 40
0.0725647339
 40
0.0856255055
 40
0.1147053555
 40
0.1474988855
 40
0.1836950917
 40
0.2229479798
 40
0.2648804321
 40
0.3090882233
 40
0.4026015728
 40
0.4998738054
 40
0.5971407714
 40
0.690642187
 40
0.7348445448
 40
0.7767740073
 40
0.8160280094
 40
0.8522309501
 40
0.8850380398
 40
0.9141390335
 40
0.92721335
 40
0.9392623105
 40
0.9502587418
 40
0.9601783699
 40
0.9690002174
 40
0.9767074052
 40
0.9832875904
 40
0.9887351217
 40
0.9910355515
 40
0.9930561663
 40
0.9948010952
 40
0.9962778243
 40
0.9974994519
 40
0.9984900667
 40
0.999295684
 40
1.0
 40
1.0
 40
1.0
 40
1.0
 10
6.6654345958
 20
13.6728395058
 30
0.0
 10
6.6654366422
 20
13.6728667915
 30
0.0
 10
6.6654273951
 20
13.6729266732
 30
0.0
 10
6.6653755361
 20
13.6730102669
 30
0.0
 10
6.6652901671
 20
13.6730906339
 30
0.0
 10
6.6651961041
 20
13.6731532113
 30
0.0
 10
6.6651049225
 20
13.6732037327
 30
0.0
 10
6.6649931023
 20
13.6732587346
 30
0.0
 10
6.6648309072
 20
13.6733262633
 30
0.0
 10
6.6646091325
 20
13.6734037927
 30
0.0
 10
6.6643528934
 20
13.673480752
 30
0.0
 10
6.6640623016
 20
13.673557094
 30
0.0
 10
6.6636077123
 20
13.6736629059
 30
0.0
 10
6.6629539555
 20
13.6737907164
 30
0.0
 10
6.6620678737
 20
13.6739348308
 30
0.0
 10
6.6610495441
 20
13.6740753161
 30
0.0
 10
6.6599013508
 20
13.6742117614
 30
0.0
 10
6.6586259763
 20
13.6743437402
 30
0.0
 10
6.6572264527
 20
13.6744708919
 30
0.0
 10
6.6551227882
 20
13.6746395975
 30
0.0
 10
6.6522099217
 20
13.6748324972
 30
0.0
 10
6.6483947341
 20
13.6750329026
 30
0.0
 10
6.6441816102
 20
13.6752073622
 30
0.0
 10
6.6396112358
 20
13.6753540425
 30
0.0
 10
6.6347278285
 20
13.6754713814
 30
0.0
 10
6.6277302524
 20
13.6755891942
 30
0.0
 10
6.618575902
 20
13.6756525167
 30
0.0
 10
6.6073545235
 20
13.6756016055
 30
0.0
 10
6.5961348608
 20
13.6754265055
 30
0.0
 10
6.5869845233
 20
13.6751788906
 30
0.0
 10
6.5799915281
 20
13.6749202979
 30
0.0
 10
6.5751117542
 20
13.6747047561
 30
0.0
 10
6.5705450636
 20
13.6744662115
 30
0.0
 10
6.5663354619
 20
13.6742071094
 30
0.0
 10
6.5625234527
 20
13.6739300924
 30
0.0
 10
6.5596131608
 20
13.6736787447
 30
0.0
 10
6.5575113418
 20
13.673467859
 30
0.0
 10
6.5561128328
 20
13.6733126351
 30
0.0
 10
6.5548383223
 20
13.6731550785
 30
0.0
 10
6.5536908355
 20
13.6729956144
 30
0.0
 10
6.5526730842
 20
13.6728346929
 30
0.0
 10
6.5517873877
 20
13.6726728661
 30
0.0
 10
6.5510357849
 20
13.6725106005
 30
0.0
 10
6.5504955566
 20
13.6723688869
 30
0.0
 10
6.550133064
 20
13.6722527771
 30
0.0
 10
6.5499113324
 20
13.6721707979
 30
0.0
 10
6.549724043
 20
13.672089019
 30
0.0
 10
6.5495711059
 20
13.6720074565
 30
0.0
 10
6.5494522094
 20
13.6719259883
 30
0.0
 10
6.5493669259
 20
13.6718439741
 30
0.0
 10
6.5493151272
 20
13.6717595625
 30
0.0
 10
6.5493057538
 20
13.6716993676
 30
0.0
 10
6.5493078059
 20
13.6716720073
 30
0.0
  0
SPLINE
  5
485
100
AcDbEntity
  8
0
100
AcDbSpline
 62
7
  6
CONTINUOUS
 70
0
 71
3
 72
58
 73
54
 74
0
 42
0.0000001
 43
0.0000001
 44
0.0000000001
 40
0.0
 40
0.0
 40
0.0
 40
0.0
 40
0.0003064762
 40
0.0006234132
 40
0.0013482951
 40
0.002269127
 40
0.0034310489
 40
0.0048560042
 40
0.0065552926
 40
0.0085351436
 40
0.0107988631
 40
0.0161827835
 40
0.0227099734
 40
0.0303729196
 40
0.039158286
 40
0.0490484614
 40
0.0600218606
 40
0.0720538701
 40
0.0851167746
 40
0.1142102468
 40
0.1470273586
 40
0.1832543176
 40
0.2225425057
 40
0.2645126121
 40
0.3087584252
 40
0.3548510355
 40
0.4023435696
 40
0.4996771162
 40
0.5969972936
 40
0.6444755041
 40
0.6905522026
 40
0.7347842064
 40
0.7767466919
 40
0.8160375635
 40
0.8522813608
 40
0.8851325686
 40
0.9142793062
 40
0.9273763507
 40
0.9394474624
 40
0.9504649243
 40
0.960403719
 40
0.9692420843
 40
0.9769619362
 40
0.9835492877
 40
0.9889960148
 40
0.9912917274
 40
0.993303781
 40
0.9950351181
 40
0.9964914823
 40
0.9976833283
 40
0.9986307872
 40
0.9993751656
 40
1.0
 40
1.0
 40
1.0
 40
1.0
 10
7.1256731921
 20
13.6739398632
 30
0.0
 10
7.1256740842
 20
13.673951758
 30
0.0
 10
7.1256729059
 20
13.6739762858
 30
0.0
 10
7.1256575219
 20
13.674026946
 30
0.0
 10
7.1256114025
 20
13.6740901128
 30
0.0
 10
7.125525357
 20
13.6741583997
 30
0.0
 10
7.1254059118
 20
13.6742253528
 30
0.0
 10
7.1252523869
 20
13.6742911006
 30
0.0
 10
7.1250644471
 20
13.6743558517
 30
0.0
 10
7.1248419957
 20
13.674419503
 30
0.0
 10
7.1244778098
 20
13.6745079987
 30
0.0
 10
7.1239357609
 20
13.6746121834
 30
0.0
 10
7.1231824326
 20
13.6747264048
 30
0.0
 10
7.1222947553
 20
13.6748351958
 30
0.0
 10
7.12127478
 20
13.6749382123
 30
0.0
 10
7.1201248523
 20
13.6750350438
 30
0.0
 10
7.1188476984
 20
13.6751253947
 30
0.0
 10
7.1174463662
 20
13.6752089971
 30
0.0
 10
7.1153399617
 20
13.6753149596
 30
0.0
 10
7.1124239503
 20
13.6754258702
 30
0.0
 10
7.1086056059
 20
13.6755251846
 30
0.0
 10
7.1043897499
 20
13.6755936624
 30
0.0
 10
7.0998172612
 20
13.6756305211
 30
0.0
 10
7.0949325344
 20
13.6756352698
 30
0.0
 10
7.0897830523
 20
13.6756077901
 30
0.0
 10
7.0844188928
 20
13.6755483102
 30
0.0
 10
7.0769892036
 20
13.6754260117
 30
0.0
 10
7.0675673111
 20
13.6751985651
 30
0.0
 10
7.0581486221
 20
13.6748798557
 30
0.0
 10
7.0507260177
 20
13.6745716957
 30
0.0
 10
7.0453691282
 20
13.6743205208
 30
0.0
 10
7.040228144
 20
13.674049902
 30
0.0
 10
7.0353526081
 20
13.6737625018
 30
0.0
 10
7.0307894465
 20
13.6734611718
 30
0.0
 10
7.0265825183
 20
13.6731489488
 30
0.0
 10
7.022772241
 20
13.672828954
 30
0.0
 10
7.0198627721
 20
13.6725496217
 30
0.0
 10
7.0177610637
 20
13.6723220671
 30
0.0
 10
7.0163623177
 20
13.6721575392
 30
0.0
 10
7.0150873601
 20
13.6719934436
 30
0.0
 10
7.0139392389
 20
13.6718302137
 30
0.0
 10
7.0129206944
 20
13.6716683037
 30
0.0
 10
7.0120340898
 20
13.6715082522
 30
0.0
 10
7.0112815058
 20
13.6713505142
 30
0.0
 10
7.0107402015
 20
13.6712150772
 30
0.0
 10
7.0103765877
 20
13.6711056471
 30
0.0
 10
7.0101542618
 20
13.6710291432
 30
0.0
 10
7.0099664056
 20
13.6709535428
 30
0.0
 10
7.0098129664
 20
13.6708788908
 30
0.0
 10
7.0096935955
 20
13.6708051522
 30
0.0
 10
7.0096078453
 20
13.6707318132
 30
0.0
 10
7.0095547162
 20
13.6706570393
 30
0.0
 10
7.0095440943
 20
13.6706024217
 30
0.0
 10
7.0095459131
 20
13.6705781709
 30
0.0
  0
SPLINE
  5
486
100
AcDbEntity
  8
0
100
AcDbSpline
 62
7
  6
CONTINUOUS
 70
0
 71
3
 72
62
 73
58
 74
0
 42
0.0000001
 43
0.0000001
 44
0.0000000001
 40
0.0
 40
0.0
 40
0.0
 40
0.0
 40
0.0002278803
 40
0.0004711608
 40
0.0007500442
 40
0.0010782037
 40
0.0019118818
 40
0.0030097688
 40
0.0043863092
 40
0.0060481852
 40
0.0079987576
 40
0.0102394697
 40
0.0127706066
 40
0.0155919143
 40
0.0221012222
 40
0.0297564872
 40
0.0385420733
 40
0.0484387675
 40
0.0594237899
 40
0.0714716077
 40
0.0845537446
 40
0.1136934949
 40
0.1465635841
 40
0.1828468782
 40
0.2221921927
 40
0.2642181699
 40
0.3085173404
 40
0.3546602855
 40
0.4022000704
 40
0.4996214021
 40
0.5970275614
 40
0.6445509991
 40
0.690675802
 40
0.734959161
 40
0.7769762034
 40
0.8163241791
 40
0.8526261085
 40
0.8855344224
 40
0.9147343141
 40
0.9399472269
 40
0.9509823609
 40
0.9609344591
 40
0.9697805346
 40
0.9775008852
 40
0.9840792119
 40
0.9869363542
 40
0.9895039918
 40
0.991781762
 40
0.9937698233
 40
0.9954693245
 40
0.9968832493
 40
0.9980176072
 40
0.9988852584
 40
0.9992282319
 40
0.9995192425
 40
0.9997703435
 40
1.0
 40
1.0
 40
1.0
 40
1.0
 10
7.5008633098
 20
13.6748392353
 30
0.0
 10
7.5008639722
 20
13.6748480666
 30
0.0
 10
7.5008622337
 20
13.6748667026
 30
0.0
 10
7.5008501273
 20
13.6748936623
 30
0.0
 10
7.5008292434
 20
13.674919609
 30
0.0
 10
7.5007865284
 20
13.6749561456
 30
0.0
 10
7.5007089831
 20
13.6749988045
 30
0.0
 10
7.5005889776
 20
13.6750452104
 30
0.0
 10
7.5004344882
 20
13.6750902428
 30
0.0
 10
7.5002455079
 20
13.6751338274
 30
0.0
 10
7.5000219007
 20
13.6751758543
 30
0.0
 10
7.499763761
 20
13.6752162493
 30
0.0
 10
7.4994711968
 20
13.675254961
 30
0.0
 10
7.4990131119
 20
13.6753067474
 30
0.0
 10
7.4983555044
 20
13.67536526
 30
0.0
 10
7.4974655971
 20
13.6754255775
 30
0.0
 10
7.4964433802
 20
13.6754785352
 30
0.0
 10
7.4952912966
 20
13.6755239524
 30
0.0
 10
7.4940120986
 20
13.6755616461
 30
0.0
 10
7.4926088716
 20
13.6755914944
 30
0.0
 10
7.4904999993
 20
13.6756217589
 30
0.0
 10
7.4875816914
 20
13.6756371387
 30
0.0
 10
7.4837617284
 20
13.675623263
 30
0.0
 10
7.479545376
 20
13.6755774484
 30
0.0
 10
7.4749736137
 20
13.6755000608
 30
0.0
 10
7.4700908811
 20
13.6753917625
 30
0.0
 10
7.4649446309
 20
13.6752535601
 30
0.0
 10
7.4595848385
 20
13.6750867736
 30
0.0
 10
7.4521625429
 20
13.6748262496
 30
0.0
 10
7.4427511946
 20
13.6744423368
 30
0.0
 10
7.4333434776
 20
13.6739909428
 30
0.0
 10
7.4259292129
 20
13.6735929997
 30
0.0
 10
7.4205776679
 20
13.6732844615
 30
0.0
 10
7.4154410656
 20
13.6729664223
 30
0.0
 10
7.4105687815
 20
13.6726419728
 30
0.0
 10
7.4060076387
 20
13.6723142945
 30
0.0
 10
7.4018014717
 20
13.6719866119
 30
0.0
 10
7.3979907114
 20
13.6716622281
 30
0.0
 10
7.3946120333
 20
13.6713443782
 30
0.0
 10
7.3920825045
 20
13.6710773299
 30
0.0
 10
7.3902994234
 20
13.6708665781
 30
0.0
 10
7.3891494036
 20
13.6707191625
 30
0.0
 10
7.3881288162
 20
13.6705757085
 30
0.0
 10
7.3872401273
 20
13.6704365993
 30
0.0
 10
7.3865836109
 20
13.6703199068
 30
0.0
 10
7.386126332
 20
13.670227635
 30
0.0
 10
7.3858340243
 20
13.6701630188
 30
0.0
 10
7.3855760716
 20
13.6700997619
 30
0.0
 10
7.3853525903
 20
13.6700379265
 30
0.0
 10
7.3851636809
 20
13.6699775894
 30
0.0
 10
7.3850092378
 20
13.6699188529
 30
0.0
 10
7.3848892647
 20
13.6698617851
 30
0.0
 10
7.3848119796
 20
13.6698123631
 30
0.0
 10
7.3847694004
 20
13.6697721766
 30
0.0
 10
7.3847485861
 20
13.669744509
 30
0.0
 10
7.3847364707
 20
13.6697166823
 30
0.0
 10
7.384734614
 20
13.6696976896
 30
0.0
 10
7.3847352815
 20
13.6696887895
 30
0.0
  0
LINE
  5
487
100
AcDbEntity
  8
0
100
AcDbLine
 62
9
  6
CONTINUOUS
 10
7.5005169236
 20
13.6690802806
 11
7.6094391743
 21
13.6690795526
  0
SPLINE
  5
488
100
AcDbEntity
  8
0
100
AcDbSpline
 62
7
  6
CONTINUOUS
 70
0
 71
3
 72
30
 73
26
 74
0
 42
0.0000001
 43
0.0000001
 44
0.0000000001
 40
0.0
 40
0.0
 40
0.0
 40
0.0
 40
0.0007015104
 40
0.0011466724
 40
0.0016873638
 40
0.0031011072
 40
0.0049977045
 40
0.0073972323
 40
0.0103091648
 40
0.0137381528
 40
0.0176865481
 40
0.0271453674
 40
0.0386884353
 40
0.0679993574
 40
0.1055326196
 40
0.1511550884
 40
0.2046973233
 40
0.2659570644
 40
0.3347011785
 40
0.4106670152
 40
0.493563139
 40
0.5830713138
 40
0.6788479396
 40
0.7805253814
 40
1.0
 40
1.0
 40
1.0
 40
1.0
 10
7.7457513529
 20
13.6754274023
 30
0.0
 10
7.7457518103
 20
13.6754335012
 30
0.0
 10
7.7457478059
 20
13.675443797
 30
0.0
 10
7.7457373449
 20
13.67545413
 30
0.0
 10
7.7457201271
 20
13.6754662047
 30
0.0
 10
7.7456892153
 20
13.6754798286
 30
0.0
 10
7.7456416378
 20
13.675494555
 30
0.0
 10
7.7455803302
 20
13.6755085969
 30
0.0
 10
7.7455052994
 20
13.6755219833
 30
0.0
 10
7.7454164779
 20
13.675534653
 30
0.0
 10
7.7452706651
 20
13.6755515966
 30
0.0
 10
7.7450538779
 20
13.6755700166
 30
0.0
 10
7.7446159997
 20
13.6755962676
 30
0.0
 10
7.7439328539
 20
13.6756184374
 30
0.0
 10
7.7429524127
 20
13.6756318875
 30
0.0
 10
7.7417606126
 20
13.6756328828
 30
0.0
 10
7.7403620232
 20
13.6756214046
 30
0.0
 10
7.738761988
 20
13.6755973096
 30
0.0
 10
7.7369666544
 20
13.6755606474
 30
0.0
 10
7.7349829243
 20
13.6755115106
 30
0.0
 10
7.7328184321
 20
13.6754500653
 30
0.0
 10
7.7304815094
 20
13.6753765298
 30
0.0
 10
7.727981146
 20
13.6752911785
 30
0.0
 10
7.7243486607
 20
13.6751586195
 30
0.0
 10
7.7215509628
 20
13.675047525
 30
0.0
 10
7.7196391562
 20
13.6749684534
 30
0.0
  0
LINE
  5
489
100
AcDbEntity
  8
0
100
AcDbLine
 62
7
  6
CONTINUOUS
 10
7.8308000936
 20
13.6756318824
 11
7.7453875628
 21
13.6706865961
  0
LINE
  5
48A
100
AcDbEntity
  8
0
100
AcDbLine
 62
7
  6
CONTINUOUS
 10
4.4714446994
 20
13.7048195612
 11
4.4641866255
 21
13.7053686721
  0
SPLINE
  5
48B
100
AcDbEntity
  8
0
100
AcDbSpline
 62
7
  6
CONTINUOUS
 70
0
 71
3
 72
36
 73
32
 74
0
 42
0.0000001
 43
0.0000001
 44
0.0000000001
 40
0.0
 40
0.0
 40
0.0
 40
0.0
 40
0.0005566754
 40
0.0010081656
 40
0.0015982527
 40
0.0023334785
 40
0.0032171202
 40
0.0042509781
 40
0.0054360183
 40
0.0082614262
 40
0.0116953842
 40
0.0203864561
 40
0.031493743
 40
0.0449899178
 40
0.0608394601
 40
0.0789992048
 40
0.0994193714
 40
0.1220439756
 40
0.146810629
 40
0.1736511532
 40
0.2024919421
 40
0.2332537776
 40
0.3001985647
 40
0.3737545081
 40
0.453120878
 40
0.537435926
 40
0.6257863569
 40
0.717216548
 40
0.8107381316
 40
0.9053403209
 40
1.0
 40
1.0
 40
1.0
 40
1.0
 10
4.6428301868
 20
13.69674673
 30
0.0
 10
4.6428310746
 20
13.6967585674
 30
0.0
 10
4.6428146047
 20
13.6967781689
 30
0.0
 10
4.6427868764
 20
13.6967960788
 30
0.0
 10
4.6427526748
 20
13.6968133921
 30
0.0
 10
4.6427091066
 20
13.6968310111
 30
0.0
 10
4.6426556015
 20
13.69684957
 30
0.0
 10
4.642592308
 20
13.6968688169
 30
0.0
 10
4.6424885295
 20
13.6968971733
 30
0.0
 10
4.6423340149
 20
13.6969337378
 30
0.0
 10
4.6420218261
 20
13.6969984696
 30
0.0
 10
4.6415337608
 20
13.6970840029
 30
0.0
 10
4.6408319756
 20
13.697191663
 30
0.0
 10
4.6399774755
 20
13.6973099817
 30
0.0
 10
4.6389726522
 20
13.6974386196
 30
0.0
 10
4.6378202689
 20
13.6975770766
 30
0.0
 10
4.6365235315
 20
13.6977249356
 30
0.0
 10
4.6350860341
 20
13.6978817494
 30
0.0
 10
4.6335117578
 20
13.6980470677
 30
0.0
 10
4.6318050522
 20
13.6982204206
 30
0.0
 10
4.6299706222
 20
13.6984013244
 30
0.0
 10
4.6272844617
 20
13.6986592761
 30
0.0
 10
4.6236479591
 20
13.6989957856
 30
0.0
 10
4.6189778838
 20
13.6994108683
 30
0.0
 10
4.6139375028
 20
13.6998432291
 30
0.0
 10
4.6085815816
 20
13.7002881468
 30
0.0
 10
4.6029681809
 20
13.700740769
 30
0.0
 10
4.5971580615
 20
13.7011961804
 30
0.0
 10
4.5912140651
 20
13.7016494429
 30
0.0
 10
4.5852004772
 20
13.7020956448
 30
0.0
 10
4.5811750951
 20
13.7023861427
 30
0.0
 10
4.5791616462
 20
13.7025293691
 30
0.0
  0
SPLINE
  5
48C
100
AcDbEntity
  8
0
100
AcDbSpline
 62
7
  6
CONTINUOUS
 70
0
 71
3
 72
36
 73
32
 74
0
 42
0.0000001
 43
0.0000001
 44
0.0000000001
 40
0.0
 40
0.0
 40
0.0
 40
0.0
 40
0.1702226839
 40
0.2584507141
 40
0.3469953674
 40
0.4345211691
 40
0.5197035992
 40
0.6012503537
 40
0.6779203014
 40
0.7485442768
 40
0.8120442826
 40
0.867451751
 40
0.8918526562
 40
0.9139258235
 40
0.9335888058
 40
0.9507693751
 40
0.9584092554
 40
0.9654065772
 40
0.9717555723
 40
0.9774517603
 40
0.9824913631
 40
0.9868723963
 40
0.9905947998
 40
0.9936615016
 40
0.9960818198
 40
0.9970563001
 40
0.9978799359
 40
0.9985620181
 40
0.9991190648
 40
0.9995812784
 40
1.0
 40
1.0
 40
1.0
 40
1.0
 10
4.7911996234
 20
13.7015310048
 30
0.0
 10
4.786636923
 20
13.7019025411
 30
0.0
 10
4.7797061644
 20
13.7024283287
 30
0.0
 10
4.7703964914
 20
13.7030701477
 30
0.0
 10
4.7633033248
 20
13.7035262215
 30
0.0
 10
4.7562898795
 20
13.7039444582
 30
0.0
 10
4.7494624034
 20
13.7043184821
 30
0.0
 10
4.7429246645
 20
13.704642645
 30
0.0
 10
4.7367763092
 20
13.7049120542
 30
0.0
 10
4.7311112889
 20
13.7051227563
 30
0.0
 10
4.7260163338
 20
13.7052716531
 30
0.0
 10
4.722162947
 20
13.7053458159
 30
0.0
 10
4.7194231199
 20
13.7053692294
 30
0.0
 10
4.7176444679
 20
13.7053695103
 30
0.0
 10
4.7160600706
 20
13.7053533846
 30
0.0
 10
4.7148640465
 20
13.7053255103
 30
0.0
 10
4.7140089465
 20
13.7052937682
 30
0.0
 10
4.7134451942
 20
13.7052668455
 30
0.0
 10
4.7129340015
 20
13.7052359199
 30
0.0
 10
4.7124758434
 20
13.705201044
 30
0.0
 10
4.7120711233
 20
13.7051622843
 30
0.0
 10
4.7117201974
 20
13.7051197219
 30
0.0
 10
4.711423275
 20
13.7050735238
 30
0.0
 10
4.7111805749
 20
13.705023759
 30
0.0
 10
4.7110128958
 20
13.7049769265
 30
0.0
 10
4.7109070385
 20
13.7049358563
 30
0.0
 10
4.7108470711
 20
13.704906398
 30
0.0
 10
4.7108004606
 20
13.7048759628
 30
0.0
 10
4.7107670035
 20
13.7048442267
 30
0.0
 10
4.7107468839
 20
13.7048103603
 30
0.0
 10
4.7107435759
 20
13.7047860943
 30
0.0
 10
4.710744418
 20
13.7047748651
 30
0.0
  0
SPLINE
  5
48D
100
AcDbEntity
  8
0
100
AcDbSpline
 62
7
  6
CONTINUOUS
 70
0
 71
3
 72
58
 73
54
 74
0
 42
0.0000001
 43
0.0000001
 44
0.0000000001
 40
0.0
 40
0.0
 40
0.0
 40
0.0
 40
0.0006664302
 40
0.001451579
 40
0.0024358075
 40
0.0036606116
 40
0.0051469319
 40
0.006905888
 40
0.0089437085
 40
0.011263685
 40
0.0167551534
 40
0.0233831248
 40
0.0311399232
 40
0.0400117711
 40
0.0499806484
 40
0.0610247226
 40
0.0731189452
 40
0.0862355264
 40
0.1154103736
 40
0.1482751086
 40
0.1845183796
 40
0.2237958335
 40
0.2657337728
 40
0.3099323513
 40
0.3559693226
 40
0.4034042188
 40
0.5006372901
 40
0.5978964323
 40
0.6914269516
 40
0.7356524636
 40
0.7776051824
 40
0.8168771308
 40
0.8530870769
 40
0.8858845511
 40
0.9149542643
 40
0.9280034694
 40
0.9400205115
 40
0.9509777482
 40
0.9608507283
 40
0.9696181669
 40
0.9772629476
 40
0.9837725121
 40
0.9865995169
 40
0.9891411378
 40
0.9913983449
 40
0.99337315
 40
0.9950695255
 40
0.9958155739
 40
0.996495146
 40
0.9976621225
 40
0.9985954888
 40
0.9993441426
 40
1.0
 40
1.0
 40
1.0
 40
1.0
 10
5.1191415281
 20
13.6978707075
 30
0.0
 10
5.1191434678
 20
13.6978965709
 30
0.0
 10
5.119133266
 20
13.6979543648
 30
0.0
 10
5.1190809103
 20
13.6980351774
 30
0.0
 10
5.1189955324
 20
13.6981154272
 30
0.0
 10
5.1188765068
 20
13.698196811
 30
0.0
 10
5.1187234303
 20
13.6982798826
 30
0.0
 10
5.1185359946
 20
13.6983647051
 30
0.0
 10
5.1183141432
 20
13.6984512462
 30
0.0
 10
5.1179515943
 20
13.6985759348
 30
0.0
 10
5.1174115594
 20
13.6987323999
 30
0.0
 10
5.116660356
 20
13.698917424
 30
0.0
 10
5.1157754223
 20
13.6991079093
 30
0.0
 10
5.1147588572
 20
13.6993033246
 30
0.0
 10
5.113613036
 20
13.6995030493
 30
0.0
 10
5.1123407147
 20
13.6997065406
 30
0.0
 10
5.110944955
 20
13.6999132688
 30
0.0
 10
5.108848267
 20
13.7002028865
 30
0.0
 10
5.1059458416
 20
13.7005658376
 30
0.0
 10
5.102144678
 20
13.7009924078
 30
0.0
 10
5.0979481824
 20
13.701419629
 30
0.0
 10
5.0933965778
 20
13.7018432858
 30
0.0
 10
5.0885334544
 20
13.7022591766
 30
0.0
 10
5.0834054143
 20
13.7026632258
 30
0.0
 10
5.0780616411
 20
13.7030514996
 30
0.0
 10
5.0706563637
 20
13.7035471346
 30
0.0
 10
5.0612571077
 20
13.7040993079
 30
0.0
 10
5.0500608154
 20
13.7046410804
 30
0.0
 10
5.0409207974
 20
13.7049852089
 30
0.0
 10
5.0339296991
 20
13.7051834487
 30
0.0
 10
5.0290485543
 20
13.7052889609
 30
0.0
 10
5.0244786627
 20
13.705353205
 30
0.0
 10
5.0202646639
 20
13.7053756647
 30
0.0
 10
5.0164476941
 20
13.7053562401
 30
0.0
 10
5.0135324589
 20
13.7053040047
 30
0.0
 10
5.0114265916
 20
13.7052386982
 30
0.0
 10
5.0100257868
 20
13.7051812728
 30
0.0
 10
5.0087491881
 20
13.7051138397
 30
0.0
 10
5.0075998589
 20
13.7050366061
 30
0.0
 10
5.0065805084
 20
13.7049498596
 30
0.0
 10
5.0056935369
 20
13.7048538842
 30
0.0
 10
5.0050387745
 20
13.7047629149
 30
0.0
 10
5.0045832874
 20
13.704683739
 30
0.0
 10
5.0042923308
 20
13.7046250146
 30
0.0
 10
5.0040357578
 20
13.7045642074
 30
0.0
 10
5.0038136788
 20
13.7045013593
 30
0.0
 10
5.0036510428
 20
13.7044452074
 30
0.0
 10
5.0035388134
 20
13.7043985329
 30
0.0
 10
5.0034476215
 20
13.7043553144
 30
0.0
 10
5.0033535987
 20
13.704301078
 30
0.0
 10
5.0032677807
 20
13.7042296845
 30
0.0
 10
5.0032150196
 20
13.7041533003
 30
0.0
 10
5.0032055124
 20
13.7040971477
 30
0.0
 10
5.0032074214
 20
13.7040716947
 30
0.0
  0
SPLINE
  5
48E
100
AcDbEntity
  8
0
100
AcDbSpline
 62
7
  6
CONTINUOUS
 70
0
 71
3
 72
55
 73
51
 74
0
 42
0.0000001
 43
0.0000001
 44
0.0000000001
 40
0.0
 40
0.0
 40
0.0
 40
0.0
 40
0.0008071017
 40
0.0017089386
 40
0.0027831473
 40
0.004076431
 40
0.0056151845
 40
0.0074145651
 40
0.0094835951
 40
0.011827513
 40
0.0173500748
 40
0.0239927564
 40
0.0317522327
 40
0.040617561
 40
0.0505727317
 40
0.0615974267
 40
0.0736678017
 40
0.0867570655
 40
0.11586985
 40
0.148666892
 40
0.1848407078
 40
0.2240496555
 40
0.2659216103
 40
0.3100576497
 40
0.4034139628
 40
0.5005390265
 40
0.5976866814
 40
0.6910941043
 40
0.7352533409
 40
0.7771378598
 40
0.8163416481
 40
0.8524861199
 40
0.8852244636
 40
0.9142458959
 40
0.9272767456
 40
0.9392803119
 40
0.9502299469
 40
0.9601023672
 40
0.9688777565
 40
0.9765409567
 40
0.9830822092
 40
0.9884996326
 40
0.9907903867
 40
0.9928063761
 40
0.9945535824
 40
0.9960421298
 40
0.997289034
 40
0.9983240539
 40
0.9991995339
 40
1.0
 40
1.0
 40
1.0
 40
1.0
 10
5.5002856415
 20
13.6987725213
 30
0.0
 10
5.5002879946
 20
13.6988038964
 30
0.0
 10
5.500279594
 20
13.6988718155
 30
0.0
 10
5.5002295594
 20
13.6989697816
 30
0.0
 10
5.5001453134
 20
13.699066529
 30
0.0
 10
5.5000272604
 20
13.6991634579
 30
0.0
 10
5.4998751646
 20
13.6992612624
 30
0.0
 10
5.4996887943
 20
13.69936012
 30
0.0
 10
5.499468067
 20
13.699460052
 30
0.0
 10
5.4991077907
 20
13.6996025444
 30
0.0
 10
5.4985700353
 20
13.6997792457
 30
0.0
 10
5.4978209209
 20
13.6999851583
 30
0.0
 10
5.4969380973
 20
13.7001940289
 30
0.0
 10
5.495923599
 20
13.7004052777
 30
0.0
 10
5.4947797261
 20
13.700618234
 30
0.0
 10
5.4935091867
 20
13.7008323149
 30
0.0
 10
5.4921149982
 20
13.7010469613
 30
0.0
 10
5.4900201781
 20
13.7013437818
 30
0.0
 10
5.4871191079
 20
13.7017082282
 30
0.0
 10
5.4833182717
 20
13.7021258216
 30
0.0
 10
5.4791207324
 20
13.702533326
 30
0.0
 10
5.4745666718
 20
13.7029266693
 30
0.0
 10
5.4696997176
 20
13.703301912
 30
0.0
 10
5.4627239963
 20
13.703782076
 30
0.0
 10
5.4535926152
 20
13.7043065406
 30
0.0
 10
5.4423906407
 20
13.7048024595
 30
0.0
 10
5.4311812784
 20
13.7051561006
 30
0.0
 10
5.4220326144
 20
13.7053242918
 30
0.0
 10
5.4150371703
 20
13.7053731325
 30
0.0
 10
5.4101545822
 20
13.7053668535
 30
0.0
 10
5.4055846752
 20
13.7053185985
 30
0.0
 10
5.401371986
 20
13.7052289928
 30
0.0
 10
5.3975574816
 20
13.7050990738
 30
0.0
 10
5.394645342
 20
13.7049540108
 30
0.0
 10
5.3925425996
 20
13.7048154514
 30
0.0
 10
5.3911440565
 20
13.7047061397
 30
0.0
 10
5.3898698257
 20
13.7045880142
 30
0.0
 10
5.3887229191
 20
13.7044614224
 30
0.0
 10
5.3877060209
 20
13.7043267482
 30
0.0
 10
5.3868213931
 20
13.7041845044
 30
0.0
 10
5.3860710154
 20
13.7040351326
 30
0.0
 10
5.3855320143
 20
13.7038989151
 30
0.0
 10
5.3851708258
 20
13.7037834306
 30
0.0
 10
5.3849498731
 20
13.7037001366
 30
0.0
 10
5.3847633253
 20
13.7036153214
 30
0.0
 10
5.3846110551
 20
13.7035289513
 30
0.0
 10
5.3844927869
 20
13.7034407968
 30
0.0
 10
5.384408229
 20
13.7033500484
 30
0.0
 10
5.384358108
 20
13.7032550766
 30
0.0
 10
5.3843501488
 20
13.7031883616
 30
0.0
 10
5.3843524826
 20
13.7031572444
 30
0.0
  0
SPLINE
  5
48F
100
AcDbEntity
  8
0
100
AcDbSpline
 62
7
  6
CONTINUOUS
 70
0
 71
3
 72
55
 73
51
 74
0
 42
0.0000001
 43
0.0000001
 44
0.0000000001
 40
0.0
 40
0.0
 40
0.0
 40
0.0
 40
0.0008951291
 40
0.001870158
 40
0.0030006403
 40
0.004335778
 40
0.0059052004
 40
0.0077267014
 40
0.0098112394
 40
0.0121654581
 40
0.0176966567
 40
0.0243365759
 40
0.0320852189
 40
0.0409338728
 40
0.0508681388
 40
0.061868852
 40
0.0739131367
 40
0.0869749425
 40
0.1160309275
 40
0.1487716397
 40
0.1848919625
 40
0.22405151
 40
0.265878484
 40
0.3099735341
 40
0.4032553701
 40
0.5003065041
 40
0.5973706944
 40
0.6906820334
 40
0.7347904406
 40
0.7766246019
 40
0.8157810691
 40
0.8518843149
 40
0.8845909847
 40
0.913594083
 40
0.9266221134
 40
0.9386278293
 40
0.9495852501
 40
0.9594718558
 40
0.9682687906
 40
0.9759621619
 40
0.9825440062
 40
0.988015216
 40
0.9903392403
 40
0.9923937787
 40
0.994185963
 40
0.995727449
 40
0.9970371592
 40
0.9981466457
 40
0.9991080237
 40
1.0
 40
1.0
 40
1.0
 40
1.0
 10
5.9441375655
 20
13.6998254147
 30
0.0
 10
5.9441401783
 20
13.699860252
 30
0.0
 10
5.9441327465
 20
13.6999345025
 30
0.0
 10
5.9440841354
 20
13.7000426836
 30
0.0
 10
5.9440007556
 20
13.7001491253
 30
0.0
 10
5.9438833779
 20
13.7002549155
 30
0.0
 10
5.94373193
 20
13.7003607843
 30
0.0
 10
5.9435462343
 20
13.700466967
 30
0.0
 10
5.9433262067
 20
13.700573522
 30
0.0
 10
5.9429673195
 20
13.7007242332
 30
0.0
 10
5.9424309023
 20
13.7009092448
 30
0.0
 10
5.9416829594
 20
13.7011221139
 30
0.0
 10
5.9408012552
 20
13.7013352459
 30
0.0
 10
5.9397877687
 20
13.7015480484
 30
0.0
 10
5.9386447413
 20
13.7017598395
 30
0.0
 10
5.9373748431
 20
13.7019700345
 30
0.0
 10
5.9359810597
 20
13.7021780778
 30
0.0
 10
5.9338863314
 20
13.7024620269
 30
0.0
 10
5.9309845265
 20
13.7028032678
 30
0.0
 10
5.9271818507
 20
13.7031835037
 30
0.0
 10
5.9229813071
 20
13.7035435221
 30
0.0
 10
5.9184231546
 20
13.7038796673
 30
0.0
 10
5.9135511778
 20
13.7041885095
 30
0.0
 10
5.9065673744
 20
13.7045667577
 30
0.0
 10
5.8974255564
 20
13.7049455312
 30
0.0
 10
5.8862126712
 20
13.7052453152
 30
0.0
 10
5.8749955085
 20
13.7053858994
 30
0.0
 10
5.8658436843
 20
13.705366093
 30
0.0
 10
5.8588484675
 20
13.7052619025
 30
0.0
 10
5.8539674497
 20
13.7051441429
 30
0.0
 10
5.8494001392
 20
13.7049866565
 30
0.0
 10
5.8451908469
 20
13.7047911619
 30
0.0
 10
5.8413802861
 20
13.7045597519
 30
0.0
 10
5.8384721017
 20
13.7043319501
 30
0.0
 10
5.8363728137
 20
13.7041297924
 30
0.0
 10
5.8349765247
 20
13.7039761877
 30
0.0
 10
5.8337045022
 20
13.703815572
 30
0.0
 10
5.8325597278
 20
13.703648395
 30
0.0
 10
5.8315448569
 20
13.7034751405
 30
0.0
 10
5.8306621069
 20
13.70329641
 30
0.0
 10
5.8299134243
 20
13.7031127302
 30
0.0
 10
5.8293762865
 20
13.7029485787
 30
0.0
 10
5.8290168859
 20
13.7028117564
 30
0.0
 10
5.828796721
 20
13.7027137722
 30
0.0
 10
5.8286109129
 20
13.7026148161
 30
0.0
 10
5.8284593546
 20
13.702514818
 30
0.0
 10
5.8283418508
 20
13.7024135095
 30
0.0
 10
5.8282583272
 20
13.7023100985
 30
0.0
 10
5.828209718
 20
13.7022034402
 30
0.0
 10
5.8282024968
 20
13.7021298149
 30
0.0
 10
5.8282051004
 20
13.7020951004
 30
0.0
  0
SPLINE
  5
490
100
AcDbEntity
  8
0
100
AcDbSpline
 62
7
  6
CONTINUOUS
 70
0
 71
3
 72
55
 73
51
 74
0
 42
0.0000001
 43
0.0000001
 44
0.0000000001
 40
0.0
 40
0.0
 40
0.0
 40
0.0
 40
0.0009241552
 40
0.0019198697
 40
0.003062885
 40
0.0044040325
 40
0.0059746164
 40
0.0077937092
 40
0.0098731917
 40
0.0122203837
 40
0.0177332767
 40
0.024351391
 40
0.0320762574
 40
0.0409002593
 40
0.0508097766
 40
0.0617861691
 40
0.0738070634
 40
0.0868466921
 40
0.115862939
 40
0.1485709314
 40
0.1846657487
 40
0.223806377
 40
0.2656197786
 40
0.3097049513
 40
0.4029707551
 40
0.499999998
 40
0.5970292419
 40
0.6902950474
 40
0.734380221
 40
0.7761936226
 40
0.8153342507
 40
0.8514290681
 40
0.8841370603
 40
0.9131533076
 40
0.9261929364
 40
0.9382138307
 40
0.9491902232
 40
0.9590997407
 40
0.9679237426
 40
0.9756486091
 40
0.9822667233
 40
0.9877796163
 40
0.9901268083
 40
0.9922062908
 40
0.9940253836
 40
0.9955959676
 40
0.996937115
 40
0.9980801303
 40
0.9990758448
 40
1.0
 40
1.0
 40
1.0
 40
1.0
 10
6.4204495947
 20
13.7009585646
 30
0.0
 10
6.4204522933
 20
13.7009945462
 30
0.0
 10
6.4204452354
 20
13.7010707602
 30
0.0
 10
6.4203971062
 20
13.7011818814
 30
0.0
 10
6.4203140007
 20
13.7012905994
 30
0.0
 10
6.4201968248
 20
13.701397902
 30
0.0
 10
6.4200455667
 20
13.7015045389
 30
0.0
 10
6.4198600645
 20
13.7016107736
 30
0.0
 10
6.4196402284
 20
13.7017166812
 30
0.0
 10
6.4192816433
 20
13.7018654793
 30
0.0
 10
6.4187454308
 20
13.7020462438
 30
0.0
 10
6.4179976181
 20
13.7022515633
 30
0.0
 10
6.4171159166
 20
13.7024544502
 30
0.0
 10
6.4161022732
 20
13.7026543292
 30
0.0
 10
6.4149588996
 20
13.702850542
 30
0.0
 10
6.4136884466
 20
13.7030425385
 30
0.0
 10
6.4122938867
 20
13.7032297985
 30
0.0
 10
6.4101975212
 20
13.7034815165
 30
0.0
 10
6.4072931155
 20
13.7037762129
 30
0.0
 10
6.4034868887
 20
13.7040930033
 30
0.0
 10
6.3992820581
 20
13.7043807533
 30
0.0
 10
6.3947190766
 20
13.7046364784
 30
0.0
 10
6.3898419784
 20
13.7048575025
 30
0.0
 10
6.3828510831
 20
13.7051074845
 30
0.0
 10
6.3737018464
 20
13.7053140302
 30
0.0
 10
6.3624834893
 20
13.7053965333
 30
0.0
 10
6.3512651322
 20
13.7053140302
 30
0.0
 10
6.3421158953
 20
13.7051074845
 30
0.0
 10
6.335125
 20
13.7048575025
 30
0.0
 10
6.3302479017
 20
13.7046364784
 30
0.0
 10
6.3256849203
 20
13.7043807533
 30
0.0
 10
6.3214800897
 20
13.7040930033
 30
0.0
 10
6.3176738628
 20
13.7037762129
 30
0.0
 10
6.3147694571
 20
13.7034815165
 30
0.0
 10
6.3126730916
 20
13.7032297985
 30
0.0
 10
6.3112785317
 20
13.7030425385
 30
0.0
 10
6.3100080786
 20
13.702850542
 30
0.0
 10
6.3088647051
 20
13.7026543292
 30
0.0
 10
6.3078510616
 20
13.7024544502
 30
0.0
 10
6.3069693601
 20
13.7022515633
 30
0.0
 10
6.3062215474
 20
13.7020462438
 30
0.0
 10
6.3056853349
 20
13.7018654793
 30
0.0
 10
6.3053267498
 20
13.7017166812
 30
0.0
 10
6.3051069138
 20
13.7016107736
 30
0.0
 10
6.3049214116
 20
13.7015045389
 30
0.0
 10
6.3047701534
 20
13.701397902
 30
0.0
 10
6.3046529776
 20
13.7012905994
 30
0.0
 10
6.304569872
 20
13.7011818814
 30
0.0
 10
6.3045217428
 20
13.7010707602
 30
0.0
 10
6.3045146849
 20
13.7009945462
 30
0.0
 10
6.3045173835
 20
13.7009585646
 30
0.0
  0
SPLINE
  5
491
100
AcDbEntity
  8
0
100
AcDbSpline
 62
7
  6
CONTINUOUS
 70
0
 71
3
 72
55
 73
51
 74
0
 42
0.0000001
 43
0.0000001
 44
0.0000000001
 40
0.0
 40
0.0
 40
0.0
 40
0.0
 40
0.0008919763
 40
0.0018533543
 40
0.0029628408
 40
0.004272551
 40
0.0058140369
 40
0.0076062213
 40
0.0096607597
 40
0.011984784
 40
0.0174559938
 40
0.0240378381
 40
0.0317312094
 40
0.0405281442
 40
0.0504147498
 40
0.0613721705
 40
0.0733778863
 40
0.0864059167
 40
0.1154090144
 40
0.1481156847
 40
0.1842189299
 40
0.2233753977
 40
0.265209559
 40
0.3093179662
 40
0.4026293052
 40
0.4996934953
 40
0.59674463
 40
0.690026468
 40
0.7341215192
 40
0.7759484933
 40
0.8151080405
 40
0.8512283626
 40
0.8839690746
 40
0.9130250589
 40
0.9260868645
 40
0.9381311489
 40
0.9491318619
 40
0.9590661277
 40
0.9679147815
 40
0.9756634245
 40
0.9823033435
 40
0.987834542
 40
0.9901887607
 40
0.9922732987
 40
0.9940947997
 40
0.9956642221
 40
0.9969993598
 40
0.998129842
 40
0.9991048709
 40
1.0
 40
1.0
 40
1.0
 40
1.0
 10
6.8967618779
 20
13.7020951004
 30
0.0
 10
6.8967644815
 20
13.7021298149
 30
0.0
 10
6.8967572602
 20
13.7022034402
 30
0.0
 10
6.8967086511
 20
13.7023100985
 30
0.0
 10
6.8966251275
 20
13.7024135095
 30
0.0
 10
6.8965076237
 20
13.702514818
 30
0.0
 10
6.8963560653
 20
13.7026148161
 30
0.0
 10
6.8961702573
 20
13.7027137722
 30
0.0
 10
6.8959500923
 20
13.7028117564
 30
0.0
 10
6.8955906918
 20
13.7029485787
 30
0.0
 10
6.895053554
 20
13.7031127302
 30
0.0
 10
6.8943048713
 20
13.70329641
 30
0.0
 10
6.8934221214
 20
13.7034751405
 30
0.0
 10
6.8924072504
 20
13.703648395
 30
0.0
 10
6.8912624761
 20
13.703815572
 30
0.0
 10
6.8899904536
 20
13.7039761877
 30
0.0
 10
6.8885941646
 20
13.7041297924
 30
0.0
 10
6.8864948766
 20
13.7043319501
 30
0.0
 10
6.8835866922
 20
13.7045597519
 30
0.0
 10
6.8797761314
 20
13.7047911619
 30
0.0
 10
6.8755668392
 20
13.7049866565
 30
0.0
 10
6.8709995287
 20
13.7051441429
 30
0.0
 10
6.8661185108
 20
13.7052619025
 30
0.0
 10
6.859123294
 20
13.705366093
 30
0.0
 10
6.8499714698
 20
13.7053858994
 30
0.0
 10
6.8387543071
 20
13.7052453152
 30
0.0
 10
6.8275414219
 20
13.7049455312
 30
0.0
 10
6.8183996036
 20
13.7045667577
 30
0.0
 10
6.8114158002
 20
13.7041885094
 30
0.0
 10
6.8065438232
 20
13.7038796673
 30
0.0
 10
6.8019856709
 20
13.703543522
 30
0.0
 10
6.7977851272
 20
13.7031835037
 30
0.0
 10
6.7939824516
 20
13.7028032677
 30
0.0
 10
6.7910806467
 20
13.7024620269
 30
0.0
 10
6.7889859185
 20
13.7021780778
 30
0.0
 10
6.787592135
 20
13.7019700345
 30
0.0
 10
6.7863222369
 20
13.7017598395
 30
0.0
 10
6.7851792095
 20
13.7015480484
 30
0.0
 10
6.784165723
 20
13.7013352459
 30
0.0
 10
6.7832840188
 20
13.7011221138
 30
0.0
 10
6.782536076
 20
13.7009092448
 30
0.0
 10
6.7819996588
 20
13.7007242332
 30
0.0
 10
6.7816407715
 20
13.700573522
 30
0.0
 10
6.7814207439
 20
13.700466967
 30
0.0
 10
6.7812350483
 20
13.7003607843
 30
0.0
 10
6.7810836003
 20
13.7002549155
 30
0.0
 10
6.7809662227
 20
13.7001491253
 30
0.0
 10
6.7808828429
 20
13.7000426836
 30
0.0
 10
6.7808342318
 20
13.6999345025
 30
0.0
 10
6.7808268
 20
13.699860252
 30
0.0
 10
6.7808294128
 20
13.6998254147
 30
0.0
  0
SPLINE
  5
492
100
AcDbEntity
  8
0
100
AcDbSpline
 62
7
  6
CONTINUOUS
 70
0
 71
3
 72
55
 73
51
 74
0
 42
0.0000001
 43
0.0000001
 44
0.0000000001
 40
0.0
 40
0.0
 40
0.0
 40
0.0
 40
0.0008004661
 40
0.0016759461
 40
0.002710966
 40
0.0039578703
 40
0.0054464177
 40
0.0071936239
 40
0.0092096134
 40
0.0115003675
 40
0.0169177909
 40
0.0234590435
 40
0.0311222437
 40
0.039897633
 40
0.0497700532
 40
0.0607196881
 40
0.0727232543
 40
0.0857541041
 40
0.1147755356
 40
0.1475138799
 40
0.1836583515
 40
0.2228621402
 40
0.2647466592
 40
0.3089058957
 40
0.4023133184
 40
0.4994609732
 40
0.5965860377
 40
0.6899423516
 40
0.7340783913
 40
0.775950346
 40
0.8151592936
 40
0.8513331093
 40
0.8841301509
 40
0.9132429354
 40
0.926332199
 40
0.9384025739
 40
0.9494272688
 40
0.9593824395
 40
0.9682477676
 40
0.9760072439
 40
0.9826499254
 40
0.9881724871
 40
0.990516405
 40
0.992585435
 40
0.9943848156
 40
0.995923569
 40
0.9972168527
 40
0.9982910614
 40
0.9991928983
 40
1.0
 40
1.0
 40
1.0
 40
1.0
 10
7.3406144957
 20
13.7031572444
 30
0.0
 10
7.3406168295
 20
13.7031883616
 30
0.0
 10
7.3406088703
 20
13.7032550766
 30
0.0
 10
7.3405587493
 20
13.7033500484
 30
0.0
 10
7.3404741914
 20
13.7034407968
 30
0.0
 10
7.3403559232
 20
13.7035289513
 30
0.0
 10
7.3402036529
 20
13.7036153214
 30
0.0
 10
7.3400171051
 20
13.7037001366
 30
0.0
 10
7.3397961524
 20
13.7037834306
 30
0.0
 10
7.3394349639
 20
13.7038989151
 30
0.0
 10
7.3388959628
 20
13.7040351326
 30
0.0
 10
7.3381455851
 20
13.7041845044
 30
0.0
 10
7.3372609573
 20
13.7043267482
 30
0.0
 10
7.3362440592
 20
13.7044614224
 30
0.0
 10
7.3350971526
 20
13.7045880142
 30
0.0
 10
7.3338229218
 20
13.7047061397
 30
0.0
 10
7.3324243787
 20
13.7048154514
 30
0.0
 10
7.3303216363
 20
13.7049540108
 30
0.0
 10
7.3274094967
 20
13.7050990738
 30
0.0
 10
7.3235949923
 20
13.7052289928
 30
0.0
 10
7.3193823031
 20
13.7053185985
 30
0.0
 10
7.3148123961
 20
13.7053668535
 30
0.0
 10
7.309929808
 20
13.7053731325
 30
0.0
 10
7.3029343639
 20
13.7053242918
 30
0.0
 10
7.2937856999
 20
13.7051561006
 30
0.0
 10
7.2825763376
 20
13.7048024595
 30
0.0
 10
7.271374363
 20
13.7043065406
 30
0.0
 10
7.2622429818
 20
13.703782076
 30
0.0
 10
7.2552672605
 20
13.703301912
 30
0.0
 10
7.2504003063
 20
13.7029266693
 30
0.0
 10
7.2458462457
 20
13.702533326
 30
0.0
 10
7.2416487064
 20
13.7021258216
 30
0.0
 10
7.2378478703
 20
13.7017082282
 30
0.0
 10
7.2349468001
 20
13.7013437817
 30
0.0
 10
7.23285198
 20
13.7010469613
 30
0.0
 10
7.2314577915
 20
13.7008323149
 30
0.0
 10
7.2301872521
 20
13.700618234
 30
0.0
 10
7.2290433792
 20
13.7004052777
 30
0.0
 10
7.228028881
 20
13.7001940289
 30
0.0
 10
7.2271460573
 20
13.6999851583
 30
0.0
 10
7.226396943
 20
13.6997792457
 30
0.0
 10
7.2258591875
 20
13.6996025444
 30
0.0
 10
7.2254989113
 20
13.699460052
 30
0.0
 10
7.2252781839
 20
13.69936012
 30
0.0
 10
7.2250918137
 20
13.6992612624
 30
0.0
 10
7.2249397178
 20
13.6991634579
 30
0.0
 10
7.2248216648
 20
13.699066529
 30
0.0
 10
7.2247374189
 20
13.6989697816
 30
0.0
 10
7.2246873843
 20
13.6988718155
 30
0.0
 10
7.2246789837
 20
13.6988038964
 30
0.0
 10
7.2246813368
 20
13.6987725213
 30
0.0
  0
SPLINE
  5
493
100
AcDbEntity
  8
0
100
AcDbSpline
 62
7
  6
CONTINUOUS
 70
0
 71
3
 72
58
 73
54
 74
0
 42
0.0000001
 43
0.0000001
 44
0.0000000001
 40
0.0
 40
0.0
 40
0.0
 40
0.0
 40
0.0006558576
 40
0.0014045124
 40
0.0023378797
 40
0.0035048565
 40
0.0041844288
 40
0.0049304773
 40
0.0066268519
 40
0.008601654
 40
0.0108588569
 40
0.013400475
 40
0.0162274805
 40
0.0227370526
 40
0.0303818416
 40
0.0391492847
 40
0.0490222625
 40
0.0599794876
 40
0.0719965152
 40
0.0850457238
 40
0.1141154724
 40
0.1469129257
 40
0.1831228515
 40
0.2223948376
 40
0.2643475447
 40
0.308573017
 40
0.4021035844
 40
0.4993626966
 40
0.5965957557
 40
0.6440306469
 40
0.6900676637
 40
0.7342662441
 40
0.7762041948
 40
0.8154817279
 40
0.8517249902
 40
0.8845896832
 40
0.9137645322
 40
0.9268811131
 40
0.9389753196
 40
0.9500193752
 40
0.9599882437
 40
0.9688600903
 40
0.9766168913
 40
0.9832448639
 40
0.9887363283
 40
0.9910562994
 40
0.9930941157
 40
0.9948530695
 40
0.9963393884
 40
0.9975641918
 40
0.9985484204
 40
0.9993335697
 40
1.0
 40
1.0
 40
1.0
 40
1.0
 10
7.7217595569
 20
13.7040716947
 30
0.0
 10
7.7217614658
 20
13.7040971477
 30
0.0
 10
7.7217519585
 20
13.7041533004
 30
0.0
 10
7.7216991974
 20
13.7042296845
 30
0.0
 10
7.7216133793
 20
13.7043010782
 30
0.0
 10
7.7215193565
 20
13.7043553146
 30
0.0
 10
7.7214281645
 20
13.7043985331
 30
0.0
 10
7.7213159352
 20
13.7044452075
 30
0.0
 10
7.7211532993
 20
13.7045013593
 30
0.0
 10
7.7209312206
 20
13.7045642074
 30
0.0
 10
7.7206746479
 20
13.7046250145
 30
0.0
 10
7.7203836916
 20
13.7046837389
 30
0.0
 10
7.7199282043
 20
13.7047629148
 30
0.0
 10
7.7192734413
 20
13.7048538842
 30
0.0
 10
7.718386469
 20
13.7049498597
 30
0.0
 10
7.7173671181
 20
13.7050366062
 30
0.0
 10
7.7162177892
 20
13.7051138397
 30
0.0
 10
7.7149411916
 20
13.7051812728
 30
0.0
 10
7.7135403877
 20
13.7052386982
 30
0.0
 10
7.7114345195
 20
13.7053040047
 30
0.0
 10
7.7085192835
 20
13.7053562401
 30
0.0
 10
7.704702314
 20
13.7053756647
 30
0.0
 10
7.7004883154
 20
13.705353205
 30
0.0
 10
7.6959184235
 20
13.7052889609
 30
0.0
 10
7.6910372792
 20
13.7051834487
 30
0.0
 10
7.6840461811
 20
13.7049852089
 30
0.0
 10
7.6749061639
 20
13.7046410804
 30
0.0
 10
7.6637098714
 20
13.7040993079
 30
0.0
 10
7.6543106173
 20
13.7035471348
 30
0.0
 10
7.6469053388
 20
13.7030514997
 30
0.0
 10
7.6415615639
 20
13.7026632258
 30
0.0
 10
7.6364335215
 20
13.7022591764
 30
0.0
 10
7.6315703945
 20
13.7018432853
 30
0.0
 10
7.6270187868
 20
13.7014196281
 30
0.0
 10
7.6228222901
 20
13.7009924067
 30
0.0
 10
7.6190211284
 20
13.7005658366
 30
0.0
 10
7.6161187045
 20
13.7002028857
 30
0.0
 10
7.6140220172
 20
13.6999132679
 30
0.0
 10
7.6126262588
 20
13.6997065399
 30
0.0
 10
7.6113539392
 20
13.6995030488
 30
0.0
 10
7.6102081191
 20
13.6993033243
 30
0.0
 10
7.6091915543
 20
13.699107909
 30
0.0
 10
7.6083066205
 20
13.6989174236
 30
0.0
 10
7.6075554171
 20
13.6987323994
 30
0.0
 10
7.6070153825
 20
13.6985759344
 30
0.0
 10
7.6066528342
 20
13.6984512459
 30
0.0
 10
7.6064309832
 20
13.6983647049
 30
0.0
 10
7.6062435478
 20
13.6982798825
 30
0.0
 10
7.6060904715
 20
13.698196811
 30
0.0
 10
7.6059714459
 20
13.6981154272
 30
0.0
 10
7.605886068
 20
13.6980351774
 30
0.0
 10
7.6058337123
 20
13.6979543648
 30
0.0
 10
7.6058235105
 20
13.6978965709
 30
0.0
 10
7.6058254502
 20
13.6978707075
 30
0.0
  0
SPLINE
  5
494
100
AcDbEntity
  8
0
100
AcDbSpline
 62
7
  6
CONTINUOUS
 70
0
 71
3
 72
36
 73
32
 74
0
 42
0.0000001
 43
0.0000001
 44
0.0000000001
 40
0.0
 40
0.0
 40
0.0
 40
0.0
 40
0.0004187213
 40
0.0008809354
 40
0.0014379833
 40
0.002120067
 40
0.0029437042
 40
0.0039181859
 40
0.0063385079
 40
0.0094052123
 40
0.0131276153
 40
0.0175086489
 40
0.0225482598
 40
0.0282444618
 40
0.034593474
 40
0.0415908145
 40
0.0492307134
 40
0.0664113123
 40
0.0860743061
 40
0.1081474832
 40
0.1325484461
 40
0.1879560192
 40
0.251456044
 40
0.3220801487
 40
0.3987501084
 40
0.4802968711
 40
0.5654793988
 40
0.653005088
 40
0.7415497037
 40
0.8297775873
 40
1.0
 40
1.0
 40
1.0
 40
1.0
 10
8.0142225602
 20
13.7047748651
 30
0.0
 10
8.0142234024
 20
13.7047860943
 30
0.0
 10
8.0142200943
 20
13.7048103604
 30
0.0
 10
8.0141999745
 20
13.7048442269
 30
0.0
 10
8.0141665171
 20
13.7048759631
 30
0.0
 10
8.0141199064
 20
13.7049063984
 30
0.0
 10
8.0140599386
 20
13.7049358568
 30
0.0
 10
8.0139540807
 20
13.7049769271
 30
0.0
 10
8.0137864007
 20
13.7050237597
 30
0.0
 10
8.0135436995
 20
13.7050735244
 30
0.0
 10
8.0132467759
 20
13.7051197226
 30
0.0
 10
8.0128958485
 20
13.705162285
 30
0.0
 10
8.0124911262
 20
13.7052010447
 30
0.0
 10
8.0120329655
 20
13.7052359207
 30
0.0
 10
8.0115217695
 20
13.7052668463
 30
0.0
 10
8.0109580137
 20
13.705293769
 30
0.0
 10
8.0101029088
 20
13.705325511
 30
0.0
 10
8.0089068786
 20
13.7053533851
 30
0.0
 10
8.0073224741
 20
13.7053695105
 30
0.0
 10
8.0055438134
 20
13.7053692292
 30
0.0
 10
8.0028039716
 20
13.705345815
 30
0.0
 10
7.9989505657
 20
13.7052716512
 30
0.0
 10
7.9938555851
 20
13.7051227529
 30
0.0
 10
7.9881905396
 20
13.7049120489
 30
0.0
 10
7.9820421577
 20
13.7046426378
 30
0.0
 10
7.9755043916
 20
13.7043184726
 30
0.0
 10
7.9686768905
 20
13.7039444463
 30
0.0
 10
7.9616634209
 20
13.7035262071
 30
0.0
 10
7.9545702362
 20
13.703070131
 30
0.0
 10
7.9452605412
 20
13.7024283089
 30
0.0
 10
7.9383297684
 20
13.7019025189
 30
0.0
 10
7.9337670585
 20
13.7015309807
 30
0.0
  0
SPLINE
  5
495
100
AcDbEntity
  8
0
100
AcDbSpline
 62
7
  6
CONTINUOUS
 70
0
 71
3
 72
36
 73
32
 74
0
 42
0.0000001
 43
0.0000001
 44
0.0000000001
 40
0.0
 40
0.0
 40
0.0
 40
0.0
 40
0.0946596789
 40
0.1892618688
 40
0.2827834514
 40
0.3742136424
 40
0.462564073
 40
0.5468791217
 40
0.626245491
 40
0.699801435
 40
0.7667462219
 40
0.7975080578
 40
0.8263488463
 40
0.8531893708
 40
0.8779560247
 40
0.9005806287
 40
0.9210007954
 40
0.9391605404
 40
0.9550100827
 40
0.9685062572
 40
0.9796135439
 40
0.988304616
 40
0.991738574
 40
0.9945639818
 40
0.9957490219
 40
0.9967828798
 40
0.9976665215
 40
0.9984017473
 40
0.9989918344
 40
0.9994433246
 40
1.0
 40
1.0
 40
1.0
 40
1.0
 10
8.1458053323
 20
13.7025293691
 30
0.0
 10
8.1437918835
 20
13.7023861427
 30
0.0
 10
8.1397665013
 20
13.7020956448
 30
0.0
 10
8.1337529135
 20
13.701649443
 30
0.0
 10
8.1278089169
 20
13.7011961804
 30
0.0
 10
8.1219987976
 20
13.700740769
 30
0.0
 10
8.1163853969
 20
13.7002881468
 30
0.0
 10
8.1110294756
 20
13.6998432291
 30
0.0
 10
8.1059890946
 20
13.6994108683
 30
0.0
 10
8.1013190192
 20
13.6989957856
 30
0.0
 10
8.0976825167
 20
13.6986592762
 30
0.0
 10
8.0949963562
 20
13.6984013245
 30
0.0
 10
8.0931619261
 20
13.6982204206
 30
0.0
 10
8.0914552205
 20
13.6980470677
 30
0.0
 10
8.0898809442
 20
13.6978817494
 30
0.0
 10
8.0884434468
 20
13.6977249356
 30
0.0
 10
8.0871467093
 20
13.6975770766
 30
0.0
 10
8.0859943261
 20
13.6974386196
 30
0.0
 10
8.0849895028
 20
13.6973099817
 30
0.0
 10
8.0841350026
 20
13.697191663
 30
0.0
 10
8.0834332174
 20
13.6970840029
 30
0.0
 10
8.0829451522
 20
13.6969984696
 30
0.0
 10
8.0826329633
 20
13.6969337378
 30
0.0
 10
8.0824784488
 20
13.6968971733
 30
0.0
 10
8.0823746703
 20
13.6968688169
 30
0.0
 10
8.0823113768
 20
13.69684957
 30
0.0
 10
8.0822578717
 20
13.6968310111
 30
0.0
 10
8.0822143035
 20
13.6968133921
 30
0.0
 10
8.0821801018
 20
13.6967960788
 30
0.0
 10
8.0821523736
 20
13.6967781689
 30
0.0
 10
8.0821359037
 20
13.6967585674
 30
0.0
 10
8.0821367915
 20
13.69674673
 30
0.0
  0
LINE
  5
496
100
AcDbEntity
  8
0
100
AcDbLine
 62
7
  6
CONTINUOUS
 10
8.2607803528
 20
13.7053686721
 11
8.2535222798
 21
13.7048195613
  0
SPLINE
  5
497
100
AcDbEntity
  8
0
100
AcDbSpline
 62
7
  6
CONTINUOUS
 70
0
 71
3
 72
35
 73
31
 74
0
 42
0.0000001
 43
0.0000001
 44
0.0000000001
 40
0.0
 40
0.0
 40
0.0
 40
0.0
 40
0.0003170596
 40
0.000680572
 40
0.0011225604
 40
0.0016612195
 40
0.0030634381
 40
0.0049295003
 40
0.0072753031
 40
0.0101085743
 40
0.0134334268
 40
0.0172522345
 40
0.0215664378
 40
0.0263769255
 40
0.0374881882
 40
0.0505866798
 40
0.0656706363
 40
0.0827363251
 40
0.1017787116
 40
0.1457686026
 40
0.1975810361
 40
0.2571430866
 40
0.3243695179
 40
0.399163336
 40
0.4814160939
 40
0.5710081198
 40
0.6678091438
 40
0.7716768685
 40
0.8824624502
 40
1.0
 40
1.0
 40
1.0
 40
1.0
 10
5.9562334891
 20
16.7156342235
 30
0.0
 10
5.9562334891
 20
16.7156420334
 30
0.0
 10
5.9562371848
 20
16.7156589051
 30
0.0
 10
5.9562524141
 20
16.7156824355
 30
0.0
 10
5.9562765484
 20
16.715705387
 30
0.0
 10
5.9563250786
 20
16.7157386851
 30
0.0
 10
5.9564105921
 20
16.7157783094
 30
0.0
 10
5.9565414862
 20
16.715823085
 30
0.0
 10
5.9567091961
 20
16.7158681361
 30
0.0
 10
5.9569137413
 20
16.7159134439
 30
0.0
 10
5.9571552897
 20
16.7159588981
 30
0.0
 10
5.9574338377
 20
16.7160044607
 30
0.0
 10
5.9577493944
 20
16.7160501021
 30
0.0
 10
5.9582437307
 20
16.716114148
 30
0.0
 10
5.9589542722
 20
16.7161928365
 30
0.0
 10
5.9599179109
 20
16.7162836914
 30
0.0
 10
5.9610287633
 20
16.716374758
 30
0.0
 10
5.9622864381
 20
16.7164660116
 30
0.0
 10
5.9642552726
 20
16.7165940783
 30
0.0
 10
5.9670798184
 20
16.7167513631
 30
0.0
 10
5.9709024814
 20
16.716932996
 30
0.0
 10
5.9752980489
 20
16.7171150746
 30
0.0
 10
5.980260104
 20
16.7172975183
 30
0.0
 10
5.9857814072
 20
16.7174801993
 30
0.0
 10
5.9918538877
 20
16.7176630611
 30
0.0
 10
5.998468672
 20
16.7178460573
 30
0.0
 10
6.0056160628
 20
16.7180291571
 30
0.0
 10
6.013285652
 20
16.7182123403
 30
0.0
 10
6.0214661597
 20
16.7183955879
 30
0.0
 10
6.027088985
 20
16.7185143356
 30
0.0
 10
6.0299835686
 20
16.7185738957
 30
0.0
  0
LINE
  5
498
100
AcDbEntity
  8
0
100
AcDbLine
 62
7
  6
CONTINUOUS
 10
6.3624834891
 20
18.8849975704
 11
5.9562334891
 21
19.2912475704
  0
LINE
  5
499
100
AcDbEntity
  8
0
100
AcDbLine
 62
7
  6
CONTINUOUS
 10
6.3624834891
 20
18.8849975704
 11
6.7687334891
 21
18.4787475704
  0
SPLINE
  5
49A
100
AcDbEntity
  8
0
100
AcDbSpline
 62
7
  6
CONTINUOUS
 70
0
 71
3
 72
13
 73
9
 74
0
 42
0.0000001
 43
0.0000001
 44
0.0000000001
 40
0.0
 40
0.0
 40
0.0
 40
0.0
 40
0.3324882221
 40
0.6007520249
 40
0.7141660871
 40
0.8163799053
 40
0.9103841021
 40
1.0
 40
1.0
 40
1.0
 40
1.0
 10
6.7110327552
 20
16.6599975704
 30
0.0
 10
6.7111234406
 20
16.6600479066
 30
0.0
 10
6.7112832974
 20
16.6601464474
 30
0.0
 10
6.7114544121
 20
16.6602917412
 30
0.0
 10
6.7115491494
 20
16.6604098624
 30
0.0
 10
6.7115974876
 20
16.6604940363
 30
0.0
 10
6.7116268545
 20
16.6605788474
 30
0.0
 10
6.7116334909
 20
16.6606363154
 30
0.0
 10
6.7116334908
 20
16.6606642708
 30
0.0
  0
SPLINE
  5
49B
100
AcDbEntity
  8
0
100
AcDbSpline
 62
7
  6
CONTINUOUS
 70
0
 71
3
 72
18
 73
14
 74
0
 42
0.0000001
 43
0.0000001
 44
0.0000000001
 40
0.0
 40
0.0
 40
0.0
 40
0.0
 40
0.1956473749
 40
0.3712020968
 40
0.5265315778
 40
0.6615645683
 40
0.7762771711
 40
0.8260277867
 40
0.8707283126
 40
0.9104094043
 40
0.945119681
 40
0.9749391722
 40
1.0
 40
1.0
 40
1.0
 40
1.0
 10
6.6964218758
 20
16.6599975704
 30
0.0
 10
6.6973914341
 20
16.6601056556
 30
0.0
 10
6.6992299646
 20
16.6603200685
 30
0.0
 10
6.7018336014
 20
16.6606586002
 30
0.0
 10
6.7041322692
 20
16.6609965013
 30
0.0
 10
6.7061239495
 20
16.6613336383
 30
0.0
 10
6.7075888968
 20
16.6616256145
 30
0.0
 10
6.7086045417
 20
16.6618631603
 30
0.0
 10
6.7092516552
 20
16.662032589
 30
0.0
 10
6.7098210067
 20
16.6622017805
 30
0.0
 10
6.7103126437
 20
16.6623707119
 30
0.0
 10
6.7107266
 20
16.6625392998
 30
0.0
 10
6.7109718645
 20
16.6626618009
 30
0.0
 10
6.7110800418
 20
16.6627243558
 30
0.0
  0
SPLINE
  5
49C
100
AcDbEntity
  8
0
100
AcDbSpline
 62
7
  6
CONTINUOUS
 70
0
 71
3
 72
30
 73
26
 74
0
 42
0.0000001
 43
0.0000001
 44
0.0000000001
 40
0.0
 40
0.0
 40
0.0
 40
0.0
 40
0.0019320244
 40
0.0039856463
 40
0.006263368
 40
0.0088410232
 40
0.0117711107
 40
0.0150892764
 40
0.0229765051
 40
0.0326289823
 40
0.0441093863
 40
0.0574524821
 40
0.072678596
 40
0.0897998827
 40
0.1088227135
 40
0.1297498431
 40
0.1525819088
 40
0.2039524508
 40
0.2629072032
 40
0.329401378
 40
0.4033782244
 40
0.4847699002
 40
0.573500242
 40
0.7726293881
 40
1.0
 40
1.0
 40
1.0
 40
1.0
 10
5.9847626231
 20
16.6994058871
 30
0.0
 10
5.9847626233
 20
16.6994354038
 30
0.0
 10
5.9847707492
 20
16.6994965435
 30
0.0
 10
5.9848064193
 20
16.6995861682
 30
0.0
 10
5.9848648188
 20
16.6996747924
 30
0.0
 10
5.9849455053
 20
16.6997627
 30
0.0
 10
5.9850483831
 20
16.6998502684
 30
0.0
 10
5.9852256807
 20
16.6999740056
 30
0.0
 10
5.985507149
 20
16.7001253325
 30
0.0
 10
5.9859157537
 20
16.7002982336
 30
0.0
 10
5.9864134717
 20
16.7004714874
 30
0.0
 10
5.9870003589
 20
16.7006450668
 30
0.0
 10
5.9876765409
 20
16.7008188676
 30
0.0
 10
5.9884419171
 20
16.7009928175
 30
0.0
 10
5.9892963432
 20
16.7011668612
 30
0.0
 10
5.9902396129
 20
16.7013409744
 30
0.0
 10
5.9916727604
 20
16.7015827658
 30
0.0
 10
5.9936852813
 20
16.7018811479
 30
0.0
 10
5.9963645163
 20
16.7022271492
 30
0.0
 10
5.9993916173
 20
16.7025733874
 30
0.0
 10
6.0027634641
 20
16.7029197564
 30
0.0
 10
6.0064766346
 20
16.7032661524
 30
0.0
 10
6.0120974602
 20
16.7037465921
 30
0.0
 10
6.0199468239
 20
16.7043387514
 30
0.0
 10
6.0264485925
 20
16.7047686791
 30
0.0
 10
6.0299154512
 20
16.7049862635
 30
0.0
  0
SPLINE
  5
49D
100
AcDbEntity
  8
0
100
AcDbSpline
 62
7
  6
CONTINUOUS
 70
0
 71
3
 72
25
 73
21
 74
0
 42
0.0000001
 43
0.0000001
 44
0.0000000001
 40
0.0
 40
0.0
 40
0.0
 40
0.0
 40
0.0088389165
 40
0.0190725624
 40
0.0307365124
 40
0.0438534081
 40
0.0584374681
 40
0.0744978687
 40
0.09204
 40
0.1110662749
 40
0.153571371
 40
0.2020012507
 40
0.2563248405
 40
0.3164975398
 40
0.3824637016
 40
0.4541585169
 40
0.5315086718
 40
0.6144331396
 40
0.7966422637
 40
1.0
 40
1.0
 40
1.0
 40
1.0
 10
5.957414611
 20
16.6811614718
 30
0.0
 10
5.9576017316
 20
16.68126982
 30
0.0
 10
5.9580172461
 20
16.6814833938
 30
0.0
 10
5.9587080564
 20
16.6817811818
 30
0.0
 10
5.9595113823
 20
16.6820793306
 30
0.0
 10
5.960427158
 20
16.6823777697
 30
0.0
 10
5.961455329
 20
16.6826764723
 30
0.0
 10
5.962595701
 20
16.6829753777
 30
0.0
 10
5.9638480209
 20
16.6832744664
 30
0.0
 10
5.9657375599
 20
16.6836889072
 30
0.0
 10
5.9683786487
 20
16.6842014091
 30
0.0
 10
5.9718820234
 20
16.6847971253
 30
0.0
 10
5.97582296
 20
16.6853936465
 30
0.0
 10
5.9801971374
 20
16.6859908401
 30
0.0
 10
5.9849997685
 20
16.68658852
 30
0.0
 10
5.9902255229
 20
16.6871865751
 30
0.0
 10
5.995868586
 20
16.6877849498
 30
0.0
 10
6.0042061413
 20
16.6886092184
 30
0.0
 10
6.0156214801
 20
16.6896300945
 30
0.0
 10
6.0250234535
 20
16.6903844264
 30
0.0
 10
6.0299835686
 20
16.690765324
 30
0.0
  0
SPLINE
  5
49E
100
AcDbEntity
  8
0
100
AcDbSpline
 62
7
  6
CONTINUOUS
 70
0
 71
3
 72
27
 73
23
 74
0
 42
0.0000001
 43
0.0000001
 44
0.0000000001
 40
0.0
 40
0.0
 40
0.0
 40
0.0
 40
0.0625061022
 40
0.1250124978
 40
0.1875183066
 40
0.2500238667
 40
0.3125287534
 40
0.3750327147
 40
0.4375353372
 40
0.5000360646
 40
0.5625338524
 40
0.6250272016
 40
0.6875145138
 40
0.7499924761
 40
0.7812459482
 40
0.8124987466
 40
0.8437507973
 40
0.8750020262
 40
0.9062524188
 40
0.9375021774
 40
0.9687509262
 40
1.0
 40
1.0
 40
1.0
 40
1.0
 10
6.3624834892
 20
16.2586627129
 30
0.0
 10
6.3591017775
 20
16.2586627129
 30
0.0
 10
6.3523370995
 20
16.2588323568
 30
0.0
 10
6.3422167639
 20
16.2595987287
 30
0.0
 10
6.3321489307
 20
16.2608860672
 30
0.0
 10
6.3221640156
 20
16.2627095877
 30
0.0
 10
6.3122967359
 20
16.2650910069
 30
0.0
 10
6.3025889681
 20
16.2680587789
 30
0.0
 10
6.2930925014
 20
16.2716483737
 30
0.0
 10
6.2838729699
 20
16.2759022918
 30
0.0
 10
6.2750152007
 20
16.280869333
 30
0.0
 10
6.2666298155
 20
16.2866030193
 30
0.0
 10
6.2588633762
 20
16.293154625
 30
0.0
 10
6.2530624153
 20
16.2993351382
 30
0.0
 10
6.2489516125
 20
16.3047100983
 30
0.0
 10
6.2461662462
 20
16.3089552747
 30
0.0
 10
6.2437173042
 20
16.3134034738
 30
0.0
 10
6.2416431611
 20
16.3180389982
 30
0.0
 10
6.2399814599
 20
16.3228383934
 30
0.0
 10
6.2387663027
 20
16.3277704322
 30
0.0
 10
6.2380251403
 20
16.3327954929
 30
0.0
 10
6.2378590533
 20
16.3361790795
 30
0.0
 10
6.2378590533
 20
16.3378697201
 30
0.0
  0
SPLINE
  5
49F
100
AcDbEntity
  8
0
100
AcDbSpline
 62
7
  6
CONTINUOUS
 70
0
 71
3
 72
23
 73
19
 74
0
 42
0.0000001
 43
0.0000001
 44
0.0000000001
 40
0.0
 40
0.0
 40
0.0
 40
0.0
 40
0.0076621671
 40
0.0167805427
 40
0.0273955617
 40
0.0395311953
 40
0.0532023298
 40
0.0684184022
 40
0.1035030096
 40
0.1448034871
 40
0.1923126124
 40
0.2460082496
 40
0.3058576426
 40
0.3718202099
 40
0.4438478499
 40
0.6058774859
 40
0.7914528716
 40
1.0
 40
1.0
 40
1.0
 40
1.0
 10
5.985270371
 20
16.6972943286
 30
0.0
 10
5.9853698723
 20
16.6973519689
 30
0.0
 10
5.9855955314
 20
16.6974648186
 30
0.0
 10
5.9859764848
 20
16.6976200469
 30
0.0
 10
5.9864290019
 20
16.6977755254
 30
0.0
 10
5.9869530954
 20
16.6979311855
 30
0.0
 10
5.9875488004
 20
16.6980869996
 30
0.0
 10
5.9884837907
 20
16.6983053646
 30
0.0
 10
5.9898324351
 20
16.6985735917
 30
0.0
 10
5.9916660204
 20
16.6988830527
 30
0.0
 10
5.9937822514
 20
16.6991929631
 30
0.0
 10
5.996179383
 20
16.6995032053
 30
0.0
 10
5.9988554914
 20
16.6998135807
 30
0.0
 10
6.0018083673
 20
16.7001240197
 30
0.0
 10
6.0062903268
 20
16.7005550005
 30
0.0
 10
6.0125657734
 20
16.7010861681
 30
0.0
 10
6.0208896528
 20
16.7017019108
 30
0.0
 10
6.0267917995
 20
16.7020902192
 30
0.0
 10
6.0299154512
 20
16.7022862635
 30
0.0
  0
SPLINE
  5
4A0
100
AcDbEntity
  8
0
100
AcDbSpline
 62
7
  6
CONTINUOUS
 70
0
 71
3
 72
27
 73
23
 74
0
 42
0.0000001
 43
0.0000001
 44
0.0000000001
 40
0.0
 40
0.0
 40
0.0
 40
0.0
 40
0.0312491475
 40
0.062497983
 40
0.0937477981
 40
0.1249982289
 40
0.1562495424
 40
0.1875016185
 40
0.2187544436
 40
0.2500079455
 40
0.3124858853
 40
0.3749731242
 40
0.4374663991
 40
0.4999641568
 40
0.5624648439
 40
0.6249674405
 40
0.6874713703
 40
0.7499762413
 40
0.8124817654
 40
0.8749875229
 40
0.9374938944
 40
1.0
 40
1.0
 40
1.0
 40
1.0
 10
6.4871079249
 20
16.3378697201
 30
0.0
 10
6.4871079249
 20
16.3361790755
 30
0.0
 10
6.4869418375
 20
16.3327954802
 30
0.0
 10
6.4862006709
 20
16.3277704082
 30
0.0
 10
6.4849855092
 20
16.3228383604
 30
0.0
 10
6.4833238004
 20
16.3180389575
 30
0.0
 10
6.4812496502
 20
16.3134034275
 30
0.0
 10
6.4788007013
 20
16.3089552238
 30
0.0
 10
6.4760153284
 20
16.3047100464
 30
0.0
 10
6.4719045203
 20
16.2993350881
 30
0.0
 10
6.4661035565
 20
16.2931545826
 30
0.0
 10
6.4583371202
 20
16.2866029878
 30
0.0
 10
6.4499517402
 20
16.280869311
 30
0.0
 10
6.4410939773
 20
16.2759022749
 30
0.0
 10
6.431874449
 20
16.2716483619
 30
0.0
 10
6.4223779864
 20
16.2680587716
 30
0.0
 10
6.412670222
 20
16.2650910019
 30
0.0
 10
6.4028029465
 20
16.2627095849
 30
0.0
 10
6.3928180368
 20
16.2608860661
 30
0.0
 10
6.3827502096
 20
16.2595987284
 30
0.0
 10
6.3726298779
 20
16.2588323567
 30
0.0
 10
6.3658652011
 20
16.2586627129
 30
0.0
 10
6.3624834892
 20
16.2586627129
 30
0.0
  0
SPLINE
  5
4A1
100
AcDbEntity
  8
0
100
AcDbSpline
 62
7
  6
CONTINUOUS
 70
0
 71
3
 72
73
 73
69
 74
0
 42
0.0000001
 43
0.0000001
 44
0.0000000001
 40
0.0
 40
0.0
 40
0.0
 40
0.0
 40
0.0003692514
 40
0.0008045004
 40
0.0013075597
 40
0.0018795733
 40
0.0025212881
 40
0.0032331824
 40
0.0048685951
 40
0.0067872899
 40
0.0089895223
 40
0.0114749576
 40
0.0142427569
 40
0.0172917936
 40
0.0206206051
 40
0.0281106298
 40
0.0366969189
 40
0.0463604165
 40
0.0570792508
 40
0.0688288976
 40
0.0815823023
 40
0.0953099814
 40
0.109980116
 40
0.1255586426
 40
0.1592939222
 40
0.1962019324
 40
0.2359388868
 40
0.2781344276
 40
0.3223951374
 40
0.3683082463
 40
0.4154455093
 40
0.4633672205
 40
0.5116263323
 40
0.5597726389
 40
0.6073569907
 40
0.6539354971
 40
0.6990736832
 40
0.7423505604
 40
0.7833625764
 40
0.8217274113
 40
0.8570875891
 40
0.889113885
 40
0.9037824747
 40
0.9175085539
 40
0.9302603076
 40
0.9420082562
 40
0.9527253492
 40
0.9623870668
 40
0.9709715417
 40
0.9784597229
 40
0.9817876058
 40
0.9848357038
 40
0.987602565
 40
0.9900870538
 40
0.9922883429
 40
0.9942060887
 40
0.9958405605
 40
0.9965519817
 40
0.9971932304
 40
0.9977647856
 40
0.9982673859
 40
0.9987021836
 40
0.9990710027
 40
0.9993768909
 40
0.9996252862
 40
0.9998264025
 40
0.9999151148
 40
1.0
 40
1.0
 40
1.0
 40
1.0
 10
6.7682575243
 20
16.6957808397
 30
0.0
 10
6.7681708389
 20
16.6957307321
 30
0.0
 10
6.7679757246
 20
16.6956323662
 30
0.0
 10
6.7676480802
 20
16.6954963899
 30
0.0
 10
6.7672616837
 20
16.695360179
 30
0.0
 10
6.7668164889
 20
16.6952237858
 30
0.0
 10
6.7663124353
 20
16.6950872274
 30
0.0
 10
6.7655247346
 20
16.6948960376
 30
0.0
 10
6.7643918376
 20
16.6946608211
 30
0.0
 10
6.7628546547
 20
16.6943890644
 30
0.0
 10
6.7610839851
 20
16.6941167234
 30
0.0
 10
6.7590807911
 20
16.6938439059
 30
0.0
 10
6.7568461359
 20
16.6935707624
 30
0.0
 10
6.7543812933
 20
16.6932973559
 30
0.0
 10
6.7506401015
 20
16.6929174556
 30
0.0
 10
6.7453989994
 20
16.6924485222
 30
0.0
 10
6.7384406048
 20
16.6919041447
 30
0.0
 10
6.7306043949
 20
16.6913588568
 30
0.0
 10
6.7219086201
 20
16.6908128238
 30
0.0
 10
6.7123735285
 20
16.6902662752
 30
0.0
 10
6.7020213619
 20
16.689719326
 30
0.0
 10
6.6908762768
 20
16.6891720754
 30
0.0
 10
6.6789642897
 20
16.6886245667
 30
0.0
 10
6.6616307336
 20
16.6878742409
 30
0.0
 10
6.6382694028
 20
16.6869445053
 30
0.0
 10
6.6083587022
 20
16.6858546785
 30
0.0
 10
6.5761525652
 20
16.6847637589
 30
0.0
 10
6.5419516457
 20
16.6836719836
 30
0.0
 10
6.506075222
 20
16.682579617
 30
0.0
 10
6.4688582282
 20
16.681486826
 30
0.0
 10
6.4306481179
 20
16.6803937503
 30
0.0
 10
6.3918016201
 20
16.6793005027
 30
0.0
 10
6.352681407
 20
16.6782071839
 30
0.0
 10
6.3136527065
 20
16.6771138888
 30
0.0
 10
6.2750798923
 20
16.676020714
 30
0.0
 10
6.2373230806
 20
16.6749277658
 30
0.0
 10
6.200734767
 20
16.6738351672
 30
0.0
 10
6.1656565333
 20
16.6727430754
 30
0.0
 10
6.1324158582
 20
16.6716516815
 30
0.0
 10
6.1013230472
 20
16.6705613017
 30
0.0
 10
6.0726683524
 20
16.6694722141
 30
0.0
 10
6.0504378452
 20
16.6685411818
 30
0.0
 10
6.0340714591
 20
16.6677889695
 30
0.0
 10
6.0229276766
 20
16.6672416996
 30
0.0
 10
6.0125768537
 20
16.6666947557
 30
0.0
 10
6.0030431447
 20
16.6661482067
 30
0.0
 10
5.9943487879
 20
16.665602175
 30
0.0
 10
5.9865140281
 20
16.6650568885
 30
0.0
 10
5.9795571122
 20
16.664512513
 30
0.0
 10
5.9743172589
 20
16.6640435775
 30
0.0
 10
5.9705770787
 20
16.6636636741
 30
0.0
 10
5.9681130014
 20
16.6633902675
 30
0.0
 10
5.9658791172
 20
16.663117126
 30
0.0
 10
5.9638766969
 20
16.6628443086
 30
0.0
 10
5.9621068056
 20
16.6625719705
 30
0.0
 10
5.9605704024
 20
16.6623002145
 30
0.0
 10
5.9594381593
 20
16.6620649995
 30
0.0
 10
5.958650984
 20
16.6618738034
 30
0.0
 10
5.9581473244
 20
16.6617372459
 30
0.0
 10
5.9577025164
 20
16.6616008515
 30
0.0
 10
5.9573165284
 20
16.661464647
 30
0.0
 10
5.9569892322
 20
16.6613286491
 30
0.0
 10
5.9567203537
 20
16.6611928994
 30
0.0
 10
5.9565093276
 20
16.6610569995
 30
0.0
 10
5.9563552816
 20
16.6609204931
 30
0.0
 10
5.956270863
 20
16.6607982546
 30
0.0
 10
5.9562387003
 20
16.6607012036
 30
0.0
 10
5.9562334873
 20
16.6606539885
 30
0.0
 10
5.9562334874
 20
16.6606309712
 30
0.0
  0
LINE
  5
4A2
100
AcDbEntity
  8
0
100
AcDbLine
 62
9
  6
CONTINUOUS
 10
15.2404834891
 20
7.2599975704
 11
15.5854946564
 21
6.8849853542
  0
LINE
  5
4A3
100
AcDbEntity
  8
0
100
AcDbLine
 62
9
  6
CONTINUOUS
 10
16.0504834891
 20
6.5099975704
 11
15.5854946564
 21
6.8849853542
  0
LINE
  5
4A4
100
AcDbEntity
  8
0
100
AcDbLine
 62
7
  6
CONTINUOUS
 10
8.6909606086
 20
13.742772083
 11
8.6410074294
 21
13.7381028943
  0
LINE
  5
4A5
100
AcDbEntity
  8
0
100
AcDbLine
 62
7
  6
CONTINUOUS
 10
4.0839595501
 20
13.7381028942
 11
4.0340063697
 21
13.742772083
  0
ELLIPSE
  5
4A6
100
AcDbEntity
  8
0
100
AcDbEllipse
 62
7
  6
CONTINUOUS
 10
6.3624834891
 20
16.0999975704
 30
0.0
 11
0.4525
 21
-0.0
 31
0.0
 40
1.0
 41
1.2917769134
 42
1.8498157402
  0
ENDSEC
  0
SECTION
  2
OBJECTS
  0
DICTIONARY
  5
C
100
AcDbDictionary
280
0
281
1
  3
ACAD_GROUP
350
D
  3
ACAD_MLINESTYLE
350
17
  3
ACAD_LAYOUT
350
1A
  3
ACAD_PLOTSETTINGS
350
19
  3
ACAD_PLOTSTYLENAME
350
E
  0
DICTIONARY
  5
D
102
{ACAD_REACTORS
330
C
102
}
100
AcDbDictionary
280
0
281
1
  0
ACDBDICTIONARYWDFLT
  5
E
102
{ACAD_REACTORS
330
C
102
}
100
AcDbDictionary
281
1
  3
Normal
350
F
100
AcDbDictionaryWithDefault
340
F
  0
DICTIONARY
  5
17
102
{ACAD_REACTORS
330
C
102
}
100
AcDbDictionary
280
0
281
1
  3
Standard
350
18
  0
DICTIONARY
  5
19
102
{ACAD_REACTORS
330
C
102
}
100
AcDbDictionary
281
1
  0
DICTIONARY
  5
1A
102
{ACAD_REACTORS
330
C
102
}
100
AcDbDictionary
281
1
  3
Model
350
4A7
  3
Layout1
350
4A8
  0
ACDBPLACEHOLDER
  5
F
102
{ACAD_REACTORS
330
E
102
}
  0
MLINESTYLE
  5
18
102
{ACAD_REACTORS
330
17
102
}
100
AcDbMlineStyle
  2
STANDARD
 70
0
  3

 62
256
 51
90.0
 52
90.0
 71
2
 49
0.5
 62
256
  6
BYLAYER
 49
-0.5
 62
256
  6
BYLAYER
  0
LAYOUT
  5
4A7
102
{ACAD_REACTORS
330
1A
102
}
100
AcDbPlotSettings
  1

  2
none_device
  4
ANSI_C_(22.00_x_17.00_Inches)
  6

 40
0.0
 41
0.0
 42
0.0
 43
0.0
 44
558.8
 45
431.8
 46
0.0
 47
0.0
 48
0.0
 49
0.0
140
0.0
141
0.0
142
1.0
143
1.0
 70
1024
 72
0
 73
0
 74
0
  7

 75
0
147
1.0
148
0.0
149
0.0
100
AcDbLayout
  1
Model
 70
0
 71
0
 10
0.0
 20
0.0
 11
22.0
 21
17.0
 12
0.0
 22
0.0
 32
0.0
 14
0.0
 24
0.0
 34
0.0
 15
0.0
 25
0.0
 35
0.0
146
0.0
 13
0.0
 23
0.0
 33
0.0
 16
1.0
 26
0.0
 36
0.0
 17
0.0
 27
1.0
 37
0.0
 76
0
330
205
345
0
346
0
  0
LAYOUT
  5
4A8
102
{ACAD_REACTORS
330
1A
102
}
100
AcDbPlotSettings
  1

  2
none_device
  4
ANSI_C_(22.00_x_17.00_Inches)
  6

 40
0.0
 41
0.0
 42
0.0
 43
0.0
 44
558.8
 45
431.8
 46
0.0
 47
0.0
 48
0.0
 49
0.0
140
0.0
141
0.0
142
1.0
143
1.0
 70
0
 72
0
 73
0
 74
0
  7

 75
0
147
1.0
148
0.0
149
0.0
100
AcDbLayout
  1
Layout1
 70
0
 71
1
 10
0.0
 20
0.0
 11
22.0
 21
17.0
 12
0.0
 22
0.0
 32
0.0
 14
0.0
 24
0.0
 34
0.0
 15
0.0
 25
0.0
 35
0.0
146
0.0
 13
0.0
 23
0.0
 33
0.0
 16
1.0
 26
0.0
 36
0.0
 17
0.0
 27
1.0
 37
0.0
 76
0
330
206
345
0
346
0
  0
ENDSEC
  0
EOF
