999
DXF file: 3-3125_RIGHT.dxf
999
Pro/ENGINEER 2018400 by Parametric Technology Corporation
  0
SECTION
  2
HEADER
  9
$ACADVER
  1
AC1027
  9
$DWGCODEPAGE
  3
ANSI_1252
  9
$EXTMAX
 10
11.0
 20
8.5
 30
0.0
  9
$EXTMIN
 10
0.0
 20
0.0
 30
0.0
  9
$LIMMIN
 10
0.0
 20
0.0
  9
$LIMMAX
 10
11.0
 20
8.5
  9
$VIEWCTR
 10
5.5
 20
4.25
  9
$VIEWSIZE
 40
8.5
  9
$CLAYER
  8
0
  9
$LTSCALE
 40
0.605
  9
$CELTYPE
  6
BYLAYER
  9
$DIMSCALE
 40
1.0
  9
$DIMASZ
 40
0.1
  9
$DIMEXO
 40
0.0625
  9
$DIMDLI
 40
0.418
  9
$DIMEXE
 40
0.125
  9
$DIMCEN
 40
0.099
  9
$DIMLFAC
 40
1.0
  9
$DIMBLK
  1
_FILLED
  9
$DIMALT
 70
1
  9
$DIMALTD
 70
2
  9
$DIMALTTD
 70
2
  9
$DIMALTF
 40
25.4
  9
$DIMTXT
 40
0.08
  9
$DIMTOL
 70
1
  9
$DIMLIM
 70
0
  9
$DIMTFAC
 40
1.0
  9
$DIMTP
 40
0.001
  9
$DIMTM
 40
0.001
  9
$DIMGAP
 40
0.09
  9
$DIMDSEP
 70
46
  9
$AUNITS
 70
0
  9
$PDMODE
 70
3
  9
$PDSIZE
 40
0.3125
  9
$HANDSEED
  5
2D3
  9
$TILEMODE
 70
1
  9
$MEASUREMENT
 70
0
  9
$INSUNITS
 70
1
  0
ENDSEC
  0
SECTION
  2
CLASSES
  0
CLASS
  1
ACDBDICTIONARYWDFLT
  2
AcDbDictionaryWithDefault
  3
AutoCAD 2000
 90
0
 91
1
280
0
281
0
  0
CLASS
  1
ACDBPLACEHOLDER
  2
AcDbPlaceHolder
  3
AutoCAD 2000
 90
0
 91
1
280
0
281
0
  0
CLASS
  1
LAYOUT
  2
AcDbLayout
  3
AutoCAD 2000
 90
0
 91
0
280
0
281
0
  0
ENDSEC
  0
SECTION
  2
TABLES
  0
TABLE
  2
VPORT
  5
8
100
AcDbSymbolTable
 70
2
  0
VPORT
  5
1F4
100
AcDbSymbolTableRecord
100
AcDbViewportTableRecord
  2
*ACTIVE
 70
0
 10
0.0
 20
0.0
 11
1.0
 21
1.0
 12
5.5
 22
4.25
 13
0.0
 23
0.0
 14
1.0
 24
1.0
 15
0.0
 25
0.0
 16
0.0
 26
0.0
 36
1.0
 17
0.0
 27
0.0
 37
0.0
 40
8.5
 41
1.2941176471
 42
50.0
 43
0.0
 44
0.0
 50
0.0
 51
0.0
 71
0
 72
100
 73
1
 74
1
 75
0
 76
0
 77
0
 78
0
  0
ENDTAB
  0
TABLE
  2
LTYPE
  5
5
100
AcDbSymbolTable
 70
6
  0
LTYPE
  5
14
100
AcDbSymbolTableRecord
100
AcDbLinetypeTableRecord
  2
BYBLOCK
 70
0
  3

 72
65
 73
0
 40
0.0
  0
LTYPE
  5
15
100
AcDbSymbolTableRecord
100
AcDbLinetypeTableRecord
  2
BYLAYER
 70
0
  3

 72
65
 73
0
 40
0.0
  0
LTYPE
  5
16
100
AcDbSymbolTableRecord
100
AcDbLinetypeTableRecord
  2
CONTINUOUS
 70
64
  3
Solid line
 72
65
 73
0
 40
0.0
  0
LTYPE
  5
1F5
100
AcDbSymbolTableRecord
100
AcDbLinetypeTableRecord
  2
CENTER
 70
64
  3
____ _ ____ _ ____ _ ____ _ ____ _ ____ _ ____
 72
65
 73
4
 40
0.6
 49
0.375
 74
0
 49
-0.075
 74
0
 49
0.075
 74
0
 49
-0.075
 74
0
  0
LTYPE
  5
1F6
100
AcDbSymbolTableRecord
100
AcDbLinetypeTableRecord
  2
HIDDEN
 70
64
  3
- - - - - - - - - - - - - - - - - - - -
 72
65
 73
2
 40
0.2
 49
0.1
 74
0
 49
-0.1
 74
0
  0
LTYPE
  5
1F7
100
AcDbSymbolTableRecord
100
AcDbLinetypeTableRecord
  2
PHANTOM
 70
64
  3
_____ _ _ _____ _ _ _____ _ _ _____
 72
65
 73
6
 40
0.8
 49
0.45
 74
0
 49
-0.05
 74
0
 49
0.1
 74
0
 49
-0.05
 74
0
 49
0.1
 74
0
 49
-0.05
 74
0
  0
LTYPE
  5
1F8
100
AcDbSymbolTableRecord
100
AcDbLinetypeTableRecord
  2
DOT
 70
64
  3
. . . . . . . . . . . . . . . . . . . .
 72
65
 73
2
 40
0.2
 49
0.1
 74
0
 49
-0.1
 74
0
  0
LTYPE
  5
1F9
100
AcDbSymbolTableRecord
100
AcDbLinetypeTableRecord
  2
DASHED
 70
64
  3
- - - - - - - - - - - - - - - - - - - -
 72
65
 73
2
 40
0.2
 49
0.1
 74
0
 49
-0.1
 74
0
  0
ENDTAB
  0
TABLE
  2
LAYER
  5
2
100
AcDbSymbolTable
 70
36
  0
LAYER
  5
10
100
AcDbSymbolTableRecord
100
AcDbLayerTableRecord
  2
0
 70
0
 62
7
  6
CONTINUOUS
370
-3
390
F
  0
LAYER
  5
1FA
100
AcDbSymbolTableRecord
100
AcDbLayerTableRecord
  2
DEFAULT_1
 70
0
 62
7
  6
CENTER
370
-3
390
F
  0
LAYER
  5
1FB
100
AcDbSymbolTableRecord
100
AcDbLayerTableRecord
  2
DEFAULT_2
 70
0
 62
8
  6
HIDDEN
370
-3
390
F
  0
LAYER
  5
1FC
100
AcDbSymbolTableRecord
100
AcDbLayerTableRecord
  2
DEFAULT_3
 70
0
 62
7
  6
PHANTOM
370
-3
390
F
  0
LAYER
  5
1FD
100
AcDbSymbolTableRecord
100
AcDbLayerTableRecord
  2
01___PRT_ALL_DTM_PLN
 70
0
 62
7
  6
CONTINUOUS
370
-3
390
F
  0
LAYER
  5
1FE
100
AcDbSymbolTableRecord
100
AcDbLayerTableRecord
  2
01___PRT_DEF_DTM_PLN
 70
0
 62
7
  6
CONTINUOUS
370
-3
390
F
  0
LAYER
  5
1FF
100
AcDbSymbolTableRecord
100
AcDbLayerTableRecord
  2
02___PRT_ALL_AXES
 70
0
 62
7
  6
CONTINUOUS
370
-3
390
F
  0
LAYER
  5
200
100
AcDbSymbolTableRecord
100
AcDbLayerTableRecord
  2
03___PRT_ALL_CURVES
 70
0
 62
7
  6
CONTINUOUS
370
-3
390
F
  0
LAYER
  5
201
100
AcDbSymbolTableRecord
100
AcDbLayerTableRecord
  2
04___PRT_ALL_DTM_PNT
 70
0
 62
7
  6
CONTINUOUS
370
-3
390
F
  0
LAYER
  5
202
100
AcDbSymbolTableRecord
100
AcDbLayerTableRecord
  2
05___PRT_ALL_DTM_CSYS
 70
0
 62
7
  6
CONTINUOUS
370
-3
390
F
  0
LAYER
  5
203
100
AcDbSymbolTableRecord
100
AcDbLayerTableRecord
  2
05___PRT_DEF_DTM_CSYS
 70
0
 62
7
  6
CONTINUOUS
370
-3
390
F
  0
LAYER
  5
204
100
AcDbSymbolTableRecord
100
AcDbLayerTableRecord
  2
06___PRT_ALL_SURFS
 70
0
 62
7
  6
CONTINUOUS
370
-3
390
F
  0
LAYER
  5
205
100
AcDbSymbolTableRecord
100
AcDbLayerTableRecord
  2
3-985_ASSY_PLANES
 70
0
 62
7
  6
CONTINUOUS
370
-3
390
F
  0
LAYER
  5
206
100
AcDbSymbolTableRecord
100
AcDbLayerTableRecord
  2
ALL_ASSEMBLY_MEMBERS
 70
0
 62
7
  6
CONTINUOUS
370
-3
390
F
  0
LAYER
  5
207
100
AcDbSymbolTableRecord
100
AcDbLayerTableRecord
  2
ALL_FEATURES
 70
0
 62
7
  6
CONTINUOUS
370
-3
390
F
  0
LAYER
  5
208
100
AcDbSymbolTableRecord
100
AcDbLayerTableRecord
  2
AXES_FEATURES
 70
0
 62
7
  6
CONTINUOUS
370
-3
390
F
  0
LAYER
  5
209
100
AcDbSymbolTableRecord
100
AcDbLayerTableRecord
  2
CHAMFER_FEATURES
 70
0
 62
7
  6
CONTINUOUS
370
-3
390
F
  0
LAYER
  5
20A
100
AcDbSymbolTableRecord
100
AcDbLayerTableRecord
  2
CUT_FEATURES
 70
0
 62
7
  6
CONTINUOUS
370
-3
390
F
  0
LAYER
  5
20B
100
AcDbSymbolTableRecord
100
AcDbLayerTableRecord
  2
DATUM_CURVES
 70
0
 62
7
  6
CONTINUOUS
370
-3
390
F
  0
LAYER
  5
20C
100
AcDbSymbolTableRecord
100
AcDbLayerTableRecord
  2
DATUM_PLANES
 70
0
 62
7
  6
CONTINUOUS
370
-3
390
F
  0
LAYER
  5
20D
100
AcDbSymbolTableRecord
100
AcDbLayerTableRecord
  2
DEFAULT_COORDINATE_SYSTEM
 70
0
 62
7
  6
CONTINUOUS
370
-3
390
F
  0
LAYER
  5
20E
100
AcDbSymbolTableRecord
100
AcDbLayerTableRecord
  2
DEFAULT_DATUM_AXES
 70
0
 62
7
  6
CONTINUOUS
370
-3
390
F
  0
LAYER
  5
20F
100
AcDbSymbolTableRecord
100
AcDbLayerTableRecord
  2
DEFAULT_DATUM_CURVES
 70
0
 62
7
  6
CONTINUOUS
370
-3
390
F
  0
LAYER
  5
210
100
AcDbSymbolTableRecord
100
AcDbLayerTableRecord
  2
DEFAULT_DATUM_PLANES
 70
0
 62
7
  6
CONTINUOUS
370
-3
390
F
  0
LAYER
  5
211
100
AcDbSymbolTableRecord
100
AcDbLayerTableRecord
  2
DEFAULT_SURFACES
 70
0
 62
7
  6
CONTINUOUS
370
-3
390
F
  0
LAYER
  5
212
100
AcDbSymbolTableRecord
100
AcDbLayerTableRecord
  2
DIMENSIONS
 70
0
 62
7
  6
CONTINUOUS
370
-3
390
F
  0
LAYER
  5
213
100
AcDbSymbolTableRecord
100
AcDbLayerTableRecord
  2
HOLE_FEATURES
 70
0
 62
7
  6
CONTINUOUS
370
-3
390
F
  0
LAYER
  5
214
100
AcDbSymbolTableRecord
100
AcDbLayerTableRecord
  2
NONE
 70
0
 62
7
  6
CONTINUOUS
370
-3
390
F
  0
LAYER
  5
215
100
AcDbSymbolTableRecord
100
AcDbLayerTableRecord
  2
PLATED_SURFACE_AREA
 70
0
 62
7
  6
CONTINUOUS
370
-3
390
F
  0
LAYER
  5
216
100
AcDbSymbolTableRecord
100
AcDbLayerTableRecord
  2
PROTRUSION_FEATURES
 70
0
 62
7
  6
CONTINUOUS
370
-3
390
F
  0
LAYER
  5
217
100
AcDbSymbolTableRecord
100
AcDbLayerTableRecord
  2
WETTED_SURFACES
 70
0
 62
7
  6
CONTINUOUS
370
-3
390
F
  0
LAYER
  5
218
100
AcDbSymbolTableRecord
100
AcDbLayerTableRecord
  2
WETTED_SURFACE_AREA
 70
0
 62
7
  6
CONTINUOUS
370
-3
390
F
  0
LAYER
  5
219
100
AcDbSymbolTableRecord
100
AcDbLayerTableRecord
  2
XSEC_DATUMS
 70
0
 62
7
  6
CONTINUOUS
370
-3
390
F
  0
ENDTAB
  0
TABLE
  2
STYLE
  5
3
100
AcDbSymbolTable
 70
1
  0
STYLE
  5
11
100
AcDbSymbolTableRecord
100
AcDbTextStyleTableRecord
  2
STANDARD
 70
0
 40
0.0
 41
0.8
 50
0.0
 71
0
 42
0.2
  3
txt
  4

  0
STYLE
  5
21A
100
AcDbSymbolTableRecord
100
AcDbTextStyleTableRecord
  2
TEXTSTYLE_1
 70
0
 40
0.0
 41
0.8
 50
0.0
 71
0
 42
0.2
  3
gdt
  4

  0
ENDTAB
  0
TABLE
  2
VIEW
  5
6
100
AcDbSymbolTable
 70
0
  0
ENDTAB
  0
TABLE
  2
UCS
  5
7
100
AcDbSymbolTable
 70
0
  0
ENDTAB
  0
TABLE
  2
APPID
  5
9
100
AcDbSymbolTable
 70
1
  0
APPID
  5
21B
100
AcDbSymbolTableRecord
100
AcDbRegAppTableRecord
  2
ACAD
 70
0
  0
ENDTAB
  0
TABLE
  2
BLOCK_RECORD
  5
1
100
AcDbSymbolTable
 70
0
  0
BLOCK_RECORD
  5
21C
100
AcDbSymbolTableRecord
100
AcDbBlockTableRecord
  2
*Model_Space
  0
BLOCK_RECORD
  5
21D
100
AcDbSymbolTableRecord
100
AcDbBlockTableRecord
  2
*Paper_Space
  0
BLOCK_RECORD
  5
21E
100
AcDbSymbolTableRecord
100
AcDbBlockTableRecord
  2
_FILLED
  0
ENDTAB
  0
TABLE
  2
DIMSTYLE
  5
A
100
AcDbSymbolTable
 70
1
100
AcDbDimStyleTable
 71
0
  0
DIMSTYLE
105
21F
100
AcDbSymbolTableRecord
100
AcDbDimStyleTableRecord
  2
STANDARD
 70
0
  3

  4

 40
1.0
 41
0.1
 42
0.0625
 43
0.38
 44
0.125
 45
0.0
 46
0.0
 47
0.001
 48
0.001
140
0.08
141
0.09
142
0.0
143
25.4
144
1.0
145
0.0
146
1.0
147
0.09
 71
1.0
 72
0.0
 73
1
 74
1
 75
0
 76
0
 77
0
 78
4
 79
1
170
1
171
2
172
0
173
0
174
0
175
0
176
0
177
0
178
0
270
2
179
3
271
3
272
3
273
2
274
2
275
0
280
0
281
0
282
0
283
1
284
4
285
0
286
0
287
3
288
0
340
11
278
46
341
21E
342
21E
343
21E
344
21E
  0
ENDTAB
  0
ENDSEC
  0
SECTION
  2
BLOCKS
  0
BLOCK
  5
20
100
AcDbEntity
  8
0
100
AcDbBlockBegin
  2
*Model_Space
 70
0
 10
0.0
 20
0.0
 30
0.0
  3
*Model_Space
  1

  0
ENDBLK
  5
21
100
AcDbEntity
  8
0
100
AcDbBlockEnd
  0
BLOCK
  5
1C
100
AcDbEntity
  8
0
100
AcDbBlockBegin
  2
*Paper_Space
 70
0
 10
0.0
 20
0.0
 30
0.0
  3
*Paper_Space
  1

  0
ENDBLK
  5
1D
100
AcDbEntity
  8
0
100
AcDbBlockEnd
  0
BLOCK
  5
220
100
AcDbEntity
  8
0
100
AcDbBlockBegin
  2
_FILLED
 70
64
 10
0.0
 20
0.0
  3
_FILLED
  1

  0
SOLID
  5
221
100
AcDbEntity
  8
0
  6
BYBLOCK
 62
0
100
AcDbTrace
 10
0.0
 20
0.0
 11
-1.0
 21
0.2
 12
-1.0
 22
-0.2
 13
-1.0
 23
-0.2
  0
ENDBLK
  5
222
100
AcDbEntity
  8
0
  6
BYBLOCK
 62
0
100
AcDbBlockEnd
  0
ENDSEC
  0
SECTION
  2
ENTITIES
  0
MTEXT
  5
223
100
AcDbEntity
  8
0
100
AcDbMText
 62
2
  6
CONTINUOUS
  7
STANDARD
 71
3
 72
1
 10
3.455535908
 20
1.6770215839
 30
0.0
 11
1.0
 21
0.0
 31
0.0
 73
2
 44
0.9
  1
SCALE  .500
 40
0.08
 41
0.704
  0
LINE
  5
224
100
AcDbEntity
  8
0
100
AcDbLine
 62
7
  6
CONTINUOUS
 10
0.0
 20
0.0
 11
0.0
 21
8.5
  0
LINE
  5
225
100
AcDbEntity
  8
0
100
AcDbLine
 62
7
  6
CONTINUOUS
 10
0.0
 20
0.0
 11
11.0
 21
0.0
  0
LINE
  5
226
100
AcDbEntity
  8
0
100
AcDbLine
 62
7
  6
CONTINUOUS
 10
0.0
 20
8.5
 11
11.0
 21
8.5
  0
LINE
  5
227
100
AcDbEntity
  8
0
100
AcDbLine
 62
7
  6
CONTINUOUS
 10
11.0
 20
0.0
 11
11.0
 21
8.5
  0
LWPOLYLINE
  5
228
100
AcDbEntity
  8
ALL_ASSEMBLY_MEMBERS
100
AcDbPolyline
 62
7
  6
CONTINUOUS
 90
6
 70
0
 10
2.5924615073
 20
2.4600436696
 10
2.5924712456
 20
2.4600322494
 10
2.5925399828
 20
2.4599370541
 10
2.5926186753
 20
2.4598087068
 10
2.5927037352
 20
2.4596448005
 10
2.5927903778
 20
2.4594459071
  0
LWPOLYLINE
  5
229
100
AcDbEntity
  8
ALL_ASSEMBLY_MEMBERS
100
AcDbPolyline
 62
7
  6
CONTINUOUS
 90
8
 70
0
 10
2.5927903778
 20
2.4594459071
 10
2.5928738222
 20
2.4592146339
 10
2.5929504536
 20
2.4589522368
 10
2.5930164736
 20
2.4586622619
 10
2.5930682296
 20
2.4583523463
 10
2.5931036611
 20
2.4580273577
 10
2.5931212441
 20
2.4576920549
 10
2.5931230553
 20
2.4575436714
  0
LINE
  5
22A
100
AcDbEntity
  8
ALL_ASSEMBLY_MEMBERS
100
AcDbLine
 62
7
  6
CONTINUOUS
 10
2.5149650629
 20
3.0850436719
 11
3.0149650652
 21
2.5850436696
  0
LINE
  5
22B
100
AcDbEntity
  8
ALL_ASSEMBLY_MEMBERS
100
AcDbLine
 62
7
  6
CONTINUOUS
 10
3.0149650683
 20
2.5857507733
 11
2.5149650621
 21
3.0857507795
  0
LINE
  5
22C
100
AcDbEntity
  8
ALL_ASSEMBLY_MEMBERS
100
AcDbLine
 62
7
  6
CONTINUOUS
 10
2.5149650652
 20
3.0850436719
 11
2.5149650652
 21
2.4600436696
  0
LINE
  5
22D
100
AcDbEntity
  8
ALL_ASSEMBLY_MEMBERS
100
AcDbLine
 62
7
  6
CONTINUOUS
 10
2.5539650652
 20
2.4600436696
 11
2.5539650652
 21
2.4400436696
  0
LINE
  5
22E
100
AcDbEntity
  8
ALL_ASSEMBLY_MEMBERS
100
AcDbLine
 62
7
  6
CONTINUOUS
 10
2.5566675726
 20
2.4575436696
 11
2.5566675726
 21
2.4400436696
  0
LINE
  5
22F
100
AcDbEntity
  8
ALL_ASSEMBLY_MEMBERS
100
AcDbLine
 62
7
  6
CONTINUOUS
 10
2.5594015369
 20
2.4575436696
 11
2.5594015369
 21
2.4400436696
  0
LINE
  5
230
100
AcDbEntity
  8
ALL_ASSEMBLY_MEMBERS
100
AcDbLine
 62
7
  6
CONTINUOUS
 10
2.5917722051
 20
2.4575436696
 11
2.5917722051
 21
2.4400436696
  0
LINE
  5
231
100
AcDbEntity
  8
ALL_ASSEMBLY_MEMBERS
100
AcDbLine
 62
7
  6
CONTINUOUS
 10
2.5931230599
 20
2.4575436714
 11
2.5931230599
 21
2.4400436696
  0
LINE
  5
232
100
AcDbEntity
  8
ALL_ASSEMBLY_MEMBERS
100
AcDbLine
 62
7
  6
CONTINUOUS
 10
2.5935925802
 20
2.4575436696
 11
2.5935925802
 21
2.4400436696
  0
LINE
  5
233
100
AcDbEntity
  8
ALL_ASSEMBLY_MEMBERS
100
AcDbLine
 62
7
  6
CONTINUOUS
 10
2.6414793796
 20
2.4575436696
 11
2.6414793796
 21
2.4400436696
  0
LINE
  5
234
100
AcDbEntity
  8
ALL_ASSEMBLY_MEMBERS
100
AcDbLine
 62
7
  6
CONTINUOUS
 10
2.6448882928
 20
2.4575436696
 11
2.6448882928
 21
2.4400436696
  0
LINE
  5
235
100
AcDbEntity
  8
ALL_ASSEMBLY_MEMBERS
100
AcDbLine
 62
7
  6
CONTINUOUS
 10
2.6653286066
 20
2.4575436696
 11
2.6653286066
 21
2.4400436696
  0
LINE
  5
236
100
AcDbEntity
  8
ALL_ASSEMBLY_MEMBERS
100
AcDbLine
 62
7
  6
CONTINUOUS
 10
2.6658827939
 20
2.4575436674
 11
2.6658827939
 21
2.4400436696
  0
LINE
  5
237
100
AcDbEntity
  8
ALL_ASSEMBLY_MEMBERS
100
AcDbLine
 62
7
  6
CONTINUOUS
 10
2.7287324612
 20
2.45754367
 11
2.7287324612
 21
2.4400436696
  0
LINE
  5
238
100
AcDbEntity
  8
ALL_ASSEMBLY_MEMBERS
100
AcDbLine
 62
7
  6
CONTINUOUS
 10
2.7308279935
 20
2.4575436696
 11
2.7308279935
 21
2.4400436696
  0
LINE
  5
239
100
AcDbEntity
  8
ALL_ASSEMBLY_MEMBERS
100
AcDbLine
 62
7
  6
CONTINUOUS
 10
2.7986274265
 20
2.4575436696
 11
2.7986274265
 21
2.4400436696
  0
LINE
  5
23A
100
AcDbEntity
  8
ALL_ASSEMBLY_MEMBERS
100
AcDbLine
 62
7
  6
CONTINUOUS
 10
2.8007285833
 20
2.4575436699
 11
2.8007285833
 21
2.4400436696
  0
LINE
  5
23B
100
AcDbEntity
  8
ALL_ASSEMBLY_MEMBERS
100
AcDbLine
 62
7
  6
CONTINUOUS
 10
2.8011796676
 20
2.4575436696
 11
2.8011796676
 21
2.4400436696
  0
LINE
  5
23C
100
AcDbEntity
  8
ALL_ASSEMBLY_MEMBERS
100
AcDbLine
 62
7
  6
CONTINUOUS
 10
2.8011976692
 20
2.45754367
 11
2.8011976692
 21
2.4400436696
  0
LWPOLYLINE
  5
23D
100
AcDbEntity
  8
ALL_ASSEMBLY_MEMBERS
100
AcDbPolyline
 62
7
  6
CONTINUOUS
 90
13
 70
0
 10
2.665912191
 20
2.4575436674
 10
2.6659124844
 20
2.4575897708
 10
2.665931837
 20
2.4579195075
 10
2.6659807652
 20
2.4582413129
 10
2.6660578322
 20
2.4585497424
 10
2.6661595025
 20
2.4588361338
 10
2.6662827062
 20
2.4590975146
 10
2.6664268832
 20
2.4593348
 10
2.6665850786
 20
2.4595389875
 10
2.6667543973
 20
2.459709887
 10
2.6669411475
 20
2.459852402
 10
2.6671436221
 20
2.4599602229
 10
2.6673537428
 20
2.4600249387
  0
LWPOLYLINE
  5
23E
100
AcDbEntity
  8
ALL_ASSEMBLY_MEMBERS
100
AcDbPolyline
 62
7
  6
CONTINUOUS
 90
12
 70
0
 10
2.665882781
 20
2.4575436674
 10
2.6658962499
 20
2.457854981
 10
2.6659404176
 20
2.4581838661
 10
2.6660139894
 20
2.4584999992
 10
2.6661134468
 20
2.4587941838
 10
2.6662356506
 20
2.4590632557
 10
2.6663799983
 20
2.4593081128
 10
2.6665393216
 20
2.4595190886
 10
2.6667106563
 20
2.4596960211
 10
2.6669006394
 20
2.4598441347
 10
2.667107522
 20
2.4599565071
 10
2.6673227394
 20
2.4600240838
  0
LWPOLYLINE
  5
23F
100
AcDbEntity
  8
ALL_ASSEMBLY_MEMBERS
100
AcDbPolyline
 62
7
  6
CONTINUOUS
 90
14
 70
0
 10
2.8623836761
 20
2.4600436672
 10
2.8625757405
 20
2.4600250656
 10
2.8627852077
 20
2.4599607692
 10
2.8629870454
 20
2.4598536543
 10
2.86317326
 20
2.4597120717
 10
2.8633421833
 20
2.4595422581
 10
2.8635001121
 20
2.4593393501
 10
2.8636442976
 20
2.4591033285
 10
2.8637676802
 20
2.4588432675
 10
2.8638695022
 20
2.4585589606
 10
2.8639465784
 20
2.4582550823
 10
2.863996228
 20
2.4579386633
 10
2.8640173196
 20
2.4576106419
 10
2.8640179393
 20
2.4575436674
  0
LINE
  5
240
100
AcDbEntity
  8
ALL_ASSEMBLY_MEMBERS
100
AcDbLine
 62
7
  6
CONTINUOUS
 10
2.8640179274
 20
2.4575436674
 11
2.8640179274
 21
2.4400436696
  0
LINE
  5
241
100
AcDbEntity
  8
ALL_ASSEMBLY_MEMBERS
100
AcDbLine
 62
7
  6
CONTINUOUS
 10
2.8645511305
 20
2.4575436696
 11
2.8645511305
 21
2.4400436696
  0
LINE
  5
242
100
AcDbEntity
  8
ALL_ASSEMBLY_MEMBERS
100
AcDbLine
 62
7
  6
CONTINUOUS
 10
2.8846351675
 20
2.4575436696
 11
2.8846351675
 21
2.4400436696
  0
LINE
  5
243
100
AcDbEntity
  8
ALL_ASSEMBLY_MEMBERS
100
AcDbLine
 62
7
  6
CONTINUOUS
 10
2.8880604404
 20
2.4575436696
 11
2.8880604404
 21
2.4400436696
  0
LINE
  5
244
100
AcDbEntity
  8
ALL_ASSEMBLY_MEMBERS
100
AcDbLine
 62
7
  6
CONTINUOUS
 10
2.9360565186
 20
2.4575436696
 11
2.9360565186
 21
2.4400436696
  0
LINE
  5
245
100
AcDbEntity
  8
ALL_ASSEMBLY_MEMBERS
100
AcDbLine
 62
7
  6
CONTINUOUS
 10
2.9365293687
 20
2.4575436714
 11
2.9365293687
 21
2.4400436696
  0
LINE
  5
246
100
AcDbEntity
  8
ALL_ASSEMBLY_MEMBERS
100
AcDbLine
 62
7
  6
CONTINUOUS
 10
2.9381183367
 20
2.4575436696
 11
2.9381183367
 21
2.4400436696
  0
LINE
  5
247
100
AcDbEntity
  8
ALL_ASSEMBLY_MEMBERS
100
AcDbLine
 62
7
  6
CONTINUOUS
 10
2.9704187494
 20
2.4575436696
 11
2.9704187494
 21
2.4400436696
  0
LINE
  5
248
100
AcDbEntity
  8
ALL_ASSEMBLY_MEMBERS
100
AcDbLine
 62
7
  6
CONTINUOUS
 10
2.9731852859
 20
2.4575436696
 11
2.9731852859
 21
2.4400436696
  0
LINE
  5
249
100
AcDbEntity
  8
ALL_ASSEMBLY_MEMBERS
100
AcDbLine
 62
7
  6
CONTINUOUS
 10
2.9759650652
 20
2.4600436696
 11
2.9759650652
 21
2.4400436696
  0
LINE
  5
24A
100
AcDbEntity
  8
ALL_ASSEMBLY_MEMBERS
100
AcDbLine
 62
7
  6
CONTINUOUS
 10
3.0149650652
 20
2.5850436696
 11
3.0149650652
 21
2.4600436696
  0
LWPOLYLINE
  5
24B
100
AcDbEntity
  8
ALL_ASSEMBLY_MEMBERS
100
AcDbPolyline
 62
7
  6
CONTINUOUS
 90
12
 70
0
 10
2.9365293701
 20
2.4575436714
 10
2.9365297042
 20
2.4576074062
 10
2.9365460171
 20
2.4579908367
 10
2.9365861974
 20
2.4583645655
 10
2.9366474608
 20
2.4587159373
 10
2.9367262513
 20
2.4590381649
 10
2.9368183539
 20
2.4593259869
 10
2.9369169449
 20
2.4595709779
 10
2.9370150767
 20
2.4597696218
 10
2.9371075151
 20
2.459923956
 10
2.9371873202
 20
2.460034267
 10
2.9371954703
 20
2.4600436696
  0
LWPOLYLINE
  5
24C
100
AcDbEntity
  8
ALL_ASSEMBLY_MEMBERS
100
AcDbPolyline
 62
7
  6
CONTINUOUS
 90
3
 70
0
 10
2.8011976538
 20
2.45754367
 10
2.8012005478
 20
2.4576650114
 10
2.8012373713
 20
2.4579928012
  0
LWPOLYLINE
  5
24D
100
AcDbEntity
  8
ALL_ASSEMBLY_MEMBERS
100
AcDbPolyline
 62
7
  6
CONTINUOUS
 90
6
 70
0
 10
2.800728585
 20
2.4575436699
 10
2.8007362073
 20
2.4577406503
 10
2.8007823239
 20
2.4580651115
 10
2.8008695201
 20
2.4583802207
 10
2.8009965508
 20
2.4586818369
 10
2.8010621628
 20
2.4588047034
  0
LINE
  5
24E
100
AcDbEntity
  8
ALL_ASSEMBLY_MEMBERS
100
AcDbLine
 62
7
  6
CONTINUOUS
 10
6.7799650652
 20
2.3982507764
 11
6.8899650652
 21
2.3982507764
  0
LINE
  5
24F
100
AcDbEntity
  8
ALL_ASSEMBLY_MEMBERS
100
AcDbLine
 62
7
  6
CONTINUOUS
 10
2.9734641716
 20
2.4375436696
 11
2.9384226982
 21
2.4375436696
  0
LINE
  5
250
100
AcDbEntity
  8
ALL_ASSEMBLY_MEMBERS
100
AcDbLine
 62
7
  6
CONTINUOUS
 10
2.9343062554
 20
2.4375436696
 11
2.8665263855
 21
2.4375436696
  0
LINE
  5
251
100
AcDbEntity
  8
ALL_ASSEMBLY_MEMBERS
100
AcDbLine
 62
7
  6
CONTINUOUS
 10
2.798697859
 20
2.4375436696
 11
2.731231523
 21
2.4375436696
  0
LINE
  5
252
100
AcDbEntity
  8
ALL_ASSEMBLY_MEMBERS
100
AcDbLine
 62
7
  6
CONTINUOUS
 10
2.6633810624
 20
2.4375436696
 11
2.5956232273
 21
2.4375436696
  0
LINE
  5
253
100
AcDbEntity
  8
ALL_ASSEMBLY_MEMBERS
100
AcDbLine
 62
7
  6
CONTINUOUS
 10
2.5915078647
 20
2.4375436696
 11
2.5564671507
 21
2.4375436696
  0
LINE
  5
254
100
AcDbEntity
  8
ALL_ASSEMBLY_MEMBERS
100
AcDbLine
 62
7
  6
CONTINUOUS
 10
2.5539650652
 20
2.4400436696
 11
2.6658827939
 21
2.4400436696
  0
LINE
  5
255
100
AcDbEntity
  8
ALL_ASSEMBLY_MEMBERS
100
AcDbLine
 62
7
  6
CONTINUOUS
 10
2.7287324612
 20
2.4400436696
 11
2.8011976692
 21
2.4400436696
  0
LINE
  5
256
100
AcDbEntity
  8
ALL_ASSEMBLY_MEMBERS
100
AcDbLine
 62
7
  6
CONTINUOUS
 10
2.8640179274
 20
2.4400436696
 11
2.9759650652
 21
2.4400436696
  0
LINE
  5
257
100
AcDbEntity
  8
ALL_ASSEMBLY_MEMBERS
100
AcDbLine
 62
7
  6
CONTINUOUS
 10
2.7287324612
 20
2.45754367
 11
2.7308279935
 21
2.4575436696
  0
LINE
  5
258
100
AcDbEntity
  8
ALL_ASSEMBLY_MEMBERS
100
AcDbLine
 62
7
  6
CONTINUOUS
 10
2.5566675726
 20
2.4575436696
 11
2.5935925802
 21
2.4575436696
  0
LINE
  5
259
100
AcDbEntity
  8
ALL_ASSEMBLY_MEMBERS
100
AcDbLine
 62
7
  6
CONTINUOUS
 10
2.6414793796
 20
2.4575436696
 11
2.6658827939
 21
2.4575436674
  0
LINE
  5
25A
100
AcDbEntity
  8
ALL_ASSEMBLY_MEMBERS
100
AcDbLine
 62
7
  6
CONTINUOUS
 10
2.7986274265
 20
2.4575436696
 11
2.8011796676
 21
2.4575436696
  0
LINE
  5
25B
100
AcDbEntity
  8
ALL_ASSEMBLY_MEMBERS
100
AcDbLine
 62
7
  6
CONTINUOUS
 10
2.9360565186
 20
2.4575436696
 11
2.9731852859
 21
2.4575436696
  0
LINE
  5
25C
100
AcDbEntity
  8
ALL_ASSEMBLY_MEMBERS
100
AcDbLine
 62
7
  6
CONTINUOUS
 10
2.8640179274
 20
2.4575436674
 11
2.8880604404
 21
2.4575436696
  0
LINE
  5
25D
100
AcDbEntity
  8
ALL_ASSEMBLY_MEMBERS
100
AcDbLine
 62
7
  6
CONTINUOUS
 10
2.8011796688
 20
2.4575436696
 11
2.8011976692
 21
2.45754367
  0
LINE
  5
25E
100
AcDbEntity
  8
ALL_ASSEMBLY_MEMBERS
100
AcDbLine
 62
7
  6
CONTINUOUS
 10
3.0149650652
 20
2.4600436696
 11
2.5149650652
 21
2.4600436696
  0
LINE
  5
25F
100
AcDbEntity
  8
ALL_ASSEMBLY_MEMBERS
100
AcDbLine
 62
7
  6
CONTINUOUS
 10
6.8899650652
 20
2.5607507764
 11
7.0899650652
 21
2.5607507764
  0
LINE
  5
260
100
AcDbEntity
  8
ALL_ASSEMBLY_MEMBERS
100
AcDbLine
 62
7
  6
CONTINUOUS
 10
2.6673227394
 20
2.4600240838
 11
2.6675464544
 21
2.4600436672
  0
LINE
  5
261
100
AcDbEntity
  8
ALL_ASSEMBLY_MEMBERS
100
AcDbLine
 62
7
  6
CONTINUOUS
 10
6.7649650652
 20
2.5857507764
 11
3.0149650652
 21
2.5857507764
  0
LWPOLYLINE
  5
262
100
AcDbEntity
  8
ALL_ASSEMBLY_MEMBERS
100
AcDbPolyline
 62
7
  6
CONTINUOUS
 90
3
 70
0
 10
2.8012373713
 20
2.4579928012
 10
2.8013161278
 20
2.4583132774
 10
2.8014356912
 20
2.4586206048
  0
LINE
  5
263
100
AcDbEntity
  8
ALL_ASSEMBLY_MEMBERS
100
AcDbLine
 62
7
  6
CONTINUOUS
 10
6.7649650652
 20
3.0857507764
 11
2.5149650652
 21
3.0857507764
  0
LINE
  5
264
100
AcDbEntity
  8
ALL_ASSEMBLY_MEMBERS
100
AcDbLine
 62
7
  6
CONTINUOUS
 10
7.0899650652
 20
3.1107507764
 11
6.8899650652
 21
3.1107507764
  0
LINE
  5
265
100
AcDbEntity
  8
ALL_ASSEMBLY_MEMBERS
100
AcDbLine
 62
7
  6
CONTINUOUS
 10
6.7799650652
 20
3.2732507764
 11
6.8899650652
 21
3.2732507764
  0
LINE
  5
266
100
AcDbEntity
  8
ALL_ASSEMBLY_MEMBERS
100
AcDbLine
 62
7
  6
CONTINUOUS
 10
2.8014356912
 20
2.4586206048
 11
2.8015312093
 21
2.4588055534
  0
LWPOLYLINE
  5
267
100
AcDbEntity
  8
ALL_ASSEMBLY_MEMBERS
100
AcDbPolyline
 62
7
  6
CONTINUOUS
 90
3
 70
0
 10
2.8015311699
 20
2.4588055614
 10
2.8015713925
 20
2.4588736792
 10
2.8017490167
 20
2.459127193
  0
LWPOLYLINE
  5
268
100
AcDbEntity
  8
ALL_ASSEMBLY_MEMBERS
100
AcDbPolyline
 62
7
  6
CONTINUOUS
 90
10
 70
0
 10
2.8010621812
 20
2.4588046644
 10
2.8011666845
 20
2.4589723075
 10
2.8013665225
 20
2.4592285314
 10
2.801597937
 20
2.4594564101
 10
2.8018571498
 20
2.4596517257
 10
2.8021398457
 20
2.4598105802
 10
2.8024410448
 20
2.4599301876
 10
2.8027559642
 20
2.4600079774
 10
2.8030795405
 20
2.4600421078
 10
2.8031654097
 20
2.4600436768
  0
LWPOLYLINE
  5
269
100
AcDbEntity
  8
ALL_ASSEMBLY_MEMBERS
100
AcDbPolyline
 62
7
  6
CONTINUOUS
 90
4
 70
0
 10
2.8017490167
 20
2.459127193
 10
2.8019564756
 20
2.459356386
 10
2.8021907237
 20
2.4595578498
 10
2.8024482836
 20
2.4597278704
  0
LWPOLYLINE
  5
26A
100
AcDbEntity
  8
ALL_ASSEMBLY_MEMBERS
100
AcDbPolyline
 62
7
  6
CONTINUOUS
 90
4
 70
0
 10
2.8024482836
 20
2.4597278704
 10
2.8027250988
 20
2.4598635855
 10
2.8030172485
 20
2.4599628312
 10
2.8033204997
 20
2.4600233224
  0
LINE
  5
26B
100
AcDbEntity
  8
ALL_ASSEMBLY_MEMBERS
100
AcDbLine
 62
7
  6
CONTINUOUS
 10
6.8899650652
 20
5.3732507764
 11
6.7749650652
 21
5.3732507764
  0
LINE
  5
26C
100
AcDbEntity
  8
ALL_ASSEMBLY_MEMBERS
100
AcDbLine
 62
7
  6
CONTINUOUS
 10
6.0239650652
 20
5.6482507764
 11
6.0239650652
 21
6.0232507764
  0
LINE
  5
26D
100
AcDbEntity
  8
ALL_ASSEMBLY_MEMBERS
100
AcDbLine
 62
7
  6
CONTINUOUS
 10
6.0394650652
 20
5.6482507764
 11
6.0394650652
 21
6.0232507764
  0
LINE
  5
26E
100
AcDbEntity
  8
ALL_ASSEMBLY_MEMBERS
100
AcDbLine
 62
7
  6
CONTINUOUS
 10
6.7094650652
 20
5.6207507764
 11
6.7594650652
 21
5.6207507764
  0
LINE
  5
26F
100
AcDbEntity
  8
ALL_ASSEMBLY_MEMBERS
100
AcDbLine
 62
7
  6
CONTINUOUS
 10
5.736470559
 20
5.6482507765
 11
5.7364770263
 21
5.6482507767
  0
LINE
  5
270
100
AcDbEntity
  8
ALL_ASSEMBLY_MEMBERS
100
AcDbLine
 62
7
  6
CONTINUOUS
 10
6.7649650652
 20
5.6482507764
 11
6.7594650652
 21
5.6482507764
  0
LINE
  5
271
100
AcDbEntity
  8
ALL_ASSEMBLY_MEMBERS
100
AcDbLine
 62
7
  6
CONTINUOUS
 10
6.7094650652
 20
5.6482507764
 11
6.0394650652
 21
5.6482507764
  0
LINE
  5
272
100
AcDbEntity
  8
ALL_ASSEMBLY_MEMBERS
100
AcDbLine
 62
7
  6
CONTINUOUS
 10
6.0239650652
 20
5.6482507764
 11
5.7364859322
 21
5.6482507764
  0
LINE
  5
273
100
AcDbEntity
  8
ALL_ASSEMBLY_MEMBERS
100
AcDbLine
 62
7
  6
CONTINUOUS
 10
6.0394650652
 20
5.7092507764
 11
6.0239650652
 21
5.7092507764
  0
LINE
  5
274
100
AcDbEntity
  8
ALL_ASSEMBLY_MEMBERS
100
AcDbLine
 62
7
  6
CONTINUOUS
 10
6.0394650652
 20
5.9622507764
 11
6.0239650652
 21
5.9622507764
  0
LINE
  5
275
100
AcDbEntity
  8
ALL_ASSEMBLY_MEMBERS
100
AcDbLine
 62
7
  6
CONTINUOUS
 10
5.9650773877
 20
5.8698943536
 11
5.9650000705
 21
5.8702292937
  0
LINE
  5
276
100
AcDbEntity
  8
ALL_ASSEMBLY_MEMBERS
100
AcDbLine
 62
7
  6
CONTINUOUS
 10
5.9650339453
 20
5.8698774903
 11
5.9649582013
 21
5.870212795
  0
LINE
  5
277
100
AcDbEntity
  8
ALL_ASSEMBLY_MEMBERS
100
AcDbLine
 62
7
  6
CONTINUOUS
 10
6.7649650652
 20
6.0232507764
 11
6.7594650652
 21
6.0232507764
  0
LINE
  5
278
100
AcDbEntity
  8
ALL_ASSEMBLY_MEMBERS
100
AcDbLine
 62
7
  6
CONTINUOUS
 10
6.7094650652
 20
6.0232507764
 11
6.0394650652
 21
6.0232507764
  0
LINE
  5
279
100
AcDbEntity
  8
ALL_ASSEMBLY_MEMBERS
100
AcDbLine
 62
7
  6
CONTINUOUS
 10
6.0239650652
 20
6.0232507764
 11
5.7364863007
 21
6.0232507764
  0
LINE
  5
27A
100
AcDbEntity
  8
ALL_ASSEMBLY_MEMBERS
100
AcDbLine
 62
7
  6
CONTINUOUS
 10
5.7364772375
 20
6.0232507761
 11
5.7364706488
 21
6.0232507763
  0
LINE
  5
27B
100
AcDbEntity
  8
ALL_ASSEMBLY_MEMBERS
100
AcDbLine
 62
7
  6
CONTINUOUS
 10
6.7094650652
 20
6.0507507764
 11
6.7594650652
 21
6.0507507764
  0
LINE
  5
27C
100
AcDbEntity
  8
ALL_ASSEMBLY_MEMBERS
100
AcDbLine
 62
7
  6
CONTINUOUS
 10
6.7094650652
 20
5.6207507764
 11
6.7094650652
 21
6.0507507764
  0
LINE
  5
27D
100
AcDbEntity
  8
ALL_ASSEMBLY_MEMBERS
100
AcDbLine
 62
7
  6
CONTINUOUS
 10
6.7594650652
 20
5.6207507764
 11
6.7594650652
 21
6.0507507764
  0
LINE
  5
27E
100
AcDbEntity
  8
ALL_ASSEMBLY_MEMBERS
100
AcDbLine
 62
7
  6
CONTINUOUS
 10
6.7649650652
 20
3.2582507764
 11
6.7649650652
 21
2.4132507764
  0
LINE
  5
27F
100
AcDbEntity
  8
ALL_ASSEMBLY_MEMBERS
100
AcDbLine
 62
7
  6
CONTINUOUS
 10
6.7649650652
 20
5.3832544624
 11
6.7649650652
 21
6.2882470904
  0
LINE
  5
280
100
AcDbEntity
  8
ALL_ASSEMBLY_MEMBERS
100
AcDbLine
 62
7
  6
CONTINUOUS
 10
6.7749650652
 20
5.3732507764
 11
6.7749650652
 21
6.2982507764
  0
LINE
  5
281
100
AcDbEntity
  8
ALL_ASSEMBLY_MEMBERS
100
AcDbLine
 62
7
  6
CONTINUOUS
 10
6.7799650652
 20
2.3982507764
 11
6.7799650652
 21
3.2732507764
  0
LINE
  5
282
100
AcDbEntity
  8
ALL_ASSEMBLY_MEMBERS
100
AcDbLine
 62
7
  6
CONTINUOUS
 10
6.8899650652
 20
6.2982507764
 11
6.7749650652
 21
6.2982507764
  0
LINE
  5
283
100
AcDbEntity
  8
ALL_ASSEMBLY_MEMBERS
100
AcDbLine
 62
7
  6
CONTINUOUS
 10
6.8899650652
 20
6.2982507764
 11
6.8899650652
 21
5.3732507764
  0
LINE
  5
284
100
AcDbEntity
  8
ALL_ASSEMBLY_MEMBERS
100
AcDbLine
 62
7
  6
CONTINUOUS
 10
6.8899650652
 20
2.3982507764
 11
6.8899650652
 21
3.2732507764
  0
LINE
  5
285
100
AcDbEntity
  8
ALL_ASSEMBLY_MEMBERS
100
AcDbLine
 62
7
  6
CONTINUOUS
 10
7.0899650652
 20
3.1107507764
 11
7.0899650652
 21
2.5607507764
  0
ARC
  5
286
100
AcDbEntity
  8
ALL_ASSEMBLY_MEMBERS
100
AcDbCircle
 62
7
  6
CONTINUOUS
 10
2.6621405508
 20
2.4400445593
 40
0.0031880559
100
AcDbArc
 50
348.2749533858
 51
359.9840107005
  0
ARC
  5
287
100
AcDbEntity
  8
ALL_ASSEMBLY_MEMBERS
100
AcDbCircle
 62
7
  6
CONTINUOUS
 10
2.663412203
 20
2.4400436696
 40
0.0025
100
AcDbArc
 50
270.0
 51
360.0
  0
ARC
  5
288
100
AcDbEntity
  8
ALL_ASSEMBLY_MEMBERS
100
AcDbCircle
 62
7
  6
CONTINUOUS
 10
2.5915062205
 20
2.4400436696
 40
0.0025
100
AcDbArc
 50
270.0
 51
325.5899837573
  0
ARC
  5
289
100
AcDbEntity
  8
ALL_ASSEMBLY_MEMBERS
100
AcDbCircle
 62
7
  6
CONTINUOUS
 10
2.5956230599
 20
2.4400436696
 40
0.0025
100
AcDbArc
 50
180.0
 51
270.0
  0
ARC
  5
28A
100
AcDbEntity
  8
ALL_ASSEMBLY_MEMBERS
100
AcDbCircle
 62
7
  6
CONTINUOUS
 10
2.6633827939
 20
2.4400436696
 40
0.0025
100
AcDbArc
 50
270.0
 51
360.0
  0
ARC
  5
28B
100
AcDbEntity
  8
ALL_ASSEMBLY_MEMBERS
100
AcDbCircle
 62
7
  6
CONTINUOUS
 10
2.7312324612
 20
2.4400436696
 40
0.0025
100
AcDbArc
 50
180.0
 51
270.0
  0
ARC
  5
28C
100
AcDbEntity
  8
ALL_ASSEMBLY_MEMBERS
100
AcDbCircle
 62
7
  6
CONTINUOUS
 10
2.5564650652
 20
2.4400436696
 40
0.0025
100
AcDbArc
 50
180.0
 51
270.0
  0
ARC
  5
28D
100
AcDbEntity
  8
ALL_ASSEMBLY_MEMBERS
100
AcDbCircle
 62
7
  6
CONTINUOUS
 10
2.5591310553
 20
2.4399773908
 40
0.002432374
100
AcDbArc
 50
239.4714283061
 51
254.8605510325
  0
ARC
  5
28E
100
AcDbEntity
  8
ALL_ASSEMBLY_MEMBERS
100
AcDbCircle
 62
7
  6
CONTINUOUS
 10
2.5851988905
 20
2.4575428944
 40
0.0083936897
100
AcDbArc
 50
0.0052914089
 51
3.6132639809
  0
ARC
  5
28F
100
AcDbEntity
  8
ALL_ASSEMBLY_MEMBERS
100
AcDbCircle
 62
7
  6
CONTINUOUS
 10
2.5852369384
 20
2.4575462612
 40
0.0083555053
100
AcDbArc
 50
3.6066657117
 51
7.1318405549
  0
ARC
  5
290
100
AcDbEntity
  8
ALL_ASSEMBLY_MEMBERS
100
AcDbCircle
 62
7
  6
CONTINUOUS
 10
2.5855995356
 20
2.4575910072
 40
0.0079901583
100
AcDbArc
 50
7.1362701173
 51
10.7336656999
  0
ARC
  5
291
100
AcDbEntity
  8
ALL_ASSEMBLY_MEMBERS
100
AcDbCircle
 62
7
  6
CONTINUOUS
 10
2.7258210379
 20
2.4575426006
 40
0.0050069461
100
AcDbArc
 50
0.0122328184
 51
29.9780087125
  0
ARC
  5
292
100
AcDbEntity
  8
ALL_ASSEMBLY_MEMBERS
100
AcDbCircle
 62
7
  6
CONTINUOUS
 10
2.9329925624
 20
2.4400445446
 40
0.0030639563
100
AcDbArc
 50
347.8887444482
 51
359.9836370814
  0
ARC
  5
293
100
AcDbEntity
  8
ALL_ASSEMBLY_MEMBERS
100
AcDbCircle
 62
7
  6
CONTINUOUS
 10
2.798658834
 20
2.4400452337
 40
0.0025208341
100
AcDbArc
 50
345.091834113
 51
359.9644494725
  0
ARC
  5
294
100
AcDbEntity
  8
ALL_ASSEMBLY_MEMBERS
100
AcDbCircle
 62
7
  6
CONTINUOUS
 10
2.8665179274
 20
2.4400436696
 40
0.0025
100
AcDbArc
 50
180.0
 51
270.0
  0
ARC
  5
295
100
AcDbEntity
  8
ALL_ASSEMBLY_MEMBERS
100
AcDbCircle
 62
7
  6
CONTINUOUS
 10
2.9340293687
 20
2.4400436696
 40
0.0025
100
AcDbArc
 50
270.0
 51
360.0
  0
ARC
  5
296
100
AcDbEntity
  8
ALL_ASSEMBLY_MEMBERS
100
AcDbCircle
 62
7
  6
CONTINUOUS
 10
2.938417809
 20
2.4400436696
 40
0.0025
100
AcDbArc
 50
208.4826236594
 51
270.0
  0
ARC
  5
297
100
AcDbEntity
  8
ALL_ASSEMBLY_MEMBERS
100
AcDbCircle
 62
7
  6
CONTINUOUS
 10
2.9343070705
 20
2.4400436696
 40
0.0025
100
AcDbArc
 50
270.0
 51
325.4577862905
  0
ARC
  5
298
100
AcDbEntity
  8
ALL_ASSEMBLY_MEMBERS
100
AcDbCircle
 62
7
  6
CONTINUOUS
 10
2.7986976692
 20
2.4400436696
 40
0.0025
100
AcDbArc
 50
270.0
 51
360.0
  0
ARC
  5
299
100
AcDbEntity
  8
ALL_ASSEMBLY_MEMBERS
100
AcDbCircle
 62
7
  6
CONTINUOUS
 10
2.7982285833
 20
2.4400436696
 40
0.0025
100
AcDbArc
 50
270.0
 51
360.0
  0
ARC
  5
29A
100
AcDbEntity
  8
ALL_ASSEMBLY_MEMBERS
100
AcDbCircle
 62
7
  6
CONTINUOUS
 10
2.9734650652
 20
2.4400436696
 40
0.0025
100
AcDbArc
 50
270.0
 51
360.0
  0
ARC
  5
29B
100
AcDbEntity
  8
ALL_ASSEMBLY_MEMBERS
100
AcDbCircle
 62
7
  6
CONTINUOUS
 10
2.7986810224
 20
2.4400356318
 40
0.0024969248
100
AcDbArc
 50
322.6793718473
 51
345.17376126
  0
ARC
  5
29C
100
AcDbEntity
  8
ALL_ASSEMBLY_MEMBERS
100
AcDbCircle
 62
7
  6
CONTINUOUS
 10
2.7986891489
 20
2.44002698
 40
0.0024852177
100
AcDbArc
 50
292.681995775
 51
322.7244091434
  0
ARC
  5
29D
100
AcDbEntity
  8
ALL_ASSEMBLY_MEMBERS
100
AcDbCircle
 62
7
  6
CONTINUOUS
 10
2.9707166942
 20
2.4399832042
 40
0.0024395351
100
AcDbArc
 50
270.0358770104
 51
285.0645587714
  0
ARC
  5
29E
100
AcDbEntity
  8
ALL_ASSEMBLY_MEMBERS
100
AcDbCircle
 62
7
  6
CONTINUOUS
 10
2.97072255
 20
2.4399753116
 40
0.0024303944
100
AcDbArc
 50
284.9796136571
 51
299.9621025696
  0
ARC
  5
29F
100
AcDbEntity
  8
ALL_ASSEMBLY_MEMBERS
100
AcDbCircle
 62
7
  6
CONTINUOUS
 10
2.9443994193
 20
2.4575439851
 40
0.0083429007
100
AcDbArc
 50
172.8230016328
 51
180.002166916
  0
ARC
  5
2A0
100
AcDbEntity
  8
ALL_ASSEMBLY_MEMBERS
100
AcDbCircle
 62
7
  6
CONTINUOUS
 10
2.9439313783
 20
2.4576051484
 40
0.0078708857
100
AcDbArc
 50
169.1846037175
 51
172.8390846219
  0
ARC
  5
2A1
100
AcDbEntity
  8
ALL_ASSEMBLY_MEMBERS
100
AcDbCircle
 62
7
  6
CONTINUOUS
 10
2.8036275289
 20
2.457543302
 40
0.0050001025
100
AcDbArc
 50
149.9958130432
 51
179.9957870325
  0
ARC
  5
2A2
100
AcDbEntity
  8
ALL_ASSEMBLY_MEMBERS
100
AcDbCircle
 62
7
  6
CONTINUOUS
 10
2.803721564
 20
2.4575432771
 40
0.0025418964
100
AcDbArc
 50
165.2657031254
 51
179.9911528388
  0
ARC
  5
2A3
100
AcDbEntity
  8
ALL_ASSEMBLY_MEMBERS
100
AcDbCircle
 62
7
  6
CONTINUOUS
 10
2.8037126574
 20
2.4575456735
 40
0.0025328073
100
AcDbArc
 50
150.4796698751
 51
165.2391647037
  0
ARC
  5
2A4
100
AcDbEntity
  8
ALL_ASSEMBLY_MEMBERS
100
AcDbCircle
 62
7
  6
CONTINUOUS
 10
6.7799650652
 20
2.4132507764
 40
0.015
100
AcDbArc
 50
180.0
 51
270.0
  0
ARC
  5
2A5
100
AcDbEntity
  8
ALL_ASSEMBLY_MEMBERS
100
AcDbCircle
 62
7
  6
CONTINUOUS
 10
6.7799650652
 20
3.2582507764
 40
0.015
100
AcDbArc
 50
90.0
 51
180.0
  0
CIRCLE
  5
2A6
100
AcDbEntity
  8
ALL_ASSEMBLY_MEMBERS
100
AcDbCircle
 62
7
  6
CONTINUOUS
 10
5.7364650652
 20
5.8357507764
 40
0.1875
  0
CIRCLE
  5
2A7
100
AcDbEntity
  8
ALL_ASSEMBLY_MEMBERS
100
AcDbCircle
 62
7
  6
CONTINUOUS
 10
5.7364650652
 20
5.8357507764
 40
0.1775
  0
ARC
  5
2A8
100
AcDbEntity
  8
ALL_ASSEMBLY_MEMBERS
100
AcDbCircle
 62
7
  6
CONTINUOUS
 10
5.8132227135
 20
5.8350166139
 40
0.1558085329
100
AcDbArc
 50
13.0616703551
 51
13.2636940387
  0
ARC
  5
2A9
100
AcDbEntity
  8
ALL_ASSEMBLY_MEMBERS
100
AcDbCircle
 62
7
  6
CONTINUOUS
 10
5.8164293167
 20
5.835673634
 40
0.1525359524
100
AcDbArc
 50
0.0289763838
 51
12.9643552656
  0
ARC
  5
2AA
100
AcDbEntity
  8
ALL_ASSEMBLY_MEMBERS
100
AcDbCircle
 62
7
  6
CONTINUOUS
 10
5.8165851649
 20
5.8358163888
 40
0.1523799144
100
AcDbArc
 50
350.7366027807
 51
359.9753293237
  0
ARC
  5
2AB
100
AcDbEntity
  8
ALL_ASSEMBLY_MEMBERS
100
AcDbCircle
 62
7
  6
CONTINUOUS
 10
6.7749650652
 20
5.3832507764
 40
0.01
100
AcDbArc
 50
180.0
 51
270.0
  0
ARC
  5
2AC
100
AcDbEntity
  8
ALL_ASSEMBLY_MEMBERS
100
AcDbCircle
 62
7
  6
CONTINUOUS
 10
6.7749650652
 20
6.2882507764
 40
0.01
100
AcDbArc
 50
90.0
 51
180.0
  0
LINE
  5
2AD
100
AcDbEntity
  8
ALL_ASSEMBLY_MEMBERS
100
AcDbLine
 62
7
  6
CONTINUOUS
 10
2.9731852859
 20
2.4575436696
 11
2.9730743632
 21
2.4600443949
  0
LINE
  5
2AE
100
AcDbEntity
  8
ALL_ASSEMBLY_MEMBERS
100
AcDbLine
 62
7
  6
CONTINUOUS
 10
2.9364531901
 20
2.46004426
 11
2.9362003043
 21
2.4590820828
  0
SPLINE
  5
2AF
100
AcDbEntity
  8
ALL_ASSEMBLY_MEMBERS
100
AcDbSpline
 62
7
  6
CONTINUOUS
 70
0
 71
3
 72
10
 73
6
 74
0
 42
0.0000001
 43
0.0000001
 44
0.0000000001
 40
0.0
 40
0.0
 40
0.0
 40
0.0
 40
0.2533780872
 40
0.5059694662
 40
1.0
 40
1.0
 40
1.0
 40
1.0
 10
2.8880604404
 20
2.4575436696
 30
0.0
 10
2.8880604137
 20
2.4577614507
 30
0.0
 10
2.8880365968
 20
2.4581967864
 30
0.0
 10
2.8878984315
 20
2.4590460548
 30
0.0
 10
2.8876909036
 20
2.4596610241
 30
0.0
 10
2.8875083314
 20
2.4600443949
 30
0.0
  0
SPLINE
  5
2B0
100
AcDbEntity
  8
ALL_ASSEMBLY_MEMBERS
100
AcDbSpline
 62
7
  6
CONTINUOUS
 70
0
 71
3
 72
20
 73
16
 74
0
 42
0.0000001
 43
0.0000001
 44
0.0000000001
 40
0.0
 40
0.0
 40
0.0
 40
0.0
 40
0.1882045655
 40
0.3701109608
 40
0.5379085676
 40
0.6856031256
 40
0.7502417241
 40
0.8080325741
 40
0.8585427596
 40
0.9013942107
 40
0.936374884
 40
0.9637002708
 40
0.974728277
 40
0.9842305339
 40
1.0
 40
1.0
 40
1.0
 40
1.0
 10
2.7986274265
 20
2.4400436696
 30
0.0
 10
2.7986274265
 20
2.4398814267
 30
0.0
 10
2.7986224162
 20
2.4395623503
 30
0.0
 10
2.7986006043
 20
2.4390990681
 30
0.0
 10
2.7985649005
 20
2.4386716774
 30
0.0
 10
2.7985236942
 20
2.4383464169
 30
0.0
 10
2.7984837147
 20
2.438116972
 30
0.0
 10
2.7984527184
 20
2.4379711004
 30
0.0
 10
2.7984197195
 20
2.437844993
 30
0.0
 10
2.7983850794
 20
2.4377397881
 30
0.0
 10
2.7983489687
 20
2.4376565128
 30
0.0
 10
2.798316098
 20
2.4376020293
 30
0.0
 10
2.7982883588
 20
2.4375712407
 30
0.0
 10
2.798264007
 20
2.4375515837
 30
0.0
 10
2.7982421775
 20
2.4375436696
 30
0.0
 10
2.7982285833
 20
2.4375436696
 30
0.0
  0
SPLINE
  5
2B1
100
AcDbEntity
  8
ALL_ASSEMBLY_MEMBERS
100
AcDbSpline
 62
7
  6
CONTINUOUS
 70
0
 71
3
 72
20
 73
16
 74
0
 42
0.0000001
 43
0.0000001
 44
0.0000000001
 40
0.0
 40
0.0
 40
0.0
 40
0.0
 40
0.0159569555
 40
0.0255308838
 40
0.0366156074
 40
0.0640192583
 40
0.0990493324
 40
0.1419252044
 40
0.1924333792
 40
0.2502035257
 40
0.3148096556
 40
0.4624047221
 40
0.6301017493
 40
0.8119205914
 40
1.0
 40
1.0
 40
1.0
 40
1.0
 10
2.7312324612
 20
2.4375436696
 30
0.0
 10
2.7312186945
 20
2.4375436696
 30
0.0
 10
2.7311966086
 20
2.4375515289
 30
0.0
 10
2.7311718697
 20
2.4375711874
 30
0.0
 10
2.731143762
 20
2.4376019261
 30
0.0
 10
2.7311104201
 20
2.4376563776
 30
0.0
 10
2.7310738072
 20
2.4377396592
 30
0.0
 10
2.7310386793
 20
2.4378448619
 30
0.0
 10
2.7310052079
 20
2.4379709545
 30
0.0
 10
2.7309737666
 20
2.4381168039
 30
0.0
 10
2.7309332202
 20
2.4383462037
 30
0.0
 10
2.7308914161
 20
2.4386714518
 30
0.0
 10
2.7308552066
 20
2.4390988942
 30
0.0
 10
2.7308330849
 20
2.4395622607
 30
0.0
 10
2.7308279935
 20
2.4398814063
 30
0.0
 10
2.7308279935
 20
2.4400436696
 30
0.0
  0
SPLINE
  5
2B2
100
AcDbEntity
  8
ALL_ASSEMBLY_MEMBERS
100
AcDbSpline
 62
7
  6
CONTINUOUS
 70
0
 71
3
 72
11
 73
7
 74
0
 42
0.0000001
 43
0.0000001
 44
0.0000000001
 40
0.0
 40
0.0
 40
0.0
 40
0.0
 40
0.2432449294
 40
0.4889816537
 40
0.7403968656
 40
1.0
 40
1.0
 40
1.0
 40
1.0
 10
2.6675195502
 20
2.4600436696
 30
0.0
 10
2.667346533
 20
2.4600436696
 30
0.0
 10
2.666997004
 20
2.4599977369
 30
0.0
 10
2.6665054451
 20
2.4597930421
 30
0.0
 10
2.6660732822
 20
2.4594629671
 30
0.0
 10
2.6658434449
 20
2.4591763768
 30
0.0
 10
2.6657446047
 20
2.4590204049
 30
0.0
  0
SPLINE
  5
2B3
100
AcDbEntity
  8
ALL_ASSEMBLY_MEMBERS
100
AcDbSpline
 62
7
  6
CONTINUOUS
 70
0
 71
3
 72
9
 73
5
 74
0
 42
0.0000001
 43
0.0000001
 44
0.0000000001
 40
0.0
 40
0.0
 40
0.0
 40
0.0
 40
0.4935404216
 40
1.0
 40
1.0
 40
1.0
 40
1.0
 10
2.6657446047
 20
2.4590204049
 30
0.0
 10
2.6656081436
 20
2.4588050664
 30
0.0
 10
2.6653981438
 20
2.4583240857
 30
0.0
 10
2.6653285948
 20
2.4578050714
 30
0.0
 10
2.665328604
 20
2.4575434622
 30
0.0
  0
SPLINE
  5
2B4
100
AcDbEntity
  8
ALL_ASSEMBLY_MEMBERS
100
AcDbSpline
 62
7
  6
CONTINUOUS
 70
0
 71
3
 72
15
 73
11
 74
0
 42
0.0000001
 43
0.0000001
 44
0.0000000001
 40
0.0
 40
0.0
 40
0.0
 40
0.0
 40
0.1342898447
 40
0.2673173129
 40
0.3974222957
 40
0.5239811703
 40
0.6468018479
 40
0.7663194396
 40
0.8837038958
 40
1.0
 40
1.0
 40
1.0
 40
1.0
 10
2.6448883622
 20
2.4575497038
 30
0.0
 10
2.6448885302
 20
2.4577131732
 30
0.0
 10
2.6449164334
 20
2.4580391841
 30
0.0
 10
2.6450379008
 20
2.4585097616
 30
0.0
 10
2.6452354335
 20
2.4589438863
 30
0.0
 10
2.6455023547
 20
2.4593243008
 30
0.0
 10
2.6458289367
 20
2.4596369474
 30
0.0
 10
2.6462041843
 20
2.4598692377
 30
0.0
 10
2.646613463
 20
2.4600115497
 30
0.0
 10
2.6468989093
 20
2.4600436569
 30
0.0
 10
2.6470404753
 20
2.4600436696
 30
0.0
  0
SPLINE
  5
2B5
100
AcDbEntity
  8
ALL_ASSEMBLY_MEMBERS
100
AcDbSpline
 62
7
  6
CONTINUOUS
 70
0
 71
3
 72
15
 73
11
 74
0
 42
0.0000001
 43
0.0000001
 44
0.0000000001
 40
0.0
 40
0.0
 40
0.0
 40
0.0
 40
0.1091247012
 40
0.2212747731
 40
0.3379622123
 40
0.4603481745
 40
0.5887511236
 40
0.7225797839
 40
0.8605218736
 40
1.0
 40
1.0
 40
1.0
 40
1.0
 10
2.6429424801
 20
2.4375436696
 30
0.0
 10
2.6430697754
 20
2.4375436696
 30
0.0
 10
2.6433288973
 20
2.4375773959
 30
0.0
 10
2.6436992853
 20
2.4377226366
 30
0.0
 10
2.6440384095
 20
2.4379586021
 30
0.0
 10
2.6443338751
 20
2.4382730337
 30
0.0
 10
2.6445749232
 20
2.4386543356
 30
0.0
 10
2.6447540821
 20
2.4390877728
 30
0.0
 10
2.6448632417
 20
2.4395568551
 30
0.0
 10
2.6448882928
 20
2.4398809667
 30
0.0
 10
2.6448882928
 20
2.4400436696
 30
0.0
  0
SPLINE
  5
2B6
100
AcDbEntity
  8
ALL_ASSEMBLY_MEMBERS
100
AcDbSpline
 62
7
  6
CONTINUOUS
 70
0
 71
3
 72
15
 73
11
 74
0
 42
0.0000001
 43
0.0000001
 44
0.0000000001
 40
0.0
 40
0.0
 40
0.0
 40
0.0
 40
0.1542236709
 40
0.3051927255
 40
0.4485266857
 40
0.5814389919
 40
0.7021904745
 40
0.8106452044
 40
0.9086013162
 40
1.0
 40
1.0
 40
1.0
 40
1.0
 10
2.6414793796
 20
2.4400436696
 30
0.0
 10
2.6414793796
 20
2.4398811752
 30
0.0
 10
2.6414980039
 20
2.4395593332
 30
0.0
 10
2.6415792004
 20
2.4390926709
 30
0.0
 10
2.6417124199
 20
2.4386613119
 30
0.0
 10
2.6418915175
 20
2.438281473
 30
0.0
 10
2.6421113279
 20
2.437967004
 30
0.0
 10
2.6423648847
 20
2.43772875
 30
0.0
 10
2.6426454859
 20
2.4375792248
 30
0.0
 10
2.6428461799
 20
2.4375436696
 30
0.0
 10
2.6429424801
 20
2.4375436696
 30
0.0
  0
SPLINE
  5
2B7
100
AcDbEntity
  8
ALL_ASSEMBLY_MEMBERS
100
AcDbSpline
 62
7
  6
CONTINUOUS
 70
0
 71
3
 72
15
 73
11
 74
0
 42
0.0000001
 43
0.0000001
 44
0.0000000001
 40
0.0
 40
0.0
 40
0.0
 40
0.0
 40
0.1403554699
 40
0.2768952951
 40
0.4087914634
 40
0.5355743809
 40
0.6573259351
 40
0.7746220234
 40
0.8884855698
 40
1.0
 40
1.0
 40
1.0
 40
1.0
 10
2.665262085
 20
2.4393966974
 30
0.0
 10
2.6652349301
 20
2.4392661458
 30
0.0
 10
2.6651647424
 20
2.4390116486
 30
0.0
 10
2.665010482
 20
2.4386538963
 30
0.0
 10
2.6648134015
 20
2.4383326375
 30
0.0
 10
2.6645776593
 20
2.4380565843
 30
0.0
 10
2.6643095537
 20
2.4378326153
 30
0.0
 10
2.664015259
 20
2.4376675937
 30
0.0
 10
2.6637034563
 20
2.4375669018
 30
0.0
 10
2.6634887391
 20
2.4375436696
 30
0.0
 10
2.6633827939
 20
2.4375436696
 30
0.0
  0
SPLINE
  5
2B8
100
AcDbEntity
  8
ALL_ASSEMBLY_MEMBERS
100
AcDbSpline
 62
7
  6
CONTINUOUS
 70
0
 71
3
 72
11
 73
7
 74
0
 42
0.0000001
 43
0.0000001
 44
0.0000000001
 40
0.0
 40
0.0
 40
0.0
 40
0.0
 40
0.2368881702
 40
0.480493444
 40
0.7341790035
 40
1.0
 40
1.0
 40
1.0
 40
1.0
 10
2.5956230599
 20
2.4375436696
 30
0.0
 10
2.5954686023
 20
2.4375436696
 30
0.0
 10
2.5951537513
 20
2.4375891137
 30
0.0
 10
2.5947110839
 20
2.4377852561
 30
0.0
 10
2.5943188605
 20
2.4380993474
 30
0.0
 10
2.5941082161
 20
2.4383687023
 30
0.0
 10
2.5940161328
 20
2.4385155403
 30
0.0
  0
SPLINE
  5
2B9
100
AcDbEntity
  8
ALL_ASSEMBLY_MEMBERS
100
AcDbSpline
 62
7
  6
CONTINUOUS
 70
0
 71
3
 72
10
 73
6
 74
0
 42
0.0000001
 43
0.0000001
 44
0.0000000001
 40
0.0
 40
0.0
 40
0.0
 40
0.0
 40
0.4909190135
 40
0.744863044
 40
1.0
 40
1.0
 40
1.0
 40
1.0
 10
2.5940161328
 20
2.4385155403
 30
0.0
 10
2.5938767744
 20
2.4387377645
 30
0.0
 10
2.5937171041
 20
2.4391103553
 30
0.0
 10
2.5936111379
 20
2.4396349046
 30
0.0
 10
2.5935925802
 20
2.4399073459
 30
0.0
 10
2.5935925802
 20
2.4400436696
 30
0.0
  0
SPLINE
  5
2BA
100
AcDbEntity
  8
ALL_ASSEMBLY_MEMBERS
100
AcDbSpline
 62
7
  6
CONTINUOUS
 70
0
 71
3
 72
18
 73
14
 74
0
 42
0.0000001
 43
0.0000001
 44
0.0000000001
 40
0.0
 40
0.0
 40
0.0
 40
0.0
 40
0.1831477582
 40
0.3597253658
 40
0.5227255661
 40
0.6666509293
 40
0.7870407098
 40
0.8374473741
 40
0.8811667952
 40
0.9183523678
 40
0.9495742747
 40
0.9760839247
 40
1.0
 40
1.0
 40
1.0
 40
1.0
 10
2.5594016386
 20
2.4575497038
 30
0.0
 10
2.5594016663
 20
2.4577126164
 30
0.0
 10
2.5594084054
 20
2.4580326413
 30
0.0
 10
2.5594383095
 20
2.458496797
 30
0.0
 10
2.5594874212
 20
2.4589243227
 30
0.0
 10
2.559554754
 20
2.4592986576
 30
0.0
 10
2.5596278372
 20
2.4595696278
 30
0.0
 10
2.5596974442
 20
2.45974751
 30
0.0
 10
2.5597499856
 20
2.4598520723
 30
0.0
 10
2.5598057815
 20
2.4599351808
 30
0.0
 10
2.5598650111
 20
2.459996221
 30
0.0
 10
2.559927887
 20
2.4600346079
 30
0.0
 10
2.5599730688
 20
2.4600436632
 30
0.0
 10
2.5599943425
 20
2.4600436696
 30
0.0
  0
SPLINE
  5
2BB
100
AcDbEntity
  8
ALL_ASSEMBLY_MEMBERS
100
AcDbSpline
 62
7
  6
CONTINUOUS
 70
0
 71
3
 72
20
 73
16
 74
0
 42
0.0000001
 43
0.0000001
 44
0.0000000001
 40
0.0
 40
0.0
 40
0.0
 40
0.0
 40
0.0112679819
 40
0.0190789704
 40
0.0287624293
 40
0.0542137002
 40
0.0880965351
 40
0.1304155722
 40
0.1808252204
 40
0.238862758
 40
0.3040381516
 40
0.4535143926
 40
0.6237931538
 40
0.8086414758
 40
1.0
 40
1.0
 40
1.0
 40
1.0
 10
2.5591355523
 20
2.4375436696
 30
0.0
 10
2.5591451052
 20
2.4375436696
 30
0.0
 10
2.5591606164
 20
2.4375530064
 30
0.0
 10
2.5591757593
 20
2.4375718157
 30
0.0
 10
2.559194582
 20
2.4376032403
 30
0.0
 10
2.5592161975
 20
2.4376578137
 30
0.0
 10
2.559240149
 20
2.4377406631
 30
0.0
 10
2.5592631218
 20
2.4378455764
 30
0.0
 10
2.5592850921
 20
2.4379715155
 30
0.0
 10
2.5593057346
 20
2.4381172774
 30
0.0
 10
2.5593324135
 20
2.4383469339
 30
0.0
 10
2.5593598708
 20
2.4386721922
 30
0.0
 10
2.5593836619
 20
2.439099369
 30
0.0
 10
2.5593981975
 20
2.439562485
 30
0.0
 10
2.5594015369
 20
2.4398814379
 30
0.0
 10
2.5594015369
 20
2.4400436696
 30
0.0
  0
SPLINE
  5
2BC
100
AcDbEntity
  8
ALL_ASSEMBLY_MEMBERS
100
AcDbSpline
 62
7
  6
CONTINUOUS
 70
0
 71
3
 72
12
 73
8
 74
0
 42
0.0000001
 43
0.0000001
 44
0.0000000001
 40
0.0
 40
0.0
 40
0.0
 40
0.0
 40
0.2504750916
 40
0.3762180332
 40
0.5016780435
 40
0.7512555353
 40
1.0
 40
1.0
 40
1.0
 40
1.0
 10
2.5566675726
 20
2.4400436696
 30
0.0
 10
2.5566675726
 20
2.4398269973
 30
0.0
 10
2.5567104655
 20
2.4394996551
 30
0.0
 10
2.5568476945
 20
2.4390870353
 30
0.0
 10
2.5570374738
 20
2.438696357
 30
0.0
 10
2.5573657574
 20
2.4382602018
 30
0.0
 10
2.5577100942
 20
2.437991426
 30
0.0
 10
2.5578954872
 20
2.4378822023
 30
0.0
  0
LINE
  5
2BD
100
AcDbEntity
  8
ALL_ASSEMBLY_MEMBERS
100
AcDbLine
 62
7
  6
CONTINUOUS
 10
2.5584957941
 20
2.4376294371
 11
2.5591355523
 21
2.4375436696
  0
SPLINE
  5
2BE
100
AcDbEntity
  8
ALL_ASSEMBLY_MEMBERS
100
AcDbSpline
 62
7
  6
CONTINUOUS
 70
0
 71
3
 72
20
 73
16
 74
0
 42
0.0000001
 43
0.0000001
 44
0.0000000001
 40
0.0
 40
0.0
 40
0.0
 40
0.0
 40
0.1913777742
 40
0.3762640364
 40
0.546545314
 40
0.6959964208
 40
0.7611623912
 40
0.8191916987
 40
0.8695952769
 40
0.9119113276
 40
0.9457920965
 40
0.9712404875
 40
0.9809226275
 40
0.9887326071
 40
1.0
 40
1.0
 40
1.0
 40
1.0
 10
2.5917722051
 20
2.4400436696
 30
0.0
 10
2.5917722051
 20
2.4398814214
 30
0.0
 10
2.5917688602
 20
2.4395624198
 30
0.0
 10
2.5917543243
 20
2.4390992529
 30
0.0
 10
2.5917305344
 20
2.4386720625
 30
0.0
 10
2.5917030711
 20
2.4383468317
 30
0.0
 10
2.591676394
 20
2.4381172114
 30
0.0
 10
2.5916557519
 20
2.4379714695
 30
0.0
 10
2.5916337823
 20
2.4378455451
 30
0.0
 10
2.5916108118
 20
2.4377406409
 30
0.0
 10
2.5915868636
 20
2.4376577975
 30
0.0
 10
2.591565249
 20
2.4376032292
 30
0.0
 10
2.5915464268
 20
2.4375718095
 30
0.0
 10
2.5915312836
 20
2.4375530032
 30
0.0
 10
2.5915157729
 20
2.4375436696
 30
0.0
 10
2.5915062205
 20
2.4375436696
 30
0.0
  0
SPLINE
  5
2BF
100
AcDbEntity
  8
ALL_ASSEMBLY_MEMBERS
100
AcDbSpline
 62
7
  6
CONTINUOUS
 70
0
 71
3
 72
10
 73
6
 74
0
 42
0.0000001
 43
0.0000001
 44
0.0000000001
 40
0.0
 40
0.0
 40
0.0
 40
0.0
 40
0.4939834445
 40
0.7465939807
 40
1.0
 40
1.0
 40
1.0
 40
1.0
 10
2.6420308267
 20
2.46004426
 30
0.0
 10
2.6418484605
 20
2.4596608935
 30
0.0
 10
2.6416412009
 20
2.4590459561
 30
0.0
 10
2.6415032155
 20
2.4581967688
 30
0.0
 10
2.6414794157
 20
2.457761448
 30
0.0
 10
2.6414793796
 20
2.4575436696
 30
0.0
  0
LINE
  5
2C0
100
AcDbEntity
  8
ALL_ASSEMBLY_MEMBERS
100
AcDbLine
 62
7
  6
CONTINUOUS
 10
2.5934498943
 20
2.4590791258
 11
2.5931973396
 21
2.4600443949
  0
LINE
  5
2C1
100
AcDbEntity
  8
ALL_ASSEMBLY_MEMBERS
100
AcDbLine
 62
7
  6
CONTINUOUS
 10
2.5567770154
 20
2.46004426
 11
2.5566675726
 21
2.4575436696
  0
SPLINE
  5
2C2
100
AcDbEntity
  8
ALL_ASSEMBLY_MEMBERS
100
AcDbSpline
 62
7
  6
CONTINUOUS
 70
0
 71
3
 72
15
 73
11
 74
0
 42
0.0000001
 43
0.0000001
 44
0.0000000001
 40
0.0
 40
0.0
 40
0.0
 40
0.0
 40
0.1338776514
 40
0.2665507953
 40
0.3963810176
 40
0.522782544
 40
0.6456136424
 40
0.7653352536
 40
0.8831206917
 40
1.0
 40
1.0
 40
1.0
 40
1.0
 10
2.8645511305
 20
2.4575436696
 30
0.0
 10
2.864551128
 20
2.4577074287
 30
0.0
 10
2.8645236752
 20
2.4580341162
 30
0.0
 10
2.8644024489
 20
2.4585059081
 30
0.0
 10
2.8642041641
 20
2.4589412115
 30
0.0
 10
2.8639357588
 20
2.459322733
 30
0.0
 10
2.8636068735
 20
2.4596362843
 30
0.0
 10
2.8632285462
 20
2.4598691167
 30
0.0
 10
2.8628155827
 20
2.460011641
 30
0.0
 10
2.8625275424
 20
2.4600436696
 30
0.0
 10
2.8623845757
 20
2.4600436696
 30
0.0
  0
SPLINE
  5
2C3
100
AcDbEntity
  8
ALL_ASSEMBLY_MEMBERS
100
AcDbSpline
 62
7
  6
CONTINUOUS
 70
0
 71
3
 72
14
 73
10
 74
0
 42
0.0000001
 43
0.0000001
 44
0.0000000001
 40
0.0
 40
0.0
 40
0.0
 40
0.0
 40
0.1160657746
 40
0.233272972
 40
0.3527247839
 40
0.4756197492
 40
0.6023916103
 40
0.7328187924
 40
1.0
 40
1.0
 40
1.0
 40
1.0
 10
2.8824998099
 20
2.4600436696
 30
0.0
 10
2.8826407065
 20
2.4600436696
 30
0.0
 10
2.882924894
 20
2.4600113744
 30
0.0
 10
2.8833320648
 20
2.459868213
 30
0.0
 10
2.8837049248
 20
2.4596346854
 30
0.0
 10
2.8840289406
 20
2.4593208247
 30
0.0
 10
2.8842933863
 20
2.4589391518
 30
0.0
 10
2.8845553913
 20
2.4583562673
 30
0.0
 10
2.884635159
 20
2.4578680108
 30
0.0
 10
2.8846351675
 20
2.4575436696
 30
0.0
  0
SPLINE
  5
2C4
100
AcDbEntity
  8
ALL_ASSEMBLY_MEMBERS
100
AcDbSpline
 62
7
  6
CONTINUOUS
 70
0
 71
3
 72
15
 73
11
 74
0
 42
0.0000001
 43
0.0000001
 44
0.0000000001
 40
0.0
 40
0.0
 40
0.0
 40
0.0
 40
0.0911927876
 40
0.1889716665
 40
0.2973329951
 40
0.4180648644
 40
0.5510186753
 40
0.6944651957
 40
0.8456085696
 40
1.0
 40
1.0
 40
1.0
 40
1.0
 10
2.8866019644
 20
2.4375436696
 30
0.0
 10
2.8866979542
 20
2.4375436696
 30
0.0
 10
2.8868980622
 20
2.4375791816
 30
0.0
 10
2.8871777373
 20
2.4377287553
 30
0.0
 10
2.887430423
 20
2.4379669809
 30
0.0
 10
2.8876495494
 20
2.4382813713
 30
0.0
 10
2.8878281077
 20
2.4386611653
 30
0.0
 10
2.8879609032
 20
2.4390925528
 30
0.0
 10
2.8880418384
 20
2.4395592709
 30
0.0
 10
2.8880604404
 20
2.4398811567
 30
0.0
 10
2.8880604404
 20
2.4400436696
 30
0.0
  0
LINE
  5
2C5
100
AcDbEntity
  8
ALL_ASSEMBLY_MEMBERS
100
AcDbLine
 62
7
  6
CONTINUOUS
 10
2.7996474889
 20
2.4377339708
 11
2.7986976692
 21
2.4375436696
  0
SPLINE
  5
2C6
100
AcDbEntity
  8
ALL_ASSEMBLY_MEMBERS
100
AcDbSpline
 62
7
  6
CONTINUOUS
 70
0
 71
3
 72
15
 73
11
 74
0
 42
0.0000001
 43
0.0000001
 44
0.0000000001
 40
0.0
 40
0.0
 40
0.0
 40
0.0
 40
0.1388910525
 40
0.2763357366
 40
0.4097943984
 40
0.5380221144
 40
0.6604851133
 40
0.7775050099
 40
0.8902026552
 40
1.0
 40
1.0
 40
1.0
 40
1.0
 10
2.8846351675
 20
2.4400436696
 30
0.0
 10
2.8846351675
 20
2.4398809392
 30
0.0
 10
2.8846605448
 20
2.4395566673
 30
0.0
 10
2.8847709376
 20
2.4390874208
 30
0.0
 10
2.8849521192
 20
2.4386538779
 30
0.0
 10
2.8851959108
 20
2.4382725949
 30
0.0
 10
2.8854946384
 20
2.4379582504
 30
0.0
 10
2.8858374085
 20
2.437722423
 30
0.0
 10
2.8862116418
 20
2.4375773317
 30
0.0
 10
2.8864733213
 20
2.4375436696
 30
0.0
 10
2.8866019644
 20
2.4375436696
 30
0.0
  0
SPLINE
  5
2C7
100
AcDbEntity
  8
ALL_ASSEMBLY_MEMBERS
100
AcDbSpline
 62
7
  6
CONTINUOUS
 70
0
 71
3
 72
11
 73
7
 74
0
 42
0.0000001
 43
0.0000001
 44
0.0000000001
 40
0.0
 40
0.0
 40
0.0
 40
0.0
 40
0.23451059
 40
0.4769257879
 40
0.7313269846
 40
1.0
 40
1.0
 40
1.0
 40
1.0
 10
2.8665179274
 20
2.4375436696
 30
0.0
 10
2.8663667821
 20
2.4375436696
 30
0.0
 10
2.8660577751
 20
2.4375903506
 30
0.0
 10
2.8656249023
 20
2.4377908672
 30
0.0
 10
2.8652430119
 20
2.4381111038
 30
0.0
 10
2.8650397758
 20
2.4383840385
 30
0.0
 10
2.8649510581
 20
2.4385327487
 30
0.0
  0
SPLINE
  5
2C8
100
AcDbEntity
  8
ALL_ASSEMBLY_MEMBERS
100
AcDbSpline
 62
7
  6
CONTINUOUS
 70
0
 71
3
 72
10
 73
6
 74
0
 42
0.0000001
 43
0.0000001
 44
0.0000000001
 40
0.0
 40
0.0
 40
0.0
 40
0.0
 40
0.490153537
 40
0.7443524515
 40
1.0
 40
1.0
 40
1.0
 40
1.0
 10
2.8649510581
 20
2.4385327487
 30
0.0
 10
2.8648189211
 20
2.4387542394
 30
0.0
 10
2.8646684145
 20
2.439123111
 30
0.0
 10
2.8645685832
 20
2.4396404827
 30
0.0
 10
2.8645511305
 20
2.4399091517
 30
0.0
 10
2.8645511305
 20
2.4400436696
 30
0.0
  0
SPLINE
  5
2C9
100
AcDbEntity
  8
ALL_ASSEMBLY_MEMBERS
100
AcDbSpline
 62
7
  6
CONTINUOUS
 70
0
 71
3
 72
15
 73
11
 74
0
 42
0.0000001
 43
0.0000001
 44
0.0000000001
 40
0.0
 40
0.0
 40
0.0
 40
0.0
 40
0.1378772898
 40
0.2725287531
 40
0.4032609807
 40
0.5296946125
 40
0.6519395286
 40
0.7705167664
 40
0.886272872
 40
1.0
 40
1.0
 40
1.0
 40
1.0
 10
2.9359883214
 20
2.439401694
 30
0.0
 10
2.9359601733
 20
2.4392707199
 30
0.0
 10
2.9358871109
 20
2.4390151542
 30
0.0
 10
2.9357264438
 20
2.4386563688
 30
0.0
 10
2.9355209526
 20
2.438334126
 30
0.0
 10
2.9352750094
 20
2.4380573188
 30
0.0
 10
2.9349952946
 20
2.4378328511
 30
0.0
 10
2.9346883843
 20
2.4376676275
 30
0.0
 10
2.9343634163
 20
2.437566893
 30
0.0
 10
2.9341398685
 20
2.4375436696
 30
0.0
 10
2.9340293687
 20
2.4375436696
 30
0.0
  0
SPLINE
  5
2CA
100
AcDbEntity
  8
ALL_ASSEMBLY_MEMBERS
100
AcDbSpline
 62
7
  6
CONTINUOUS
 70
0
 71
3
 72
18
 73
14
 74
0
 42
0.0000001
 43
0.0000001
 44
0.0000000001
 40
0.0
 40
0.0
 40
0.0
 40
0.0
 40
0.1821021281
 40
0.3577847666
 40
0.5200397825
 40
0.6634386402
 40
0.7836227305
 40
0.83409237
 40
0.8780212165
 40
0.9156094884
 40
0.9474778449
 40
0.9749149206
 40
1.0
 40
1.0
 40
1.0
 40
1.0
 10
2.9381183367
 20
2.4575436696
 30
0.0
 10
2.9381183441
 20
2.45770689
 30
0.0
 10
2.9381114899
 20
2.4580276251
 30
0.0
 10
2.9380807745
 20
2.4584928864
 30
0.0
 10
2.9380300465
 20
2.4589215986
 30
0.0
 10
2.9379601471
 20
2.4592970946
 30
0.0
 10
2.9378839095
 20
2.4595688658
 30
0.0
 10
2.9378110696
 20
2.4597471113
 30
0.0
 10
2.9377558667
 20
2.4598520117
 30
0.0
 10
2.9376970788
 20
2.4599353888
 30
0.0
 10
2.9376344948
 20
2.4599965518
 30
0.0
 10
2.9375680258
 20
2.4600347874
 30
0.0
 10
2.9375206106
 20
2.4600436696
 30
0.0
 10
2.9374981265
 20
2.4600436696
 30
0.0
  0
SPLINE
  5
2CB
100
AcDbEntity
  8
ALL_ASSEMBLY_MEMBERS
100
AcDbSpline
 62
7
  6
CONTINUOUS
 70
0
 71
3
 72
12
 73
8
 74
0
 42
0.0000001
 43
0.0000001
 44
0.0000000001
 40
0.0
 40
0.0
 40
0.0
 40
0.0
 40
0.2486820468
 40
0.4982149285
 40
0.6236850449
 40
0.749465529
 40
1.0
 40
1.0
 40
1.0
 40
1.0
 10
2.9719363547
 20
2.437869725
 30
0.0
 10
2.9721245246
 20
2.4379780893
 30
0.0
 10
2.9724744514
 20
2.4382463706
 30
0.0
 10
2.9728085446
 20
2.438684613
 30
0.0
 10
2.9730017536
 20
2.439078187
 30
0.0
 10
2.9731415149
 20
2.4394943809
 30
0.0
 10
2.9731852859
 20
2.4398249099
 30
0.0
 10
2.9731852859
 20
2.4400436696
 30
0.0
  0
LINE
  5
2CC
100
AcDbEntity
  8
ALL_ASSEMBLY_MEMBERS
100
AcDbLine
 62
7
  6
CONTINUOUS
 10
2.9347556918
 20
2.4376518644
 11
2.9343070705
 21
2.4375436696
  0
SPLINE
  5
2CD
100
AcDbEntity
  8
ALL_ASSEMBLY_MEMBERS
100
AcDbSpline
 62
7
  6
CONTINUOUS
 70
0
 71
3
 72
19
 73
15
 74
0
 42
0.0000001
 43
0.0000001
 44
0.0000000001
 40
0.0
 40
0.0
 40
0.0
 40
0.0
 40
0.3748326613
 40
0.5445391489
 40
0.6935721204
 40
0.7586081619
 40
0.8165724167
 40
0.866988681
 40
0.9094144733
 40
0.9435334099
 40
0.9694010057
 40
0.9793926994
 40
0.9876032834
 40
1.0
 40
1.0
 40
1.0
 40
1.0
 10
2.9704187494
 20
2.4400436696
 30
0.0
 10
2.9704187494
 20
2.4397246762
 30
0.0
 10
2.9704288171
 20
2.4392611068
 30
0.0
 10
2.9704656605
 20
2.4386719533
 30
0.0
 10
2.9704966022
 20
2.4383467195
 30
0.0
 10
2.9705266321
 20
2.438117145
 30
0.0
 10
2.970549881
 20
2.4379713782
 30
0.0
 10
2.9705746241
 20
2.4378454166
 30
0.0
 10
2.9706005244
 20
2.4377404406
 30
0.0
 10
2.9706275121
 20
2.4376574983
 30
0.0
 10
2.9706519614
 20
2.4376029139
 30
0.0
 10
2.9706730508
 20
2.4375716562
 30
0.0
 10
2.9706905192
 20
2.4375525396
 30
0.0
 10
2.9707076718
 20
2.4375436696
 30
0.0
 10
2.9707182217
 20
2.4375436696
 30
0.0
  0
SPLINE
  5
2CE
100
AcDbEntity
  8
ALL_ASSEMBLY_MEMBERS
100
AcDbSpline
 62
7
  6
CONTINUOUS
 70
0
 71
3
 72
19
 73
15
 74
0
 42
0.0000001
 43
0.0000001
 44
0.0000000001
 40
0.0
 40
0.0
 40
0.0
 40
0.0
 40
0.012397214
 40
0.0206086982
 40
0.0306016082
 40
0.0564720064
 40
0.0905932542
 40
0.1330226861
 40
0.1834460802
 40
0.2414200607
 40
0.3064674781
 40
0.455531216
 40
0.6252356148
 40
1.0
 40
1.0
 40
1.0
 40
1.0
 10
2.938417809
 20
2.4375436696
 30
0.0
 10
2.9384072586
 20
2.4375436696
 30
0.0
 10
2.9383901055
 20
2.4375525424
 30
0.0
 10
2.9383726375
 20
2.4375716619
 30
0.0
 10
2.9383515475
 20
2.4376029243
 30
0.0
 10
2.9383270972
 20
2.4376575139
 30
0.0
 10
2.9383001057
 20
2.4377404628
 30
0.0
 10
2.9382742024
 20
2.4378454495
 30
0.0
 10
2.9382494581
 20
2.4379714285
 30
0.0
 10
2.9382262083
 20
2.4381172193
 30
0.0
 10
2.9381961755
 20
2.4383468378
 30
0.0
 10
2.9381652421
 20
2.4386721063
 30
0.0
 10
2.9381283954
 20
2.4392612252
 30
0.0
 10
2.9381183367
 20
2.4397247346
 30
0.0
 10
2.9381183367
 20
2.4400436696
 30
0.0
  0
SPLINE
  5
2CF
100
AcDbEntity
  8
ALL_ASSEMBLY_MEMBERS
100
AcDbSpline
 62
7
  6
CONTINUOUS
 70
0
 71
3
 72
28
 73
24
 74
0
 42
0.0000001
 43
0.0000001
 44
0.0000000001
 40
0.0
 40
0.0
 40
0.0
 40
0.0
 40
0.0363655053
 40
0.0723043913
 40
0.1427396949
 40
0.2112153599
 40
0.277822253
 40
0.3105013701
 40
0.3427854511
 40
0.4062831048
 40
0.4375682253
 40
0.4685694891
 40
0.5298190069
 40
0.5601209861
 40
0.5902280393
 40
0.6499293615
 40
0.679565727
 40
0.7090739369
 40
0.7677595757
 40
0.8261103236
 40
0.8842196954
 40
0.942161734
 40
1.0
 40
1.0
 40
1.0
 40
1.0
 10
5.9648749681
 20
5.8707642373
 30
0.0
 10
5.9640534128
 20
5.874249528
 30
0.0
 10
5.9621805666
 20
5.8811255532
 30
0.0
 10
5.957575604
 20
5.8944135993
 30
0.0
 10
5.9503707601
 20
5.9101058322
 30
0.0
 10
5.9397543046
 20
5.9273841361
 30
0.0
 10
5.9295936786
 20
5.9404506644
 30
0.0
 10
5.9208814778
 20
5.9500449432
 30
0.0
 10
5.9119353155
 20
5.9589930978
 30
0.0
 10
5.9024828326
 20
5.9672206609
 30
0.0
 10
5.8926334249
 20
5.9747345919
 30
0.0
 10
5.8826650745
 20
5.9817110542
 30
0.0
 10
5.8723704114
 20
5.9880346345
 30
0.0
 10
5.8618247874
 20
5.993721832
 30
0.0
 10
5.8512170477
 20
5.9989566437
 30
0.0
 10
5.8403985621
 20
6.0035992062
 30
0.0
 10
5.829422632
 20
6.0076629597
 30
0.0
 10
5.8184139415
 20
6.0113327675
 30
0.0
 10
5.8045092981
 20
6.0152302737
 30
0.0
 10
5.787632499
 20
6.018831915
 30
0.0
 10
5.7706399693
 20
6.0213869649
 30
0.0
 10
5.7535757853
 20
6.022911467
 30
0.0
 10
5.7421723834
 20
6.0232494301
 30
0.0
 10
5.7364772098
 20
6.0232507748
 30
0.0
  0
SPLINE
  5
2D0
100
AcDbEntity
  8
ALL_ASSEMBLY_MEMBERS
100
AcDbSpline
 62
7
  6
CONTINUOUS
 70
0
 71
3
 72
29
 73
25
 74
0
 42
0.0000001
 43
0.0000001
 44
0.0000000001
 40
0.0
 40
0.0
 40
0.0
 40
0.0
 40
0.0575364003
 40
0.115181202
 40
0.1730020161
 40
0.2310783558
 40
0.2895118491
 40
0.3484266847
 40
0.4079429247
 40
0.4379769431
 40
0.4682200687
 40
0.4986902246
 40
0.5294097494
 40
0.5604071839
 40
0.5917105913
 40
0.6233422124
 40
0.6553327932
 40
0.7205038888
 40
0.7874626576
 40
0.8216880559
 40
0.8564188504
 40
0.891658937
 40
0.9273712607
 40
1.0
 40
1.0
 40
1.0
 40
1.0
 10
5.7364769991
 20
5.6482507779
 30
0.0
 10
5.742348749
 20
5.6482521402
 30
0.0
 10
5.7541064249
 20
5.6486112887
 30
0.0
 10
5.7716979131
 20
5.6502322605
 30
0.0
 10
5.7892104629
 20
5.6529492689
 30
0.0
 10
5.8065961067
 20
5.6567818214
 30
0.0
 10
5.8238029289
 20
5.6617715381
 30
0.0
 10
5.8407762478
 20
5.6679508208
 30
0.0
 10
5.8546277971
 20
5.6741260132
 30
0.0
 10
5.8655039957
 20
5.6797137648
 30
0.0
 10
5.8735779693
 20
5.6842548296
 30
0.0
 10
5.881527344
 20
5.6891456721
 30
0.0
 10
5.8893357095
 20
5.6943982197
 30
0.0
 10
5.8969859791
 20
5.700023575
 30
0.0
 10
5.9044585176
 20
5.7060329708
 30
0.0
 10
5.9117276049
 20
5.7124421413
 30
0.0
 10
5.9211681651
 20
5.7215930755
 30
0.0
 10
5.9323216834
 20
5.7341291205
 30
0.0
 10
5.942200311
 20
5.747983882
 30
0.0
 10
5.9492394305
 20
5.7599439423
 30
0.0
 10
5.9540613211
 20
5.7694292822
 30
0.0
 10
5.9583242783
 20
5.7793455133
 30
0.0
 10
5.9632041159
 20
5.7931695036
 30
0.0
 10
5.9657842959
 20
5.8039720503
 30
0.0
 10
5.9669778553
 20
5.8112872841
 30
0.0
  0
ENDSEC
  0
SECTION
  2
OBJECTS
  0
DICTIONARY
  5
C
100
AcDbDictionary
280
0
281
1
  3
ACAD_GROUP
350
D
  3
ACAD_MLINESTYLE
350
17
  3
ACAD_LAYOUT
350
1A
  3
ACAD_PLOTSETTINGS
350
19
  3
ACAD_PLOTSTYLENAME
350
E
  0
DICTIONARY
  5
D
102
{ACAD_REACTORS
330
C
102
}
100
AcDbDictionary
280
0
281
1
  0
ACDBDICTIONARYWDFLT
  5
E
102
{ACAD_REACTORS
330
C
102
}
100
AcDbDictionary
281
1
  3
Normal
350
F
100
AcDbDictionaryWithDefault
340
F
  0
DICTIONARY
  5
17
102
{ACAD_REACTORS
330
C
102
}
100
AcDbDictionary
280
0
281
1
  3
Standard
350
18
  0
DICTIONARY
  5
19
102
{ACAD_REACTORS
330
C
102
}
100
AcDbDictionary
281
1
  0
DICTIONARY
  5
1A
102
{ACAD_REACTORS
330
C
102
}
100
AcDbDictionary
281
1
  3
Model
350
2D1
  3
Layout1
350
2D2
  0
ACDBPLACEHOLDER
  5
F
102
{ACAD_REACTORS
330
E
102
}
  0
MLINESTYLE
  5
18
102
{ACAD_REACTORS
330
17
102
}
100
AcDbMlineStyle
  2
STANDARD
 70
0
  3

 62
256
 51
90.0
 52
90.0
 71
2
 49
0.5
 62
256
  6
BYLAYER
 49
-0.5
 62
256
  6
BYLAYER
  0
LAYOUT
  5
2D1
102
{ACAD_REACTORS
330
1A
102
}
100
AcDbPlotSettings
  1

  2
none_device
  4
ANSI_A_(11.00_x_8.50_Inches)
  6

 40
0.0
 41
0.0
 42
0.0
 43
0.0
 44
279.4
 45
215.9
 46
0.0
 47
0.0
 48
0.0
 49
0.0
140
0.0
141
0.0
142
1.0
143
1.0
 70
1024
 72
0
 73
0
 74
0
  7

 75
0
147
1.0
148
0.0
149
0.0
100
AcDbLayout
  1
Model
 70
0
 71
0
 10
0.0
 20
0.0
 11
11.0
 21
8.5
 12
0.0
 22
0.0
 32
0.0
 14
0.0
 24
0.0
 34
0.0
 15
0.0
 25
0.0
 35
0.0
146
0.0
 13
0.0
 23
0.0
 33
0.0
 16
1.0
 26
0.0
 36
0.0
 17
0.0
 27
1.0
 37
0.0
 76
0
330
21C
345
0
346
0
  0
LAYOUT
  5
2D2
102
{ACAD_REACTORS
330
1A
102
}
100
AcDbPlotSettings
  1

  2
none_device
  4
ANSI_A_(11.00_x_8.50_Inches)
  6

 40
0.0
 41
0.0
 42
0.0
 43
0.0
 44
279.4
 45
215.9
 46
0.0
 47
0.0
 48
0.0
 49
0.0
140
0.0
141
0.0
142
1.0
143
1.0
 70
0
 72
0
 73
0
 74
0
  7

 75
0
147
1.0
148
0.0
149
0.0
100
AcDbLayout
  1
Layout1
 70
0
 71
1
 10
0.0
 20
0.0
 11
11.0
 21
8.5
 12
0.0
 22
0.0
 32
0.0
 14
0.0
 24
0.0
 34
0.0
 15
0.0
 25
0.0
 35
0.0
146
0.0
 13
0.0
 23
0.0
 33
0.0
 16
1.0
 26
0.0
 36
0.0
 17
0.0
 27
1.0
 37
0.0
 76
0
330
21D
345
0
346
0
  0
ENDSEC
  0
EOF
