999
DXF file: 3-3143ts_top.dxf
999
Pro/ENGINEER 2013150 by Parametric Technology Corporation
  0
SECTION
  2
HEADER
  9
$ACADVER
  1
AC1021
  9
$DWGCODEPAGE
  3
ANSI_1252
  9
$EXTMAX
 10
11.0
 20
8.5
 30
0.0
  9
$EXTMIN
 10
0.0
 20
0.0
 30
0.0
  9
$LIMMIN
 10
0.0
 20
0.0
  9
$LIMMAX
 10
11.0
 20
8.5
  9
$VIEWCTR
 10
5.5
 20
4.25
  9
$VIEWSIZE
 40
8.5
  9
$CLAYER
  8
0
  9
$LTSCALE
 40
0.605
  9
$CELTYPE
  6
BYLAYER
  9
$DIMSCALE
 40
1.0
  9
$DIMASZ
 40
0.1
  9
$DIMEXO
 40
0.0625
  9
$DIMDLI
 40
0.418
  9
$DIMEXE
 40
0.125
  9
$DIMCEN
 40
0.099
  9
$DIMLFAC
 40
1.0
  9
$DIMBLK
  1
_FILLED
  9
$DIMTXT
 40
0.08
  9
$DIMTOL
 70
1
  9
$DIMLIM
 70
0
  9
$DIMTFAC
 40
1.0
  9
$DIMTP
 40
0.001
  9
$DIMTM
 40
0.001
  9
$DIMGAP
 40
0.09
  9
$DIMDSEP
 70
46
  9
$PDMODE
 70
3
  9
$PDSIZE
 40
0.3125
  9
$HANDSEED
  5
285
  9
$TILEMODE
 70
1
  9
$MEASUREMENT
 70
0
  9
$INSUNITS
 70
1
  0
ENDSEC
  0
SECTION
  2
CLASSES
  0
CLASS
  1
ACDBDICTIONARYWDFLT
  2
AcDbDictionaryWithDefault
  3
AutoCAD 2000
 90
0
 91
1
280
0
281
0
  0
CLASS
  1
ACDBPLACEHOLDER
  2
AcDbPlaceHolder
  3
AutoCAD 2000
 90
0
 91
1
280
0
281
0
  0
CLASS
  1
LAYOUT
  2
AcDbLayout
  3
AutoCAD 2000
 90
0
 91
0
280
0
281
0
  0
ENDSEC
  0
SECTION
  2
TABLES
  0
TABLE
  2
VPORT
  5
8
100
AcDbSymbolTable
 70
2
  0
VPORT
  5
1F4
100
AcDbSymbolTableRecord
100
AcDbViewportTableRecord
  2
*ACTIVE
 70
0
 10
0.0
 20
0.0
 11
1.0
 21
1.0
 12
5.5
 22
4.25
 13
0.0
 23
0.0
 14
1.0
 24
1.0
 15
0.0
 25
0.0
 16
0.0
 26
0.0
 36
1.0
 17
0.0
 27
0.0
 37
0.0
 40
8.5
 41
1.2941176471
 42
50.0
 43
0.0
 44
0.0
 50
0.0
 51
0.0
 71
0
 72
100
 73
1
 74
1
 75
0
 76
0
 77
0
 78
0
  0
ENDTAB
  0
TABLE
  2
LTYPE
  5
5
100
AcDbSymbolTable
 70
6
  0
LTYPE
  5
14
100
AcDbSymbolTableRecord
100
AcDbLinetypeTableRecord
  2
BYBLOCK
 70
0
  3

 72
65
 73
0
 40
0.0
  0
LTYPE
  5
15
100
AcDbSymbolTableRecord
100
AcDbLinetypeTableRecord
  2
BYLAYER
 70
0
  3

 72
65
 73
0
 40
0.0
  0
LTYPE
  5
16
100
AcDbSymbolTableRecord
100
AcDbLinetypeTableRecord
  2
CONTINUOUS
 70
64
  3
Solid line
 72
65
 73
0
 40
0.0
  0
LTYPE
  5
1F5
100
AcDbSymbolTableRecord
100
AcDbLinetypeTableRecord
  2
CENTER
 70
64
  3
____ _ ____ _ ____ _ ____ _ ____ _ ____ _ ____
 72
65
 73
4
 40
0.6
 49
0.375
 74
0
 49
-0.075
 74
0
 49
0.075
 74
0
 49
-0.075
 74
0
  0
LTYPE
  5
1F6
100
AcDbSymbolTableRecord
100
AcDbLinetypeTableRecord
  2
HIDDEN
 70
64
  3
- - - - - - - - - - - - - - - - - - - -
 72
65
 73
2
 40
0.2
 49
0.1
 74
0
 49
-0.1
 74
0
  0
LTYPE
  5
1F7
100
AcDbSymbolTableRecord
100
AcDbLinetypeTableRecord
  2
PHANTOM
 70
64
  3
_____ _ _ _____ _ _ _____ _ _ _____
 72
65
 73
6
 40
0.8
 49
0.45
 74
0
 49
-0.05
 74
0
 49
0.1
 74
0
 49
-0.05
 74
0
 49
0.1
 74
0
 49
-0.05
 74
0
  0
LTYPE
  5
1F8
100
AcDbSymbolTableRecord
100
AcDbLinetypeTableRecord
  2
DOT
 70
64
  3
. . . . . . . . . . . . . . . . . . . .
 72
65
 73
2
 40
0.2
 49
0.1
 74
0
 49
-0.1
 74
0
  0
LTYPE
  5
1F9
100
AcDbSymbolTableRecord
100
AcDbLinetypeTableRecord
  2
DASHED
 70
64
  3
- - - - - - - - - - - - - - - - - - - -
 72
65
 73
2
 40
0.2
 49
0.1
 74
0
 49
-0.1
 74
0
  0
ENDTAB
  0
TABLE
  2
LAYER
  5
2
100
AcDbSymbolTable
 70
36
  0
LAYER
  5
10
100
AcDbSymbolTableRecord
100
AcDbLayerTableRecord
  2
0
 70
0
 62
7
  6
CONTINUOUS
370
-3
390
F
  0
LAYER
  5
1FA
100
AcDbSymbolTableRecord
100
AcDbLayerTableRecord
  2
DEFAULT_1
 70
0
 62
7
  6
CENTER
370
-3
390
F
  0
LAYER
  5
1FB
100
AcDbSymbolTableRecord
100
AcDbLayerTableRecord
  2
DEFAULT_2
 70
0
 62
8
  6
HIDDEN
370
-3
390
F
  0
LAYER
  5
1FC
100
AcDbSymbolTableRecord
100
AcDbLayerTableRecord
  2
DEFAULT_3
 70
0
 62
7
  6
PHANTOM
370
-3
390
F
  0
LAYER
  5
1FD
100
AcDbSymbolTableRecord
100
AcDbLayerTableRecord
  2
ALL_FEATURES
 70
0
 62
7
  6
CONTINUOUS
370
-3
390
F
  0
LAYER
  5
1FE
100
AcDbSymbolTableRecord
100
AcDbLayerTableRecord
  2
AXES_FEATURES
 70
0
 62
7
  6
CONTINUOUS
370
-3
390
F
  0
LAYER
  5
1FF
100
AcDbSymbolTableRecord
100
AcDbLayerTableRecord
  2
CHAMFER_FEATURES
 70
0
 62
7
  6
CONTINUOUS
370
-3
390
F
  0
LAYER
  5
200
100
AcDbSymbolTableRecord
100
AcDbLayerTableRecord
  2
CUT_FEATURES
 70
0
 62
7
  6
CONTINUOUS
370
-3
390
F
  0
LAYER
  5
201
100
AcDbSymbolTableRecord
100
AcDbLayerTableRecord
  2
DATUM_CURVES
 70
0
 62
7
  6
CONTINUOUS
370
-3
390
F
  0
LAYER
  5
202
100
AcDbSymbolTableRecord
100
AcDbLayerTableRecord
  2
DATUM_PLANES
 70
0
 62
7
  6
CONTINUOUS
370
-3
390
F
  0
LAYER
  5
203
100
AcDbSymbolTableRecord
100
AcDbLayerTableRecord
  2
DATUM_POINTS
 70
0
 62
7
  6
CONTINUOUS
370
-3
390
F
  0
LAYER
  5
204
100
AcDbSymbolTableRecord
100
AcDbLayerTableRecord
  2
DEFAULT_COORDINATE_SYSTEM
 70
0
 62
7
  6
CONTINUOUS
370
-3
390
F
  0
LAYER
  5
205
100
AcDbSymbolTableRecord
100
AcDbLayerTableRecord
  2
DEFAULT_DATUM_AXES
 70
0
 62
7
  6
CONTINUOUS
370
-3
390
F
  0
LAYER
  5
206
100
AcDbSymbolTableRecord
100
AcDbLayerTableRecord
  2
DEFAULT_DATUM_CURVES
 70
0
 62
7
  6
CONTINUOUS
370
-3
390
F
  0
LAYER
  5
207
100
AcDbSymbolTableRecord
100
AcDbLayerTableRecord
  2
DEFAULT_DATUM_PLANES
 70
0
 62
7
  6
CONTINUOUS
370
-3
390
F
  0
LAYER
  5
208
100
AcDbSymbolTableRecord
100
AcDbLayerTableRecord
  2
DEFAULT_SURFACES
 70
0
 62
7
  6
CONTINUOUS
370
-3
390
F
  0
LAYER
  5
209
100
AcDbSymbolTableRecord
100
AcDbLayerTableRecord
  2
DIMENSIONS
 70
0
 62
7
  6
CONTINUOUS
370
-3
390
F
  0
LAYER
  5
20A
100
AcDbSymbolTableRecord
100
AcDbLayerTableRecord
  2
HOLE_FEATURES
 70
0
 62
7
  6
CONTINUOUS
370
-3
390
F
  0
LAYER
  5
20B
100
AcDbSymbolTableRecord
100
AcDbLayerTableRecord
  2
INTFCLR_1
 70
0
 62
7
  6
CONTINUOUS
370
-3
390
F
  0
LAYER
  5
20C
100
AcDbSymbolTableRecord
100
AcDbLayerTableRecord
  2
MIXEDCOLOR
 70
0
 62
7
  6
CONTINUOUS
370
-3
390
F
  0
LAYER
  5
20D
100
AcDbSymbolTableRecord
100
AcDbLayerTableRecord
  2
NOTES
 70
0
 62
7
  6
CONTINUOUS
370
-3
390
F
  0
LAYER
  5
20E
100
AcDbSymbolTableRecord
100
AcDbLayerTableRecord
  2
PART_REFERENCE_DIMENSIONS
 70
0
 62
7
  6
CONTINUOUS
370
-3
390
F
  0
LAYER
  5
20F
100
AcDbSymbolTableRecord
100
AcDbLayerTableRecord
  2
PLATED_SURFACE_AREA
 70
0
 62
7
  6
CONTINUOUS
370
-3
390
F
  0
LAYER
  5
210
100
AcDbSymbolTableRecord
100
AcDbLayerTableRecord
  2
POINTS
 70
0
 62
7
  6
CONTINUOUS
370
-3
390
F
  0
LAYER
  5
211
100
AcDbSymbolTableRecord
100
AcDbLayerTableRecord
  2
PROTRUSION
 70
0
 62
7
  6
CONTINUOUS
370
-3
390
F
  0
LAYER
  5
212
100
AcDbSymbolTableRecord
100
AcDbLayerTableRecord
  2
PROTRUSION_FEATURES
 70
0
 62
7
  6
CONTINUOUS
370
-3
390
F
  0
LAYER
  5
213
100
AcDbSymbolTableRecord
100
AcDbLayerTableRecord
  2
QUILTS
 70
0
 62
7
  6
CONTINUOUS
370
-3
390
F
  0
LAYER
  5
214
100
AcDbSymbolTableRecord
100
AcDbLayerTableRecord
  2
REFERENCE_DIMENSIONS
 70
0
 62
7
  6
CONTINUOUS
370
-3
390
F
  0
LAYER
  5
215
100
AcDbSymbolTableRecord
100
AcDbLayerTableRecord
  2
SIZE_REF
 70
0
 62
7
  6
CONTINUOUS
370
-3
390
F
  0
ENDTAB
  0
TABLE
  2
STYLE
  5
3
100
AcDbSymbolTable
 70
1
  0
STYLE
  5
11
100
AcDbSymbolTableRecord
100
AcDbTextStyleTableRecord
  2
STANDARD
 70
0
 40
0.0
 41
0.8
 50
0.0
 71
0
 42
0.2
  3
txt
  4

  0
STYLE
  5
216
100
AcDbSymbolTableRecord
100
AcDbTextStyleTableRecord
  2
TEXTSTYLE_1
 70
0
 40
0.0
 41
0.8
 50
0.0
 71
0
 42
0.2
  3
gdt
  4

  0
ENDTAB
  0
TABLE
  2
VIEW
  5
6
100
AcDbSymbolTable
 70
0
  0
ENDTAB
  0
TABLE
  2
UCS
  5
7
100
AcDbSymbolTable
 70
0
  0
ENDTAB
  0
TABLE
  2
APPID
  5
9
100
AcDbSymbolTable
 70
1
  0
APPID
  5
217
100
AcDbSymbolTableRecord
100
AcDbRegAppTableRecord
  2
ACAD
 70
0
  0
ENDTAB
  0
TABLE
  2
BLOCK_RECORD
  5
1
100
AcDbSymbolTable
 70
0
  0
BLOCK_RECORD
  5
218
100
AcDbSymbolTableRecord
100
AcDbBlockTableRecord
  2
*Model_Space
  0
BLOCK_RECORD
  5
219
100
AcDbSymbolTableRecord
100
AcDbBlockTableRecord
  2
*Paper_Space
  0
ENDTAB
  0
TABLE
  2
DIMSTYLE
  5
A
100
AcDbSymbolTable
 70
1
100
AcDbDimStyleTable
 71
0
  0
DIMSTYLE
105
21A
100
AcDbSymbolTableRecord
100
AcDbDimStyleTableRecord
  2
STANDARD
 70
0
  3

  4

 40
1.0
 41
0.1
 42
0.0625
 43
0.38
 44
0.125
 45
0.0
 46
0.0
 47
0.001
 48
0.001
140
0.08
141
0.09
142
0.0
143
25.4
144
1.0
145
0.0
146
1.0
147
0.09
 71
1.0
 72
0.0
 73
1
 74
1
 75
0
 76
0
 77
0
 78
4
170
0
171
2
172
0
173
0
174
0
175
0
176
0
177
0
178
0
270
2
271
3
272
3
273
2
274
2
275
0
280
0
281
0
282
0
283
1
284
4
285
0
286
0
287
3
288
0
340
11
278
46
  0
ENDTAB
  0
ENDSEC
  0
SECTION
  2
BLOCKS
  0
BLOCK
  5
20
100
AcDbEntity
  8
0
100
AcDbBlockBegin
  2
*Model_Space
 70
0
 10
0.0
 20
0.0
 30
0.0
  3
*Model_Space
  1

  0
ENDBLK
  5
21
100
AcDbEntity
  8
0
100
AcDbBlockEnd
  0
BLOCK
  5
1C
100
AcDbEntity
  8
0
100
AcDbBlockBegin
  2
*Paper_Space
 70
0
 10
0.0
 20
0.0
 30
0.0
  3
*Paper_Space
  1

  0
ENDBLK
  5
1D
100
AcDbEntity
  8
0
100
AcDbBlockEnd
  0
ENDSEC
  0
SECTION
  2
ENTITIES
  0
LINE
  5
21B
100
AcDbEntity
  8
0
100
AcDbLine
 62
7
  6
CONTINUOUS
 10
0.0
 20
0.0
 11
0.0
 21
8.5
  0
LINE
  5
21C
100
AcDbEntity
  8
0
100
AcDbLine
 62
7
  6
CONTINUOUS
 10
0.0
 20
0.0
 11
11.0
 21
0.0
  0
LINE
  5
21D
100
AcDbEntity
  8
0
100
AcDbLine
 62
7
  6
CONTINUOUS
 10
0.0
 20
8.5
 11
11.0
 21
8.5
  0
LINE
  5
21E
100
AcDbEntity
  8
0
100
AcDbLine
 62
7
  6
CONTINUOUS
 10
11.0
 20
0.0
 11
11.0
 21
8.5
  0
LINE
  5
21F
100
AcDbEntity
  8
0
100
AcDbLine
 62
7
  6
CONTINUOUS
 10
3.0713593362
 20
5.1892513213
 11
3.0713593362
 21
5.3932513213
  0
LINE
  5
220
100
AcDbEntity
  8
0
100
AcDbLine
 62
7
  6
CONTINUOUS
 10
3.0863593362
 20
5.1742513213
 11
3.0863593362
 21
5.3932513213
  0
LINE
  5
221
100
AcDbEntity
  8
0
100
AcDbLine
 62
7
  6
CONTINUOUS
 10
4.2896093362
 20
3.6460780929
 11
4.6031093362
 21
3.6460780929
  0
LINE
  5
222
100
AcDbEntity
  8
0
100
AcDbLine
 62
7
  6
CONTINUOUS
 10
4.2746093362
 20
3.6610780929
 11
4.6181093362
 21
3.6610780929
  0
LINE
  5
223
100
AcDbEntity
  8
0
100
AcDbLine
 62
7
  6
CONTINUOUS
 10
4.5563593362
 20
3.6628280929
 11
4.3363593362
 21
3.6628280929
  0
LINE
  5
224
100
AcDbEntity
  8
0
100
AcDbLine
 62
7
  6
CONTINUOUS
 10
4.5563593362
 20
3.6928280929
 11
4.3363593362
 21
3.6928280929
  0
LINE
  5
225
100
AcDbEntity
  8
0
100
AcDbLine
 62
7
  6
CONTINUOUS
 10
4.2913593362
 20
3.7078280929
 11
4.6013593362
 21
3.7078280929
  0
LINE
  5
226
100
AcDbEntity
  8
0
100
AcDbLine
 62
7
  6
CONTINUOUS
 10
4.2896093362
 20
3.8112355733
 11
4.6031093362
 21
3.8112355733
  0
LINE
  5
227
100
AcDbEntity
  8
0
100
AcDbLine
 62
7
  6
CONTINUOUS
 10
4.2746093362
 20
3.8262355733
 11
4.6181093362
 21
3.8262355733
  0
LINE
  5
228
100
AcDbEntity
  8
0
100
AcDbLine
 62
7
  6
CONTINUOUS
 10
4.5563593362
 20
3.8279855733
 11
4.3363593362
 21
3.8279855733
  0
LINE
  5
229
100
AcDbEntity
  8
0
100
AcDbLine
 62
7
  6
CONTINUOUS
 10
4.5563593362
 20
3.8579855733
 11
4.3363593362
 21
3.8579855733
  0
LINE
  5
22A
100
AcDbEntity
  8
0
100
AcDbLine
 62
7
  6
CONTINUOUS
 10
4.2913593362
 20
3.8729855733
 11
4.6013593362
 21
3.8729855733
  0
LINE
  5
22B
100
AcDbEntity
  8
0
100
AcDbLine
 62
7
  6
CONTINUOUS
 10
4.2913593362
 20
4.0929855733
 11
4.6013593362
 21
4.0929855733
  0
LINE
  5
22C
100
AcDbEntity
  8
0
100
AcDbLine
 62
7
  6
CONTINUOUS
 10
4.3363593362
 20
4.1079855733
 11
4.5563593362
 21
4.1079855733
  0
LINE
  5
22D
100
AcDbEntity
  8
0
100
AcDbLine
 62
7
  6
CONTINUOUS
 10
4.3363593362
 20
4.1379855733
 11
4.5563593362
 21
4.1379855733
  0
LINE
  5
22E
100
AcDbEntity
  8
0
100
AcDbLine
 62
7
  6
CONTINUOUS
 10
4.2746093362
 20
4.1397355733
 11
4.3457685812
 21
4.1397355733
  0
LINE
  5
22F
100
AcDbEntity
  8
0
100
AcDbLine
 62
7
  6
CONTINUOUS
 10
4.5469500913
 20
4.1397355733
 11
4.6181093362
 21
4.1397355733
  0
LINE
  5
230
100
AcDbEntity
  8
0
100
AcDbLine
 62
7
  6
CONTINUOUS
 10
4.6031093362
 20
4.1547355733
 11
4.5469500918
 21
4.1547355733
  0
LINE
  5
231
100
AcDbEntity
  8
0
100
AcDbLine
 62
7
  6
CONTINUOUS
 10
4.3457685806
 20
4.1547355733
 11
4.2896093362
 21
4.1547355733
  0
LINE
  5
232
100
AcDbEntity
  8
0
100
AcDbLine
 62
7
  6
CONTINUOUS
 10
4.2901093362
 20
4.1847355733
 11
4.6026093362
 21
4.1847355733
  0
LINE
  5
233
100
AcDbEntity
  8
ALL_FEATURES
100
AcDbLine
 62
7
  6
CONTINUOUS
 10
4.2901093362
 20
4.2020780929
 11
4.1188620039
 21
4.2020780929
  0
LINE
  5
234
100
AcDbEntity
  8
ALL_FEATURES
100
AcDbLine
 62
7
  6
CONTINUOUS
 10
4.6026093362
 20
4.2020780929
 11
4.7738566685
 21
4.2020780929
  0
LINE
  5
235
100
AcDbEntity
  8
ALL_FEATURES
100
AcDbLine
 62
7
  6
CONTINUOUS
 10
4.0329735095
 20
4.3270780929
 11
4.0329735095
 21
4.5182513213
  0
LINE
  5
236
100
AcDbEntity
  8
0
100
AcDbLine
 62
7
  6
CONTINUOUS
 10
4.0329735095
 20
5.3932513213
 11
4.0329735095
 21
5.7060465969
  0
LINE
  5
237
100
AcDbEntity
  8
0
100
AcDbLine
 62
7
  6
CONTINUOUS
 10
4.0329743362
 20
5.1742513213
 11
4.0329743362
 21
4.5182513213
  0
LINE
  5
238
100
AcDbEntity
  8
ALL_FEATURES
100
AcDbLine
 62
7
  6
CONTINUOUS
 10
4.2901093362
 20
4.3270780929
 11
4.0329759223
 21
4.3270780929
  0
LINE
  5
239
100
AcDbEntity
  8
ALL_FEATURES
100
AcDbLine
 62
7
  6
CONTINUOUS
 10
4.6026093362
 20
4.3270780929
 11
4.8597427501
 21
4.3270780929
  0
LINE
  5
23A
100
AcDbEntity
  8
0
100
AcDbLine
 62
7
  6
CONTINUOUS
 10
4.2901093362
 20
4.3422355733
 11
4.6026093362
 21
4.3422355733
  0
LINE
  5
23B
100
AcDbEntity
  8
ALL_FEATURES
100
AcDbLine
 62
7
  6
CONTINUOUS
 10
4.1188593362
 20
4.2020780929
 11
4.1188593362
 21
4.3270780929
  0
LINE
  5
23C
100
AcDbEntity
  8
0
100
AcDbLine
 62
7
  6
CONTINUOUS
 10
4.1226093362
 20
4.5182513213
 11
4.1226093362
 21
4.3672355733
  0
LINE
  5
23D
100
AcDbEntity
  8
ALL_FEATURES
100
AcDbLine
 62
7
  6
CONTINUOUS
 10
4.1226093362
 20
4.3672355733
 11
4.1226093362
 21
4.5182513213
  0
LINE
  5
23E
100
AcDbEntity
  8
ALL_FEATURES
100
AcDbLine
 62
7
  6
CONTINUOUS
 10
4.1226093362
 20
4.3672355733
 11
4.7701093362
 21
4.3672355733
  0
LINE
  5
23F
100
AcDbEntity
  8
0
100
AcDbLine
 62
7
  6
CONTINUOUS
 10
4.2746093362
 20
4.1507468328
 11
4.2746093362
 21
3.6610780929
  0
LINE
  5
240
100
AcDbEntity
  8
0
100
AcDbLine
 62
7
  6
CONTINUOUS
 10
4.2896093362
 20
3.6460780929
 11
4.2896093362
 21
4.1547355733
  0
LINE
  5
241
100
AcDbEntity
  8
0
100
AcDbLine
 62
7
  6
CONTINUOUS
 10
4.2901093362
 20
4.1847355733
 11
4.2901093362
 21
4.3422355733
  0
LINE
  5
242
100
AcDbEntity
  8
0
100
AcDbLine
 62
7
  6
CONTINUOUS
 10
4.2913593362
 20
3.7078280929
 11
4.2913593362
 21
3.8112355733
  0
LINE
  5
243
100
AcDbEntity
  8
0
100
AcDbLine
 62
7
  6
CONTINUOUS
 10
4.2913593362
 20
3.8729855733
 11
4.2913593362
 21
4.0929855733
  0
LINE
  5
244
100
AcDbEntity
  8
0
100
AcDbLine
 62
7
  6
CONTINUOUS
 10
4.3213593362
 20
3.7078280929
 11
4.3213593362
 21
3.8112355733
  0
LINE
  5
245
100
AcDbEntity
  8
0
100
AcDbLine
 62
7
  6
CONTINUOUS
 10
4.3213593362
 20
3.8729855733
 11
4.3213593362
 21
4.0929855733
  0
LINE
  5
246
100
AcDbEntity
  8
0
100
AcDbLine
 62
7
  6
CONTINUOUS
 10
4.3363593362
 20
3.6628280929
 11
4.3363593362
 21
3.8112355733
  0
LINE
  5
247
100
AcDbEntity
  8
0
100
AcDbLine
 62
7
  6
CONTINUOUS
 10
4.3363593362
 20
3.8279855733
 11
4.3363593362
 21
4.1379855733
  0
LINE
  5
248
100
AcDbEntity
  8
0
100
AcDbLine
 62
7
  6
CONTINUOUS
 10
4.3457685812
 20
4.1397355733
 11
4.3457685812
 21
4.1547355733
  0
LINE
  5
249
100
AcDbEntity
  8
0
100
AcDbLine
 62
7
  6
CONTINUOUS
 10
4.0329743362
 20
4.5182513213
 11
4.8597443362
 21
4.5182513213
  0
LINE
  5
24A
100
AcDbEntity
  8
0
100
AcDbLine
 62
7
  6
CONTINUOUS
 10
4.3538593362
 20
4.3672355733
 11
4.3538593362
 21
4.3422355733
  0
LINE
  5
24B
100
AcDbEntity
  8
0
100
AcDbLine
 62
7
  6
CONTINUOUS
 10
4.5388593362
 20
4.3672355733
 11
4.5388593362
 21
4.3422355733
  0
LINE
  5
24C
100
AcDbEntity
  8
0
100
AcDbLine
 62
7
  6
CONTINUOUS
 10
4.5469500913
 20
4.1397355733
 11
4.5469500913
 21
4.1547355733
  0
LINE
  5
24D
100
AcDbEntity
  8
0
100
AcDbLine
 62
7
  6
CONTINUOUS
 10
4.5563593362
 20
3.6628280929
 11
4.5563593362
 21
3.8112355733
  0
LINE
  5
24E
100
AcDbEntity
  8
0
100
AcDbLine
 62
7
  6
CONTINUOUS
 10
4.5563593362
 20
3.8279855733
 11
4.5563593362
 21
4.1379855733
  0
LINE
  5
24F
100
AcDbEntity
  8
0
100
AcDbLine
 62
7
  6
CONTINUOUS
 10
4.5713593362
 20
4.0929855733
 11
4.5713593362
 21
3.8729855733
  0
LINE
  5
250
100
AcDbEntity
  8
0
100
AcDbLine
 62
7
  6
CONTINUOUS
 10
4.5713593362
 20
3.8112355733
 11
4.5713593362
 21
3.7078280929
  0
LINE
  5
251
100
AcDbEntity
  8
0
100
AcDbLine
 62
7
  6
CONTINUOUS
 10
4.6013593362
 20
4.0929855733
 11
4.6013593362
 21
3.8729855733
  0
LINE
  5
252
100
AcDbEntity
  8
0
100
AcDbLine
 62
7
  6
CONTINUOUS
 10
4.6013593362
 20
3.8112355733
 11
4.6013593362
 21
3.7078280929
  0
LINE
  5
253
100
AcDbEntity
  8
0
100
AcDbLine
 62
7
  6
CONTINUOUS
 10
4.6026093362
 20
4.1847355733
 11
4.6026093362
 21
4.3422355733
  0
LINE
  5
254
100
AcDbEntity
  8
0
100
AcDbLine
 62
7
  6
CONTINUOUS
 10
4.6031093362
 20
3.6460780929
 11
4.6031093362
 21
4.1547355733
  0
LINE
  5
255
100
AcDbEntity
  8
0
100
AcDbLine
 62
7
  6
CONTINUOUS
 10
4.6181093362
 20
3.6610780929
 11
4.6181093362
 21
4.1507539606
  0
LWPOLYLINE
  5
256
100
AcDbEntity
  8
0
100
AcDbPolyline
 62
7
  6
CONTINUOUS
 90
9
 70
0
 10
4.2781606122
 20
4.1604451143
 10
4.2773540357
 20
4.1594026754
 10
4.2766421612
 20
4.1582935841
 10
4.2760304522
 20
4.1571264269
 10
4.2755235922
 20
4.1559102269
 10
4.2751254534
 20
4.1546543761
 10
4.2748390709
 20
4.1533685717
 10
4.2746666174
 20
4.1520627407
 10
4.2746093838
 20
4.1507536454
  0
LINE
  5
257
100
AcDbEntity
  8
0
100
AcDbLine
 62
7
  6
CONTINUOUS
 10
4.7701093362
 20
4.5182513213
 11
4.7701093362
 21
4.3672355733
  0
LINE
  5
258
100
AcDbEntity
  8
ALL_FEATURES
100
AcDbLine
 62
7
  6
CONTINUOUS
 10
4.7701093362
 20
4.3672355733
 11
4.7701093362
 21
4.5182513213
  0
LINE
  5
259
100
AcDbEntity
  8
ALL_FEATURES
100
AcDbLine
 62
7
  6
CONTINUOUS
 10
4.7738593362
 20
4.2020780929
 11
4.7738593362
 21
4.3270780929
  0
LWPOLYLINE
  5
25A
100
AcDbEntity
  8
0
100
AcDbPolyline
 62
7
  6
CONTINUOUS
 90
3
 70
0
 10
4.279776039
 20
4.162080759
 10
4.2790556911
 20
4.1614128246
 10
4.2781606122
 20
4.1604451143
  0
LINE
  5
25B
100
AcDbEntity
  8
0
100
AcDbLine
 62
7
  6
CONTINUOUS
 10
4.8597443362
 20
5.1742513213
 11
4.8597443362
 21
4.5182513213
  0
LINE
  5
25C
100
AcDbEntity
  8
0
100
AcDbLine
 62
7
  6
CONTINUOUS
 10
4.859745163
 20
5.7060465969
 11
4.859745163
 21
5.3932513213
  0
LINE
  5
25D
100
AcDbEntity
  8
ALL_FEATURES
100
AcDbLine
 62
7
  6
CONTINUOUS
 10
4.859745163
 20
4.3270780929
 11
4.859745163
 21
4.5182513213
  0
LINE
  5
25E
100
AcDbEntity
  8
0
100
AcDbLine
 62
7
  6
CONTINUOUS
 10
5.8063593362
 20
5.1742513213
 11
3.0863593362
 21
5.1742513213
  0
LINE
  5
25F
100
AcDbEntity
  8
0
100
AcDbLine
 62
7
  6
CONTINUOUS
 10
5.8213593362
 20
5.1892513213
 11
3.0713593362
 21
5.1892513213
  0
LINE
  5
260
100
AcDbEntity
  8
0
100
AcDbLine
 62
7
  6
CONTINUOUS
 10
3.0713593362
 20
5.3932513213
 11
5.8213593362
 21
5.3932513213
  0
LINE
  5
261
100
AcDbEntity
  8
ALL_FEATURES
100
AcDbLine
 62
7
  6
CONTINUOUS
 10
4.6831349623
 20
5.4232513213
 11
4.2095837102
 21
5.4232513213
  0
LINE
  5
262
100
AcDbEntity
  8
0
100
AcDbLine
 62
7
  6
CONTINUOUS
 10
4.8597451628
 20
5.7060465969
 11
4.0329735097
 21
5.7060465969
  0
LINE
  5
263
100
AcDbEntity
  8
0
100
AcDbLine
 62
7
  6
CONTINUOUS
 10
5.8063593362
 20
5.1742513213
 11
5.8063593362
 21
5.3932513213
  0
LINE
  5
264
100
AcDbEntity
  8
0
100
AcDbLine
 62
7
  6
CONTINUOUS
 10
5.8213593362
 20
5.1892513213
 11
5.8213593362
 21
5.3932513213
  0
ARC
  5
265
100
AcDbEntity
  8
0
100
AcDbCircle
 62
7
  6
CONTINUOUS
 10
4.2896093362
 20
3.6610780929
 40
0.015
100
AcDbArc
 50
180.0
 51
270.0
  0
ARC
  5
266
100
AcDbEntity
  8
0
100
AcDbCircle
 62
7
  6
CONTINUOUS
 10
4.2896093362
 20
3.8262355733
 40
0.015
100
AcDbArc
 50
180.0
 51
270.0
  0
ARC
  5
267
100
AcDbEntity
  8
0
100
AcDbCircle
 62
7
  6
CONTINUOUS
 10
4.2601093362
 20
4.1847355733
 40
0.03
100
AcDbArc
 50
310.7679014666
 51
360.0
  0
ARC
  5
268
100
AcDbEntity
  8
0
100
AcDbCircle
 62
7
  6
CONTINUOUS
 10
4.2896093362
 20
4.1397355733
 40
0.015
100
AcDbArc
 50
90.0
 51
180.0
  0
ARC
  5
269
100
AcDbEntity
  8
0
100
AcDbCircle
 62
7
  6
CONTINUOUS
 10
4.3363593362
 20
3.7078280929
 40
0.045
100
AcDbArc
 50
180.0
 51
270.0
  0
ARC
  5
26A
100
AcDbEntity
  8
0
100
AcDbCircle
 62
7
  6
CONTINUOUS
 10
4.3363593362
 20
3.8729855733
 40
0.045
100
AcDbArc
 50
180.0
 51
270.0
  0
ARC
  5
26B
100
AcDbEntity
  8
0
100
AcDbCircle
 62
7
  6
CONTINUOUS
 10
4.3363593362
 20
3.7078280929
 40
0.015
100
AcDbArc
 50
180.0000003086
 51
269.9999997447
  0
ARC
  5
26C
100
AcDbEntity
  8
0
100
AcDbCircle
 62
7
  6
CONTINUOUS
 10
4.3363593362
 20
3.8729855733
 40
0.015
100
AcDbArc
 50
180.0000003086
 51
269.9999997447
  0
ARC
  5
26D
100
AcDbEntity
  8
0
100
AcDbCircle
 62
7
  6
CONTINUOUS
 10
4.3363593362
 20
4.0929855733
 40
0.045
100
AcDbArc
 50
90.0
 51
180.0
  0
ARC
  5
26E
100
AcDbEntity
  8
0
100
AcDbCircle
 62
7
  6
CONTINUOUS
 10
4.3363593362
 20
4.0929855733
 40
0.015
100
AcDbArc
 50
90.0000003086
 51
179.9999997447
  0
ARC
  5
26F
100
AcDbEntity
  8
0
100
AcDbCircle
 62
7
  6
CONTINUOUS
 10
3.0863593362
 20
5.1892513213
 40
0.015
100
AcDbArc
 50
180.0
 51
270.0
  0
ARC
  5
270
100
AcDbEntity
  8
0
100
AcDbCircle
 62
7
  6
CONTINUOUS
 10
4.5563593362
 20
3.7078280929
 40
0.045
100
AcDbArc
 50
270.0
 51
360.0
  0
ARC
  5
271
100
AcDbEntity
  8
0
100
AcDbCircle
 62
7
  6
CONTINUOUS
 10
4.5563593362
 20
3.8729855733
 40
0.045
100
AcDbArc
 50
270.0
 51
360.0
  0
ARC
  5
272
100
AcDbEntity
  8
0
100
AcDbCircle
 62
7
  6
CONTINUOUS
 10
4.5563593362
 20
4.0929855733
 40
0.045
100
AcDbArc
 50
0.0
 51
90.0
  0
ARC
  5
273
100
AcDbEntity
  8
0
100
AcDbCircle
 62
7
  6
CONTINUOUS
 10
4.6326093362
 20
4.1847355733
 40
0.03
100
AcDbArc
 50
180.0
 51
229.0382114502
  0
ARC
  5
274
100
AcDbEntity
  8
0
100
AcDbCircle
 62
7
  6
CONTINUOUS
 10
4.6031093362
 20
3.6610780929
 40
0.015
100
AcDbArc
 50
270.0
 51
360.0
  0
ARC
  5
275
100
AcDbEntity
  8
0
100
AcDbCircle
 62
7
  6
CONTINUOUS
 10
4.5563593362
 20
3.7078280929
 40
0.015
100
AcDbArc
 50
270.0000003086
 51
359.9999997447
  0
ARC
  5
276
100
AcDbEntity
  8
0
100
AcDbCircle
 62
7
  6
CONTINUOUS
 10
4.6031093362
 20
4.1507539606
 40
0.015
100
AcDbArc
 50
0.0
 51
49.03821145
  0
ARC
  5
277
100
AcDbEntity
  8
0
100
AcDbCircle
 62
7
  6
CONTINUOUS
 10
4.6031093362
 20
4.1397355733
 40
0.015
100
AcDbArc
 50
0.0
 51
90.0
  0
ARC
  5
278
100
AcDbEntity
  8
0
100
AcDbCircle
 62
7
  6
CONTINUOUS
 10
4.6031093362
 20
3.8262355733
 40
0.015
100
AcDbArc
 50
270.0
 51
360.0
  0
ARC
  5
279
100
AcDbEntity
  8
0
100
AcDbCircle
 62
7
  6
CONTINUOUS
 10
4.5563593362
 20
4.0929855733
 40
0.015
100
AcDbArc
 50
0.0000003086
 51
89.9999997447
  0
ARC
  5
27A
100
AcDbEntity
  8
0
100
AcDbCircle
 62
7
  6
CONTINUOUS
 10
4.5563593362
 20
3.8729855733
 40
0.015
100
AcDbArc
 50
270.0000003086
 51
359.9999997447
  0
ARC
  5
27B
100
AcDbEntity
  8
0
100
AcDbCircle
 62
7
  6
CONTINUOUS
 10
5.8063593362
 20
5.1892513213
 40
0.015
100
AcDbArc
 50
270.0
 51
360.0
  0
SPLINE
  5
27C
100
AcDbEntity
  8
ALL_FEATURES
100
AcDbSpline
 62
7
  6
CONTINUOUS
 70
0
 71
3
 72
11
 73
7
 74
0
 42
0.0000001
 43
0.0000001
 44
0.0000000001
 40
0.0
 40
0.0
 40
0.0
 40
0.0
 40
0.2226604197
 40
0.4808026875
 40
0.9139206687
 40
1.0
 40
1.0
 40
1.0
 40
1.0
 10
4.6831349623
 20
5.4232513213
 30
0.0
 10
4.6794278125
 20
5.421766242
 30
0.0
 10
4.6731791748
 20
5.4158724528
 30
0.0
 10
4.6616468371
 20
5.4032266319
 30
0.0
 10
4.6425287242
 20
5.4042967853
 30
0.0
 10
4.6394951727
 20
5.3949023082
 30
0.0
 10
4.6393179943
 20
5.3932517484
 30
0.0
  0
SPLINE
  5
27D
100
AcDbEntity
  8
ALL_FEATURES
100
AcDbSpline
 62
7
  6
CONTINUOUS
 70
0
 71
3
 72
11
 73
7
 74
0
 42
0.0000001
 43
0.0000001
 44
0.0000000001
 40
0.0
 40
0.0
 40
0.0
 40
0.0
 40
0.0860772807
 40
0.5191962337
 40
0.7773390807
 40
1.0
 40
1.0
 40
1.0
 40
1.0
 10
4.2534006643
 20
5.3932518774
 30
0.0
 10
4.2532234736
 20
5.3949023894
 30
0.0
 10
4.2501898931
 20
5.4042967822
 30
0.0
 10
4.2310718353
 20
5.4032266319
 30
0.0
 10
4.2195394976
 20
5.4158724528
 30
0.0
 10
4.21329086
 20
5.421766242
 30
0.0
 10
4.2095837102
 20
5.4232513213
 30
0.0
  0
SPLINE
  5
27E
100
AcDbEntity
  8
0
100
AcDbSpline
 62
7
  6
CONTINUOUS
 70
0
 71
3
 72
23
 73
19
 74
0
 42
0.0000001
 43
0.0000001
 44
0.0000000001
 40
0.0
 40
0.0
 40
0.0
 40
0.0
 40
0.0620529983
 40
0.1242238534
 40
0.1865351075
 40
0.248994263
 40
0.3115957824
 40
0.3743202185
 40
0.437135482
 40
0.4999991217
 40
0.5628627483
 40
0.6256779676
 40
0.6884024073
 40
0.7510039514
 40
0.8134632217
 40
0.8757745504
 40
0.9379459893
 40
1.0
 40
1.0
 40
1.0
 40
1.0
 10
4.5469500913
 20
4.1547355733
 30
0.0
 10
4.5427755704
 20
4.1547355786
 30
0.0
 10
4.534418
 20
4.155010896
 30
0.0
 10
4.5219039615
 20
4.1559691458
 30
0.0
 10
4.5093924115
 20
4.1572493602
 30
0.0
 10
4.4968662112
 20
4.1586572069
 30
0.0
 10
4.4843060103
 20
4.1600130714
 30
0.0
 10
4.4716987527
 20
4.1611464713
 30
0.0
 10
4.4590442514
 20
4.1619033993
 30
0.0
 10
4.4463595149
 20
4.1621700086
 30
0.0
 10
4.4336747786
 20
4.1619034526
 30
0.0
 10
4.421020285
 20
4.1611464602
 30
0.0
 10
4.4084130224
 20
4.1600131338
 30
0.0
 10
4.3958528155
 20
4.1586572311
 30
0.0
 10
4.3833265984
 20
4.1572494053
 30
0.0
 10
4.3708149965
 20
4.1559691896
 30
0.0
 10
4.3583008482
 20
4.1550109014
 30
0.0
 10
4.3499431702
 20
4.1547355799
 30
0.0
 10
4.3457685812
 20
4.1547355733
 30
0.0
  0
SPLINE
  5
27F
100
AcDbEntity
  8
0
100
AcDbSpline
 62
7
  6
CONTINUOUS
 70
0
 71
3
 72
31
 73
27
 74
0
 42
0.0000001
 43
0.0000001
 44
0.0000000001
 40
0.0
 40
0.0
 40
0.0
 40
0.0
 40
0.000393662
 40
0.0015724216
 40
0.003531475
 40
0.0062660233
 40
0.0097712733
 40
0.0140424366
 40
0.0248566875
 40
0.0386209668
 40
0.0552309184
 40
0.0745795179
 40
0.0965318663
 40
0.1209394751
 40
0.1476541406
 40
0.2073485532
 40
0.2742695334
 40
0.3470418139
 40
0.4243049797
 40
0.5047473916
 40
0.5871382697
 40
0.6703807956
 40
0.753573662
 40
0.8361403511
 40
0.9180313092
 40
1.0
 40
1.0
 40
1.0
 40
1.0
 10
4.6129426696
 20
4.1620811648
 30
0.0
 10
4.6129430769
 20
4.162082781
 30
0.0
 10
4.6129360535
 20
4.1620699981
 30
0.0
 10
4.6129307738
 20
4.1620646731
 30
0.0
 10
4.6129149246
 20
4.1620401733
 30
0.0
 10
4.6128960496
 20
4.1620133234
 30
0.0
 10
4.6128704806
 20
4.1619760082
 30
0.0
 10
4.6128258435
 20
4.1619115965
 30
0.0
 10
4.6127560157
 20
4.1618110983
 30
0.0
 10
4.6126557611
 20
4.1616685209
 30
0.0
 10
4.6125335668
 20
4.1614970408
 30
0.0
 10
4.6123898456
 20
4.1612983937
 30
0.0
 10
4.6122248228
 20
4.1610744
 30
0.0
 10
4.6120388128
 20
4.1608271529
 30
0.0
 10
4.6117525886
 20
4.1604553571
 30
0.0
 10
4.6113466243
 20
4.159948633
 30
0.0
 10
4.610799006
 20
4.1593059335
 30
0.0
 10
4.6101781898
 20
4.1586285524
 30
0.0
 10
4.6094883324
 20
4.1579378536
 30
0.0
 10
4.6087338752
 20
4.1572557436
 30
0.0
 10
4.6079193908
 20
4.1566047877
 30
0.0
 10
4.6070495673
 20
4.1560083494
 30
0.0
 10
4.6061289821
 20
4.1554910639
 30
0.0
 10
4.6051615729
 20
4.1550797735
 30
0.0
 10
4.6041514829
 20
4.1548041666
 30
0.0
 10
4.6034563929
 20
4.1547355752
 30
0.0
 10
4.6031093362
 20
4.1547355733
 30
0.0
  0
LINE
  5
280
100
AcDbEntity
  8
0
100
AcDbLine
 62
7
  6
CONTINUOUS
 10
4.2797760471
 20
4.162080848
 11
4.2808977176
 21
4.1605454426
  0
SPLINE
  5
281
100
AcDbEntity
  8
0
100
AcDbSpline
 62
7
  6
CONTINUOUS
 70
0
 71
3
 72
13
 73
9
 74
0
 42
0.0000001
 43
0.0000001
 44
0.0000000001
 40
0.0
 40
0.0
 40
0.0
 40
0.0
 40
0.2125940745
 40
0.4675959793
 40
0.601504211
 40
0.735526194
 40
0.8680630288
 40
1.0
 40
1.0
 40
1.0
 40
1.0
 10
4.2808977176
 20
4.1605454426
 30
0.0
 10
4.2813685338
 20
4.1599426125
 30
0.0
 10
4.2824579125
 20
4.1586581345
 30
0.0
 10
4.2840354031
 20
4.1571639308
 30
0.0
 10
4.2855627234
 20
4.1560598504
 30
0.0
 10
4.2868265161
 20
4.1553582886
 30
0.0
 10
4.288180466
 20
4.154865136
 30
0.0
 10
4.2891346354
 20
4.154735579
 30
0.0
 10
4.2896093362
 20
4.1547355733
 30
0.0
  0
SPLINE
  5
282
100
AcDbEntity
  8
0
100
AcDbSpline
 62
7
  6
CONTINUOUS
 70
0
 71
3
 72
27
 73
23
 74
0
 42
0.0000001
 43
0.0000001
 44
0.0000000001
 40
0.0
 40
0.0
 40
0.0
 40
0.0
 40
0.0624994835
 40
0.1249983226
 40
0.1874976195
 40
0.2499972755
 40
0.3124969903
 40
0.3749952669
 40
0.4062457825
 40
0.4374964279
 40
0.4687473426
 40
0.4999983516
 40
0.5312492677
 40
0.562500174
 40
0.5937509472
 40
0.6250013663
 40
0.6874995707
 40
0.7499992871
 40
0.8124990092
 40
0.8749983586
 40
0.9374987422
 40
1.0
 40
1.0
 40
1.0
 40
1.0
 10
4.5469500913
 20
4.1397355733
 30
0.0
 10
4.5427287463
 20
4.1397355901
 30
0.0
 10
4.5342843501
 20
4.1400815617
 30
0.0
 10
4.5216816429
 20
4.1413727425
 30
0.0
 10
4.5091459447
 20
4.1431860804
 30
0.0
 10
4.4966547993
 20
4.1452723559
 30
0.0
 10
4.4841657385
 20
4.1473692381
 30
0.0
 10
4.473719985
 20
4.1488887878
 30
0.0
 10
4.4653282185
 20
4.1498230154
 30
0.0
 10
4.4590171331
 20
4.1503510142
 30
0.0
 10
4.4526922552
 20
4.1506795925
 30
0.0
 10
4.4463596762
 20
4.1507910602
 30
0.0
 10
4.4400271021
 20
4.1506794904
 30
0.0
 10
4.4337022154
 20
4.1503510754
 30
0.0
 10
4.4273911197
 20
4.1498231545
 30
0.0
 10
4.4189993676
 20
4.1488888247
 30
0.0
 10
4.4085536123
 20
4.1473693783
 30
0.0
 10
4.3960645557
 20
4.1452724645
 30
0.0
 10
4.3835734041
 20
4.1431861796
 30
0.0
 10
4.3710375987
 20
4.1413727988
 30
0.0
 10
4.3584346663
 20
4.140081576
 30
0.0
 10
4.349990046
 20
4.1397355948
 30
0.0
 10
4.3457685812
 20
4.1397355733
 30
0.0
  0
ENDSEC
  0
SECTION
  2
OBJECTS
  0
DICTIONARY
  5
C
100
AcDbDictionary
280
0
281
1
  3
ACAD_GROUP
350
D
  3
ACAD_MLINESTYLE
350
17
  3
ACAD_LAYOUT
350
1A
  3
ACAD_PLOTSETTINGS
350
19
  3
ACAD_PLOTSTYLENAME
350
E
  0
DICTIONARY
  5
D
102
{ACAD_REACTORS
330
C
102
}
100
AcDbDictionary
280
0
281
1
  0
ACDBDICTIONARYWDFLT
  5
E
102
{ACAD_REACTORS
330
C
102
}
100
AcDbDictionary
281
1
  3
Normal
350
F
100
AcDbDictionaryWithDefault
340
F
  0
DICTIONARY
  5
17
102
{ACAD_REACTORS
330
C
102
}
100
AcDbDictionary
280
0
281
1
  3
Standard
350
18
  0
DICTIONARY
  5
19
102
{ACAD_REACTORS
330
C
102
}
100
AcDbDictionary
281
1
  0
DICTIONARY
  5
1A
102
{ACAD_REACTORS
330
C
102
}
100
AcDbDictionary
281
1
  3
Model
350
283
  3
Layout1
350
284
  0
ACDBPLACEHOLDER
  5
F
102
{ACAD_REACTORS
330
E
102
}
  0
MLINESTYLE
  5
18
102
{ACAD_REACTORS
330
17
102
}
100
AcDbMlineStyle
  2
STANDARD
 70
0
  3

 62
256
 51
90.0
 52
90.0
 71
2
 49
0.5
 62
256
  6
BYLAYER
 49
-0.5
 62
256
  6
BYLAYER
  0
LAYOUT
  5
283
102
{ACAD_REACTORS
330
1A
102
}
100
AcDbPlotSettings
  1

  2
none_device
  4
ANSI_A_(11.00_x_8.50_Inches)
  6

 40
0.0
 41
0.0
 42
0.0
 43
0.0
 44
279.4
 45
215.9
 46
0.0
 47
0.0
 48
0.0
 49
0.0
140
0.0
141
0.0
142
1.0
143
1.0
 70
1024
 72
0
 73
0
 74
0
  7

 75
0
147
1.0
148
0.0
149
0.0
100
AcDbLayout
  1
Model
 70
0
 71
0
 10
0.0
 20
0.0
 11
11.0
 21
8.5
 12
0.0
 22
0.0
 32
0.0
 14
0.0
 24
0.0
 34
0.0
 15
0.0
 25
0.0
 35
0.0
146
0.0
 13
0.0
 23
0.0
 33
0.0
 16
1.0
 26
0.0
 36
0.0
 17
0.0
 27
1.0
 37
0.0
 76
0
330
218
345
0
346
0
  0
LAYOUT
  5
284
102
{ACAD_REACTORS
330
1A
102
}
100
AcDbPlotSettings
  1

  2
none_device
  4
ANSI_A_(11.00_x_8.50_Inches)
  6

 40
0.0
 41
0.0
 42
0.0
 43
0.0
 44
279.4
 45
215.9
 46
0.0
 47
0.0
 48
0.0
 49
0.0
140
0.0
141
0.0
142
1.0
143
1.0
 70
0
 72
0
 73
0
 74
0
  7

 75
0
147
1.0
148
0.0
149
0.0
100
AcDbLayout
  1
Layout1
 70
0
 71
1
 10
0.0
 20
0.0
 11
11.0
 21
8.5
 12
0.0
 22
0.0
 32
0.0
 14
0.0
 24
0.0
 34
0.0
 15
0.0
 25
0.0
 35
0.0
146
0.0
 13
0.0
 23
0.0
 33
0.0
 16
1.0
 26
0.0
 36
0.0
 17
0.0
 27
1.0
 37
0.0
 76
0
330
219
345
0
346
0
  0
ENDSEC
  0
EOF
