999
DXF file: E:\BT Custom\CADOUTPUT\_TOP.dxf
999
Pro/ENGINEER 2018400 by Parametric Technology Corporation
  0
SECTION
  2
HEADER
  9
$ACADVER
  1
AC1018
  9
$DWGCODEPAGE
  3
ANSI_1252
  9
$EXTMAX
 10
22.0
 20
17.0
 30
0.0
  9
$EXTMIN
 10
0.0
 20
0.0
 30
0.0
  9
$LIMMIN
 10
0.0
 20
0.0
  9
$LIMMAX
 10
22.0
 20
17.0
  9
$VIEWCTR
 10
11.0
 20
8.5
  9
$VIEWSIZE
 40
17.0
  9
$CLAYER
  8
0
  9
$LTSCALE
 40
1.21
  9
$CELTYPE
  6
BYLAYER
  9
$DIMSCALE
 40
1.0
  9
$DIMASZ
 40
0.1
  9
$DIMEXO
 40
0.0625
  9
$DIMDLI
 40
0.836
  9
$DIMEXE
 40
0.125
  9
$DIMCEN
 40
0.198
  9
$DIMLFAC
 40
1.0
  9
$DIMBLK
  1
_FILLED
  9
$DIMALT
 70
1
  9
$DIMALTD
 70
2
  9
$DIMALTTD
 70
2
  9
$DIMALTF
 40
25.4
  9
$DIMTXT
 40
0.08
  9
$DIMTOL
 70
1
  9
$DIMLIM
 70
0
  9
$DIMTFAC
 40
1.0
  9
$DIMTP
 40
0.001
  9
$DIMTM
 40
0.001
  9
$DIMGAP
 40
0.09
  9
$DIMDSEP
 70
46
  9
$AUNITS
 70
0
  9
$PDMODE
 70
3
  9
$PDSIZE
 40
0.06
  9
$HANDSEED
  5
374
  9
$TILEMODE
 70
1
  9
$MEASUREMENT
 70
0
  9
$INSUNITS
 70
1
  0
ENDSEC
  0
SECTION
  2
CLASSES
  0
CLASS
  1
ACDBDICTIONARYWDFLT
  2
AcDbDictionaryWithDefault
  3
AutoCAD 2000
 90
0
 91
1
280
0
281
0
  0
CLASS
  1
ACDBPLACEHOLDER
  2
AcDbPlaceHolder
  3
AutoCAD 2000
 90
0
 91
1
280
0
281
0
  0
CLASS
  1
LAYOUT
  2
AcDbLayout
  3
AutoCAD 2000
 90
0
 91
0
280
0
281
0
  0
ENDSEC
  0
SECTION
  2
TABLES
  0
TABLE
  2
VPORT
  5
8
100
AcDbSymbolTable
 70
2
  0
VPORT
  5
1F4
100
AcDbSymbolTableRecord
100
AcDbViewportTableRecord
  2
*ACTIVE
 70
0
 10
0.0
 20
0.0
 11
1.0
 21
1.0
 12
11.0
 22
8.5
 13
0.0
 23
0.0
 14
1.0
 24
1.0
 15
0.0
 25
0.0
 16
0.0
 26
0.0
 36
1.0
 17
0.0
 27
0.0
 37
0.0
 40
17.0
 41
1.2941176471
 42
50.0
 43
0.0
 44
0.0
 50
0.0
 51
0.0
 71
0
 72
100
 73
1
 74
1
 75
0
 76
0
 77
0
 78
0
  0
ENDTAB
  0
TABLE
  2
LTYPE
  5
5
100
AcDbSymbolTable
 70
6
  0
LTYPE
  5
14
100
AcDbSymbolTableRecord
100
AcDbLinetypeTableRecord
  2
BYBLOCK
 70
0
  3

 72
65
 73
0
 40
0.0
  0
LTYPE
  5
15
100
AcDbSymbolTableRecord
100
AcDbLinetypeTableRecord
  2
BYLAYER
 70
0
  3

 72
65
 73
0
 40
0.0
  0
LTYPE
  5
16
100
AcDbSymbolTableRecord
100
AcDbLinetypeTableRecord
  2
CONTINUOUS
 70
64
  3
Solid line
 72
65
 73
0
 40
0.0
  0
LTYPE
  5
1F5
100
AcDbSymbolTableRecord
100
AcDbLinetypeTableRecord
  2
CENTER
 70
64
  3
____ _ ____ _ ____ _ ____ _ ____ _ ____ _ ____
 72
65
 73
4
 40
0.6
 49
0.375
 74
0
 49
-0.075
 74
0
 49
0.075
 74
0
 49
-0.075
 74
0
  0
LTYPE
  5
1F6
100
AcDbSymbolTableRecord
100
AcDbLinetypeTableRecord
  2
HIDDEN
 70
64
  3
- - - - - - - - - - - - - - - - - - - -
 72
65
 73
2
 40
0.2
 49
0.1
 74
0
 49
-0.1
 74
0
  0
LTYPE
  5
1F7
100
AcDbSymbolTableRecord
100
AcDbLinetypeTableRecord
  2
PHANTOM
 70
64
  3
_____ _ _ _____ _ _ _____ _ _ _____
 72
65
 73
6
 40
0.8
 49
0.45
 74
0
 49
-0.05
 74
0
 49
0.1
 74
0
 49
-0.05
 74
0
 49
0.1
 74
0
 49
-0.05
 74
0
  0
LTYPE
  5
1F8
100
AcDbSymbolTableRecord
100
AcDbLinetypeTableRecord
  2
DOT
 70
64
  3
. . . . . . . . . . . . . . . . . . . .
 72
65
 73
2
 40
0.2
 49
0.1
 74
0
 49
-0.1
 74
0
  0
LTYPE
  5
1F9
100
AcDbSymbolTableRecord
100
AcDbLinetypeTableRecord
  2
DASHED
 70
64
  3
- - - - - - - - - - - - - - - - - - - -
 72
65
 73
2
 40
0.2
 49
0.1
 74
0
 49
-0.1
 74
0
  0
ENDTAB
  0
TABLE
  2
LAYER
  5
2
100
AcDbSymbolTable
 70
36
  0
LAYER
  5
10
100
AcDbSymbolTableRecord
100
AcDbLayerTableRecord
  2
0
 70
0
 62
7
  6
CONTINUOUS
370
-3
390
F
  0
LAYER
  5
1FA
100
AcDbSymbolTableRecord
100
AcDbLayerTableRecord
  2
DEFAULT_1
 70
0
 62
7
  6
CENTER
370
-3
390
F
  0
LAYER
  5
1FB
100
AcDbSymbolTableRecord
100
AcDbLayerTableRecord
  2
DEFAULT_2
 70
0
 62
8
  6
HIDDEN
370
-3
390
F
  0
LAYER
  5
1FC
100
AcDbSymbolTableRecord
100
AcDbLayerTableRecord
  2
DEFAULT_3
 70
0
 62
7
  6
PHANTOM
370
-3
390
F
  0
LAYER
  5
1FD
100
AcDbSymbolTableRecord
100
AcDbLayerTableRecord
  2
ALL_FEATURES
 70
0
 62
7
  6
CONTINUOUS
370
-3
390
F
  0
LAYER
  5
1FE
100
AcDbSymbolTableRecord
100
AcDbLayerTableRecord
  2
AXES_FEATURES
 70
0
 62
7
  6
CONTINUOUS
370
-3
390
F
  0
LAYER
  5
1FF
100
AcDbSymbolTableRecord
100
AcDbLayerTableRecord
  2
DEFAULT_COORDINATE_SYSTEM
 70
0
 62
7
  6
CONTINUOUS
370
-3
390
F
  0
LAYER
  5
200
100
AcDbSymbolTableRecord
100
AcDbLayerTableRecord
  2
DEFAULT_DATUM_AXES
 70
0
 62
7
  6
CONTINUOUS
370
-3
390
F
  0
LAYER
  5
201
100
AcDbSymbolTableRecord
100
AcDbLayerTableRecord
  2
DEFAULT_DATUM_PLANES
 70
0
 62
7
  6
CONTINUOUS
370
-3
390
F
  0
LAYER
  5
202
100
AcDbSymbolTableRecord
100
AcDbLayerTableRecord
  2
DIMENSIONS
 70
0
 62
7
  6
CONTINUOUS
370
-3
390
F
  0
ENDTAB
  0
TABLE
  2
STYLE
  5
3
100
AcDbSymbolTable
 70
1
  0
STYLE
  5
11
100
AcDbSymbolTableRecord
100
AcDbTextStyleTableRecord
  2
STANDARD
 70
0
 40
0.0
 41
0.8
 50
0.0
 71
0
 42
0.2
  3
txt
  4

  0
STYLE
  5
203
100
AcDbSymbolTableRecord
100
AcDbTextStyleTableRecord
  2
TEXTSTYLE_1
 70
0
 40
0.0
 41
0.8
 50
0.0
 71
0
 42
0.2
  3
gdt
  4

  0
ENDTAB
  0
TABLE
  2
VIEW
  5
6
100
AcDbSymbolTable
 70
0
  0
ENDTAB
  0
TABLE
  2
UCS
  5
7
100
AcDbSymbolTable
 70
0
  0
ENDTAB
  0
TABLE
  2
APPID
  5
9
100
AcDbSymbolTable
 70
1
  0
APPID
  5
204
100
AcDbSymbolTableRecord
100
AcDbRegAppTableRecord
  2
ACAD
 70
0
  0
ENDTAB
  0
TABLE
  2
BLOCK_RECORD
  5
1
100
AcDbSymbolTable
 70
0
  0
BLOCK_RECORD
  5
205
100
AcDbSymbolTableRecord
100
AcDbBlockTableRecord
  2
*Model_Space
  0
BLOCK_RECORD
  5
206
100
AcDbSymbolTableRecord
100
AcDbBlockTableRecord
  2
*Paper_Space
  0
BLOCK_RECORD
  5
207
100
AcDbSymbolTableRecord
100
AcDbBlockTableRecord
  2
_FILLED
  0
ENDTAB
  0
TABLE
  2
DIMSTYLE
  5
A
100
AcDbSymbolTable
 70
1
100
AcDbDimStyleTable
 71
0
  0
DIMSTYLE
105
208
100
AcDbSymbolTableRecord
100
AcDbDimStyleTableRecord
  2
STANDARD
 70
0
  3

  4

 40
1.0
 41
0.1
 42
0.0625
 43
0.38
 44
0.125
 45
0.0
 46
0.0
 47
0.001
 48
0.001
140
0.08
141
0.09
142
0.0
143
25.4
144
1.0
145
0.0
146
1.0
147
0.09
 71
1.0
 72
0.0
 73
1
 74
1
 75
0
 76
0
 77
0
 78
4
 79
1
170
1
171
2
172
0
173
0
174
0
175
0
176
0
177
0
178
0
270
2
179
3
271
3
272
3
273
2
274
2
275
0
280
0
281
0
282
0
283
1
284
4
285
0
286
0
287
3
288
0
340
11
278
46
341
207
342
207
343
207
344
207
  0
ENDTAB
  0
ENDSEC
  0
SECTION
  2
BLOCKS
  0
BLOCK
  5
20
100
AcDbEntity
  8
0
100
AcDbBlockBegin
  2
*Model_Space
 70
0
 10
0.0
 20
0.0
 30
0.0
  3
*Model_Space
  1

  0
ENDBLK
  5
21
100
AcDbEntity
  8
0
100
AcDbBlockEnd
  0
BLOCK
  5
1C
100
AcDbEntity
  8
0
100
AcDbBlockBegin
  2
*Paper_Space
 70
0
 10
0.0
 20
0.0
 30
0.0
  3
*Paper_Space
  1

  0
ENDBLK
  5
1D
100
AcDbEntity
  8
0
100
AcDbBlockEnd
  0
BLOCK
  5
209
100
AcDbEntity
  8
0
100
AcDbBlockBegin
  2
_FILLED
 70
64
 10
0.0
 20
0.0
  3
_FILLED
  1

  0
SOLID
  5
20A
100
AcDbEntity
  8
0
  6
BYBLOCK
 62
0
100
AcDbTrace
 10
0.0
 20
0.0
 11
-1.0
 21
0.2
 12
-1.0
 22
-0.2
 13
-1.0
 23
-0.2
  0
ENDBLK
  5
20B
100
AcDbEntity
  8
0
  6
BYBLOCK
 62
0
100
AcDbBlockEnd
  0
ENDSEC
  0
SECTION
  2
ENTITIES
  0
LINE
  5
20C
100
AcDbEntity
  8
0
100
AcDbLine
 62
7
  6
CONTINUOUS
 10
7.7973183383
 20
11.5371481653
 11
7.7973183383
 21
11.7251481653
  0
LINE
  5
20D
100
AcDbEntity
  8
0
100
AcDbLine
 62
7
  6
CONTINUOUS
 10
8.0923183383
 20
5.9591231177
 11
8.0923183383
 21
5.3378028904
  0
LINE
  5
20E
100
AcDbEntity
  8
0
100
AcDbLine
 62
7
  6
CONTINUOUS
 10
9.5873183383
 20
6.164891191
 11
9.5873183383
 21
6.0015495245
  0
LINE
  5
20F
100
AcDbEntity
  8
0
100
AcDbLine
 62
7
  6
CONTINUOUS
 10
9.8223183383
 20
11.4151481653
 11
9.8223183383
 21
11.7251481653
  0
LINE
  5
210
100
AcDbEntity
  8
0
100
AcDbLine
 62
7
  6
CONTINUOUS
 10
9.8523183383
 20
11.1353027994
 11
9.8523183383
 21
11.133720787
  0
LINE
  5
211
100
AcDbEntity
  8
0
100
AcDbLine
 62
7
  6
CONTINUOUS
 10
9.8523183383
 20
11.0321481653
 11
9.8523183383
 21
11.1326323125
  0
LINE
  5
212
100
AcDbEntity
  8
0
100
AcDbLine
 62
9
  6
CONTINUOUS
 10
9.8623183383
 20
11.3751481653
 11
9.8623183383
 21
11.7251481653
  0
LINE
  5
213
100
AcDbEntity
  8
0
100
AcDbLine
 62
7
  6
CONTINUOUS
 10
9.9023183383
 20
11.2327707428
 11
9.9023183383
 21
11.3751481653
  0
LINE
  5
214
100
AcDbEntity
  8
0
100
AcDbLine
 62
9
  6
CONTINUOUS
 10
9.9123183383
 20
11.0021481653
 11
9.9123183383
 21
11.1326322732
  0
LINE
  5
215
100
AcDbEntity
  8
0
100
AcDbLine
 62
9
  6
CONTINUOUS
 10
9.9623183993
 20
11.1353027994
 11
9.9623183383
 21
11.3751481653
  0
LINE
  5
216
100
AcDbEntity
  8
0
100
AcDbLine
 62
9
  6
CONTINUOUS
 10
9.9204998753
 20
11.133720787
 11
9.9184527637
 21
11.1594121827
  0
LINE
  5
217
100
AcDbEntity
  8
0
100
AcDbLine
 62
7
  6
CONTINUOUS
 10
10.1748183383
 20
10.8346481653
 11
10.1748183383
 21
10.9921481653
  0
LINE
  5
218
100
AcDbEntity
  8
0
100
AcDbLine
 62
9
  6
CONTINUOUS
 10
10.2348183383
 20
10.8046481653
 11
10.2348183383
 21
10.9921481653
  0
LINE
  5
219
100
AcDbEntity
  8
0
100
AcDbLine
 62
7
  6
CONTINUOUS
 10
10.2973183383
 20
11.0021481653
 11
10.2973183383
 21
10.9921481653
  0
LINE
  5
21A
100
AcDbEntity
  8
0
100
AcDbLine
 62
7
  6
CONTINUOUS
 10
10.3473183383
 20
6.3374252456
 11
10.3473183383
 21
6.2073175979
  0
LINE
  5
21B
100
AcDbEntity
  8
0
100
AcDbLine
 62
7
  6
CONTINUOUS
 10
10.3473183383
 20
6.3657095168
 11
10.3473183383
 21
6.4993526985
  0
LINE
  5
21C
100
AcDbEntity
  8
0
100
AcDbLine
 62
9
  6
CONTINUOUS
 10
10.363339356
 20
10.8046481653
 11
10.363339356
 21
10.7798576107
  0
LINE
  5
21D
100
AcDbEntity
  8
0
100
AcDbLine
 62
7
  6
CONTINUOUS
 10
11.0459596707
 20
6.6521509804
 11
11.050840132
 21
6.652160372
  0
LINE
  5
21E
100
AcDbEntity
  8
0
100
AcDbLine
 62
9
  6
CONTINUOUS
 10
10.5669076383
 20
9.0483479274
 11
10.5683183383
 21
9.0184439788
  0
LINE
  5
21F
100
AcDbEntity
  8
0
100
AcDbLine
 62
7
  6
CONTINUOUS
 10
10.3973183383
 20
6.3156409678
 11
10.3973183383
 21
6.9305518026
  0
LINE
  5
220
100
AcDbEntity
  8
0
100
AcDbLine
 62
7
  6
CONTINUOUS
 10
10.5083183383
 20
8.8966481653
 11
10.5083183383
 21
9.0235739168
  0
LINE
  5
221
100
AcDbEntity
  8
0
100
AcDbLine
 62
9
  6
CONTINUOUS
 10
10.5273183383
 20
11.0021481653
 11
10.5273183383
 21
10.9921481653
  0
LINE
  5
222
100
AcDbEntity
  8
0
100
AcDbLine
 62
9
  6
CONTINUOUS
 10
10.5683183383
 20
8.8666481653
 11
10.5683183383
 21
9.0184439788
  0
LINE
  5
223
100
AcDbEntity
  8
0
100
AcDbLine
 62
7
  6
CONTINUOUS
 10
10.5948183383
 20
7.2549578692
 11
10.5948183383
 21
7.0271790819
  0
LINE
  5
224
100
AcDbEntity
  8
0
100
AcDbLine
 62
7
  6
CONTINUOUS
 10
10.6410683383
 20
11.3751481653
 11
10.6410683383
 21
7.46040843
  0
LINE
  5
225
100
AcDbEntity
  8
0
100
AcDbLine
 62
7
  6
CONTINUOUS
 10
10.6410685839
 20
7.4298925471
 11
10.6410683383
 21
7.4295766922
  0
LINE
  5
226
100
AcDbEntity
  8
0
100
AcDbLine
 62
7
  6
CONTINUOUS
 10
11.1719427741
 20
6.8589780718
 11
10.9226939025
 21
6.8589780718
  0
LINE
  5
227
100
AcDbEntity
  8
0
100
AcDbLine
 62
9
  6
CONTINUOUS
 10
9.9123183387
 20
11.1326322732
 11
9.9076682351
 21
11.1590935452
  0
LINE
  5
228
100
AcDbEntity
  8
0
100
AcDbLine
 62
7
  6
CONTINUOUS
 10
10.9226939025
 20
6.8589780718
 11
10.9226939025
 21
6.7195876321
  0
LINE
  5
229
100
AcDbEntity
  8
0
100
AcDbLine
 62
7
  6
CONTINUOUS
 10
10.3042508908
 20
10.7798576107
 11
10.5909887326
 21
9.1536865013
  0
LINE
  5
22A
100
AcDbEntity
  8
0
100
AcDbLine
 62
9
  6
CONTINUOUS
 10
10.363339356
 20
10.7798576107
 11
10.6410683383
 21
9.2047782827
  0
LINE
  5
22B
100
AcDbEntity
  8
0
100
AcDbLine
 62
7
  6
CONTINUOUS
 10
11.1719427741
 20
6.8589780718
 11
11.1719427741
 21
6.7195876321
  0
LINE
  5
22C
100
AcDbEntity
  8
0
100
AcDbLine
 62
9
  6
CONTINUOUS
 10
11.7312973206
 20
10.7798576107
 11
11.4535683383
 21
9.2047782827
  0
LINE
  5
22D
100
AcDbEntity
  8
0
100
AcDbLine
 62
7
  6
CONTINUOUS
 10
11.7903857857
 20
10.7798576107
 11
11.5036479439
 21
9.1536865013
  0
LINE
  5
22E
100
AcDbEntity
  8
0
100
AcDbLine
 62
7
  6
CONTINUOUS
 10
11.4535683383
 20
11.3751481653
 11
11.4535683383
 21
7.46040843
  0
LINE
  5
22F
100
AcDbEntity
  8
0
100
AcDbLine
 62
7
  6
CONTINUOUS
 10
11.4998183383
 20
7.2549578692
 11
11.4998183383
 21
7.0271790819
  0
LINE
  5
230
100
AcDbEntity
  8
0
100
AcDbLine
 62
9
  6
CONTINUOUS
 10
11.5263183383
 20
8.8666481653
 11
11.5263183383
 21
9.0184426916
  0
LINE
  5
231
100
AcDbEntity
  8
0
100
AcDbLine
 62
9
  6
CONTINUOUS
 10
11.5673183383
 20
11.0021481653
 11
11.5673183383
 21
10.9921481653
  0
LINE
  5
232
100
AcDbEntity
  8
0
100
AcDbLine
 62
7
  6
CONTINUOUS
 10
11.5863183383
 20
8.8966481653
 11
11.5863183383
 21
9.0235737555
  0
LINE
  5
233
100
AcDbEntity
  8
0
100
AcDbLine
 62
7
  6
CONTINUOUS
 10
11.6973183383
 20
6.3156409678
 11
11.6973183383
 21
6.9305518026
  0
LINE
  5
234
100
AcDbEntity
  8
0
100
AcDbLine
 62
9
  6
CONTINUOUS
 10
11.7312973206
 20
10.8046481653
 11
11.7312973206
 21
10.7798576107
  0
LINE
  5
235
100
AcDbEntity
  8
0
100
AcDbLine
 62
7
  6
CONTINUOUS
 10
11.7473183383
 20
6.3374252456
 11
11.7473183383
 21
6.2073175979
  0
LINE
  5
236
100
AcDbEntity
  8
0
100
AcDbLine
 62
7
  6
CONTINUOUS
 10
11.7473183383
 20
6.3657095168
 11
11.7473183383
 21
6.4993526985
  0
LINE
  5
237
100
AcDbEntity
  8
0
100
AcDbLine
 62
7
  6
CONTINUOUS
 10
11.7973183383
 20
11.0021481653
 11
11.7973183383
 21
10.9921481653
  0
LINE
  5
238
100
AcDbEntity
  8
0
100
AcDbLine
 62
9
  6
CONTINUOUS
 10
11.527726311
 20
9.0483466227
 11
11.5263183381
 21
9.0184426916
  0
LINE
  5
239
100
AcDbEntity
  8
0
100
AcDbLine
 62
9
  6
CONTINUOUS
 10
12.1823183383
 20
11.1326323125
 11
12.186968688
 21
11.1590935504
  0
LINE
  5
23A
100
AcDbEntity
  8
0
100
AcDbLine
 62
9
  6
CONTINUOUS
 10
11.8598183383
 20
10.8046481653
 11
11.8598183383
 21
10.9921481653
  0
LINE
  5
23B
100
AcDbEntity
  8
0
100
AcDbLine
 62
7
  6
CONTINUOUS
 10
11.9198183383
 20
10.8346481653
 11
11.9198183383
 21
10.9921481653
  0
LINE
  5
23C
100
AcDbEntity
  8
0
100
AcDbLine
 62
9
  6
CONTINUOUS
 10
12.1323182825
 20
11.1353027994
 11
12.1323183383
 21
11.3751481653
  0
LINE
  5
23D
100
AcDbEntity
  8
0
100
AcDbLine
 62
9
  6
CONTINUOUS
 10
12.1741367432
 20
11.1337207917
 11
12.1761829787
 21
11.1594118344
  0
LINE
  5
23E
100
AcDbEntity
  8
0
100
AcDbLine
 62
9
  6
CONTINUOUS
 10
12.1823183383
 20
11.0021481653
 11
12.1823183383
 21
11.1326323125
  0
LINE
  5
23F
100
AcDbEntity
  8
0
100
AcDbLine
 62
7
  6
CONTINUOUS
 10
12.1923183383
 20
11.2327707428
 11
12.1923183383
 21
11.3751481653
  0
LINE
  5
240
100
AcDbEntity
  8
0
100
AcDbLine
 62
9
  6
CONTINUOUS
 10
12.2323183383
 20
11.3751481653
 11
12.2323183383
 21
11.7251481653
  0
LINE
  5
241
100
AcDbEntity
  8
0
100
AcDbLine
 62
7
  6
CONTINUOUS
 10
12.2423183383
 20
11.1353027994
 11
12.2423183383
 21
11.133720787
  0
LINE
  5
242
100
AcDbEntity
  8
0
100
AcDbLine
 62
7
  6
CONTINUOUS
 10
12.2423183383
 20
11.0321481653
 11
12.2423183383
 21
11.1326322732
  0
LINE
  5
243
100
AcDbEntity
  8
0
100
AcDbLine
 62
7
  6
CONTINUOUS
 10
12.2723183383
 20
11.4151481653
 11
12.2723183383
 21
11.7251481653
  0
LINE
  5
244
100
AcDbEntity
  8
0
100
AcDbLine
 62
7
  6
CONTINUOUS
 10
12.5073183383
 20
6.164891191
 11
12.5073183383
 21
6.0015495245
  0
LINE
  5
245
100
AcDbEntity
  8
0
100
AcDbLine
 62
7
  6
CONTINUOUS
 10
11.5563183383
 20
8.8666481653
 11
11.4535683383
 21
8.8666481653
  0
LINE
  5
246
100
AcDbEntity
  8
0
100
AcDbLine
 62
7
  6
CONTINUOUS
 10
10.6410683383
 20
8.8666481653
 11
10.5383183383
 21
8.8666481653
  0
LINE
  5
247
100
AcDbEntity
  8
0
100
AcDbLine
 62
9
  6
CONTINUOUS
 10
11.5863183383
 20
8.8966481653
 11
11.4535683383
 21
8.8966481653
  0
LINE
  5
248
100
AcDbEntity
  8
0
100
AcDbLine
 62
9
  6
CONTINUOUS
 10
10.6410683383
 20
8.8966481653
 11
10.5083183383
 21
8.8966481653
  0
LINE
  5
249
100
AcDbEntity
  8
0
100
AcDbLine
 62
9
  6
CONTINUOUS
 10
11.4535683383
 20
9.4751481653
 11
10.6410683383
 21
9.4751481653
  0
LINE
  5
24A
100
AcDbEntity
  8
0
100
AcDbLine
 62
7
  6
CONTINUOUS
 10
14.0023183383
 20
5.9591231177
 11
14.0023183383
 21
5.3378028904
  0
LINE
  5
24B
100
AcDbEntity
  8
0
100
AcDbLine
 62
7
  6
CONTINUOUS
 10
14.2973183383
 20
11.5371481653
 11
14.2973183383
 21
11.7251481653
  0
LINE
  5
24C
100
AcDbEntity
  8
0
100
AcDbLine
 62
9
  6
CONTINUOUS
 10
11.7312973206
 20
10.7798576107
 11
11.4535683383
 21
10.7798576107
  0
LINE
  5
24D
100
AcDbEntity
  8
0
100
AcDbLine
 62
9
  6
CONTINUOUS
 10
10.6410683383
 20
10.7798576107
 11
10.363339356
 21
10.7798576107
  0
LINE
  5
24E
100
AcDbEntity
  8
0
100
AcDbLine
 62
7
  6
CONTINUOUS
 10
11.8898183383
 20
10.8046481653
 11
11.4535683383
 21
10.8046481653
  0
LINE
  5
24F
100
AcDbEntity
  8
0
100
AcDbLine
 62
7
  6
CONTINUOUS
 10
10.6410683383
 20
10.8046481653
 11
10.2048183383
 21
10.8046481653
  0
LINE
  5
250
100
AcDbEntity
  8
0
100
AcDbLine
 62
9
  6
CONTINUOUS
 10
11.9198183383
 20
10.8346481653
 11
11.4535683383
 21
10.8346481653
  0
LINE
  5
251
100
AcDbEntity
  8
0
100
AcDbLine
 62
9
  6
CONTINUOUS
 10
10.6410683383
 20
10.8346481653
 11
10.1748183383
 21
10.8346481653
  0
LINE
  5
252
100
AcDbEntity
  8
0
100
AcDbLine
 62
7
  6
CONTINUOUS
 10
10.1748183383
 20
10.9921481653
 11
10.6410683383
 21
10.9921481653
  0
LINE
  5
253
100
AcDbEntity
  8
0
100
AcDbLine
 62
7
  6
CONTINUOUS
 10
11.4535683383
 20
10.9921481653
 11
11.9198183383
 21
10.9921481653
  0
LINE
  5
254
100
AcDbEntity
  8
0
100
AcDbLine
 62
7
  6
CONTINUOUS
 10
12.2123183383
 20
11.0021481653
 11
11.4535683383
 21
11.0021481653
  0
LINE
  5
255
100
AcDbEntity
  8
0
100
AcDbLine
 62
7
  6
CONTINUOUS
 10
10.6410683383
 20
11.0021481653
 11
9.8823183383
 21
11.0021481653
  0
LINE
  5
256
100
AcDbEntity
  8
0
100
AcDbLine
 62
9
  6
CONTINUOUS
 10
12.2423183383
 20
11.0321481653
 11
11.4535683383
 21
11.0321481653
  0
LINE
  5
257
100
AcDbEntity
  8
0
100
AcDbLine
 62
9
  6
CONTINUOUS
 10
10.6410683383
 20
11.0321481653
 11
9.8523183383
 21
11.0321481653
  0
LINE
  5
258
100
AcDbEntity
  8
0
100
AcDbLine
 62
9
  6
CONTINUOUS
 10
12.1323182825
 20
11.1353027994
 11
11.4535683383
 21
11.1353027994
  0
LINE
  5
259
100
AcDbEntity
  8
0
100
AcDbLine
 62
9
  6
CONTINUOUS
 10
10.6410683383
 20
11.1353027994
 11
9.9623183993
 21
11.1353027994
  0
LINE
  5
25A
100
AcDbEntity
  8
0
100
AcDbLine
 62
9
  6
CONTINUOUS
 10
12.1323183383
 20
11.1596697852
 11
11.4535683383
 21
11.1596697852
  0
LINE
  5
25B
100
AcDbEntity
  8
0
100
AcDbLine
 62
9
  6
CONTINUOUS
 10
10.6410683383
 20
11.1596697852
 11
9.9623182466
 21
11.1596697852
  0
LINE
  5
25C
100
AcDbEntity
  8
0
100
AcDbLine
 62
9
  6
CONTINUOUS
 10
12.1323183383
 20
11.2327707428
 11
11.4535683383
 21
11.2327707428
  0
LINE
  5
25D
100
AcDbEntity
  8
0
100
AcDbLine
 62
9
  6
CONTINUOUS
 10
10.6410683383
 20
11.2327707428
 11
9.9623183383
 21
11.2327707428
  0
LINE
  5
25E
100
AcDbEntity
  8
0
100
AcDbLine
 62
7
  6
CONTINUOUS
 10
12.2323183383
 20
11.3751481653
 11
9.8623183383
 21
11.3751481653
  0
LINE
  5
25F
100
AcDbEntity
  8
0
100
AcDbLine
 62
7
  6
CONTINUOUS
 10
14.1823183383
 20
11.4121481653
 11
12.2723183383
 21
11.4121481653
  0
LINE
  5
260
100
AcDbEntity
  8
0
100
AcDbLine
 62
7
  6
CONTINUOUS
 10
9.8223183383
 20
11.4121481653
 11
7.9123183383
 21
11.4121481653
  0
LINE
  5
261
100
AcDbEntity
  8
0
100
AcDbLine
 62
9
  6
CONTINUOUS
 10
12.2723183383
 20
11.4151481653
 11
9.8223183383
 21
11.4151481653
  0
LINE
  5
262
100
AcDbEntity
  8
0
100
AcDbLine
 62
7
  6
CONTINUOUS
 10
14.2973183383
 20
11.5371481653
 11
12.2723183383
 21
11.5371481653
  0
LINE
  5
263
100
AcDbEntity
  8
0
100
AcDbLine
 62
7
  6
CONTINUOUS
 10
9.8223183383
 20
11.5371481653
 11
7.7973183383
 21
11.5371481653
  0
LINE
  5
264
100
AcDbEntity
  8
0
100
AcDbLine
 62
7
  6
CONTINUOUS
 10
7.7973183383
 20
11.7251481653
 11
14.2973183383
 21
11.7251481653
  0
ARC
  5
265
100
AcDbEntity
  8
0
100
AcDbCircle
 62
9
  6
CONTINUOUS
 10
10.3411092112
 20
5.9734305423
 40
0.7844766162
100
AcDbArc
 50
164.3238916024
 51
165.7594053159
  0
ARC
  5
266
100
AcDbEntity
  8
0
100
AcDbCircle
 62
9
  6
CONTINUOUS
 10
10.3129979267
 20
5.9797305142
 40
0.7556798313
100
AcDbArc
 50
165.6980796249
 51
179.9540676102
  0
ARC
  5
267
100
AcDbEntity
  8
0
100
AcDbCircle
 62
7
  6
CONTINUOUS
 10
10.7554933333
 20
6.5182555119
 40
0.4115118231
100
AcDbArc
 50
203.1592969746
 51
209.4962290833
  0
ARC
  5
268
100
AcDbEntity
  8
0
100
AcDbCircle
 62
9
  6
CONTINUOUS
 10
10.7256443338
 20
6.1742632028
 40
0.4101088378
100
AcDbArc
 50
156.6825900448
 51
158.0589949464
  0
ARC
  5
269
100
AcDbEntity
  8
0
100
AcDbCircle
 62
7
  6
CONTINUOUS
 10
10.7359100365
 20
6.5094968845
 40
0.3900621342
100
AcDbArc
 50
200.1363647094
 51
203.1077506189
  0
ARC
  5
26A
100
AcDbEntity
  8
0
100
AcDbCircle
 62
7
  6
CONTINUOUS
 10
10.7084944881
 20
6.3657993309
 40
0.3611779662
100
AcDbArc
 50
182.6134440673
 51
184.4586902754
  0
ARC
  5
26B
100
AcDbEntity
  8
0
100
AcDbCircle
 62
7
  6
CONTINUOUS
 10
10.7066791649
 20
6.3657180883
 40
0.3593608267
100
AcDbArc
 50
180.0013666213
 51
182.6137017061
  0
ARC
  5
26C
100
AcDbEntity
  8
0
100
AcDbCircle
 62
7
  6
CONTINUOUS
 10
10.7065317022
 20
6.3374190078
 40
0.359213364
100
AcDbArc
 50
177.7359482417
 51
179.9990050483
  0
ARC
  5
26D
100
AcDbEntity
  8
0
100
AcDbCircle
 62
9
  6
CONTINUOUS
 10
10.6967388991
 20
6.3657218696
 40
0.349420561
100
AcDbArc
 50
180.0020255342
 51
182.6929531836
  0
ARC
  5
26E
100
AcDbEntity
  8
0
100
AcDbCircle
 62
7
  6
CONTINUOUS
 10
10.9242869608
 20
7.3663251393
 40
0.3004092636
100
AcDbArc
 50
224.9634223563
 51
225.428474798
  0
ARC
  5
26F
100
AcDbEntity
  8
0
100
AcDbCircle
 62
7
  6
CONTINUOUS
 10
10.9173065577
 20
7.3755714586
 40
0.2906830491
100
AcDbArc
 50
222.6681597034
 51
224.3745642326
  0
ARC
  5
270
100
AcDbEntity
  8
0
100
AcDbCircle
 62
7
  6
CONTINUOUS
 10
10.8777743339
 20
7.2316024618
 40
0.2881260479
100
AcDbArc
 50
144.8260217886
 51
148.374651873
  0
ARC
  5
271
100
AcDbEntity
  8
0
100
AcDbCircle
 62
7
  6
CONTINUOUS
 10
10.9123249964
 20
7.3547624232
 40
0.2837747557
100
AcDbArc
 50
220.127295881
 51
225.0182785051
  0
ARC
  5
272
100
AcDbEntity
  8
0
100
AcDbCircle
 62
7
  6
CONTINUOUS
 10
10.8674046368
 20
7.2379361859
 40
0.2759751374
100
AcDbArc
 50
148.3654448198
 51
151.5629759038
  0
ARC
  5
273
100
AcDbEntity
  8
0
100
AcDbCircle
 62
7
  6
CONTINUOUS
 10
10.8941242847
 20
7.2900123662
 40
0.2601694702
100
AcDbArc
 50
216.3626803491
 51
217.7766469381
  0
ARC
  5
274
100
AcDbEntity
  8
0
100
AcDbCircle
 62
7
  6
CONTINUOUS
 10
10.8924264027
 20
7.3031298173
 40
0.2580250525
100
AcDbArc
 50
213.5494140198
 51
220.1995957085
  0
ARC
  5
275
100
AcDbEntity
  8
0
100
AcDbCircle
 62
7
  6
CONTINUOUS
 10
10.8895042852
 20
7.4779325039
 40
0.2521033778
100
AcDbArc
 50
210.3111924486
 51
211.9988744526
  0
ARC
  5
276
100
AcDbEntity
  8
0
100
AcDbCircle
 62
7
  6
CONTINUOUS
 10
10.8818757426
 20
7.2813307553
 40
0.2451588328
100
AcDbArc
 50
210.2473732144
 51
216.4260070954
  0
ARC
  5
277
100
AcDbEntity
  8
0
100
AcDbCircle
 62
7
  6
CONTINUOUS
 10
10.8810395749
 20
7.4730218139
 40
0.2423174142
100
AcDbArc
 50
205.1469412494
 51
210.3189300046
  0
ARC
  5
278
100
AcDbEntity
  8
0
100
AcDbCircle
 62
7
  6
CONTINUOUS
 10
10.8701307286
 20
7.4677579979
 40
0.230205722
100
AcDbArc
 50
201.2690878304
 51
205.1147602295
  0
ARC
  5
279
100
AcDbEntity
  8
0
100
AcDbCircle
 62
7
  6
CONTINUOUS
 10
10.8611113578
 20
7.4191059761
 40
0.2214298538
100
AcDbArc
 50
202.812669073
 51
206.157310305
  0
ARC
  5
27A
100
AcDbEntity
  8
0
100
AcDbCircle
 62
7
  6
CONTINUOUS
 10
10.8603822289
 20
7.3689792579
 40
0.2206268482
100
AcDbArc
 50
203.1288701164
 51
206.2833595799
  0
ARC
  5
27B
100
AcDbEntity
  8
0
100
AcDbCircle
 62
7
  6
CONTINUOUS
 10
10.8607349286
 20
7.4640713
 40
0.2201125549
100
AcDbArc
 50
195.6652003657
 51
201.261988439
  0
ARC
  5
27C
100
AcDbEntity
  8
0
100
AcDbCircle
 62
7
  6
CONTINUOUS
 10
10.8572347105
 20
7.3676165729
 40
0.217197053
100
AcDbArc
 50
202.8488336148
 51
203.1244355982
  0
ARC
  5
27D
100
AcDbEntity
  8
0
100
AcDbCircle
 62
7
  6
CONTINUOUS
 10
10.8563556864
 20
7.4170423217
 40
0.2162460721
100
AcDbArc
 50
202.3960004775
 51
202.7972051621
  0
ARC
  5
27E
100
AcDbEntity
  8
0
100
AcDbCircle
 62
7
  6
CONTINUOUS
 10
10.8539513425
 20
7.4620355929
 40
0.2130313047
100
AcDbArc
 50
193.7160140574
 51
195.6306617432
  0
ARC
  5
27F
100
AcDbEntity
  8
0
100
AcDbCircle
 62
7
  6
CONTINUOUS
 10
10.8516043972
 20
7.4151282412
 40
0.2111238882
100
AcDbArc
 50
197.2617206715
 51
202.4070085129
  0
ARC
  5
280
100
AcDbEntity
  8
0
100
AcDbCircle
 62
7
  6
CONTINUOUS
 10
10.8508450011
 20
7.4612875788
 40
0.2098361861
100
AcDbArc
 50
188.5711267841
 51
193.718706524
  0
ARC
  5
281
100
AcDbEntity
  8
0
100
AcDbCircle
 62
7
  6
CONTINUOUS
 10
10.8493100451
 20
7.364492273
 40
0.2086811407
100
AcDbArc
 50
196.1592971571
 51
202.9032002563
  0
ARC
  5
282
100
AcDbEntity
  8
0
100
AcDbCircle
 62
7
  6
CONTINUOUS
 10
10.845765318
 20
7.4605076849
 40
0.2046970023
100
AcDbArc
 50
180.0277819647
 51
188.5671737575
  0
ARC
  5
283
100
AcDbEntity
  8
0
100
AcDbCircle
 62
7
  6
CONTINUOUS
 10
10.8443884306
 20
7.4127713777
 40
0.203533595
100
AcDbArc
 50
194.4762721851
 51
197.2309057399
  0
ARC
  5
284
100
AcDbEntity
  8
0
100
AcDbCircle
 62
7
  6
CONTINUOUS
 10
10.8432401337
 20
7.3626734852
 40
0.202344865
100
AcDbArc
 50
194.4762571828
 51
196.1429814065
  0
ARC
  5
285
100
AcDbEntity
  8
0
100
AcDbCircle
 62
7
  6
CONTINUOUS
 10
10.8402489059
 20
7.4117014557
 40
0.199258037
100
AcDbArc
 50
189.4861018918
 51
194.4759389471
  0
ARC
  5
286
100
AcDbEntity
  8
0
100
AcDbCircle
 62
7
  6
CONTINUOUS
 10
10.8400888958
 20
7.3121856779
 40
0.1991012307
100
AcDbArc
 50
191.76204511
 51
194.0816568495
  0
ARC
  5
287
100
AcDbEntity
  8
0
100
AcDbCircle
 62
7
  6
CONTINUOUS
 10
10.8395603855
 20
7.3617659623
 40
0.1985550868
100
AcDbArc
 50
189.9106395712
 51
194.4881312176
  0
ARC
  5
288
100
AcDbEntity
  8
0
100
AcDbCircle
 62
7
  6
CONTINUOUS
 10
10.8383375705
 20
7.3118178816
 40
0.1973117042
100
AcDbArc
 50
190.4270151371
 51
191.7611536008
  0
ARC
  5
289
100
AcDbEntity
  8
0
100
AcDbCircle
 62
7
  6
CONTINUOUS
 10
10.8347788256
 20
7.4107771375
 40
0.1937104216
100
AcDbArc
 50
180.0262137751
 51
189.4830956687
  0
ARC
  5
28A
100
AcDbEntity
  8
0
100
AcDbCircle
 62
7
  6
CONTINUOUS
 10
10.8345199302
 20
7.3112283339
 40
0.1934504414
100
AcDbArc
 50
180.0136096539
 51
190.4599251126
  0
ARC
  5
28B
100
AcDbEntity
  8
0
100
AcDbCircle
 62
7
  6
CONTINUOUS
 10
10.8341456962
 20
7.3609300591
 40
0.1930773602
100
AcDbArc
 50
180.0089800848
 51
189.9428381298
  0
ARC
  5
28C
100
AcDbEntity
  8
0
100
AcDbCircle
 62
7
  6
CONTINUOUS
 10
10.8334563953
 20
7.2757973771
 40
0.1923867271
100
AcDbArc
 50
180.0085676336
 51
184.2423444704
  0
ARC
  5
28D
100
AcDbEntity
  8
0
100
AcDbCircle
 62
7
  6
CONTINUOUS
 10
10.8331620675
 20
7.3782770299
 40
0.1920937303
100
AcDbArc
 50
174.9745310161
 51
185.1189893454
  0
ARC
  5
28E
100
AcDbEntity
  8
0
100
AcDbCircle
 62
7
  6
CONTINUOUS
 10
10.8330708496
 20
7.3270853053
 40
0.192002512
100
AcDbArc
 50
174.922397717
 51
184.6744397362
  0
ARC
  5
28F
100
AcDbEntity
  8
0
100
AcDbCircle
 62
7
  6
CONTINUOUS
 10
10.833031575
 20
7.2757831522
 40
0.1919619052
100
AcDbArc
 50
174.1159852125
 51
180.0043408032
  0
ARC
  5
290
100
AcDbEntity
  8
0
100
AcDbCircle
 62
7
  6
CONTINUOUS
 10
10.8324803934
 20
7.42957908
 40
0.1914120662
100
AcDbArc
 50
175.4175028037
 51
179.9061691875
  0
ARC
  5
291
100
AcDbEntity
  8
0
100
AcDbCircle
 62
7
  6
CONTINUOUS
 10
11.0361888788
 20
7.5578656011
 40
0.5713477799
100
AcDbArc
 50
271.1161527409
 51
271.2460456482
  0
ARC
  5
292
100
AcDbEntity
  8
0
100
AcDbCircle
 62
7
  6
CONTINUOUS
 10
11.0361871262
 20
7.5661646766
 40
0.5342172185
100
AcDbArc
 50
271.0126974843
 51
271.235431714
  0
ARC
  5
293
100
AcDbEntity
  8
0
100
AcDbCircle
 62
7
  6
CONTINUOUS
 10
11.0079073134
 20
7.4548487022
 40
0.4187948761
100
AcDbArc
 50
246.7643050241
 51
246.9071004999
  0
ARC
  5
294
100
AcDbEntity
  8
0
100
AcDbCircle
 62
9
  6
CONTINUOUS
 10
11.0426763319
 20
7.9813293539
 40
4.1115272784
100
AcDbArc
 50
263.7898741967
 51
264.2058482697
  0
ARC
  5
295
100
AcDbEntity
  8
0
100
AcDbCircle
 62
9
  6
CONTINUOUS
 10
11.0410448192
 20
7.9665062202
 40
4.09661464
100
AcDbArc
 50
262.5902697667
 51
263.790132179
  0
ARC
  5
296
100
AcDbEntity
  8
0
100
AcDbCircle
 62
9
  6
CONTINUOUS
 10
11.0080252464
 20
7.7766564761
 40
3.8614129149
100
AcDbArc
 50
257.1955658008
 51
257.5940632091
  0
ARC
  5
297
100
AcDbEntity
  8
0
100
AcDbCircle
 62
9
  6
CONTINUOUS
 10
11.0029674895
 20
7.7544131761
 40
3.8386018366
100
AcDbArc
 50
256.4676282758
 51
257.1956006284
  0
ARC
  5
298
100
AcDbEntity
  8
0
100
AcDbCircle
 62
9
  6
CONTINUOUS
 10
10.9964633045
 20
7.7272035249
 40
3.8106256386
100
AcDbArc
 50
255.9933080237
 51
256.4669772331
  0
ARC
  5
299
100
AcDbEntity
  8
0
100
AcDbCircle
 62
7
  6
CONTINUOUS
 10
11.0361348543
 20
7.6078264209
 40
0.5715009655
100
AcDbArc
 50
271.1212707812
 51
271.2651266972
  0
ARC
  5
29A
100
AcDbEntity
  8
0
100
AcDbCircle
 62
7
  6
CONTINUOUS
 10
11.0362112048
 20
7.61838182
 40
0.5374156943
100
AcDbArc
 50
269.7929585322
 51
271.2155338843
  0
ARC
  5
29B
100
AcDbEntity
  8
0
100
AcDbCircle
 62
7
  6
CONTINUOUS
 10
7.7868835557
 20
11.4121481653
 40
0.1254347826
100
AcDbArc
 50
0.0
 51
85.2281119392
  0
ARC
  5
29C
100
AcDbEntity
  8
0
100
AcDbCircle
 62
9
  6
CONTINUOUS
 10
9.8124088201
 20
11.2326223185
 40
0.0934208644
100
AcDbArc
 50
359.9213685751
 51
2.3696776466
  0
ARC
  5
29D
100
AcDbEntity
  8
0
100
AcDbCircle
 62
9
  6
CONTINUOUS
 10
9.8129802643
 20
11.2326028808
 40
0.0928493959
100
AcDbArc
 50
348.1277468967
 51
359.9328792759
  0
ARC
  5
29E
100
AcDbEntity
  8
0
100
AcDbCircle
 62
7
  6
CONTINUOUS
 10
9.8123183383
 20
11.2327707428
 40
0.09
100
AcDbArc
 50
305.6853347127
 51
360.0
  0
ARC
  5
29F
100
AcDbEntity
  8
0
100
AcDbCircle
 62
7
  6
CONTINUOUS
 10
10.5023561565
 20
9.1380581653
 40
0.0899999282
100
AcDbArc
 50
287.4388003746
 51
10.0000134435
  0
ARC
  5
2A0
100
AcDbEntity
  8
0
100
AcDbCircle
 62
7
  6
CONTINUOUS
 10
9.8623183383
 20
11.4151481653
 40
0.04
100
AcDbArc
 50
180.0
 51
270.0
  0
ARC
  5
2A1
100
AcDbEntity
  8
0
100
AcDbCircle
 62
7
  6
CONTINUOUS
 10
9.8823183383
 20
11.1353027994
 40
0.03
100
AcDbArc
 50
125.6853347126
 51
179.9999999999
  0
ARC
  5
2A2
100
AcDbEntity
  8
0
100
AcDbCircle
 62
7
  6
CONTINUOUS
 10
9.8823183383
 20
11.0321481653
 40
0.03
100
AcDbArc
 50
180.0
 51
270.0
  0
ARC
  5
2A3
100
AcDbEntity
  8
0
100
AcDbCircle
 62
7
  6
CONTINUOUS
 10
10.2048183383
 20
10.8346481653
 40
0.03
100
AcDbArc
 50
180.0
 51
270.0
  0
ARC
  5
2A4
100
AcDbEntity
  8
0
100
AcDbCircle
 62
7
  6
CONTINUOUS
 10
10.2747066582
 20
10.7746481653
 40
0.03
100
AcDbArc
 50
10.0
 51
90.0
  0
ARC
  5
2A5
100
AcDbEntity
  8
0
100
AcDbCircle
 62
7
  6
CONTINUOUS
 10
10.5383183383
 20
9.023573613
 40
0.03
100
AcDbArc
 50
107.438717732
 51
179.9999448807
  0
ARC
  5
2A6
100
AcDbEntity
  8
0
100
AcDbCircle
 62
7
  6
CONTINUOUS
 10
10.5383183383
 20
8.8966481653
 40
0.03
100
AcDbArc
 50
180.0
 51
270.0
  0
ARC
  5
2A7
100
AcDbEntity
  8
0
100
AcDbCircle
 62
9
  6
CONTINUOUS
 10
10.5382980935
 20
9.0184264534
 40
0.0299807664
100
AcDbArc
 50
93.6754240018
 51
179.9690432017
  0
ARC
  5
2A8
100
AcDbEntity
  8
0
100
AcDbCircle
 62
9
  6
CONTINUOUS
 10
9.8822086504
 20
11.1336999062
 40
0.0298908052
100
AcDbArc
 50
120.6652595599
 51
179.9599652907
  0
ARC
  5
2A9
100
AcDbEntity
  8
0
100
AcDbCircle
 62
9
  6
CONTINUOUS
 10
9.8816013119
 20
11.132603556
 40
0.0292829877
100
AcDbArc
 50
158.5455001945
 51
179.9437343944
  0
ARC
  5
2AA
100
AcDbEntity
  8
0
100
AcDbCircle
 62
7
  6
CONTINUOUS
 10
11.3433816072
 20
6.5161582755
 40
0.4067903641
100
AcDbArc
 50
330.4669575613
 51
336.8775163808
  0
ARC
  5
2AB
100
AcDbEntity
  8
0
100
AcDbCircle
 62
7
  6
CONTINUOUS
 10
11.3606109915
 20
6.5087499777
 40
0.3880358387
100
AcDbArc
 50
336.8844894452
 51
339.8713952265
  0
ARC
  5
2AC
100
AcDbEntity
  8
0
100
AcDbCircle
 62
7
  6
CONTINUOUS
 10
11.3861426634
 20
6.3657992688
 40
0.3611774902
100
AcDbArc
 50
355.541367968
 51
357.386360381
  0
ARC
  5
2AD
100
AcDbEntity
  8
0
100
AcDbCircle
 62
7
  6
CONTINUOUS
 10
11.3879565572
 20
6.3657180819
 40
0.3593617811
100
AcDbArc
 50
357.3861032785
 51
359.9986344036
  0
ARC
  5
2AE
100
AcDbEntity
  8
0
100
AcDbCircle
 62
7
  6
CONTINUOUS
 10
11.3881039724
 20
6.3374190138
 40
0.359214366
100
AcDbArc
 50
0.0009939842
 51
2.2640557441
  0
ARC
  5
2AF
100
AcDbEntity
  8
0
100
AcDbCircle
 62
9
  6
CONTINUOUS
 10
11.3978977775
 20
6.3657218696
 40
0.349420561
100
AcDbArc
 50
357.3070468164
 51
359.9979744658
  0
ARC
  5
2B0
100
AcDbEntity
  8
0
100
AcDbCircle
 62
7
  6
CONTINUOUS
 10
11.0764871408
 20
7.4361231407
 40
0.4424652073
100
AcDbArc
 50
296.3710036072
 51
299.3706903118
  0
ARC
  5
2B1
100
AcDbEntity
  8
0
100
AcDbCircle
 62
7
  6
CONTINUOUS
 10
11.0828328833
 20
7.5389454528
 40
0.399756052
100
AcDbArc
 50
299.359393405
 51
301.8599909895
  0
ARC
  5
2B2
100
AcDbEntity
  8
0
100
AcDbCircle
 62
9
  6
CONTINUOUS
 10
11.0473321706
 20
8.0374502866
 40
4.1678319744
100
AcDbArc
 50
264.2200576266
 51
275.7795639963
  0
ARC
  5
2B3
100
AcDbEntity
  8
0
100
AcDbCircle
 62
9
  6
CONTINUOUS
 10
11.0519603446
 20
7.981329354
 40
4.1115272785
100
AcDbArc
 50
275.7941517303
 51
276.2101258033
  0
ARC
  5
2B4
100
AcDbEntity
  8
0
100
AcDbCircle
 62
9
  6
CONTINUOUS
 10
11.0541492053
 20
7.9618389494
 40
4.0919144667
100
AcDbArc
 50
276.2091786854
 51
277.4104193689
  0
ARC
  5
2B5
100
AcDbEntity
  8
0
100
AcDbCircle
 62
9
  6
CONTINUOUS
 10
11.0872126437
 20
7.7739679445
 40
3.8586579979
100
AcDbArc
 50
282.4057945346
 51
282.8045764548
  0
ARC
  5
2B6
100
AcDbEntity
  8
0
100
AcDbCircle
 62
9
  6
CONTINUOUS
 10
11.0928842238
 20
7.7492199532
 40
3.8332684766
100
AcDbArc
 50
282.8038929381
 51
283.5328781577
  0
ARC
  5
2B7
100
AcDbEntity
  8
0
100
AcDbCircle
 62
9
  6
CONTINUOUS
 10
11.0990464914
 20
7.7236407293
 40
3.8069574484
100
AcDbArc
 50
283.5327945638
 51
284.0069201791
  0
ARC
  5
2B8
100
AcDbEntity
  8
0
100
AcDbCircle
 62
7
  6
CONTINUOUS
 10
11.2150629672
 20
7.2303818857
 40
0.2902996186
100
AcDbArc
 50
32.9658227271
 51
34.6654510014
  0
ARC
  5
2B9
100
AcDbEntity
  8
0
100
AcDbCircle
 62
7
  6
CONTINUOUS
 10
11.2281188409
 20
7.2385250076
 40
0.2749149492
100
AcDbArc
 50
26.9144135825
 51
33.0225453374
  0
ARC
  5
2BA
100
AcDbEntity
  8
0
100
AcDbCircle
 62
7
  6
CONTINUOUS
 10
11.1998108272
 20
7.4811548828
 40
0.2583240526
100
AcDbArc
 50
323.540350451
 51
329.5549776795
  0
ARC
  5
2BB
100
AcDbEntity
  8
0
100
AcDbCircle
 62
7
  6
CONTINUOUS
 10
11.2008721924
 20
7.398818974
 40
0.2550975952
100
AcDbArc
 50
328.7807450741
 51
335.9564593651
  0
ARC
  5
2BC
100
AcDbEntity
  8
0
100
AcDbCircle
 62
7
  6
CONTINUOUS
 10
11.2034772427
 20
7.4382507024
 40
0.2452125887
100
AcDbArc
 50
330.8677439538
 51
333.0595732791
  0
ARC
  5
2BD
100
AcDbEntity
  8
0
100
AcDbCircle
 62
7
  6
CONTINUOUS
 10
11.2128887085
 20
7.473440633
 40
0.2431405081
100
AcDbArc
 50
329.5606015371
 51
332.9658793761
  0
ARC
  5
2BE
100
AcDbEntity
  8
0
100
AcDbCircle
 62
7
  6
CONTINUOUS
 10
11.2140895873
 20
7.3926164123
 40
0.2405000408
100
AcDbArc
 50
336.022982066
 51
339.3473832326
  0
ARC
  5
2BF
100
AcDbEntity
  8
0
100
AcDbCircle
 62
7
  6
CONTINUOUS
 10
11.2222903332
 20
7.3398329318
 40
0.2317273524
100
AcDbArc
 50
338.9837605525
 51
344.6637482525
  0
ARC
  5
2C0
100
AcDbEntity
  8
0
100
AcDbCircle
 62
7
  6
CONTINUOUS
 10
11.222655559
 20
7.3893747838
 40
0.2313412267
100
AcDbArc
 50
339.3503752732
 51
344.6658393841
  0
ARC
  5
2C1
100
AcDbEntity
  8
0
100
AcDbCircle
 62
7
  6
CONTINUOUS
 10
11.2264596076
 20
7.4668364483
 40
0.2280508577
100
AcDbArc
 50
332.8941062835
 51
340.6525588654
  0
ARC
  5
2C2
100
AcDbEntity
  8
0
100
AcDbCircle
 62
7
  6
CONTINUOUS
 10
11.2270677307
 20
7.3548291232
 40
0.2267218378
100
AcDbArc
 50
343.4615373768
 51
344.7067347371
  0
ARC
  5
2C3
100
AcDbEntity
  8
0
100
AcDbCircle
 62
7
  6
CONTINUOUS
 10
11.2295979696
 20
7.3873501625
 40
0.2241105895
100
AcDbArc
 50
344.6956587306
 51
346.990043371
  0
ARC
  5
2C4
100
AcDbEntity
  8
0
100
AcDbCircle
 62
7
  6
CONTINUOUS
 10
11.229646698
 20
7.3376757092
 40
0.224062437
100
AcDbArc
 50
344.6982104978
 51
346.9545903515
  0
ARC
  5
2C5
100
AcDbEntity
  8
0
100
AcDbCircle
 62
7
  6
CONTINUOUS
 10
11.2244762556
 20
7.4292098096
 40
0.2223228212
100
AcDbArc
 50
341.730949553
 51
342.0582529637
  0
ARC
  5
2C6
100
AcDbEntity
  8
0
100
AcDbCircle
 62
7
  6
CONTINUOUS
 10
11.2326611815
 20
7.4046189512
 40
0.2209420223
100
AcDbArc
 50
343.071333976
 51
355.1806484968
  0
ARC
  5
2C7
100
AcDbEntity
  8
0
100
AcDbCircle
 62
7
  6
CONTINUOUS
 10
11.2327265817
 20
7.3369604506
 40
0.2209005901
100
AcDbArc
 50
346.955004723
 51
350.8439503031
  0
ARC
  5
2C8
100
AcDbEntity
  8
0
100
AcDbCircle
 62
7
  6
CONTINUOUS
 10
11.2328507237
 20
7.3865988689
 40
0.2207721991
100
AcDbArc
 50
346.98997782
 51
351.2785240011
  0
ARC
  5
2C9
100
AcDbEntity
  8
0
100
AcDbCircle
 62
7
  6
CONTINUOUS
 10
11.2336432681
 20
7.3532001491
 40
0.2199495533
100
AcDbArc
 50
344.664255292
 51
355.6086222853
  0
ARC
  5
2CA
100
AcDbEntity
  8
0
100
AcDbCircle
 62
7
  6
CONTINUOUS
 10
11.2279625496
 20
7.4281203781
 40
0.2186704688
100
AcDbArc
 50
342.0484273025
 51
345.1378710103
  0
ARC
  5
2CB
100
AcDbEntity
  8
0
100
AcDbCircle
 62
7
  6
CONTINUOUS
 10
11.2370390328
 20
7.4630760346
 40
0.2168230801
100
AcDbArc
 50
340.663956834
 51
344.2153618305
  0
ARC
  5
2CC
100
AcDbEntity
  8
0
100
AcDbCircle
 62
7
  6
CONTINUOUS
 10
11.2373968245
 20
7.3362168914
 40
0.2161715348
100
AcDbArc
 50
350.8415483854
 51
359.9747646335
  0
ARC
  5
2CD
100
AcDbEntity
  8
0
100
AcDbCircle
 62
7
  6
CONTINUOUS
 10
11.2374928945
 20
7.3858849997
 40
0.2160754602
100
AcDbArc
 50
351.2789790953
 51
359.9776725209
  0
ARC
  5
2CE
100
AcDbEntity
  8
0
100
AcDbCircle
 62
7
  6
CONTINUOUS
 10
11.2375229752
 20
7.4038801734
 40
0.2160453718
100
AcDbArc
 50
0.0162616428
 51
7.6645442138
  0
ARC
  5
2CF
100
AcDbEntity
  8
0
100
AcDbCircle
 62
7
  6
CONTINUOUS
 10
11.2384079665
 20
7.4039613097
 40
0.2151603727
100
AcDbArc
 50
355.2265850958
 51
359.9947224662
  0
ARC
  5
2D0
100
AcDbEntity
  8
0
100
AcDbCircle
 62
7
  6
CONTINUOUS
 10
11.2385420915
 20
7.3526920549
 40
0.2150262473
100
AcDbArc
 50
355.6436629252
 51
4.4407517798
  0
ARC
  5
2D1
100
AcDbEntity
  8
0
100
AcDbCircle
 62
7
  6
CONTINUOUS
 10
11.2386260323
 20
7.3013489976
 40
0.2149423062
100
AcDbArc
 50
356.0487962082
 51
4.6609711843
  0
ARC
  5
2D2
100
AcDbEntity
  8
0
100
AcDbCircle
 62
7
  6
CONTINUOUS
 10
11.2322919465
 20
7.4269781265
 40
0.2141929278
100
AcDbArc
 50
345.1361521626
 51
347.4263498455
  0
ARC
  5
2D3
100
AcDbEntity
  8
0
100
AcDbCircle
 62
7
  6
CONTINUOUS
 10
11.2397805533
 20
7.462283678
 40
0.2139694016
100
AcDbArc
 50
344.2198398415
 51
344.475584281
  0
ARC
  5
2D4
100
AcDbEntity
  8
0
100
AcDbCircle
 62
7
  6
CONTINUOUS
 10
11.2345866
 20
7.4264643378
 40
0.2118414581
100
AcDbArc
 50
347.4268727338
 51
349.1951843782
  0
ARC
  5
2D5
100
AcDbEntity
  8
0
100
AcDbCircle
 62
7
  6
CONTINUOUS
 10
11.2368012064
 20
7.4260527352
 40
0.209588953
100
AcDbArc
 50
349.1922174125
 51
352.1465971194
  0
ARC
  5
2D6
100
AcDbEntity
  8
0
100
AcDbCircle
 62
7
  6
CONTINUOUS
 10
11.2383658491
 20
7.4258356559
 40
0.2080093237
100
AcDbArc
 50
352.1469420143
 51
354.1773336601
  0
ARC
  5
2D7
100
AcDbEntity
  8
0
100
AcDbCircle
 62
9
  6
CONTINUOUS
 10
11.7548123831
 20
5.9737738387
 40
0.7831467336
100
AcDbArc
 50
14.2393754809
 51
15.6775822207
  0
ARC
  5
2D8
100
AcDbEntity
  8
0
100
AcDbCircle
 62
9
  6
CONTINUOUS
 10
11.7816387492
 20
5.9797305142
 40
0.7556798319
100
AcDbArc
 50
0.0459323951
 51
14.3019203988
  0
ARC
  5
2D9
100
AcDbEntity
  8
0
100
AcDbCircle
 62
7
  6
CONTINUOUS
 10
14.3077531209
 20
11.4121481653
 40
0.1254347826
100
AcDbArc
 50
94.7718880608
 51
180.0
  0
ARC
  5
2DA
100
AcDbEntity
  8
0
100
AcDbCircle
 62
9
  6
CONTINUOUS
 10
12.28222893
 20
11.2326226789
 40
0.0934219221
100
AcDbArc
 50
177.6305704286
 51
180.0788585174
  0
ARC
  5
2DB
100
AcDbEntity
  8
0
100
AcDbCircle
 62
9
  6
CONTINUOUS
 10
12.2816570691
 20
11.2326032322
 40
0.0928500368
100
AcDbArc
 50
180.0673441002
 51
191.8724469302
  0
ARC
  5
2DC
100
AcDbEntity
  8
0
100
AcDbCircle
 62
7
  6
CONTINUOUS
 10
12.2823183383
 20
11.2327707428
 40
0.09
100
AcDbArc
 50
179.9999999999
 51
234.314665288
  0
ARC
  5
2DD
100
AcDbEntity
  8
0
100
AcDbCircle
 62
7
  6
CONTINUOUS
 10
11.5922798758
 20
9.1380581653
 40
0.0899995474
100
AcDbArc
 50
169.9999153285
 51
252.5616569302
  0
ARC
  5
2DE
100
AcDbEntity
  8
0
100
AcDbCircle
 62
7
  6
CONTINUOUS
 10
12.2323183383
 20
11.4151481653
 40
0.04
100
AcDbArc
 50
270.0
 51
360.0
  0
ARC
  5
2DF
100
AcDbEntity
  8
0
100
AcDbCircle
 62
7
  6
CONTINUOUS
 10
12.2123183383
 20
11.1353027994
 40
0.03
100
AcDbArc
 50
0.0000000001
 51
54.3146652874
  0
ARC
  5
2E0
100
AcDbEntity
  8
0
100
AcDbCircle
 62
7
  6
CONTINUOUS
 10
12.2123183383
 20
11.0321481653
 40
0.03
100
AcDbArc
 50
270.0
 51
360.0
  0
ARC
  5
2E1
100
AcDbEntity
  8
0
100
AcDbCircle
 62
7
  6
CONTINUOUS
 10
11.8898183383
 20
10.8346481653
 40
0.03
100
AcDbArc
 50
270.0
 51
360.0
  0
ARC
  5
2E2
100
AcDbEntity
  8
0
100
AcDbCircle
 62
7
  6
CONTINUOUS
 10
11.8199300183
 20
10.7746481653
 40
0.03
100
AcDbArc
 50
89.9999999992
 51
169.9999999999
  0
ARC
  5
2E3
100
AcDbEntity
  8
0
100
AcDbCircle
 62
7
  6
CONTINUOUS
 10
11.5563183383
 20
8.8966481653
 40
0.03
100
AcDbArc
 50
270.0
 51
360.0
  0
ARC
  5
2E4
100
AcDbEntity
  8
0
100
AcDbCircle
 62
7
  6
CONTINUOUS
 10
11.5563183383
 20
9.023573613
 40
0.03
100
AcDbArc
 50
0.0006402738
 51
72.56147984
  0
ARC
  5
2E5
100
AcDbEntity
  8
0
100
AcDbCircle
 62
9
  6
CONTINUOUS
 10
11.5563386326
 20
9.018427637
 40
0.0299807322
100
AcDbArc
 50
0.031065865
 51
86.3279998158
  0
ARC
  5
2E6
100
AcDbEntity
  8
0
100
AcDbCircle
 62
9
  6
CONTINUOUS
 10
12.2124280479
 20
11.1336998413
 40
0.0298907865
100
AcDbArc
 50
0.0401501354
 51
59.3363462075
  0
ARC
  5
2E7
100
AcDbEntity
  8
0
100
AcDbCircle
 62
9
  6
CONTINUOUS
 10
12.2130353062
 20
11.1326035162
 40
0.0292830462
100
AcDbArc
 50
0.0562665754
 51
21.4543959656
  0
SPLINE
  5
2E8
100
AcDbEntity
  8
0
100
AcDbSpline
 62
7
  6
CONTINUOUS
 70
0
 71
3
 72
11
 73
7
 74
0
 42
0.0000001
 43
0.0000001
 44
0.0000000001
 40
0.0
 40
0.0
 40
0.0
 40
0.0
 40
0.2443044887
 40
0.4909749057
 40
0.7422235372
 40
1.0
 40
1.0
 40
1.0
 40
1.0
 10
10.6410696081
 20
7.2614531791
 30
0.0
 10
10.6410697375
 20
7.252593132
 30
0.0
 10
10.6423060105
 20
7.2347630027
 30
0.0
 10
10.6478561598
 20
7.2083423329
 30
0.0
 10
10.6570288802
 20
7.1824358376
 30
0.0
 10
10.6653870238
 20
7.1659135071
 30
0.0
 10
10.6700931764
 20
7.1578358244
 30
0.0
  0
SPLINE
  5
2E9
100
AcDbEntity
  8
0
100
AcDbSpline
 62
7
  6
CONTINUOUS
 70
0
 71
3
 72
9
 73
5
 74
0
 42
0.0000001
 43
0.0000001
 44
0.0000000001
 40
0.0
 40
0.0
 40
0.0
 40
0.0
 40
0.4874164999
 40
1.0
 40
1.0
 40
1.0
 40
1.0
 10
10.688485097
 20
7.1306364656
 30
0.0
 10
10.6971755126
 20
7.119421709
 30
0.0
 10
10.716879012
 20
7.0978251763
 30
0.0
 10
10.7394300788
 20
7.0792672546
 30
0.0
 10
10.7515229334
 20
7.0705276536
 30
0.0
  0
SPLINE
  5
2EA
100
AcDbEntity
  8
0
100
AcDbSpline
 62
7
  6
CONTINUOUS
 70
0
 71
3
 72
13
 73
9
 74
0
 42
0.0000001
 43
0.0000001
 44
0.0000000001
 40
0.0
 40
0.0
 40
0.0
 40
0.0
 40
0.2319347038
 40
0.3536828601
 40
0.4786892036
 40
0.7361809131
 40
0.8677077691
 40
1.0
 40
1.0
 40
1.0
 40
1.0
 10
10.7515229334
 20
7.0705276536
 30
0.0
 10
10.7711008587
 20
7.0563785333
 30
0.0
 10
10.8032236485
 20
7.0378003478
 30
0.0
 10
10.8492258373
 20
7.0184998659
 30
0.0
 10
10.8991986235
 20
7.0021850642
 30
0.0
 10
10.9519285975
 20
6.9916204048
 30
0.0
 10
11.006039861
 20
6.9868134859
 30
0.0
 10
11.0335429474
 20
6.9863578442
 30
0.0
 10
11.0473183383
 20
6.9866262286
 30
0.0
  0
SPLINE
  5
2EB
100
AcDbEntity
  8
0
100
AcDbSpline
 62
7
  6
CONTINUOUS
 70
0
 71
3
 72
11
 73
7
 74
0
 42
0.0000001
 43
0.0000001
 44
0.0000000001
 40
0.0
 40
0.0
 40
0.0
 40
0.0
 40
0.2405987604
 40
0.4866392146
 40
0.739519607
 40
1.0
 40
1.0
 40
1.0
 40
1.0
 10
10.6469706654
 20
7.2637434532
 30
0.0
 10
10.6490125034
 20
7.2556008029
 30
0.0
 10
10.654181518
 20
7.2393747982
 30
0.0
 10
10.6649228872
 20
7.2158519831
 30
0.0
 10
10.6786328543
 20
7.1931166125
 30
0.0
 10
10.6894933751
 20
7.178825575
 30
0.0
 10
10.6953467171
 20
7.1718730077
 30
0.0
  0
SPLINE
  5
2EC
100
AcDbEntity
  8
0
100
AcDbSpline
 62
7
  6
CONTINUOUS
 70
0
 71
3
 72
18
 73
14
 74
0
 42
0.0000001
 43
0.0000001
 44
0.0000000001
 40
0.0
 40
0.0
 40
0.0
 40
0.0
 40
0.051660395
 40
0.1046925266
 40
0.1592391044
 40
0.2154020637
 40
0.2732362333
 40
0.3327518294
 40
0.4566205811
 40
0.5864863655
 40
0.7212734006
 40
0.8596690916
 40
1.0
 40
1.0
 40
1.0
 40
1.0
 10
10.6625648711
 20
7.2712833055
 30
0.0
 10
10.6659838106
 20
7.2643564105
 30
0.0
 10
10.6736410076
 20
7.2506670599
 30
0.0
 10
10.687247829
 20
7.231086478
 30
0.0
 10
10.703022668
 20
7.2123182945
 30
0.0
 10
10.720874113
 20
7.1944866689
 30
0.0
 10
10.7406907096
 20
7.1776964745
 30
0.0
 10
10.7699531731
 20
7.1565575365
 30
0.0
 10
10.8108783621
 20
7.1334288466
 30
0.0
 10
10.8649181879
 20
7.1117040097
 30
0.0
 10
10.9232885918
 20
7.0961382274
 30
0.0
 10
10.9845877681
 20
7.0871411125
 30
0.0
 10
11.0263388615
 20
7.0856729159
 30
0.0
 10
11.0473183383
 20
7.0860823795
 30
0.0
  0
SPLINE
  5
2ED
100
AcDbEntity
  8
0
100
AcDbSpline
 62
7
  6
CONTINUOUS
 70
0
 71
3
 72
22
 73
18
 74
0
 42
0.0000001
 43
0.0000001
 44
0.0000000001
 40
0.0
 40
0.0
 40
0.0
 40
0.0
 40
0.0599005098
 40
0.1219978679
 40
0.185976986
 40
0.2515337449
 40
0.3855798374
 40
0.4532453922
 40
0.5206299978
 40
0.5872332666
 40
0.6525819148
 40
0.7162460799
 40
0.7778595237
 40
0.8371451996
 40
0.8939304679
 40
0.9481775539
 40
1.0
 40
1.0
 40
1.0
 40
1.0
 10
11.3431286757
 20
7.2326816608
 30
0.0
 10
11.3315669832
 20
7.223668078
 30
0.0
 10
11.3069073252
 20
7.20670138
 30
0.0
 10
11.2667895803
 20
7.1850404296
 30
0.0
 10
11.2234127978
 20
7.1669958374
 30
0.0
 10
11.1616998674
 20
7.147961197
 30
0.0
 10
11.0967482967
 20
7.1372986141
 30
0.0
 10
11.0308703389
 20
7.1350632575
 30
0.0
 10
10.9815183712
 20
7.1376444794
 30
0.0
 10
10.9331463526
 20
7.1444469739
 30
0.0
 10
10.886459839
 20
7.1553476286
 30
0.0
 10
10.8421506402
 20
7.1701797457
 30
0.0
 10
10.8008721349
 20
7.1887146847
 30
0.0
 10
10.763231114
 20
7.2106657331
 30
0.0
 10
10.7297883372
 20
7.2357178173
 30
0.0
 10
10.7010457096
 20
7.2634845121
 30
0.0
 10
10.6849582605
 20
7.2839943288
 30
0.0
 10
10.6779165897
 20
7.2945429897
 30
0.0
  0
SPLINE
  5
2EE
100
AcDbEntity
  8
0
100
AcDbSpline
 62
7
  6
CONTINUOUS
 70
0
 71
3
 72
9
 73
5
 74
0
 42
0.0000001
 43
0.0000001
 44
0.0000000001
 40
0.0
 40
0.0
 40
0.0
 40
0.0
 40
0.2532865077
 40
1.0
 40
1.0
 40
1.0
 40
1.0
 10
10.6779165897
 20
7.2945429897
 30
0.0
 10
10.6764573818
 20
7.2967289325
 30
0.0
 10
10.670833913
 20
7.3054501053
 30
0.0
 10
10.665773888
 20
7.31453637
 30
0.0
 10
10.6623587829
 20
7.3214914583
 30
0.0
  0
SPLINE
  5
2EF
100
AcDbEntity
  8
0
100
AcDbSpline
 62
7
  6
CONTINUOUS
 70
0
 71
3
 72
9
 73
5
 74
0
 42
0.0000001
 43
0.0000001
 44
0.0000000001
 40
0.0
 40
0.0
 40
0.0
 40
0.0
 40
0.2474991375
 40
1.0
 40
1.0
 40
1.0
 40
1.0
 10
11.4355928836
 20
7.35951615
 30
0.0
 10
11.4346853997
 20
7.3567671795
 30
0.0
 10
11.4308026546
 20
7.3457324108
 30
0.0
 10
11.4260662452
 20
7.3350004221
 30
0.0
 10
11.4220788901
 20
7.3271537477
 30
0.0
  0
SPLINE
  5
2F0
100
AcDbEntity
  8
0
100
AcDbSpline
 62
7
  6
CONTINUOUS
 70
0
 71
3
 72
11
 73
7
 74
0
 42
0.0000001
 43
0.0000001
 44
0.0000000001
 40
0.0
 40
0.0
 40
0.0
 40
0.0
 40
0.2392031442
 40
0.4853530596
 40
0.7389748471
 40
1.0
 40
1.0
 40
1.0
 40
1.0
 10
11.4176700196
 20
7.3188745409
 30
0.0
 10
11.4132219645
 20
7.3108909506
 30
0.0
 10
11.4032991808
 20
7.2951772564
 30
0.0
 10
11.3858330418
 20
7.2729381635
 30
0.0
 10
11.3657314189
 20
7.2518852147
 30
0.0
 10
11.3509062365
 20
7.238924002
 30
0.0
 10
11.3431286757
 20
7.2326816608
 30
0.0
  0
SPLINE
  5
2F1
100
AcDbEntity
  8
0
100
AcDbSpline
 62
7
  6
CONTINUOUS
 70
0
 71
3
 72
9
 73
5
 74
0
 42
0.0000001
 43
0.0000001
 44
0.0000000001
 40
0.0
 40
0.0
 40
0.0
 40
0.0
 40
0.4974425248
 40
1.0
 40
1.0
 40
1.0
 40
1.0
 10
11.4535680927
 20
7.4600925752
 30
0.0
 10
11.4535537236
 20
7.4508518672
 30
0.0
 10
11.4522447082
 20
7.4322564353
 30
0.0
 10
11.4484422955
 20
7.4140101217
 30
0.0
 10
11.4459435993
 20
7.4050149842
 30
0.0
  0
SPLINE
  5
2F2
100
AcDbEntity
  8
0
100
AcDbSpline
 62
7
  6
CONTINUOUS
 70
0
 71
3
 72
9
 73
5
 74
0
 42
0.0000001
 43
0.0000001
 44
0.0000000001
 40
0.0
 40
0.0
 40
0.0
 40
0.0
 40
0.4860136643
 40
1.0
 40
1.0
 40
1.0
 40
1.0
 10
11.4075745504
 20
7.3276441291
 30
0.0
 10
11.3973390711
 20
7.31375765
 30
0.0
 10
11.3735221976
 20
7.287154707
 30
0.0
 10
11.3456807532
 20
7.2648845184
 30
0.0
 10
11.3306512151
 20
7.2545426131
 30
0.0
  0
SPLINE
  5
2F3
100
AcDbEntity
  8
0
100
AcDbSpline
 62
7
  6
CONTINUOUS
 70
0
 71
3
 72
14
 73
10
 74
0
 42
0.0000001
 43
0.0000001
 44
0.0000000001
 40
0.0
 40
0.0
 40
0.0
 40
0.0
 40
0.2347739667
 40
0.357123359
 40
0.4822065222
 40
0.6095646655
 40
0.7387215903
 40
0.8691245399
 40
1.0
 40
1.0
 40
1.0
 40
1.0
 10
11.3306512151
 20
7.2545426131
 30
0.0
 10
11.3113731299
 20
7.2412772599
 30
0.0
 10
11.2801202362
 20
7.2237737765
 30
0.0
 10
11.2356819192
 20
7.2053926983
 30
0.0
 10
11.2001386834
 20
7.1937648647
 30
0.0
 10
11.1631872565
 20
7.1846149186
 30
0.0
 10
11.12515727
 20
7.1780141398
 30
0.0
 10
11.0864149631
 20
7.1740375837
 30
0.0
 10
11.0603633844
 20
7.1731463002
 30
0.0
 10
11.0473183383
 20
7.1731463002
 30
0.0
  0
SPLINE
  5
2F4
100
AcDbEntity
  8
0
100
AcDbSpline
 62
7
  6
CONTINUOUS
 70
0
 71
3
 72
15
 73
11
 74
0
 42
0.0000001
 43
0.0000001
 44
0.0000000001
 40
0.0
 40
0.0
 40
0.0
 40
0.0
 40
0.1374420537
 40
0.273531312
 40
0.4068039103
 40
0.5361417649
 40
0.660564197
 40
0.7794280078
 40
0.8924958433
 40
1.0
 40
1.0
 40
1.0
 40
1.0
 10
11.0473183383
 20
7.1731463002
 30
0.0
 10
11.027816116
 20
7.1731463002
 30
0.0
 10
10.9889743117
 20
7.1751243681
 30
0.0
 10
10.9318310828
 20
7.1839613602
 30
0.0
 10
10.8770433172
 20
7.1985050246
 30
0.0
 10
10.8257450176
 20
7.2184488634
 30
0.0
 10
10.7789798157
 20
7.2434079202
 30
0.0
 10
10.7377052583
 20
7.2728926371
 30
0.0
 10
10.7027862707
 20
7.3063133275
 30
0.0
 10
10.683788725
 20
7.3314055599
 30
0.0
 10
10.6757058713
 20
7.3443422674
 30
0.0
  0
SPLINE
  5
2F5
100
AcDbEntity
  8
0
100
AcDbSpline
 62
7
  6
CONTINUOUS
 70
0
 71
3
 72
19
 73
15
 74
0
 42
0.0000001
 43
0.0000001
 44
0.0000000001
 40
0.0
 40
0.0
 40
0.0
 40
0.0
 40
0.0605885248
 40
0.1211260881
 40
0.1817447749
 40
0.2424603807
 40
0.3033092722
 40
0.3643785093
 40
0.4257580657
 40
0.4875460153
 40
0.6125242963
 40
0.7398403492
 40
0.8692781956
 40
1.0
 40
1.0
 40
1.0
 40
1.0
 10
11.4998183383
 20
7.0271790819
 30
0.0
 10
11.4998183383
 20
7.0140822054
 30
0.0
 10
11.4982059703
 20
6.9878713085
 30
0.0
 10
11.4910142899
 20
6.9491550986
 30
0.0
 10
11.479201981
 20
6.9115589852
 30
0.0
 10
11.4630368088
 20
6.8755516582
 30
0.0
 10
11.4428018431
 20
6.8415559343
 30
0.0
 10
11.4188702499
 20
6.8098819849
 30
0.0
 10
11.3915850417
 20
6.7807723302
 30
0.0
 10
11.3510920305
 20
6.7454785416
 30
0.0
 10
11.2936427615
 20
6.7085109652
 30
0.0
 10
11.2171796885
 20
6.6765008219
 30
0.0
 10
11.1353997175
 20
6.6569304524
 30
0.0
 10
11.0790965291
 20
6.6523382276
 30
0.0
 10
11.0508401318
 20
6.6521604206
 30
0.0
  0
SPLINE
  5
2F6
100
AcDbEntity
  8
0
100
AcDbSpline
 62
7
  6
CONTINUOUS
 70
0
 71
3
 72
20
 73
16
 74
0
 42
0.0000001
 43
0.0000001
 44
0.0000000001
 40
0.0
 40
0.0
 40
0.0
 40
0.0
 40
0.1307081186
 40
0.2601466908
 40
0.3874733884
 40
0.4503059544
 40
0.5125785187
 40
0.5743546918
 40
0.6357241984
 40
0.6967761221
 40
0.7576083553
 40
0.8182975497
 40
0.8789055716
 40
0.9394401643
 40
1.0
 40
1.0
 40
1.0
 40
1.0
 10
11.0459596707
 20
6.6521509867
 30
0.0
 10
11.0176079251
 20
6.6522197782
 30
0.0
 10
10.9610917006
 20
6.6566263971
 30
0.0
 10
10.8789788186
 20
6.6759911887
 30
0.0
 10
10.8146186191
 20
6.7027224622
 30
0.0
 10
10.7672084533
 20
6.7302419412
 30
0.0
 10
10.7341173268
 20
6.7537620243
 30
0.0
 10
10.7036831647
 20
6.7801546008
 30
0.0
 10
10.6762531497
 20
6.8093036343
 30
0.0
 10
10.652178945
 20
6.8410312962
 30
0.0
 10
10.6318324253
 20
6.875104853
 30
0.0
 10
10.6155586432
 20
6.9112009622
 30
0.0
 10
10.6036806091
 20
6.9489112428
 30
0.0
 10
10.5964398683
 20
6.9877479027
 30
0.0
 10
10.5948183383
 20
7.0140430799
 30
0.0
 10
10.5948183383
 20
7.0271790819
 30
0.0
  0
SPLINE
  5
2F7
100
AcDbEntity
  8
0
100
AcDbSpline
 62
7
  6
CONTINUOUS
 70
0
 71
3
 72
11
 73
7
 74
0
 42
0.0000001
 43
0.0000001
 44
0.0000000001
 40
0.0
 40
0.0
 40
0.0
 40
0.0
 40
0.2456355397
 40
0.4930712135
 40
0.7440124565
 40
1.0
 40
1.0
 40
1.0
 40
1.0
 10
11.499816953
 20
7.2549578692
 30
0.0
 10
11.499816953
 20
7.2641447054
 30
0.0
 10
11.4986915526
 20
7.2826052657
 30
0.0
 10
11.4936318044
 20
7.3100330933
 30
0.0
 10
11.4852571339
 20
7.3370399859
 30
0.0
 10
11.477586865
 20
7.3544292845
 30
0.0
 10
11.4732560158
 20
7.3629677444
 30
0.0
  0
SPLINE
  5
2F8
100
AcDbEntity
  8
0
100
AcDbSpline
 62
7
  6
CONTINUOUS
 70
0
 71
3
 72
11
 73
7
 74
0
 42
0.0000001
 43
0.0000001
 44
0.0000000001
 40
0.0
 40
0.0
 40
0.0
 40
0.0
 40
0.2451149607
 40
0.4922524739
 40
0.7433146764
 40
1.0
 40
1.0
 40
1.0
 40
1.0
 10
10.5948197236
 20
7.2549578692
 30
0.0
 10
10.5948197236
 20
7.2647133546
 30
0.0
 10
10.5960902768
 20
7.2843282068
 30
0.0
 10
10.6017982312
 20
7.3134342554
 30
0.0
 10
10.6112378708
 20
7.3420348026
 30
0.0
 10
10.6198644415
 20
7.3603696963
 30
0.0
 10
10.6247283713
 20
7.3693534853
 30
0.0
  0
SPLINE
  5
2F9
100
AcDbEntity
  8
0
100
AcDbSpline
 62
7
  6
CONTINUOUS
 70
0
 71
3
 72
39
 73
35
 74
0
 42
0.0000001
 43
0.0000001
 44
0.0000000001
 40
0.0
 40
0.0
 40
0.0
 40
0.0
 40
0.0261471838
 40
0.0526020138
 40
0.07954104
 40
0.1071210658
 40
0.1211970929
 40
0.135476707
 40
0.1646749973
 40
0.194780377
 40
0.2258118973
 40
0.2905052779
 40
0.3241039292
 40
0.3583980058
 40
0.3932715995
 40
0.4285932713
 40
0.4642200891
 40
0.5000013331
 40
0.5357825418
 40
0.5714093052
 40
0.6067308501
 40
0.6416043101
 40
0.6758981759
 40
0.7094966266
 40
0.7741895151
 40
0.8052207647
 40
0.8353258985
 40
0.8645239462
 40
0.87880345
 40
0.8928793757
 40
0.9204592257
 40
0.9473980972
 40
0.9738528374
 40
1.0
 40
1.0
 40
1.0
 40
1.0
 10
11.7462271301
 20
6.3377215858
 30
0.0
 10
11.7449786901
 20
6.3217085259
 30
0.0
 10
11.7403143069
 20
6.2896221843
 30
0.0
 10
11.7269893557
 20
6.2424797191
 30
0.0
 10
11.7074949106
 20
6.1965814424
 30
0.0
 10
11.6864229717
 20
6.1599732007
 30
0.0
 10
11.6668204358
 20
6.1317358692
 30
0.0
 10
11.6450811014
 20
6.1038350654
 30
0.0
 10
11.6144557474
 20
6.0704716035
 30
0.0
 10
11.5729799939
 20
6.0334764602
 30
0.0
 10
11.510671725
 20
5.9875845928
 30
0.0
 10
11.4406418446
 20
5.9491613469
 30
0.0
 10
11.3651425239
 20
5.9184830909
 30
0.0
 10
11.304986994
 20
5.8991362873
 30
0.0
 10
11.2425766166
 20
5.883924277
 30
0.0
 10
11.1784506104
 20
5.872961571
 30
0.0
 10
11.1131725251
 20
5.8663516645
 30
0.0
 10
11.0473160596
 20
5.8641378473
 30
0.0
 10
10.9814596448
 20
5.8663520083
 30
0.0
 10
10.9161817044
 20
5.8729620729
 30
0.0
 10
10.8520559755
 20
5.883925229
 30
0.0
 10
10.7896458908
 20
5.8991372229
 30
0.0
 10
10.7294908375
 20
5.9184844188
 30
0.0
 10
10.6539920765
 20
5.9491625506
 30
0.0
 10
10.5839628577
 20
5.9875858178
 30
0.0
 10
10.521655349
 20
6.033477652
 30
0.0
 10
10.4801799444
 20
6.0704724879
 30
0.0
 10
10.4495549995
 20
6.1038358224
 30
0.0
 10
10.427815807
 20
6.1317363816
 30
0.0
 10
10.4082134813
 20
6.1599735712
 30
0.0
 10
10.3871417064
 20
6.1965815947
 30
0.0
 10
10.3676473396
 20
6.2424796236
 30
0.0
 10
10.35432243
 20
6.2896219303
 30
0.0
 10
10.3496580305
 20
6.3217081992
 30
0.0
 10
10.3484095754
 20
6.3377212448
 30
0.0
  0
SPLINE
  5
2FA
100
AcDbEntity
  8
0
100
AcDbSpline
 62
7
  6
CONTINUOUS
 70
0
 71
3
 72
21
 73
17
 74
0
 42
0.0000001
 43
0.0000001
 44
0.0000000001
 40
0.0
 40
0.0
 40
0.0
 40
0.0
 40
0.0541270998
 40
0.1085644504
 40
0.163573522
 40
0.2194228155
 40
0.2763501034
 40
0.3345504457
 40
0.3941793153
 40
0.4553499932
 40
0.518130954
 40
0.5825488448
 40
0.7161138951
 40
0.7852044706
 40
0.8556601152
 40
1.0
 40
1.0
 40
1.0
 40
1.0
 10
12.5073183383
 20
6.164891191
 30
0.0
 10
12.5073183383
 20
6.1923282823
 30
0.0
 10
12.5042616701
 20
6.2474071558
 30
0.0
 10
12.4905906501
 20
6.3293469011
 30
0.0
 10
12.4679128065
 20
6.4101758724
 30
0.0
 10
12.4364269306
 20
6.4893455085
 30
0.0
 10
12.3963663419
 20
6.5663593985
 30
0.0
 10
12.3480220086
 20
6.6407451809
 30
0.0
 10
12.2917289044
 20
6.7120615965
 30
0.0
 10
12.2278578788
 20
6.7798898569
 30
0.0
 10
12.1568200836
 20
6.8438530313
 30
0.0
 10
12.0519052253
 20
6.9244315687
 30
0.0
 10
11.9355290946
 20
6.9946438337
 30
0.0
 10
11.8104183236
 20
7.0540775317
 30
0.0
 10
11.6766649024
 20
7.1073743257
 30
0.0
 10
11.5718678839
 20
7.138158743
 30
0.0
 10
11.5006013546
 20
7.1547223789
 30
0.0
  0
SPLINE
  5
2FB
100
AcDbEntity
  8
0
100
AcDbSpline
 62
7
  6
CONTINUOUS
 70
0
 71
3
 72
21
 73
17
 74
0
 42
0.0000001
 43
0.0000001
 44
0.0000000001
 40
0.0
 40
0.0
 40
0.0
 40
0.0
 40
0.1443401243
 40
0.2147958791
 40
0.2838865816
 40
0.4174517987
 40
0.4818697318
 40
0.5446506986
 40
0.6058213557
 40
0.6654501647
 40
0.7236504204
 40
0.780577607
 40
0.8364267807
 40
0.8914357243
 40
0.945872989
 40
1.0
 40
1.0
 40
1.0
 40
1.0
 10
10.5940733194
 20
7.1547312598
 30
0.0
 10
10.5228045037
 20
7.1381686367
 30
0.0
 10
10.4180039884
 20
7.1073854919
 30
0.0
 10
10.2842459972
 20
7.0540895428
 30
0.0
 10
10.1591306914
 20
6.9946566358
 30
0.0
 10
10.042750272
 20
6.9244443677
 30
0.0
 10
9.9378313415
 20
6.8438653825
 30
0.0
 10
9.8667907701
 20
6.7799016053
 30
0.0
 10
9.802917127
 20
6.7120725747
 30
0.0
 10
9.7466217502
 20
6.6407550905
 30
0.0
 10
9.6982753026
 20
6.5663681143
 30
0.0
 10
9.6582130274
 20
6.4893527619
 30
0.0
 10
9.6267256959
 20
6.4101815397
 30
0.0
 10
9.6040468258
 20
6.3293507875
 30
0.0
 10
9.5903751541
 20
6.2474091408
 30
0.0
 10
9.5873183383
 20
6.1923289409
 30
0.0
 10
9.5873183383
 20
6.164891191
 30
0.0
  0
SPLINE
  5
2FC
100
AcDbEntity
  8
0
100
AcDbSpline
 62
7
  6
CONTINUOUS
 70
0
 71
3
 72
25
 73
21
 74
0
 42
0.0000001
 43
0.0000001
 44
0.0000000001
 40
0.0
 40
0.0
 40
0.0
 40
0.0
 40
0.0262790494
 40
0.0526163698
 40
0.0790533477
 40
0.105633885
 40
0.132405385
 40
0.1594131894
 40
0.2142749835
 40
0.2705250394
 40
0.3283853479
 40
0.3880118819
 40
0.4494937029
 40
0.5128557079
 40
0.578062636
 40
0.6450253006
 40
0.7136068924
 40
0.7836291559
 40
0.8548791099
 40
1.0
 40
1.0
 40
1.0
 40
1.0
 10
14.0023183383
 20
5.9591231177
 30
0.0
 10
14.0023183383
 20
5.9905634791
 30
0.0
 10
14.0003227452
 20
6.0535318932
 30
0.0
 10
13.9913708747
 20
6.1477465349
 30
0.0
 10
13.9764738581
 20
6.2415746184
 30
0.0
 10
13.9556588724
 20
6.3347989015
 30
0.0
 10
13.9289847983
 20
6.4272315022
 30
0.0
 10
13.885462787
 20
6.5497768009
 30
0.0
 10
13.8163502701
 20
6.7003231137
 30
0.0
 10
13.7116442379
 20
6.8737139959
 30
0.0
 10
13.5856479289
 20
7.0395031592
 30
0.0
 10
13.4394426038
 20
7.1963945893
 30
0.0
 10
13.2742367827
 20
7.343198153
 30
0.0
 10
13.0913718723
 20
7.4787993902
 30
0.0
 10
12.8923161206
 20
7.6021745966
 30
0.0
 10
12.6786513785
 20
7.7123873899
 30
0.0
 10
12.4520754046
 20
7.8085936133
 30
0.0
 10
12.2143579892
 20
7.8900598756
 30
0.0
 10
11.8831892456
 20
7.9787011548
 30
0.0
 10
11.6267255138
 20
8.0204474598
 30
0.0
 10
11.4539391535
 20
8.0374738189
 30
0.0
  0
SPLINE
  5
2FD
100
AcDbEntity
  8
0
100
AcDbSpline
 62
7
  6
CONTINUOUS
 70
0
 71
3
 72
25
 73
21
 74
0
 42
0.0000001
 43
0.0000001
 44
0.0000000001
 40
0.0
 40
0.0
 40
0.0
 40
0.0
 40
0.145120936
 40
0.2163709181
 40
0.2863932053
 40
0.3549748107
 40
0.4219374878
 40
0.4871444234
 40
0.5505064247
 40
0.6119882331
 40
0.6716147514
 40
0.72947504
 40
0.7857250708
 40
0.8405868424
 40
0.8675946376
 40
0.8943661271
 40
0.9209466552
 40
0.947383629
 40
0.9737209503
 40
1.0
 40
1.0
 40
1.0
 40
1.0
 10
10.6407151166
 20
8.0374755794
 30
0.0
 10
10.4679277734
 20
8.0204499161
 30
0.0
 10
10.2114625353
 20
7.9787043034
 30
0.0
 10
9.8802916932
 20
7.8900638947
 30
0.0
 10
9.6425727357
 20
7.8085980606
 30
0.0
 10
9.4159952872
 20
7.7123920572
 30
0.0
 10
9.2023290772
 20
7.6021794422
 30
0.0
 10
9.0032719177
 20
7.4788042775
 30
0.0
 10
8.8204057108
 20
7.3432029204
 30
0.0
 10
8.6551987044
 20
7.1963991102
 30
0.0
 10
8.5089922522
 20
7.0395073654
 30
0.0
 10
8.3829949472
 20
6.8737177589
 30
0.0
 10
8.2782880665
 20
6.7003263157
 30
0.0
 10
8.2091749643
 20
6.5497794467
 30
0.0
 10
8.1656525618
 20
6.4272336606
 30
0.0
 10
8.1389782442
 20
6.3348006724
 30
0.0
 10
8.1181630691
 20
6.2415759784
 30
0.0
 10
8.1032659081
 20
6.1477474587
 30
0.0
 10
8.0943139517
 20
6.05353236
 30
0.0
 10
8.0923183383
 20
5.9905636343
 30
0.0
 10
8.0923183383
 20
5.9591231177
 30
0.0
  0
SPLINE
  5
2FE
100
AcDbEntity
  8
0
100
AcDbSpline
 62
7
  6
CONTINUOUS
 70
0
 71
3
 72
49
 73
45
 74
0
 42
0.0000001
 43
0.0000001
 44
0.0000000001
 40
0.0
 40
0.0
 40
0.0
 40
0.0
 40
0.0129394884
 40
0.0259126055
 40
0.0389439177
 40
0.0520601623
 40
0.0652891223
 40
0.0786567028
 40
0.0921857602
 40
0.1058967891
 40
0.1339231069
 40
0.1482792805
 40
0.1628745996
 40
0.1928005909
 40
0.2237405655
 40
0.2556832947
 40
0.2885815493
 40
0.3223565364
 40
0.3569025182
 40
0.3920915108
 40
0.4277779674
 40
0.4638032908
 40
0.5000002245
 40
0.5361971532
 40
0.5722224637
 40
0.6079089005
 40
0.6430978669
 40
0.6776438147
 40
0.7114187612
 40
0.7443169733
 40
0.776259659
 40
0.8071995898
 40
0.8371255382
 40
0.8517208369
 40
0.8660769913
 40
0.8941032749
 40
0.9078142889
 40
0.9213433334
 40
0.9347109034
 40
0.9479398541
 40
0.9610560906
 40
0.9740873975
 40
0.9870605129
 40
1.0
 40
1.0
 40
1.0
 40
1.0
 10
8.0923183383
 20
5.3378028904
 30
0.0
 10
8.0923183383
 20
5.3033260639
 30
0.0
 10
8.0947189787
 20
5.2342591735
 30
0.0
 10
8.1054834722
 20
5.1309757384
 30
0.0
 10
8.1233966833
 20
5.0282071108
 30
0.0
 10
8.1484084555
 20
4.9262332654
 30
0.0
 10
8.1804409634
 20
4.825303463
 30
0.0
 10
8.2194168069
 20
4.7256684995
 30
0.0
 10
8.2652216189
 20
4.6275614935
 30
0.0
 10
8.3357442081
 20
4.4982063168
 30
0.0
 10
8.4192000678
 20
4.3737227523
 30
0.0
 10
8.5141255781
 20
4.2551727345
 30
0.0
 10
8.6187891913
 20
4.1382172857
 30
0.0
 10
8.7647286386
 20
3.9993501754
 30
0.0
 10
8.9601182815
 20
3.8471873614
 30
0.0
 10
9.1753746058
 20
3.7094552339
 30
0.0
 10
9.4084245378
 20
3.5874177175
 30
0.0
 10
9.6570542588
 20
3.4821854527
 30
0.0
 10
9.9189008473
 20
3.3947259853
 30
0.0
 10
10.1914773678
 20
3.3258448918
 30
0.0
 10
10.4721940391
 20
3.276180442
 30
0.0
 10
10.7583823432
 20
3.2461947118
 30
0.0
 10
11.0473201233
 20
3.2361679707
 30
0.0
 10
11.3362578577
 20
3.2461949972
 30
0.0
 10
11.6224460378
 20
3.2761809401
 30
0.0
 10
11.9031625176
 20
3.3258455693
 30
0.0
 10
12.1757387795
 20
3.3947268174
 30
0.0
 10
12.4375850377
 20
3.4821864289
 30
0.0
 10
12.6862143687
 20
3.5874188115
 30
0.0
 10
12.9192639164
 20
3.7094563305
 30
0.0
 10
13.1345198657
 20
3.8471884009
 30
0.0
 10
13.3299091469
 20
3.9993511138
 30
0.0
 10
13.4758483058
 20
4.1382181118
 30
0.0
 10
13.5805117108
 20
4.255173452
 30
0.0
 10
13.6754370339
 20
4.3737233677
 30
0.0
 10
13.7588927484
 20
4.4982068068
 30
0.0
 10
13.8294152472
 20
4.6275618446
 30
0.0
 10
13.8752199888
 20
4.7256687713
 30
0.0
 10
13.9141957755
 20
4.825303663
 30
0.0
 10
13.9462282622
 20
4.9262333938
 30
0.0
 10
13.9712400072
 20
5.0282071836
 30
0.0
 10
13.9891532099
 20
5.1309757717
 30
0.0
 10
13.9999176979
 20
5.2342591852
 30
0.0
 10
14.0023183383
 20
5.3033260675
 30
0.0
 10
14.0023183383
 20
5.3378028904
 30
0.0
  0
SPLINE
  5
2FF
100
AcDbEntity
  8
0
100
AcDbSpline
 62
7
  6
CONTINUOUS
 70
0
 71
3
 72
15
 73
11
 74
0
 42
0.0000001
 43
0.0000001
 44
0.0000000001
 40
0.0
 40
0.0
 40
0.0
 40
0.0
 40
0.1105933568
 40
0.2261516418
 40
0.3465233829
 40
0.4712939529
 40
0.599836974
 40
0.7313834642
 40
0.865122348
 40
1.0
 40
1.0
 40
1.0
 40
1.0
 10
10.7134600086
 20
7.1523211162
 30
0.0
 10
10.7229743513
 20
7.1429479136
 30
0.0
 10
10.7437209005
 20
7.1250564382
 30
0.0
 10
10.7785053667
 20
7.1016382238
 30
0.0
 10
10.8171496989
 20
7.0813590738
 30
0.0
 10
10.8590951772
 20
7.0645167908
 30
0.0
 10
10.9037423204
 20
7.0513628343
 30
0.0
 10
10.9504559384
 20
7.042093445
 30
0.0
 10
10.9985553512
 20
7.0368608142
 30
0.0
 10
11.0310328631
 20
7.0361161456
 30
0.0
 10
11.0473183383
 20
7.0364348885
 30
0.0
  0
SPLINE
  5
300
100
AcDbEntity
  8
0
100
AcDbSpline
 62
7
  6
CONTINUOUS
 70
0
 71
3
 72
11
 73
7
 74
0
 42
0.0000001
 43
0.0000001
 44
0.0000000001
 40
0.0
 40
0.0
 40
0.0
 40
0.0
 40
0.2558198051
 40
0.509486351
 40
0.7582524768
 40
1.0
 40
1.0
 40
1.0
 40
1.0
 10
11.0486133419
 20
6.9866529277
 30
0.0
 10
11.0684179711
 20
6.9870836965
 30
0.0
 10
11.1078464293
 20
6.9899812183
 30
0.0
 10
11.1657436964
 20
7.0003660718
 30
0.0
 10
11.2211481296
 20
7.0166087006
 30
0.0
 10
11.2562513545
 20
7.0313857682
 30
0.0
 10
11.273022141
 20
7.0397023374
 30
0.0
  0
SPLINE
  5
301
100
AcDbEntity
  8
0
100
AcDbSpline
 62
7
  6
CONTINUOUS
 70
0
 71
3
 72
15
 73
11
 74
0
 42
0.0000001
 43
0.0000001
 44
0.0000000001
 40
0.0
 40
0.0
 40
0.0
 40
0.0
 40
0.1403869886
 40
0.2758977894
 40
0.4064250317
 40
0.5321221663
 40
0.6534454365
 40
0.7711474713
 40
0.8862517419
 40
1.0
 40
1.0
 40
1.0
 40
1.0
 10
11.29349775
 20
7.0505302788
 30
0.0
 10
11.3056748666
 20
7.0573884895
 30
0.0
 10
11.3289719769
 20
7.0720415921
 30
0.0
 10
11.3608037049
 20
7.0971433214
 30
0.0
 10
11.3885388071
 20
7.1246898011
 30
0.0
 10
11.4117902357
 20
7.1543515609
 30
0.0
 10
11.4302443161
 20
7.1857544478
 30
0.0
 10
11.4436324622
 20
7.2185076125
 30
0.0
 10
11.4517482377
 20
7.2521736207
 30
0.0
 10
11.4535683402
 20
7.2749959413
 30
0.0
 10
11.4535683383
 20
7.2863196364
 30
0.0
  0
SPLINE
  5
302
100
AcDbEntity
  8
0
100
AcDbSpline
 62
7
  6
CONTINUOUS
 70
0
 71
3
 72
17
 73
13
 74
0
 42
0.0000001
 43
0.0000001
 44
0.0000000001
 40
0.0
 40
0.0
 40
0.0
 40
0.0
 40
0.1388881273
 40
0.276285015
 40
0.4104610226
 40
0.5400456458
 40
0.6639779904
 40
0.7817261658
 40
0.8383361459
 40
0.8934952409
 40
0.947325872
 40
1.0
 40
1.0
 40
1.0
 40
1.0
 10
11.0487529282
 20
7.0364647686
 30
0.0
 10
11.0706335602
 20
7.0369479821
 30
0.0
 10
11.1141466161
 20
7.0403934385
 30
0.0
 10
11.1777490058
 20
7.0529094888
 30
0.0
 10
11.238020627
 20
7.0725015721
 30
0.0
 10
11.2934090913
 20
7.0987052653
 30
0.0
 10
11.3424877963
 20
7.1309124684
 30
0.0
 10
11.3775463109
 20
7.1625693484
 30
0.0
 10
11.4010329285
 20
7.1901276502
 30
0.0
 10
11.4161156319
 20
7.2114705905
 30
0.0
 10
11.4287830841
 20
7.2336170819
 30
0.0
 10
11.4356277619
 20
7.2489791035
 30
0.0
 10
11.4386029078
 20
7.2567279625
 30
0.0
  0
SPLINE
  5
303
100
AcDbEntity
  8
0
100
AcDbSpline
 62
7
  6
CONTINUOUS
 70
0
 71
3
 72
15
 73
11
 74
0
 42
0.0000001
 43
0.0000001
 44
0.0000000001
 40
0.0
 40
0.0
 40
0.0
 40
0.0
 40
0.1363544032
 40
0.2716397793
 40
0.4044086251
 40
0.5335574185
 40
0.6581199196
 40
0.777463669
 40
0.8913505835
 40
1.0
 40
1.0
 40
1.0
 40
1.0
 10
11.0473183383
 20
7.0860823795
 30
0.0
 10
11.0668501737
 20
7.0864635889
 30
0.0
 10
11.1057512626
 20
7.0892089213
 30
0.0
 10
11.1629242649
 20
7.0992010345
 30
0.0
 10
11.2177386417
 20
7.1149071328
 30
0.0
 10
11.2690582034
 20
7.136020448
 30
0.0
 10
11.3158365761
 20
7.162155492
 30
0.0
 10
11.3571123227
 20
7.1928220009
 30
0.0
 10
11.3920188597
 20
7.2274262869
 30
0.0
 10
11.4109668887
 20
7.2532824921
 30
0.0
 10
11.4190291362
 20
7.266598208
 30
0.0
  0
SPLINE
  5
304
100
AcDbEntity
  8
0
100
AcDbSpline
 62
7
  6
CONTINUOUS
 70
0
 71
3
 72
11
 73
7
 74
0
 42
0.0000001
 43
0.0000001
 44
0.0000000001
 40
0.0
 40
0.0
 40
0.0
 40
0.0
 40
0.2344679466
 40
0.4789571858
 40
0.7340732705
 40
1.0
 40
1.0
 40
1.0
 40
1.0
 10
11.6973183383
 20
6.9305518026
 30
0.0
 10
11.6865973428
 20
6.9495180575
 30
0.0
 10
11.6616753818
 20
6.9866155014
 30
0.0
 10
11.616007012
 20
7.0375391703
 30
0.0
 10
11.5620100291
 20
7.0841132277
 30
0.0
 10
11.5217951484
 20
7.111285949
 30
0.0
 10
11.5006157713
 20
7.1240141871
 30
0.0
  0
SPLINE
  5
305
100
AcDbEntity
  8
0
100
AcDbSpline
 62
7
  6
CONTINUOUS
 70
0
 71
3
 72
11
 73
7
 74
0
 42
0.0000001
 43
0.0000001
 44
0.0000000001
 40
0.0
 40
0.0
 40
0.0
 40
0.0
 40
0.2659267295
 40
0.5210428142
 40
0.7655320534
 40
1.0
 40
1.0
 40
1.0
 40
1.0
 10
10.5940209053
 20
7.1240141871
 30
0.0
 10
10.5728415281
 20
7.111285949
 30
0.0
 10
10.5326266474
 20
7.0841132277
 30
0.0
 10
10.4786296646
 20
7.0375391703
 30
0.0
 10
10.4329612948
 20
6.9866155014
 30
0.0
 10
10.4080393337
 20
6.9495180575
 30
0.0
 10
10.3973183383
 20
6.9305518026
 30
0.0
  0
SPLINE
  5
306
100
AcDbEntity
  8
0
100
AcDbSpline
 62
7
  6
CONTINUOUS
 70
0
 71
3
 72
11
 73
7
 74
0
 42
0.0000001
 43
0.0000001
 44
0.0000000001
 40
0.0
 40
0.0
 40
0.0
 40
0.0
 40
0.2447284883
 40
0.4916692822
 40
0.7428397143
 40
1.0
 40
1.0
 40
1.0
 40
1.0
 10
10.3473183383
 20
6.4993526985
 30
0.0
 10
10.3473183383
 20
6.5150479975
 30
0.0
 10
10.3494524862
 20
6.5466203763
 30
0.0
 10
10.3589974561
 20
6.5934315993
 30
0.0
 10
10.3748001568
 20
6.6393551406
 30
0.0
 10
10.3892024994
 20
6.6687068941
 30
0.0
 10
10.3973183383
 20
6.6830644292
 30
0.0
  0
SPLINE
  5
307
100
AcDbEntity
  8
0
100
AcDbSpline
 62
7
  6
CONTINUOUS
 70
0
 71
3
 72
11
 73
7
 74
0
 42
0.0000001
 43
0.0000001
 44
0.0000000001
 40
0.0
 40
0.0
 40
0.0
 40
0.0
 40
0.2571602857
 40
0.5083307178
 40
0.7552715117
 40
1.0
 40
1.0
 40
1.0
 40
1.0
 10
11.6973183383
 20
6.6830644292
 30
0.0
 10
11.7054341771
 20
6.6687068941
 30
0.0
 10
11.7198365198
 20
6.6393551406
 30
0.0
 10
11.7356392205
 20
6.5934315993
 30
0.0
 10
11.7451841904
 20
6.5466203763
 30
0.0
 10
11.7473183383
 20
6.5150479975
 30
0.0
 10
11.7473183383
 20
6.4993526985
 30
0.0
  0
SPLINE
  5
308
100
AcDbEntity
  8
0
100
AcDbSpline
 62
7
  6
CONTINUOUS
 70
0
 71
3
 72
18
 73
14
 74
0
 42
0.0000001
 43
0.0000001
 44
0.0000000001
 40
0.0
 40
0.0
 40
0.0
 40
0.0
 40
0.0713295053
 40
0.1424666999
 40
0.2826828322
 40
0.4186102925
 40
0.548626964
 40
0.6716028301
 40
0.7871956682
 40
0.8424438518
 40
0.8961596685
 40
0.9485779208
 40
1.0
 40
1.0
 40
1.0
 40
1.0
 10
11.0473183383
 20
6.5721132582
 30
0.0
 10
11.0575415742
 20
6.5721132582
 30
0.0
 10
11.0779671391
 20
6.572757913
 30
0.0
 10
11.1183224642
 20
6.5765717502
 30
0.0
 10
11.1673571918
 20
6.5859639145
 30
0.0
 10
11.2227438323
 20
6.6044536825
 30
0.0
 10
11.2727469531
 20
6.6295675295
 30
0.0
 10
11.3158101597
 20
6.6605750538
 30
0.0
 10
11.3452510683
 20
6.6910862926
 30
0.0
 10
11.3637817194
 20
6.7174653015
 30
0.0
 10
11.3749875865
 20
6.7377560962
 30
0.0
 10
11.3835946474
 20
6.7586855347
 30
0.0
 10
11.3875895985
 20
6.7730670732
 30
0.0
 10
11.3891186325
 20
6.7802767392
 30
0.0
  0
SPLINE
  5
309
100
AcDbEntity
  8
0
100
AcDbSpline
 62
7
  6
CONTINUOUS
 70
0
 71
3
 72
17
 73
13
 74
0
 42
0.0000001
 43
0.0000001
 44
0.0000000001
 40
0.0
 40
0.0
 40
0.0
 40
0.0
 40
0.052384572
 40
0.1058362343
 40
0.1605783945
 40
0.2167788108
 40
0.3338527116
 40
0.4574809376
 40
0.5872029413
 40
0.7219255968
 40
0.8601535847
 40
1.0
 40
1.0
 40
1.0
 40
1.0
 10
11.4444098275
 20
7.2902907262
 30
0.0
 10
11.4419628797
 20
7.2820497367
 30
0.0
 10
11.4360707328
 20
7.2656670251
 30
0.0
 10
11.42451162
 20
7.2419342131
 30
0.0
 10
11.4102279565
 20
7.2189916805
 30
0.0
 10
11.3874101489
 20
7.1892716542
 30
0.0
 10
11.3524014417
 20
7.1549846134
 30
0.0
 10
11.3023804757
 20
7.1200284003
 30
0.0
 10
11.2451814631
 20
7.0915458109
 30
0.0
 10
11.1824235673
 20
7.0702617923
 30
0.0
 10
11.1158808082
 20
7.056722817
 30
0.0
 10
11.070263288
 20
7.0530761554
 30
0.0
 10
11.0473183383
 20
7.0526159303
 30
0.0
  0
SPLINE
  5
30A
100
AcDbEntity
  8
0
100
AcDbSpline
 62
7
  6
CONTINUOUS
 70
0
 71
3
 72
15
 73
11
 74
0
 42
0.0000001
 43
0.0000001
 44
0.0000000001
 40
0.0
 40
0.0
 40
0.0
 40
0.0
 40
0.1155011975
 40
0.2370850688
 40
0.3633692364
 40
0.4925974789
 40
0.6228081244
 40
0.7519947138
 40
0.8782648482
 40
1.0
 40
1.0
 40
1.0
 40
1.0
 10
10.7838012137
 20
7.1988566653
 30
0.0
 10
10.8005413051
 20
7.1880609119
 30
0.0
 10
10.8368219194
 20
7.1687825681
 30
0.0
 10
10.8960392439
 20
7.1477053346
 30
0.0
 10
10.9598616187
 20
7.1342655972
 30
0.0
 10
11.0263410776
 20
7.1289112566
 30
0.0
 10
11.0934706956
 20
7.131839531
 30
0.0
 10
11.1592215206
 20
7.1430104893
 30
0.0
 10
11.2215873378
 20
7.1621272504
 30
0.0
 10
11.2605306396
 20
7.1802387489
 30
0.0
 10
11.2788277529
 20
7.1905334665
 30
0.0
  0
SPLINE
  5
30B
100
AcDbEntity
  8
0
100
AcDbSpline
 62
7
  6
CONTINUOUS
 70
0
 71
3
 72
11
 73
7
 74
0
 42
0.0000001
 43
0.0000001
 44
0.0000000001
 40
0.0
 40
0.0
 40
0.0
 40
0.0
 40
0.2356604871
 40
0.482864067
 40
0.7387976715
 40
1.0
 40
1.0
 40
1.0
 40
1.0
 10
10.7955658529
 20
7.1427139373
 30
0.0
 10
10.8123799495
 20
7.1326814079
 30
0.0
 10
10.8485258043
 20
7.114873826
 30
0.0
 10
10.9070105273
 20
7.0956691843
 30
0.0
 10
10.9695639832
 20
7.0838005058
 30
0.0
 10
11.012567519
 20
7.0810482684
 30
0.0
 10
11.0342692277
 20
7.0809696345
 30
0.0
  0
SPLINE
  5
30C
100
AcDbEntity
  8
0
100
AcDbSpline
 62
7
  6
CONTINUOUS
 70
0
 71
3
 72
11
 73
7
 74
0
 42
0.0000001
 43
0.0000001
 44
0.0000000001
 40
0.0
 40
0.0
 40
0.0
 40
0.0
 40
0.2565843735
 40
0.5106526555
 40
0.7592933996
 40
1.0
 40
1.0
 40
1.0
 40
1.0
 10
11.0476116604
 20
7.081087061
 30
0.0
 10
11.0674974705
 20
7.0815088266
 30
0.0
 10
11.1070630176
 20
7.0845338753
 30
0.0
 10
11.1650052241
 20
7.0955652221
 30
0.0
 10
11.220117692
 20
7.1128445915
 30
0.0
 10
11.2547651001
 20
7.1285899224
 30
0.0
 10
11.2711898455
 20
7.13744445
 30
0.0
  0
SPLINE
  5
30D
100
AcDbEntity
  8
0
100
AcDbSpline
 62
7
  6
CONTINUOUS
 70
0
 71
3
 72
10
 73
6
 74
0
 42
0.0000001
 43
0.0000001
 44
0.0000000001
 40
0.0
 40
0.0
 40
0.0
 40
0.0
 40
0.4886195176
 40
0.7427234176
 40
1.0
 40
1.0
 40
1.0
 40
1.0
 10
10.8436462793
 20
7.0696118128
 30
0.0
 10
10.8746145848
 20
7.056407227
 30
0.0
 10
10.9242528349
 20
7.0419160741
 30
0.0
 10
10.9926106455
 20
7.032844204
 30
0.0
 10
11.0279052447
 20
7.031717609
 30
0.0
 10
11.0456288734
 20
7.0320309013
 30
0.0
  0
SPLINE
  5
30E
100
AcDbEntity
  8
0
100
AcDbSpline
 62
7
  6
CONTINUOUS
 70
0
 71
3
 72
11
 73
7
 74
0
 42
0.0000001
 43
0.0000001
 44
0.0000000001
 40
0.0
 40
0.0
 40
0.0
 40
0.0
 40
0.2565602327
 40
0.5106118401
 40
0.7592581219
 40
1.0
 40
1.0
 40
1.0
 40
1.0
 10
11.0477052128
 20
7.0320716414
 30
0.0
 10
11.0674462377
 20
7.0324973661
 30
0.0
 10
11.1067232371
 20
7.0355135369
 30
0.0
 10
11.1642458186
 20
7.0464661027
 30
0.0
 10
11.2189682055
 20
7.0636083575
 30
0.0
 10
11.2533765223
 20
7.0792253083
 30
0.0
 10
11.2696921988
 20
7.0880055402
 30
0.0
  0
SPLINE
  5
30F
100
AcDbEntity
  8
0
100
AcDbSpline
 62
7
  6
CONTINUOUS
 70
0
 71
3
 72
13
 73
9
 74
0
 42
0.0000001
 43
0.0000001
 44
0.0000000001
 40
0.0
 40
0.0
 40
0.0
 40
0.0
 40
0.2335378545
 40
0.3556487285
 40
0.4807394258
 40
0.6083224625
 40
0.7378348086
 40
1.0
 40
1.0
 40
1.0
 40
1.0
 10
10.7700397012
 20
7.2508766047
 30
0.0
 10
10.7884385686
 20
7.2372930612
 30
0.0
 10
10.8185751538
 20
7.2193450551
 30
0.0
 10
10.8617375695
 20
7.2004789786
 30
0.0
 10
10.8964778371
 20
7.188509477
 30
0.0
 10
10.9327339107
 20
7.1790743242
 30
0.0
 10
10.9827904828
 20
7.1699461692
 30
0.0
 10
11.0212228874
 20
7.167200189
 30
0.0
 10
11.0468961649
 20
7.1671802283
 30
0.0
  0
SPLINE
  5
310
100
AcDbEntity
  8
0
100
AcDbSpline
 62
7
  6
CONTINUOUS
 70
0
 71
3
 72
13
 73
9
 74
0
 42
0.0000001
 43
0.0000001
 44
0.0000000001
 40
0.0
 40
0.0
 40
0.0
 40
0.0
 40
0.2621151706
 40
0.3916204281
 40
0.5192055442
 40
0.6443053484
 40
0.7664299716
 40
1.0
 40
1.0
 40
1.0
 40
1.0
 10
11.0468961649
 20
7.1671802283
 30
0.0
 10
11.0726016051
 20
7.1671602426
 30
0.0
 10
11.1110882014
 20
7.1698533533
 30
0.0
 10
11.161224425
 20
7.1789240012
 30
0.0
 10
11.1975459613
 20
7.1883240175
 30
0.0
 10
11.2323544194
 20
7.2002659896
 30
0.0
 10
11.2756082606
 20
7.2191061548
 30
0.0
 10
11.3058147104
 20
7.2370449233
 30
0.0
 10
11.3242591844
 20
7.2506275715
 30
0.0
  0
SPLINE
  5
311
100
AcDbEntity
  8
0
100
AcDbSpline
 62
7
  6
CONTINUOUS
 70
0
 71
3
 72
9
 73
5
 74
0
 42
0.0000001
 43
0.0000001
 44
0.0000000001
 40
0.0
 40
0.0
 40
0.0
 40
0.0
 40
0.4967103046
 40
1.0
 40
1.0
 40
1.0
 40
1.0
 10
10.6410683399
 20
7.4295766922
 30
0.0
 10
10.641068449
 20
7.4188127636
 30
0.0
 10
10.6428097149
 20
7.3971092178
 30
0.0
 10
10.6479254037
 20
7.3759517248
 30
0.0
 10
10.6512795724
 20
7.3655737941
 30
0.0
  0
SPLINE
  5
312
100
AcDbEntity
  8
0
100
AcDbSpline
 62
7
  6
CONTINUOUS
 70
0
 71
3
 72
23
 73
19
 74
0
 42
0.0000001
 43
0.0000001
 44
0.0000000001
 40
0.0
 40
0.0
 40
0.0
 40
0.0
 40
0.0505948978
 40
0.1032211062
 40
0.15832112
 40
0.216105942
 40
0.2765810074
 40
0.3395666033
 40
0.4047332685
 40
0.4716306733
 40
0.5397210279
 40
0.6084109141
 40
0.6770770958
 40
0.7451007484
 40
0.8118879648
 40
0.8769014057
 40
0.9397339041
 40
1.0
 40
1.0
 40
1.0
 40
1.0
 10
10.6512795724
 20
7.3655737941
 30
0.0
 10
10.655416827
 20
7.3527729647
 30
0.0
 10
10.6663041743
 20
7.3273933589
 30
0.0
 10
10.6893275272
 20
7.2919409355
 30
0.0
 10
10.7188350643
 20
7.2590694884
 30
0.0
 10
10.7542688527
 20
7.2293700112
 30
0.0
 10
10.7949733125
 20
7.2033442718
 30
0.0
 10
10.8402096494
 20
7.1814367176
 30
0.0
 10
10.8891669892
 20
7.1640309301
 30
0.0
 10
10.9409663311
 20
7.1514329761
 30
0.0
 10
10.9946764527
 20
7.1438597846
 30
0.0
 10
11.0493329419
 20
7.1414478486
 30
0.0
 10
11.1039534481
 20
7.1442421955
 30
0.0
 10
11.1575559063
 20
7.1521902311
 30
0.0
 10
11.2091752257
 20
7.1651500393
 30
0.0
 10
11.2578944972
 20
7.182898291
 30
0.0
 10
11.3028163429
 20
7.2051228452
 30
0.0
 10
11.3303165363
 20
7.2230573365
 30
0.0
 10
11.3431286757
 20
7.2326816608
 30
0.0
  0
SPLINE
  5
313
100
AcDbEntity
  8
0
100
AcDbSpline
 62
9
  6
CONTINUOUS
 70
0
 71
3
 72
23
 73
19
 74
0
 42
0.0000001
 43
0.0000001
 44
0.0000000001
 40
0.0
 40
0.0
 40
0.0
 40
0.0
 40
0.0514596825
 40
0.1034074817
 40
0.1563011892
 40
0.2105366329
 40
0.2664358565
 40
0.3242273139
 40
0.3840544217
 40
0.4459656651
 40
0.5099350958
 40
0.5758593042
 40
0.6435768486
 40
0.7128596836
 40
0.7834454516
 40
0.8550613187
 40
0.9273932418
 40
1.0
 40
1.0
 40
1.0
 40
1.0
 10
11.4535683383
 20
8.2377112983
 30
0.0
 10
11.4535683383
 20
8.2283031366
 30
0.0
 10
11.4522443071
 20
8.209372112
 30
0.0
 10
11.4463367617
 20
8.1813273255
 30
0.0
 10
11.4365533936
 20
8.1538486621
 30
0.0
 10
11.4230181375
 20
8.1272068659
 30
0.0
 10
11.4058578672
 20
8.1016640245
 30
0.0
 10
11.385261498
 20
8.0774522088
 30
0.0
 10
11.3614208917
 20
8.0548088178
 30
0.0
 10
11.3345798171
 20
8.0339327137
 30
0.0
 10
11.3049877576
 20
8.0150307999
 30
0.0
 10
11.2729357703
 20
7.9982671112
 30
0.0
 10
11.2387246667
 20
7.9838127922
 30
0.0
 10
11.2026888988
 20
7.9717888344
 30
0.0
 10
11.1651654503
 20
7.9623207185
 30
0.0
 10
11.1265084134
 20
7.9554887071
 30
0.0
 10
11.0871003006
 20
7.9513718772
 30
0.0
 10
11.0605927326
 20
7.9504491684
 30
0.0
 10
11.0473183383
 20
7.9504491684
 30
0.0
  0
SPLINE
  5
314
100
AcDbEntity
  8
0
100
AcDbSpline
 62
7
  6
CONTINUOUS
 70
0
 71
3
 72
15
 73
11
 74
0
 42
0.0000001
 43
0.0000001
 44
0.0000000001
 40
0.0
 40
0.0
 40
0.0
 40
0.0
 40
0.136476727
 40
0.2715847272
 40
0.4041198755
 40
0.5331244968
 40
0.6577218969
 40
0.7772527933
 40
0.8913841557
 40
1.0
 40
1.0
 40
1.0
 40
1.0
 10
11.0473183383
 20
7.0012461346
 30
0.0
 10
11.0296306193
 20
7.0008923289
 30
0.0
 10
10.9943780865
 20
7.0018139188
 30
0.0
 10
10.9422906685
 20
7.008047941
 30
0.0
 10
10.8919740074
 20
7.0190195756
 30
0.0
 10
10.8442876981
 20
7.0345185003
 30
0.0
 10
10.800034654
 20
7.0542790251
 30
0.0
 10
10.7599545242
 20
7.0779568053
 30
0.0
 10
10.7247454539
 20
7.105146235
 30
0.0
 10
10.7044173139
 20
7.1258183834
 30
0.0
 10
10.6953467171
 20
7.1365869542
 30
0.0
  0
SPLINE
  5
315
100
AcDbEntity
  8
0
100
AcDbSpline
 62
7
  6
CONTINUOUS
 70
0
 71
3
 72
15
 73
11
 74
0
 42
0.0000001
 43
0.0000001
 44
0.0000000001
 40
0.0
 40
0.0
 40
0.0
 40
0.0
 40
0.1352523239
 40
0.2693563708
 40
0.401167261
 40
0.5298528743
 40
0.654641916
 40
0.7153866799
 40
0.774937422
 40
1.0
 40
1.0
 40
1.0
 40
1.0
 10
11.0473183383
 20
7.0526159303
 30
0.0
 10
11.0307459319
 20
7.0522835244
 30
0.0
 10
10.9976952056
 20
7.0530521932
 30
0.0
 10
10.94876854
 20
7.058462725
 30
0.0
 10
10.9013001756
 20
7.0680541825
 30
0.0
 10
10.8560138427
 20
7.0816637087
 30
0.0
 10
10.820319718
 20
7.0962996298
 30
0.0
 10
10.7934989127
 20
7.1098601042
 30
0.0
 10
10.7568186516
 20
7.1309573915
 30
0.0
 10
10.7288201311
 20
7.1525673295
 30
0.0
 10
10.709531193
 20
7.1722834047
 30
0.0
  0
SPLINE
  5
316
100
AcDbEntity
  8
0
100
AcDbSpline
 62
7
  6
CONTINUOUS
 70
0
 71
3
 72
10
 73
6
 74
0
 42
0.0000001
 43
0.0000001
 44
0.0000000001
 40
0.0
 40
0.0
 40
0.0
 40
0.0
 40
0.5136641242
 40
0.7597816575
 40
1.0
 40
1.0
 40
1.0
 40
1.0
 10
10.703569827
 20
7.1785606849
 30
0.0
 10
10.6916444002
 20
7.1915012746
 30
0.0
 10
10.6756931383
 20
7.2123742624
 30
0.0
 10
10.6595881591
 20
7.2426690554
 30
0.0
 10
10.653460615
 20
7.2582128807
 30
0.0
 10
10.6509056991
 20
7.2660358626
 30
0.0
  0
SPLINE
  5
317
100
AcDbEntity
  8
0
100
AcDbSpline
 62
7
  6
CONTINUOUS
 70
0
 71
3
 72
9
 73
5
 74
0
 42
0.0000001
 43
0.0000001
 44
0.0000000001
 40
0.0
 40
0.0
 40
0.0
 40
0.0
 40
0.5029857444
 40
1.0
 40
1.0
 40
1.0
 40
1.0
 10
10.6509056991
 20
7.2660358626
 30
0.0
 10
10.6484902831
 20
7.2734317048
 30
0.0
 10
10.6445186891
 20
7.2884214671
 30
0.0
 10
10.6423332166
 20
7.3037759136
 30
0.0
 10
10.6417069684
 20
7.3114382737
 30
0.0
  0
SPLINE
  5
318
100
AcDbEntity
  8
0
100
AcDbSpline
 62
7
  6
CONTINUOUS
 70
0
 71
3
 72
17
 73
13
 74
0
 42
0.0000001
 43
0.0000001
 44
0.0000000001
 40
0.0
 40
0.0
 40
0.0
 40
0.0
 40
0.1424345632
 40
0.2825643842
 40
0.4184766431
 40
0.548648332
 40
0.6719477837
 40
0.7878824162
 40
0.8432061273
 40
0.8968722038
 40
0.9490568248
 40
1.0
 40
1.0
 40
1.0
 40
1.0
 10
11.0473183383
 20
7.1038556774
 30
0.0
 10
11.0246376697
 20
7.1033999312
 30
0.0
 10
10.9795430893
 20
7.1051569251
 30
0.0
 10
10.9135751304
 20
7.1157186411
 30
0.0
 10
10.8512933549
 20
7.1338865887
 30
0.0
 10
10.794422771
 20
7.1591299063
 30
0.0
 10
10.7445378552
 20
7.1907482406
 30
0.0
 10
10.7093788402
 20
7.2222180582
 30
0.0
 10
10.6863274448
 20
7.2497046253
 30
0.0
 10
10.671842556
 20
7.2709543343
 30
0.0
 10
10.6600189389
 20
7.2930026433
 30
0.0
 10
10.6538968706
 20
7.308289475
 30
0.0
 10
10.6513278389
 20
7.3159856263
 30
0.0
  0
SPLINE
  5
319
100
AcDbEntity
  8
0
100
AcDbSpline
 62
7
  6
CONTINUOUS
 70
0
 71
3
 72
9
 73
5
 74
0
 42
0.0000001
 43
0.0000001
 44
0.0000000001
 40
0.0
 40
0.0
 40
0.0
 40
0.0
 40
0.5030739003
 40
1.0
 40
1.0
 40
1.0
 40
1.0
 10
10.6513278389
 20
7.3159856263
 30
0.0
 10
10.6488718234
 20
7.3233432106
 30
0.0
 10
10.6448105251
 20
7.3382569134
 30
0.0
 10
10.6425178794
 20
7.3535450201
 30
0.0
 10
10.6418345875
 20
7.3611763792
 30
0.0
  0
SPLINE
  5
31A
100
AcDbEntity
  8
0
100
AcDbSpline
 62
9
  6
CONTINUOUS
 70
0
 71
3
 72
23
 73
19
 74
0
 42
0.0000001
 43
0.0000001
 44
0.0000000001
 40
0.0
 40
0.0
 40
0.0
 40
0.0
 40
0.0726067582
 40
0.1449386813
 40
0.2165545484
 40
0.2871403164
 40
0.3564231514
 40
0.4241406958
 40
0.4900649042
 40
0.5540343349
 40
0.6159455783
 40
0.6757726861
 40
0.7335641435
 40
0.7894633671
 40
0.8436988108
 40
0.8965925183
 40
0.9485403175
 40
1.0
 40
1.0
 40
1.0
 40
1.0
 10
11.0473183383
 20
7.9504491684
 30
0.0
 10
11.034043944
 20
7.9504491684
 30
0.0
 10
11.007536376
 20
7.9513718772
 30
0.0
 10
10.9681282632
 20
7.9554887071
 30
0.0
 10
10.9294712263
 20
7.9623207185
 30
0.0
 10
10.8919477778
 20
7.9717888344
 30
0.0
 10
10.8559120099
 20
7.9838127922
 30
0.0
 10
10.8217009063
 20
7.9982671112
 30
0.0
 10
10.789648919
 20
8.0150307999
 30
0.0
 10
10.7600568595
 20
8.0339327137
 30
0.0
 10
10.7332157849
 20
8.0548088178
 30
0.0
 10
10.7093751786
 20
8.0774522088
 30
0.0
 10
10.6887788094
 20
8.1016640245
 30
0.0
 10
10.6716185391
 20
8.1272068659
 30
0.0
 10
10.658083283
 20
8.1538486621
 30
0.0
 10
10.6482999148
 20
8.1813273255
 30
0.0
 10
10.6423923694
 20
8.209372112
 30
0.0
 10
10.6410683383
 20
8.2283031366
 30
0.0
 10
10.6410683383
 20
8.2377112983
 30
0.0
  0
SPLINE
  5
31B
100
AcDbEntity
  8
0
100
AcDbSpline
 62
9
  6
CONTINUOUS
 70
0
 71
3
 72
21
 73
17
 74
0
 42
0.0000001
 43
0.0000001
 44
0.0000000001
 40
0.0
 40
0.0
 40
0.0
 40
0.0
 40
0.0535526712
 40
0.1074540398
 40
0.1619754436
 40
0.2174086752
 40
0.2740100323
 40
0.3319822211
 40
0.391484132
 40
0.452628821
 40
0.5154810682
 40
0.580061492
 40
0.7141969609
 40
0.7836801974
 40
0.8545906787
 40
1.0
 40
1.0
 40
1.0
 40
1.0
 10
9.6173183383
 20
6.1861043944
 30
0.0
 10
9.6173183383
 20
6.2124054405
 30
0.0
 10
9.620247083
 20
6.2652240662
 30
0.0
 10
9.6333477192
 20
6.3438401517
 30
0.0
 10
9.6551032917
 20
6.4214780221
 30
0.0
 10
9.6853505701
 20
6.4976349078
 30
0.0
 10
9.7238945885
 20
6.5718535377
 30
0.0
 10
9.770487868
 20
6.6436841233
 30
0.0
 10
9.8248362414
 20
6.7126934263
 30
0.0
 10
9.8866018725
 20
6.7784651626
 30
0.0
 10
9.9554034685
 20
6.8406171621
 30
0.0
 10
10.0572179272
 20
6.9191207583
 30
0.0
 10
10.1702899498
 20
6.9876867999
 30
0.0
 10
10.2919769139
 20
7.0459019915
 30
0.0
 10
10.4222851562
 20
7.0982805083
 30
0.0
 10
10.5244340482
 20
7.1286686015
 30
0.0
 10
10.5939325502
 20
7.1450983232
 30
0.0
  0
SPLINE
  5
31C
100
AcDbEntity
  8
0
100
AcDbSpline
 62
9
  6
CONTINUOUS
 70
0
 71
3
 72
21
 73
17
 74
0
 42
0.0000001
 43
0.0000001
 44
0.0000000001
 40
0.0
 40
0.0
 40
0.0
 40
0.0
 40
0.1454093213
 40
0.2163198026
 40
0.2858030391
 40
0.4199385079
 40
0.4845189318
 40
0.547371179
 40
0.608515868
 40
0.6680177788
 40
0.7259899677
 40
0.7825913248
 40
0.8380245564
 40
0.8925459602
 40
0.9464473288
 40
1.0
 40
1.0
 40
1.0
 40
1.0
 10
11.5007041264
 20
7.1450983231
 30
0.0
 10
11.5702026284
 20
7.1286686015
 30
0.0
 10
11.6723515204
 20
7.0982805083
 30
0.0
 10
11.8026597627
 20
7.0459019915
 30
0.0
 10
11.9243467268
 20
6.9876867998
 30
0.0
 10
12.0374187494
 20
6.9191207583
 30
0.0
 10
12.1392332081
 20
6.8406171621
 30
0.0
 10
12.2080348041
 20
6.7784651626
 30
0.0
 10
12.2698004352
 20
6.7126934263
 30
0.0
 10
12.3241488086
 20
6.6436841233
 30
0.0
 10
12.3707420881
 20
6.5718535377
 30
0.0
 10
12.4092861065
 20
6.4976349078
 30
0.0
 10
12.4395333849
 20
6.4214780221
 30
0.0
 10
12.4612889574
 20
6.3438401517
 30
0.0
 10
12.4743895936
 20
6.2652240662
 30
0.0
 10
12.4773183383
 20
6.2124054405
 30
0.0
 10
12.4773183383
 20
6.1861043944
 30
0.0
  0
SPLINE
  5
31D
100
AcDbEntity
  8
0
100
AcDbSpline
 62
9
  6
CONTINUOUS
 70
0
 71
3
 72
45
 73
41
 74
0
 42
0.0000001
 43
0.0000001
 44
0.0000000001
 40
0.0
 40
0.0
 40
0.0
 40
0.0
 40
0.0128506321
 40
0.0257393741
 40
0.0386908689
 40
0.0517306271
 40
0.0648870739
 40
0.0781876165
 40
0.1053032704
 40
0.1332502948
 40
0.1621436535
 40
0.1920541313
 40
0.2230075735
 40
0.2549892445
 40
0.2879485153
 40
0.3218028001
 40
0.3564426336
 40
0.3917369415
 40
0.4275370732
 40
0.4636813821
 40
0.5
 40
0.5363186179
 40
0.5724629268
 40
0.6082630585
 40
0.6435573664
 40
0.6781971999
 40
0.7120514847
 40
0.7450107555
 40
0.7769924265
 40
0.8079458687
 40
0.8378563465
 40
0.8667497052
 40
0.8946967296
 40
0.9218123835
 40
0.9351129261
 40
0.9482693729
 40
0.9613091311
 40
0.9742606259
 40
0.9871493679
 40
1.0
 40
1.0
 40
1.0
 40
1.0
 10
12.4773183383
 20
6.1861043944
 30
0.0
 10
12.4773183383
 20
6.1695629207
 30
0.0
 10
12.4761634848
 20
6.1364195253
 30
0.0
 10
12.4709868468
 20
6.0868482791
 30
0.0
 10
12.4623758026
 20
6.0375075183
 30
0.0
 10
12.4503427919
 20
5.9885349487
 30
0.0
 10
12.4349265135
 20
5.9400474979
 30
0.0
 10
12.4097557483
 20
5.875801697
 30
0.0
 10
12.3697752634
 20
5.7971275513
 30
0.0
 10
12.3093858105
 20
5.7072157743
 30
0.0
 10
12.2368757512
 20
5.6219966391
 30
0.0
 10
12.1529666448
 20
5.5422815972
 30
0.0
 10
12.0584762885
 20
5.4688095015
 30
0.0
 10
11.9543191574
 20
5.4022628674
 30
0.0
 10
11.8414920644
 20
5.3432661584
 30
0.0
 10
11.7210742746
 20
5.292373685
 30
0.0
 10
11.5942182534
 20
5.2500598476
 30
0.0
 10
11.462134779
 20
5.2167259747
 30
0.0
 10
11.3260854305
 20
5.192690279
 30
0.0
 10
11.1873714185
 20
5.1781757506
 30
0.0
 10
11.0473183383
 20
5.1733207809
 30
0.0
 10
10.9072652581
 20
5.1781757506
 30
0.0
 10
10.7685512461
 20
5.192690279
 30
0.0
 10
10.6325018976
 20
5.2167259747
 30
0.0
 10
10.5004184231
 20
5.2500598476
 30
0.0
 10
10.373562402
 20
5.292373685
 30
0.0
 10
10.2531446121
 20
5.3432661584
 30
0.0
 10
10.1403175192
 20
5.4022628674
 30
0.0
 10
10.036160388
 20
5.4688095015
 30
0.0
 10
9.9416700318
 20
5.5422815972
 30
0.0
 10
9.8577609254
 20
5.6219966391
 30
0.0
 10
9.7852508661
 20
5.7072157743
 30
0.0
 10
9.7248614132
 20
5.7971275513
 30
0.0
 10
9.6848809283
 20
5.875801697
 30
0.0
 10
9.659710163
 20
5.9400474979
 30
0.0
 10
9.6442938847
 20
5.9885349487
 30
0.0
 10
9.632260874
 20
6.0375075183
 30
0.0
 10
9.6236498297
 20
6.0868482791
 30
0.0
 10
9.6184731918
 20
6.1364195253
 30
0.0
 10
9.6173183383
 20
6.1695629207
 30
0.0
 10
9.6173183383
 20
6.1861043944
 30
0.0
  0
SPLINE
  5
31E
100
AcDbEntity
  8
0
100
AcDbSpline
 62
9
  6
CONTINUOUS
 70
0
 71
3
 72
11
 73
7
 74
0
 42
0.0000001
 43
0.0000001
 44
0.0000000001
 40
0.0
 40
0.0
 40
0.0
 40
0.0
 40
0.2469911043
 40
0.4953495692
 40
0.7460133989
 40
1.0
 40
1.0
 40
1.0
 40
1.0
 10
11.7773183383
 20
6.1861043944
 30
0.0
 10
11.7773183383
 20
6.1980391331
 30
0.0
 10
11.7761364915
 20
6.2219907508
 30
0.0
 10
11.7708537849
 20
6.2577043876
 30
0.0
 10
11.7620741224
 20
6.2930704414
 30
0.0
 10
11.7539819023
 20
6.3161170571
 30
0.0
 10
11.7493966181
 20
6.3275010776
 30
0.0
  0
SPLINE
  5
31F
100
AcDbEntity
  8
0
100
AcDbSpline
 62
9
  6
CONTINUOUS
 70
0
 71
3
 72
11
 73
7
 74
0
 42
0.0000001
 43
0.0000001
 44
0.0000000001
 40
0.0
 40
0.0
 40
0.0
 40
0.0
 40
0.2539866008
 40
0.5046504306
 40
0.7530088955
 40
1.0
 40
1.0
 40
1.0
 40
1.0
 10
10.3452400568
 20
6.3275010732
 30
0.0
 10
10.3406547728
 20
6.3161170531
 30
0.0
 10
10.3325625532
 20
6.2930704381
 30
0.0
 10
10.3237828913
 20
6.2577043854
 30
0.0
 10
10.318500185
 20
6.2219907497
 30
0.0
 10
10.3173183383
 20
6.1980391327
 30
0.0
 10
10.3173183383
 20
6.1861043944
 30
0.0
  0
SPLINE
  5
320
100
AcDbEntity
  8
0
100
AcDbSpline
 62
9
  6
CONTINUOUS
 70
0
 71
3
 72
37
 73
33
 74
0
 42
0.0000001
 43
0.0000001
 44
0.0000000001
 40
0.0
 40
0.0
 40
0.0
 40
0.0
 40
0.0257251696
 40
0.0517092792
 40
0.0781575904
 40
0.1052767479
 40
0.1332288269
 40
0.1621278255
 40
0.1920432625
 40
0.2230022915
 40
0.2549897682
 40
0.2879547834
 40
0.32181519
 40
0.3564611141
 40
0.3917618408
 40
0.4275682368
 40
0.5
 40
0.5724317631
 40
0.6082381591
 40
0.6435388858
 40
0.6781848099
 40
0.7120452166
 40
0.7450102318
 40
0.7769977085
 40
0.8079567374
 40
0.8378721745
 40
0.8667711731
 40
0.8947232521
 40
0.9218424096
 40
0.9482907207
 40
0.9742748304
 40
1.0
 40
1.0
 40
1.0
 40
1.0
 10
10.3173183383
 20
6.1861043944
 30
0.0
 10
10.3173183383
 20
6.169203198
 30
0.0
 10
10.3196970229
 20
6.1351848751
 30
0.0
 10
10.3303123634
 20
6.0847906761
 30
0.0
 10
10.3478877171
 20
6.0354072227
 30
0.0
 10
10.3722189908
 20
5.9875403183
 30
0.0
 10
10.4030445446
 20
5.9416352178
 30
0.0
 10
10.440062778
 20
5.8981350689
 30
0.0
 10
10.4828961229
 20
5.8574395576
 30
0.0
 10
10.531132473
 20
5.8199329243
 30
0.0
 10
10.584304303
 20
5.7859626954
 30
0.0
 10
10.6419004989
 20
5.7558437985
 30
0.0
 10
10.7033732865
 20
5.72986532
 30
0.0
 10
10.7681308687
 20
5.7082629131
 30
0.0
 10
10.8355607782
 20
5.6912475407
 30
0.0
 10
10.9284936422
 20
5.6748287879
 30
0.0
 10
11.0473183382
 20
5.6666308519
 30
0.0
 10
11.1661430342
 20
5.6748287879
 30
0.0
 10
11.2590758983
 20
5.6912475407
 30
0.0
 10
11.3265058078
 20
5.708262913
 30
0.0
 10
11.39126339
 20
5.7298653199
 30
0.0
 10
11.4527361776
 20
5.7558437985
 30
0.0
 10
11.5103323735
 20
5.7859626954
 30
0.0
 10
11.5635042035
 20
5.8199329243
 30
0.0
 10
11.6117405536
 20
5.8574395576
 30
0.0
 10
11.6545738985
 20
5.8981350688
 30
0.0
 10
11.6915921319
 20
5.9416352177
 30
0.0
 10
11.7224176857
 20
5.9875403182
 30
0.0
 10
11.7467489594
 20
6.0354072226
 30
0.0
 10
11.7643243131
 20
6.0847906761
 30
0.0
 10
11.7749396536
 20
6.1351848751
 30
0.0
 10
11.7773183383
 20
6.169203198
 30
0.0
 10
11.7773183383
 20
6.1861043944
 30
0.0
  0
SPLINE
  5
321
100
AcDbEntity
  8
0
100
AcDbSpline
 62
9
  6
CONTINUOUS
 70
0
 71
3
 72
25
 73
21
 74
0
 42
0.0000001
 43
0.0000001
 44
0.0000000001
 40
0.0
 40
0.0
 40
0.0
 40
0.0
 40
0.0261150294
 40
0.0522928661
 40
0.0785753759
 40
0.10500753
 40
0.1316389016
 40
0.1585171328
 40
0.2131569944
 40
0.2692402355
 40
0.3269922945
 40
0.3865691565
 40
0.448057128
 40
0.5114765788
 40
0.5767868324
 40
0.6438930248
 40
0.7126526902
 40
0.7828821189
 40
0.8543632498
 40
1.0
 40
1.0
 40
1.0
 40
1.0
 10
8.1223183383
 20
5.9803363211
 30
0.0
 10
8.1223183383
 20
6.0111701707
 30
0.0
 10
8.1242774109
 20
6.0729296829
 30
0.0
 10
8.1330660013
 20
6.1653443632
 30
0.0
 10
8.1476937939
 20
6.2573990555
 30
0.0
 10
8.1681379121
 20
6.3488848232
 30
0.0
 10
8.1943458783
 20
6.43962306
 30
0.0
 10
8.2371336869
 20
6.5600007456
 30
0.0
 10
8.3051303035
 20
6.7079910907
 30
0.0
 10
8.4082152392
 20
6.8785668865
 30
0.0
 10
8.5323768229
 20
7.0418332252
 30
0.0
 10
8.6765815266
 20
7.1964938094
 30
0.0
 10
8.8396591752
 20
7.3413472888
 30
0.0
 10
9.0202963126
 20
7.4752642207
 30
0.0
 10
9.2170455181
 20
7.5972050439
 30
0.0
 10
9.428340868
 20
7.7062188135
 30
0.0
 10
9.6524976273
 20
7.8014493338
 30
0.0
 10
9.8877570686
 20
7.8821541676
 30
0.0
 10
10.2156283109
 20
7.9700615121
 30
0.0
 10
10.4695701329
 20
8.0115517407
 30
0.0
 10
10.6406813689
 20
8.0285390438
 30
0.0
  0
SPLINE
  5
322
100
AcDbEntity
  8
0
100
AcDbSpline
 62
9
  6
CONTINUOUS
 70
0
 71
3
 72
25
 73
21
 74
0
 42
0.0000001
 43
0.0000001
 44
0.0000000001
 40
0.0
 40
0.0
 40
0.0
 40
0.0
 40
0.1456367502
 40
0.2171178811
 40
0.2873473098
 40
0.3561069752
 40
0.4232131676
 40
0.4885234212
 40
0.551942872
 40
0.6134308435
 40
0.6730077055
 40
0.7307597645
 40
0.7868430056
 40
0.8414828672
 40
0.8683610984
 40
0.89499247
 40
0.9214246241
 40
0.9477071339
 40
0.9738849706
 40
1.0
 40
1.0
 40
1.0
 40
1.0
 10
11.4539553077
 20
8.0285390438
 30
0.0
 10
11.6250665437
 20
8.0115517407
 30
0.0
 10
11.8790083656
 20
7.9700615121
 30
0.0
 10
12.206879608
 20
7.8821541676
 30
0.0
 10
12.4421390493
 20
7.8014493338
 30
0.0
 10
12.6662958085
 20
7.7062188135
 30
0.0
 10
12.8775911585
 20
7.5972050439
 30
0.0
 10
13.0743403639
 20
7.4752642207
 30
0.0
 10
13.2549775014
 20
7.3413472888
 30
0.0
 10
13.41805515
 20
7.1964938094
 30
0.0
 10
13.5622598536
 20
7.0418332253
 30
0.0
 10
13.6864214373
 20
6.8785668865
 30
0.0
 10
13.7895063731
 20
6.7079910907
 30
0.0
 10
13.8575029897
 20
6.5600007456
 30
0.0
 10
13.9002907983
 20
6.43962306
 30
0.0
 10
13.9264987644
 20
6.3488848232
 30
0.0
 10
13.9469428827
 20
6.2573990555
 30
0.0
 10
13.9615706753
 20
6.1653443632
 30
0.0
 10
13.9703592657
 20
6.0729296829
 30
0.0
 10
13.9723183383
 20
6.0111701707
 30
0.0
 10
13.9723183383
 20
5.9803363211
 30
0.0
  0
SPLINE
  5
323
100
AcDbEntity
  8
0
100
AcDbSpline
 62
9
  6
CONTINUOUS
 70
0
 71
3
 72
24
 73
20
 74
0
 42
0.0000001
 43
0.0000001
 44
0.0000000001
 40
0.0
 40
0.0
 40
0.0
 40
0.0
 40
0.053694806
 40
0.0806591609
 40
0.1077377749
 40
0.1623669932
 40
0.2178898931
 40
0.2745503919
 40
0.3325501693
 40
0.3920490493
 40
0.4531605231
 40
0.5159532651
 40
0.5804519109
 40
0.6466408752
 40
0.7144677052
 40
0.7838455678
 40
0.8546586472
 40
0.9267649754
 40
1.0
 40
1.0
 40
1.0
 40
1.0
 10
13.9723183383
 20
5.9803363211
 30
0.0
 10
13.9723183383
 20
5.9273419722
 30
0.0
 10
13.9679666345
 20
5.8476484366
 30
0.0
 10
13.9536000166
 20
5.7422547424
 30
0.0
 10
13.9334249767
 20
5.6368669083
 30
0.0
 10
13.8973411269
 20
5.5060405645
 30
0.0
 10
13.8373004734
 20
5.3524455399
 30
0.0
 10
13.7607752171
 20
5.2026268502
 30
0.0
 10
13.6682316818
 20
5.0574850329
 30
0.0
 10
13.5602412794
 20
4.9178651499
 30
0.0
 10
13.4374618143
 20
4.7845735756
 30
0.0
 10
13.3006207813
 20
4.6583885552
 30
0.0
 10
13.1505355048
 20
4.5400358855
 30
0.0
 10
12.988093713
 20
4.4301980791
 30
0.0
 10
12.8142481865
 20
4.3295179369
 30
0.0
 10
12.6300261609
 20
4.2385724075
 30
0.0
 10
12.4365061587
 20
4.1578912931
 30
0.0
 10
12.2348321767
 20
4.0879510756
 30
0.0
 10
12.0966731556
 20
4.0490133562
 30
0.0
 10
12.026571702
 20
4.0314026832
 30
0.0
  0
LINE
  5
324
100
AcDbEntity
  8
0
100
AcDbLine
 62
9
  6
CONTINUOUS
 10
12.026571702
 20
4.0314026832
 11
12.0204789929
 21
4.0298774506
  0
LINE
  5
325
100
AcDbEntity
  8
0
100
AcDbLine
 62
9
  6
CONTINUOUS
 10
11.916183964
 20
4.0054074641
 11
11.914362022
 21
4.0050071444
  0
SPLINE
  5
326
100
AcDbEntity
  8
0
100
AcDbSpline
 62
9
  6
CONTINUOUS
 70
0
 71
3
 72
13
 73
9
 74
0
 42
0.0000001
 43
0.0000001
 44
0.0000000001
 40
0.0
 40
0.0
 40
0.0
 40
0.0
 40
0.248547201
 40
0.3740958561
 40
0.5
 40
0.6259041439
 40
0.751452799
 40
1.0
 40
1.0
 40
1.0
 40
1.0
 10
11.914362022
 20
4.0050071444
 30
0.0
 10
11.7729998911
 20
3.973982577
 30
0.0
 10
11.5573887461
 20
3.9391717435
 30
0.0
 10
11.2670830403
 20
3.9159432112
 30
0.0
 10
11.0473183383
 20
3.9100991209
 30
0.0
 10
10.8275536362
 20
3.9159432112
 30
0.0
 10
10.5372479305
 20
3.9391717435
 30
0.0
 10
10.3216367855
 20
3.973982577
 30
0.0
 10
10.1802746546
 20
4.0050071444
 30
0.0
  0
LINE
  5
327
100
AcDbEntity
  8
0
100
AcDbLine
 62
9
  6
CONTINUOUS
 10
10.1802746546
 20
4.0050071444
 11
10.1784527125
 21
4.0054074641
  0
LINE
  5
328
100
AcDbEntity
  8
0
100
AcDbLine
 62
9
  6
CONTINUOUS
 10
10.0741576837
 20
4.0298774506
 11
10.0680649745
 21
4.0314026832
  0
SPLINE
  5
329
100
AcDbEntity
  8
0
100
AcDbSpline
 62
9
  6
CONTINUOUS
 70
0
 71
3
 72
24
 73
20
 74
0
 42
0.0000001
 43
0.0000001
 44
0.0000000001
 40
0.0
 40
0.0
 40
0.0
 40
0.0
 40
0.0732350246
 40
0.1453413528
 40
0.2161544322
 40
0.2855322948
 40
0.3533591248
 40
0.4195480891
 40
0.4840467349
 40
0.5468394769
 40
0.6079509507
 40
0.6674498307
 40
0.7254496081
 40
0.7821101069
 40
0.8376330068
 40
0.8922622251
 40
0.9193408391
 40
0.946305194
 40
1.0
 40
1.0
 40
1.0
 40
1.0
 10
10.0680649745
 20
4.0314026832
 30
0.0
 10
9.9979635209
 20
4.0490133562
 30
0.0
 10
9.8598044998
 20
4.0879510756
 30
0.0
 10
9.6581305179
 20
4.1578912931
 30
0.0
 10
9.4646105156
 20
4.2385724075
 30
0.0
 10
9.28038849
 20
4.3295179369
 30
0.0
 10
9.1065429635
 20
4.4301980791
 30
0.0
 10
8.9441011717
 20
4.5400358856
 30
0.0
 10
8.7940158952
 20
4.6583885552
 30
0.0
 10
8.6571748623
 20
4.7845735756
 30
0.0
 10
8.5343953971
 20
4.9178651499
 30
0.0
 10
8.4264049948
 20
5.0574850329
 30
0.0
 10
8.3338614594
 20
5.2026268502
 30
0.0
 10
8.2573362031
 20
5.3524455399
 30
0.0
 10
8.1972955496
 20
5.5060405646
 30
0.0
 10
8.1612116998
 20
5.6368669083
 30
0.0
 10
8.1410366599
 20
5.7422547424
 30
0.0
 10
8.1266700421
 20
5.8476484366
 30
0.0
 10
8.1223183383
 20
5.9273419722
 30
0.0
 10
8.1223183383
 20
5.9803363211
 30
0.0
  0
SPLINE
  5
32A
100
AcDbEntity
  8
0
100
AcDbSpline
 62
9
  6
CONTINUOUS
 70
0
 71
3
 72
45
 73
41
 74
0
 42
0.0000001
 43
0.0000001
 44
0.0000000001
 40
0.0
 40
0.0
 40
0.0
 40
0.0
 40
0.0128506378
 40
0.025739394
 40
0.0386909071
 40
0.0517306771
 40
0.0648871264
 40
0.0781876639
 40
0.1053033054
 40
0.1332503308
 40
0.1621436938
 40
0.1920541654
 40
0.2230076035
 40
0.2549892731
 40
0.2879485406
 40
0.3218028212
 40
0.3564426508
 40
0.3917369548
 40
0.4275370821
 40
0.4636813865
 40
0.5
 40
0.5363186135
 40
0.5724629179
 40
0.6082630453
 40
0.6435573492
 40
0.6781971788
 40
0.7120514594
 40
0.7450107269
 40
0.7769923965
 40
0.8079458346
 40
0.8378563063
 40
0.8667496692
 40
0.8946966946
 40
0.9218123361
 40
0.9351128736
 40
0.9482693229
 40
0.9613090929
 40
0.974260606
 40
0.9871493622
 40
1.0
 40
1.0
 40
1.0
 40
1.0
 10
9.5573183383
 20
5.9803363211
 30
0.0
 10
9.5573183383
 20
5.963100792
 30
0.0
 10
9.5585216552
 20
5.9285667378
 30
0.0
 10
9.5639155149
 20
5.87691553
 30
0.0
 10
9.572887863
 20
5.8255044676
 30
0.0
 10
9.5854257694
 20
5.7744770627
 30
0.0
 10
9.6014889116
 20
5.7239551691
 30
0.0
 10
9.6277157907
 20
5.6570137613
 30
0.0
 10
9.6693737945
 20
5.5750386348
 30
0.0
 10
9.732297081
 20
5.4813543557
 30
0.0
 10
9.8078495231
 20
5.3925595958
 30
0.0
 10
9.8952793028
 20
5.3094998903
 30
0.0
 10
9.9937342838
 20
5.2329450689
 30
0.0
 10
10.1022616369
 20
5.1636062786
 30
0.0
 10
10.2198227303
 20
5.1021342024
 30
0.0
 10
10.3452930025
 20
5.0491063912
 30
0.0
 10
10.4774716401
 20
5.0050171573
 30
0.0
 10
10.6150970642
 20
4.9702846711
 30
0.0
 10
10.7568547603
 20
4.9452404898
 30
0.0
 10
10.901388923
 20
4.9301169635
 30
0.0
 10
11.0473183383
 20
4.925058291
 30
0.0
 10
11.1932477537
 20
4.9301169635
 30
0.0
 10
11.3377819164
 20
4.9452404898
 30
0.0
 10
11.4795396125
 20
4.9702846712
 30
0.0
 10
11.6171650366
 20
5.0050171573
 30
0.0
 10
11.7493436742
 20
5.0491063912
 30
0.0
 10
11.8748139464
 20
5.1021342024
 30
0.0
 10
11.9923750397
 20
5.1636062787
 30
0.0
 10
12.1009023928
 20
5.2329450689
 30
0.0
 10
12.1993573738
 20
5.3094998904
 30
0.0
 10
12.2867871535
 20
5.3925595959
 30
0.0
 10
12.3623395956
 20
5.4813543558
 30
0.0
 10
12.4252628821
 20
5.5750386348
 30
0.0
 10
12.4669208859
 20
5.6570137614
 30
0.0
 10
12.493147765
 20
5.7239551692
 30
0.0
 10
12.5092109072
 20
5.7744770628
 30
0.0
 10
12.5217488135
 20
5.8255044676
 30
0.0
 10
12.5307211616
 20
5.87691553
 30
0.0
 10
12.5361150214
 20
5.9285667378
 30
0.0
 10
12.5373183383
 20
5.963100792
 30
0.0
 10
12.5373183383
 20
5.9803363211
 30
0.0
  0
SPLINE
  5
32B
100
AcDbEntity
  8
0
100
AcDbSpline
 62
9
  6
CONTINUOUS
 70
0
 71
3
 72
37
 73
33
 74
0
 42
0.0000001
 43
0.0000001
 44
0.0000000001
 40
0.0
 40
0.0
 40
0.0
 40
0.0
 40
0.0257246575
 40
0.0517114701
 40
0.078161587
 40
0.1052807994
 40
0.1332338457
 40
0.1621339057
 40
0.1920503626
 40
0.2230104754
 40
0.2879038455
 40
0.3217650231
 40
0.3564123752
 40
0.391714068
 40
0.4275217426
 40
0.463673724
 40
0.5
 40
0.536326276
 40
0.5724782574
 40
0.608285932
 40
0.6435876248
 40
0.6782349769
 40
0.7120961545
 40
0.7769895246
 40
0.8079496374
 40
0.8378660943
 40
0.8667661543
 40
0.8947192006
 40
0.921838413
 40
0.9482885299
 40
0.9742753425
 40
1.0
 40
1.0
 40
1.0
 40
1.0
 10
10.3473183383
 20
6.2073175979
 30
0.0
 10
10.3473183383
 20
6.1911118582
 30
0.0
 10
10.3496009394
 20
6.1584915
 30
0.0
 10
10.3597775943
 20
6.1101669816
 30
0.0
 10
10.376632433
 20
6.0628123206
 30
0.0
 10
10.3999628583
 20
6.0169121534
 30
0.0
 10
10.4295234066
 20
5.9728951216
 30
0.0
 10
10.4650184951
 20
5.9311823383
 30
0.0
 10
10.5060940026
 20
5.8921566287
 30
0.0
 10
10.5687243383
 20
5.8434612277
 30
0.0
 10
10.6400433138
 20
5.8025662041
 30
0.0
 10
10.717502779
 20
5.7698289454
 30
0.0
 10
10.7796069455
 20
5.7491135124
 30
0.0
 10
10.8442615201
 20
5.732798315
 30
0.0
 10
10.9108590498
 20
5.7210297411
 30
0.0
 10
10.9787610568
 20
5.7139276164
 30
0.0
 10
11.0473183383
 20
5.7115485628
 30
0.0
 10
11.1158756198
 20
5.7139276164
 30
0.0
 10
11.1837776267
 20
5.7210297411
 30
0.0
 10
11.2503751564
 20
5.732798315
 30
0.0
 10
11.3150297311
 20
5.7491135124
 30
0.0
 10
11.3771338975
 20
5.7698289454
 30
0.0
 10
11.4545933628
 20
5.8025662041
 30
0.0
 10
11.5259123383
 20
5.8434612277
 30
0.0
 10
11.5885426739
 20
5.8921566287
 30
0.0
 10
11.6296181815
 20
5.9311823383
 30
0.0
 10
11.6651132699
 20
5.9728951216
 30
0.0
 10
11.6946738183
 20
6.0169121534
 30
0.0
 10
11.7180042436
 20
6.0628123206
 30
0.0
 10
11.7348590823
 20
6.1101669816
 30
0.0
 10
11.7450357372
 20
6.1584915
 30
0.0
 10
11.7473183383
 20
6.1911118582
 30
0.0
 10
11.7473183383
 20
6.2073175979
 30
0.0
  0
SPLINE
  5
32C
100
AcDbEntity
  8
0
100
AcDbSpline
 62
9
  6
CONTINUOUS
 70
0
 71
3
 72
37
 73
33
 74
0
 42
0.0000001
 43
0.0000001
 44
0.0000000001
 40
0.0
 40
0.0
 40
0.0
 40
0.0
 40
0.0257246575
 40
0.0517114703
 40
0.0781615873
 40
0.1052807998
 40
0.133233846
 40
0.1621339059
 40
0.1920503628
 40
0.2230104756
 40
0.2879038456
 40
0.3217650233
 40
0.3564123753
 40
0.3917140681
 40
0.4275217426
 40
0.463673724
 40
0.5
 40
0.536326276
 40
0.5724782574
 40
0.6082859319
 40
0.6435876247
 40
0.6782349768
 40
0.7120961544
 40
0.7769895245
 40
0.8079496372
 40
0.8378660941
 40
0.8667661541
 40
0.8947192003
 40
0.9218384127
 40
0.9482885298
 40
0.9742753425
 40
1.0
 40
1.0
 40
1.0
 40
1.0
 10
11.7473183383
 20
6.3374252456
 30
0.0
 10
11.7473183383
 20
6.3212195059
 30
0.0
 10
11.7450357372
 20
6.2885991476
 30
0.0
 10
11.7348590822
 20
6.240274629
 30
0.0
 10
11.7180042433
 20
6.1929199678
 30
0.0
 10
11.694673818
 20
6.1470198006
 30
0.0
 10
11.6651132696
 20
6.1030027689
 30
0.0
 10
11.6296181812
 20
6.0612899857
 30
0.0
 10
11.5885426736
 20
6.0222642761
 30
0.0
 10
11.525912338
 20
5.9735688752
 30
0.0
 10
11.4545933625
 20
5.9326738517
 30
0.0
 10
11.3771338973
 20
5.899936593
 30
0.0
 10
11.3150297308
 20
5.8792211601
 30
0.0
 10
11.2503751562
 20
5.8629059627
 30
0.0
 10
11.1837776266
 20
5.8511373888
 30
0.0
 10
11.1158756197
 20
5.8440352642
 30
0.0
 10
11.0473183382
 20
5.8416562106
 30
0.0
 10
10.9787610568
 20
5.8440352642
 30
0.0
 10
10.9108590499
 20
5.8511373889
 30
0.0
 10
10.8442615202
 20
5.8629059628
 30
0.0
 10
10.7796069456
 20
5.8792211601
 30
0.0
 10
10.7175027792
 20
5.899936593
 30
0.0
 10
10.640043314
 20
5.9326738518
 30
0.0
 10
10.5687243385
 20
5.9735688752
 30
0.0
 10
10.5060940029
 20
6.0222642762
 30
0.0
 10
10.4650184953
 20
6.0612899858
 30
0.0
 10
10.4295234069
 20
6.1030027689
 30
0.0
 10
10.3999628585
 20
6.1470198007
 30
0.0
 10
10.3766324332
 20
6.1929199679
 30
0.0
 10
10.3597775943
 20
6.240274629
 30
0.0
 10
10.3496009394
 20
6.2885991476
 30
0.0
 10
10.3473183383
 20
6.3212195059
 30
0.0
 10
10.3473183383
 20
6.3374252456
 30
0.0
  0
SPLINE
  5
32D
100
AcDbEntity
  8
0
100
AcDbSpline
 62
9
  6
CONTINUOUS
 70
0
 71
3
 72
45
 73
41
 74
0
 42
0.0000001
 43
0.0000001
 44
0.0000000001
 40
0.0
 40
0.0
 40
0.0
 40
0.0
 40
0.0128506827
 40
0.0257395453
 40
0.0386911785
 40
0.0517310008
 40
0.0648874352
 40
0.0781879329
 40
0.1053035544
 40
0.1332505813
 40
0.16214393
 40
0.1920543824
 40
0.223007802
 40
0.2549894541
 40
0.2879487005
 40
0.3218029569
 40
0.3564427619
 40
0.3917370398
 40
0.4275371392
 40
0.4636814153
 40
0.5
 40
0.5363185847
 40
0.5724628608
 40
0.6082629602
 40
0.6435572381
 40
0.6781970431
 40
0.7120512995
 40
0.7450105459
 40
0.776992198
 40
0.8079456176
 40
0.83785607
 40
0.8667494187
 40
0.8946964456
 40
0.9218120671
 40
0.9351125648
 40
0.9482689992
 40
0.9613088215
 40
0.9742604547
 40
0.9871493173
 40
1.0
 40
1.0
 40
1.0
 40
1.0
 10
12.5073183383
 20
6.164891191
 30
0.0
 10
12.5073183383
 20
6.148002627
 30
0.0
 10
12.5061391831
 20
6.1141636902
 30
0.0
 10
12.5008537731
 20
6.0635520997
 30
0.0
 10
12.4920620898
 20
6.0131757873
 30
0.0
 10
12.4797765896
 20
5.9631755709
 30
0.0
 10
12.4640367225
 20
5.9136709453
 30
0.0
 10
12.4383378472
 20
5.8480774788
 30
0.0
 10
12.3975184547
 20
5.7677530185
 30
0.0
 10
12.3358620945
 20
5.6759550478
 30
0.0
 10
12.2618307723
 20
5.588948211
 30
0.0
 10
12.1761612865
 20
5.5075609916
 30
0.0
 10
12.079688647
 20
5.4325476298
 30
0.0
 10
11.9733464421
 20
5.3646050078
 30
0.0
 10
11.8581523841
 20
5.3043707401
 30
0.0
 10
11.7352084325
 20
5.2524106693
 30
0.0
 10
11.605691194
 20
5.2092091958
 30
0.0
 10
11.4708368417
 20
5.1751760893
 30
0.0
 10
11.3319334325
 20
5.1506361856
 30
0.0
 10
11.1903094642
 20
5.1358171803
 30
0.0
 10
11.0473183383
 20
5.1308603742
 30
0.0
 10
10.9043272124
 20
5.1358171803
 30
0.0
 10
10.762703244
 20
5.1506361856
 30
0.0
 10
10.6237998349
 20
5.1751760893
 30
0.0
 10
10.4889454825
 20
5.2092091958
 30
0.0
 10
10.3594282441
 20
5.2524106693
 30
0.0
 10
10.2364842925
 20
5.3043707401
 30
0.0
 10
10.1212902344
 20
5.3646050078
 30
0.0
 10
10.0149480296
 20
5.4325476298
 30
0.0
 10
9.9184753901
 20
5.5075609916
 30
0.0
 10
9.8328059043
 20
5.588948211
 30
0.0
 10
9.7587745821
 20
5.6759550478
 30
0.0
 10
9.6971182218
 20
5.7677530185
 30
0.0
 10
9.6562988294
 20
5.8480774788
 30
0.0
 10
9.630599954
 20
5.9136709453
 30
0.0
 10
9.614860087
 20
5.9631755709
 30
0.0
 10
9.6025745868
 20
6.0131757873
 30
0.0
 10
9.5937829035
 20
6.0635520997
 30
0.0
 10
9.5884974934
 20
6.1141636902
 30
0.0
 10
9.5873183383
 20
6.148002627
 30
0.0
 10
9.5873183383
 20
6.164891191
 30
0.0
  0
SPLINE
  5
32E
100
AcDbEntity
  8
0
100
AcDbSpline
 62
9
  6
CONTINUOUS
 70
0
 71
3
 72
45
 73
41
 74
0
 42
0.0000001
 43
0.0000001
 44
0.0000000001
 40
0.0
 40
0.0
 40
0.0
 40
0.0
 40
0.0128506827
 40
0.0257395453
 40
0.0386911785
 40
0.0517310008
 40
0.0648874352
 40
0.0781879329
 40
0.1053035544
 40
0.1332505813
 40
0.16214393
 40
0.1920543824
 40
0.223007802
 40
0.2549894541
 40
0.2879487005
 40
0.3218029569
 40
0.3564427619
 40
0.3917370398
 40
0.4275371392
 40
0.4636814153
 40
0.5
 40
0.5363185847
 40
0.5724628608
 40
0.6082629602
 40
0.6435572381
 40
0.6781970431
 40
0.7120512995
 40
0.7450105459
 40
0.776992198
 40
0.8079456176
 40
0.83785607
 40
0.8667494187
 40
0.8946964456
 40
0.9218120671
 40
0.9351125648
 40
0.9482689992
 40
0.9613088215
 40
0.9742604547
 40
0.9871493173
 40
1.0
 40
1.0
 40
1.0
 40
1.0
 10
9.5873183383
 20
6.0015495245
 30
0.0
 10
9.5873183383
 20
5.9846609606
 30
0.0
 10
9.5884974934
 20
5.9508220237
 30
0.0
 10
9.5937829035
 20
5.9002104333
 30
0.0
 10
9.6025745868
 20
5.8498341209
 30
0.0
 10
9.614860087
 20
5.7998339044
 30
0.0
 10
9.630599954
 20
5.7503292789
 30
0.0
 10
9.6562988294
 20
5.6847358124
 30
0.0
 10
9.6971182218
 20
5.604411352
 30
0.0
 10
9.7587745821
 20
5.5126133814
 30
0.0
 10
9.8328059043
 20
5.4256065445
 30
0.0
 10
9.9184753901
 20
5.3442193251
 30
0.0
 10
10.0149480296
 20
5.2692059634
 30
0.0
 10
10.1212902344
 20
5.2012633413
 30
0.0
 10
10.2364842925
 20
5.1410290737
 30
0.0
 10
10.3594282441
 20
5.0890690029
 30
0.0
 10
10.4889454825
 20
5.0458675293
 30
0.0
 10
10.6237998349
 20
5.0118344228
 30
0.0
 10
10.762703244
 20
4.9872945191
 30
0.0
 10
10.9043272124
 20
4.9724755139
 30
0.0
 10
11.0473183383
 20
4.9675187077
 30
0.0
 10
11.1903094642
 20
4.9724755139
 30
0.0
 10
11.3319334325
 20
4.9872945191
 30
0.0
 10
11.4708368417
 20
5.0118344228
 30
0.0
 10
11.605691194
 20
5.0458675293
 30
0.0
 10
11.7352084325
 20
5.0890690029
 30
0.0
 10
11.8581523841
 20
5.1410290737
 30
0.0
 10
11.9733464421
 20
5.2012633413
 30
0.0
 10
12.079688647
 20
5.2692059634
 30
0.0
 10
12.1761612865
 20
5.3442193251
 30
0.0
 10
12.2618307723
 20
5.4256065445
 30
0.0
 10
12.3358620945
 20
5.5126133814
 30
0.0
 10
12.3975184547
 20
5.604411352
 30
0.0
 10
12.4383378472
 20
5.6847358124
 30
0.0
 10
12.4640367225
 20
5.7503292789
 30
0.0
 10
12.4797765896
 20
5.7998339044
 30
0.0
 10
12.4920620898
 20
5.8498341209
 30
0.0
 10
12.5008537731
 20
5.9002104333
 30
0.0
 10
12.5061391831
 20
5.9508220237
 30
0.0
 10
12.5073183383
 20
5.9846609606
 30
0.0
 10
12.5073183383
 20
6.0015495245
 30
0.0
  0
SPLINE
  5
32F
100
AcDbEntity
  8
0
100
AcDbSpline
 62
9
  6
CONTINUOUS
 70
0
 71
3
 72
49
 73
45
 74
0
 42
0.0000001
 43
0.0000001
 44
0.0000000001
 40
0.0
 40
0.0
 40
0.0
 40
0.0
 40
0.0128521587
 40
0.025740487
 40
0.0386898437
 40
0.0517277808
 40
0.0648834844
 40
0.0781841322
 40
0.0916532367
 40
0.1053118511
 40
0.1332572014
 40
0.1475851227
 40
0.1621602481
 40
0.1920692417
 40
0.2230211075
 40
0.2550012897
 40
0.2879589036
 40
0.3218114728
 40
0.3564497056
 40
0.3917422888
 40
0.4275405994
 40
0.4636831668
 40
0.5
 40
0.5363168332
 40
0.5724594006
 40
0.6082577112
 40
0.6435502944
 40
0.6781885272
 40
0.7120410964
 40
0.7449987103
 40
0.7769788925
 40
0.8079307583
 40
0.8378397519
 40
0.8524148773
 40
0.8667427986
 40
0.8946881489
 40
0.9083467633
 40
0.9218158678
 40
0.9351165156
 40
0.9482722192
 40
0.9613101563
 40
0.974259513
 40
0.9871478413
 40
1.0
 40
1.0
 40
1.0
 40
1.0
 10
14.0023183383
 20
5.3378028904
 30
0.0
 10
14.0023183383
 20
5.3036153179
 30
0.0
 10
13.9999333047
 20
5.2351204461
 30
0.0
 10
13.9892383157
 20
5.1326820119
 30
0.0
 10
13.9714376144
 20
5.0307306357
 30
0.0
 10
13.9465747148
 20
4.9295386663
 30
0.0
 10
13.9147207255
 20
4.8293457603
 30
0.0
 10
13.875946176
 20
4.7303937362
 30
0.0
 10
13.8303559291
 20
4.6329105611
 30
0.0
 10
13.7601062415
 20
4.5042696685
 30
0.0
 10
13.6769303799
 20
4.3804150601
 30
0.0
 10
13.5822846018
 20
4.262403779
 30
0.0
 10
13.4778184113
 20
4.1458532757
 30
0.0
 10
13.3320587139
 20
4.0073781744
 30
0.0
 10
13.1368107457
 20
3.8555599007
 30
0.0
 10
12.9215732303
 20
3.718045525
 30
0.0
 10
12.6884245135
 20
3.5961336635
 30
0.0
 10
12.4395904712
 20
3.4909642543
 30
0.0
 10
12.1774500097
 20
3.4035281516
 30
0.0
 10
11.9045077829
 20
3.3346486926
 30
0.0
 10
11.6233717812
 20
3.2849769812
 30
0.0
 10
11.3367286365
 20
3.2549836058
 30
0.0
 10
11.0473183383
 20
3.2449536909
 30
0.0
 10
10.7579080401
 20
3.2549836058
 30
0.0
 10
10.4712648954
 20
3.2849769812
 30
0.0
 10
10.1901288937
 20
3.3346486926
 30
0.0
 10
9.9171866669
 20
3.4035281516
 30
0.0
 10
9.6550462054
 20
3.4909642543
 30
0.0
 10
9.4062121631
 20
3.5961336635
 30
0.0
 10
9.1730634463
 20
3.718045525
 30
0.0
 10
8.9578259308
 20
3.8555599007
 30
0.0
 10
8.7625779627
 20
4.0073781744
 30
0.0
 10
8.6168182652
 20
4.1458532757
 30
0.0
 10
8.5123520747
 20
4.262403779
 30
0.0
 10
8.4177062967
 20
4.3804150601
 30
0.0
 10
8.3345304351
 20
4.5042696685
 30
0.0
 10
8.2642807475
 20
4.6329105611
 30
0.0
 10
8.2186905006
 20
4.7303937362
 30
0.0
 10
8.179915951
 20
4.8293457603
 30
0.0
 10
8.1480619618
 20
4.9295386663
 30
0.0
 10
8.1231990621
 20
5.0307306357
 30
0.0
 10
8.1053983609
 20
5.1326820119
 30
0.0
 10
8.0947033719
 20
5.2351204461
 30
0.0
 10
8.0923183383
 20
5.3036153179
 30
0.0
 10
8.0923183383
 20
5.3378028904
 30
0.0
  0
SPLINE
  5
330
100
AcDbEntity
  8
0
100
AcDbSpline
 62
9
  6
CONTINUOUS
 70
0
 71
3
 72
26
 73
22
 74
0
 42
0.0000001
 43
0.0000001
 44
0.0000000001
 40
0.0
 40
0.0
 40
0.0
 40
0.0
 40
0.0262518473
 40
0.0525638127
 40
0.0789754616
 40
0.1055287506
 40
0.1322706158
 40
0.1592465964
 40
0.2140396454
 40
0.2702105532
 40
0.3279809379
 40
0.3875096126
 40
0.4488907562
 40
0.5121568248
 40
0.5772834171
 40
0.6441947933
 40
0.7127692512
 40
0.7828452253
 40
0.8542278463
 40
0.9266944583
 40
1.0
 40
1.0
 40
1.0
 40
1.0
 10
14.0023183383
 20
5.9591231177
 30
0.0
 10
14.0023183383
 20
5.9288971018
 30
0.0
 10
14.0004550392
 20
5.8683595412
 30
0.0
 10
13.9920951516
 20
5.777759449
 30
0.0
 10
13.9781813124
 20
5.6874900719
 30
0.0
 10
13.958731511
 20
5.597745723
 30
0.0
 10
13.9337937395
 20
5.5086923639
 30
0.0
 10
13.8930840507
 20
5.3905096695
 30
0.0
 10
13.8283766821
 20
5.2450609454
 30
0.0
 10
13.7301800257
 20
5.0770065129
 30
0.0
 10
13.6118008031
 20
4.9157097487
 30
0.0
 10
13.474167707
 20
4.7623796369
 30
0.0
 10
13.3183321718
 20
4.6181420635
 30
0.0
 10
13.1454816348
 20
4.4840540388
 30
0.0
 10
12.9569201807
 20
4.3610979217
 30
0.0
 10
12.7540621035
 20
4.250180272
 30
0.0
 10
12.5384270702
 20
4.1521196951
 30
0.0
 10
12.3116319561
 20
4.0676371992
 30
0.0
 10
12.075370117
 20
3.9973580701
 30
0.0
 10
11.8314211226
 20
3.941808951
 30
0.0
 10
11.6656056539
 20
3.9149877683
 30
0.0
 10
11.5819076878
 20
3.9041012808
 30
0.0
  0
SPLINE
  5
331
100
AcDbEntity
  8
0
100
AcDbSpline
 62
9
  6
CONTINUOUS
 70
0
 71
3
 72
26
 73
22
 74
0
 42
0.0000001
 43
0.0000001
 44
0.0000000001
 40
0.0
 40
0.0
 40
0.0
 40
0.0
 40
0.0733055417
 40
0.1457721537
 40
0.2171547747
 40
0.2872307488
 40
0.3558052067
 40
0.4227165829
 40
0.4878431752
 40
0.5511092438
 40
0.6124903874
 40
0.6720190621
 40
0.7297894468
 40
0.7859603546
 40
0.8407534036
 40
0.8677293842
 40
0.8944712494
 40
0.9210245384
 40
0.9474361873
 40
0.9737481527
 40
1.0
 40
1.0
 40
1.0
 40
1.0
 10
10.5127289887
 20
3.9041012808
 30
0.0
 10
10.4290310226
 20
3.9149877683
 30
0.0
 10
10.263215554
 20
3.941808951
 30
0.0
 10
10.0192665595
 20
3.9973580701
 30
0.0
 10
9.7830047205
 20
4.0676371992
 30
0.0
 10
9.5562096064
 20
4.1521196951
 30
0.0
 10
9.3405745731
 20
4.250180272
 30
0.0
 10
9.1377164959
 20
4.3610979217
 30
0.0
 10
8.9491550418
 20
4.4840540388
 30
0.0
 10
8.7763045047
 20
4.6181420635
 30
0.0
 10
8.6204689696
 20
4.7623796369
 30
0.0
 10
8.4828358735
 20
4.9157097487
 30
0.0
 10
8.3644566509
 20
5.0770065129
 30
0.0
 10
8.2662599945
 20
5.2450609454
 30
0.0
 10
8.2015526259
 20
5.3905096695
 30
0.0
 10
8.1608429371
 20
5.5086923639
 30
0.0
 10
8.1359051656
 20
5.597745723
 30
0.0
 10
8.1164553641
 20
5.6874900719
 30
0.0
 10
8.1025415249
 20
5.777759449
 30
0.0
 10
8.0941816373
 20
5.8683595412
 30
0.0
 10
8.0923183383
 20
5.9288971018
 30
0.0
 10
8.0923183383
 20
5.9591231177
 30
0.0
  0
SPLINE
  5
332
100
AcDbEntity
  8
0
100
AcDbSpline
 62
9
  6
CONTINUOUS
 70
0
 71
3
 72
10
 73
6
 74
0
 42
0.0000001
 43
0.0000001
 44
0.0000000001
 40
0.0
 40
0.0
 40
0.0
 40
0.0
 40
0.2495439369
 40
0.4997193437
 40
1.0
 40
1.0
 40
1.0
 40
1.0
 10
12.2402893005
 20
11.1433140994
 30
0.0
 10
12.2396222776
 20
11.1450123829
 30
0.0
 10
12.2379586174
 20
11.1482960468
 30
0.0
 10
12.233491137
 20
11.1541187155
 30
0.0
 10
12.2289522568
 20
11.15748578
 30
0.0
 10
12.2256666575
 20
11.1590935452
 30
0.0
  0
SPLINE
  5
333
100
AcDbEntity
  8
0
100
AcDbSpline
 62
9
  6
CONTINUOUS
 70
0
 71
3
 72
10
 73
6
 74
0
 42
0.0000001
 43
0.0000001
 44
0.0000000001
 40
0.0
 40
0.0
 40
0.0
 40
0.0
 40
0.2495439393
 40
0.4997193266
 40
1.0
 40
1.0
 40
1.0
 40
1.0
 10
9.8543473915
 20
11.1433141672
 30
0.0
 10
9.8550144161
 20
11.145012446
 30
0.0
 10
9.8566780793
 20
11.1482961
 30
0.0
 10
9.8611455623
 20
11.1541187481
 30
0.0
 10
9.8656844414
 20
11.1574857949
 30
0.0
 10
9.8689700374
 20
11.1590935504
 30
0.0
  0
SPLINE
  5
334
100
AcDbEntity
  8
0
100
AcDbSpline
 62
7
  6
CONTINUOUS
 70
0
 71
3
 72
11
 73
7
 74
0
 42
0.0000001
 43
0.0000001
 44
0.0000000001
 40
0.0
 40
0.0
 40
0.0
 40
0.0
 40
0.2428063525
 40
0.4890682771
 40
0.7408851021
 40
1.0
 40
1.0
 40
1.0
 40
1.0
 10
10.6415967928
 20
7.2615655223
 30
0.0
 10
10.6422450361
 20
7.2528242274
 30
0.0
 10
10.6447582003
 20
7.2352842171
 30
0.0
 10
10.6520821698
 20
7.209483396
 30
0.0
 10
10.6628924127
 20
7.1843002403
 30
0.0
 10
10.6722199419
 20
7.1683288863
 30
0.0
 10
10.6773858724
 20
7.1605307357
 30
0.0
  0
LINE
  5
335
100
AcDbEntity
  8
0
100
AcDbLine
 62
9
  6
CONTINUOUS
 10
12.2298183372
 20
11.159669786
 11
12.2276736646
 21
11.1594117374
  0
SPLINE
  5
336
100
AcDbEntity
  8
0
100
AcDbSpline
 62
9
  6
CONTINUOUS
 70
0
 71
3
 72
9
 73
5
 74
0
 42
0.0000001
 43
0.0000001
 44
0.0000000001
 40
0.0
 40
0.0
 40
0.0
 40
0.0
 40
0.5042715129
 40
1.0
 40
1.0
 40
1.0
 40
1.0
 10
12.1907932771
 20
11.2135008594
 30
0.0
 10
12.1923592164
 20
11.2060952918
 30
0.0
 10
12.1973363016
 20
11.1917367177
 30
0.0
 10
12.2058840234
 20
11.1791512805
 30
0.0
 10
12.2108626612
 20
11.1736210984
 30
0.0
  0
SPLINE
  5
337
100
AcDbEntity
  8
0
100
AcDbSpline
 62
9
  6
CONTINUOUS
 70
0
 71
3
 72
9
 73
5
 74
0
 42
0.0000001
 43
0.0000001
 44
0.0000000001
 40
0.0
 40
0.0
 40
0.0
 40
0.0
 40
0.2516117219
 40
1.0
 40
1.0
 40
1.0
 40
1.0
 10
12.2108626612
 20
11.1736210984
 30
0.0
 10
12.2120999808
 20
11.172246706
 30
0.0
 10
12.2172014493
 20
11.166953
 30
0.0
 10
12.2230242419
 20
11.1623524081
 30
0.0
 10
12.2276729764
 20
11.1594121727
 30
0.0
  0
SPLINE
  5
338
100
AcDbEntity
  8
0
100
AcDbSpline
 62
9
  6
CONTINUOUS
 70
0
 71
3
 72
9
 73
5
 74
0
 42
0.0000001
 43
0.0000001
 44
0.0000000001
 40
0.0
 40
0.0
 40
0.0
 40
0.0
 40
0.2495172399
 40
1.0
 40
1.0
 40
1.0
 40
1.0
 10
12.1869662688
 20
11.1590937129
 30
0.0
 10
12.1860713682
 20
11.1591605777
 30
0.0
 10
12.1824823426
 20
11.159392353
 30
0.0
 10
12.1788821504
 20
11.15946555
 30
0.0
 10
12.1761835473
 20
11.1594121977
 30
0.0
  0
SPLINE
  5
339
100
AcDbEntity
  8
0
100
AcDbSpline
 62
9
  6
CONTINUOUS
 70
0
 71
3
 72
15
 73
11
 74
0
 42
0.0000001
 43
0.0000001
 44
0.0000000001
 40
0.0
 40
0.0
 40
0.0
 40
0.0
 40
0.0224729088
 40
0.051021495
 40
0.1265061096
 40
0.2261123006
 40
0.3480180296
 40
0.4898031605
 40
0.6482842675
 40
1.0
 40
1.0
 40
1.0
 40
1.0
 10
12.2256667285
 20
11.1590935133
 30
0.0
 10
12.2253942602
 20
11.1589920282
 30
0.0
 10
12.2247573785
 20
11.1588116836
 30
0.0
 10
12.2231501005
 20
11.1584986824
 30
0.0
 10
12.2205258652
 20
11.1582226042
 30
0.0
 10
12.2166876115
 20
11.1580337656
 30
0.0
 10
12.2119865684
 20
11.1579769901
 30
0.0
 10
12.2065246777
 20
11.1580544893
 30
0.0
 10
12.1980940253
 20
11.158349219
 30
0.0
 10
12.1915041508
 20
11.1587550989
 30
0.0
 10
12.1869662688
 20
11.1590937129
 30
0.0
  0
SPLINE
  5
33A
100
AcDbEntity
  8
0
100
AcDbSpline
 62
9
  6
CONTINUOUS
 70
0
 71
3
 72
9
 73
5
 74
0
 42
0.0000001
 43
0.0000001
 44
0.0000000001
 40
0.0
 40
0.0
 40
0.0
 40
0.0
 40
0.2284158129
 40
1.0
 40
1.0
 40
1.0
 40
1.0
 10
12.2276729764
 20
11.1594121727
 30
0.0
 10
12.2275185113
 20
11.159430521
 30
0.0
 10
12.2268350623
 20
11.1594525924
 30
0.0
 10
12.2261590006
 20
11.1592772641
 30
0.0
 10
12.2256667285
 20
11.1590935133
 30
0.0
  0
SPLINE
  5
33B
100
AcDbEntity
  8
0
100
AcDbSpline
 62
9
  6
CONTINUOUS
 70
0
 71
3
 72
14
 73
10
 74
0
 42
0.0000001
 43
0.0000001
 44
0.0000000001
 40
0.0
 40
0.0
 40
0.0
 40
0.0
 40
0.2862225075
 40
0.4251090815
 40
0.5583024824
 40
0.683956318
 40
0.8004195134
 40
0.9061945806
 40
1.0
 40
1.0
 40
1.0
 40
1.0
 10
12.1523183383
 20
11.2364849804
 30
0.0
 10
12.1532207782
 20
11.2287775758
 30
0.0
 10
12.155045232
 20
11.2173777335
 30
0.0
 10
12.1584329625
 20
11.2026211851
 30
0.0
 10
12.1613442121
 20
11.1922332785
 30
0.0
 10
12.1646026616
 20
11.1825883873
 30
0.0
 10
12.1681515196
 20
11.1738418833
 30
0.0
 10
12.1719343348
 20
11.166145209
 30
0.0
 10
12.1747383897
 20
11.1615044133
 30
0.0
 10
12.1761838014
 20
11.1594118298
 30
0.0
  0
LINE
  5
33C
100
AcDbEntity
  8
0
100
AcDbLine
 62
9
  6
CONTINUOUS
 10
12.1761838014
 20
11.1594118298
 11
12.1323183383
 21
11.1596697865
  0
LINE
  5
33D
100
AcDbEntity
  8
0
100
AcDbLine
 62
9
  6
CONTINUOUS
 10
9.9623182466
 20
11.159669786
 11
9.918453165
 21
11.1594117374
  0
SPLINE
  5
33E
100
AcDbEntity
  8
0
100
AcDbSpline
 62
9
  6
CONTINUOUS
 70
0
 71
3
 72
14
 73
10
 74
0
 42
0.0000001
 43
0.0000001
 44
0.0000000001
 40
0.0
 40
0.0
 40
0.0
 40
0.0
 40
0.2862217004
 40
0.425107881
 40
0.5583009651
 40
0.6839546507
 40
0.8004179488
 40
0.9061934897
 40
1.0
 40
1.0
 40
1.0
 40
1.0
 10
9.9423183383
 20
11.2364849804
 30
0.0
 10
9.9414159992
 20
11.2287776289
 30
0.0
 10
9.9395916638
 20
11.2173778642
 30
0.0
 10
9.9362041167
 20
11.2026214017
 30
0.0
 10
9.9332929919
 20
11.1922335455
 30
0.0
 10
9.9300346339
 20
11.1825886923
 30
0.0
 10
9.9264858265
 20
11.1738422105
 30
0.0
 10
9.922703012
 20
11.1661455367
 30
0.0
 10
9.9198989143
 20
11.1615047496
 30
0.0
 10
9.9184534657
 20
11.1594121727
 30
0.0
  0
SPLINE
  5
33F
100
AcDbEntity
  8
0
100
AcDbSpline
 62
9
  6
CONTINUOUS
 70
0
 71
3
 72
9
 73
5
 74
0
 42
0.0000001
 43
0.0000001
 44
0.0000000001
 40
0.0
 40
0.0
 40
0.0
 40
0.0
 40
0.2737827229
 40
1.0
 40
1.0
 40
1.0
 40
1.0
 10
9.8689695169
 20
11.1590937129
 30
0.0
 10
9.8687950675
 20
11.1591588047
 30
0.0
 10
9.8681505698
 20
11.1593705575
 30
0.0
 10
9.8674542341
 20
11.1594704524
 30
0.0
 10
9.8669637869
 20
11.1594121977
 30
0.0
  0
SPLINE
  5
340
100
AcDbEntity
  8
0
100
AcDbSpline
 62
9
  6
CONTINUOUS
 70
0
 71
3
 72
15
 73
11
 74
0
 42
0.0000001
 43
0.0000001
 44
0.0000000001
 40
0.0
 40
0.0
 40
0.0
 40
0.0
 40
0.3517241091
 40
0.5102066965
 40
0.6519937303
 40
0.7739013443
 40
0.873504379
 40
0.948979556
 40
0.977525615
 40
1.0
 40
1.0
 40
1.0
 40
1.0
 10
9.9076682577
 20
11.1590935133
 30
0.0
 10
9.903130477
 20
11.1587547754
 30
0.0
 10
9.896540745
 20
11.1583491734
 30
0.0
 10
9.8881103111
 20
11.1580545293
 30
0.0
 10
9.8826485927
 20
11.1579769925
 30
0.0
 10
9.8779477489
 20
11.1580337316
 30
0.0
 10
9.8741097985
 20
11.1582225802
 30
0.0
 10
9.8714858981
 20
11.1584988682
 30
0.0
 10
9.8698788477
 20
11.1588119577
 30
0.0
 10
9.8692420117
 20
11.158992281
 30
0.0
 10
9.8689695169
 20
11.1590937129
 30
0.0
  0
SPLINE
  5
341
100
AcDbEntity
  8
0
100
AcDbSpline
 62
9
  6
CONTINUOUS
 70
0
 71
3
 72
9
 73
5
 74
0
 42
0.0000001
 43
0.0000001
 44
0.0000000001
 40
0.0
 40
0.0
 40
0.0
 40
0.0
 40
0.2506275386
 40
1.0
 40
1.0
 40
1.0
 40
1.0
 10
9.9184534657
 20
11.1594121727
 30
0.0
 10
9.9175520273
 20
11.1594299955
 30
0.0
 10
9.9139543917
 20
11.1594534901
 30
0.0
 10
9.9103565743
 20
11.1592944223
 30
0.0
 10
9.9076682577
 20
11.1590935133
 30
0.0
  0
SPLINE
  5
342
100
AcDbEntity
  8
0
100
AcDbSpline
 62
9
  6
CONTINUOUS
 70
0
 71
3
 72
9
 73
5
 74
0
 42
0.0000001
 43
0.0000001
 44
0.0000000001
 40
0.0
 40
0.0
 40
0.0
 40
0.0
 40
0.5042712037
 40
1.0
 40
1.0
 40
1.0
 40
1.0
 10
9.9038434937
 20
11.2135009473
 30
0.0
 10
9.9022775872
 20
11.2060954038
 30
0.0
 10
9.8973005717
 20
11.191736859
 30
0.0
 10
9.8887529018
 20
11.1791514462
 30
0.0
 10
9.8837742862
 20
11.173621272
 30
0.0
  0
SPLINE
  5
343
100
AcDbEntity
  8
0
100
AcDbSpline
 62
9
  6
CONTINUOUS
 70
0
 71
3
 72
9
 73
5
 74
0
 42
0.0000001
 43
0.0000001
 44
0.0000000001
 40
0.0
 40
0.0
 40
0.0
 40
0.0
 40
0.2516113312
 40
1.0
 40
1.0
 40
1.0
 40
1.0
 10
9.8837742862
 20
11.173621272
 30
0.0
 10
9.8825369188
 20
11.1722468222
 30
0.0
 10
9.8774352365
 20
11.1669528945
 30
0.0
 10
9.871612167
 20
11.1623521421
 30
0.0
 10
9.8669632052
 20
11.1594118298
 30
0.0
  0
LINE
  5
344
100
AcDbEntity
  8
0
100
AcDbLine
 62
9
  6
CONTINUOUS
 10
9.8669632052
 20
11.1594118298
 11
9.86481834
 21
11.1596697865
  0
SPLINE
  5
345
100
AcDbEntity
  8
0
100
AcDbSpline
 62
7
  6
CONTINUOUS
 70
0
 71
3
 72
11
 73
7
 74
0
 42
0.0000001
 43
0.0000001
 44
0.0000000001
 40
0.0
 40
0.0
 40
0.0
 40
0.0
 40
0.2373867459
 40
0.4821835831
 40
0.7360546809
 40
1.0
 40
1.0
 40
1.0
 40
1.0
 10
11.4440293488
 20
7.3402848616
 30
0.0
 10
11.4405170739
 20
7.328702009
 30
0.0
 10
11.4314968454
 20
7.3057086679
 30
0.0
 10
11.4126944823
 20
7.273086868
 30
0.0
 10
11.38874376
 20
7.2423122149
 30
0.0
 10
11.3699396404
 20
7.2236688541
 30
0.0
 10
11.3598514946
 20
7.2147614544
 30
0.0
  0
SPLINE
  5
346
100
AcDbEntity
  8
0
100
AcDbSpline
 62
7
  6
CONTINUOUS
 70
0
 71
3
 72
13
 73
9
 74
0
 42
0.0000001
 43
0.0000001
 44
0.0000000001
 40
0.0
 40
0.0
 40
0.0
 40
0.0
 40
0.2322960539
 40
0.3542113076
 40
0.4793665623
 40
0.736898452
 40
0.8682174392
 40
1.0
 40
1.0
 40
1.0
 40
1.0
 10
11.3598514946
 20
7.2147614544
 30
0.0
 10
11.3402321653
 20
7.197438429
 30
0.0
 10
11.3072552148
 20
7.1743298957
 30
0.0
 10
11.2591038548
 20
7.1497740562
 30
0.0
 10
11.2062936791
 20
7.1285359894
 30
0.0
 10
11.1499451372
 20
7.1138886115
 30
0.0
 10
11.0917932844
 20
7.1059026094
 30
0.0
 10
11.0621631746
 20
7.1041539701
 30
0.0
 10
11.0473183383
 20
7.1038556774
 30
0.0
  0
SPLINE
  5
347
100
AcDbEntity
  8
0
100
AcDbSpline
 62
9
  6
CONTINUOUS
 70
0
 71
3
 72
11
 73
7
 74
0
 42
0.0000001
 43
0.0000001
 44
0.0000000001
 40
0.0
 40
0.0
 40
0.0
 40
0.0
 40
0.3141586657
 40
0.4476618891
 40
0.6061330582
 40
1.0
 40
1.0
 40
1.0
 40
1.0
 10
12.2423183383
 20
11.1326322732
 30
0.0
 10
12.2423182476
 20
11.1322859019
 30
0.0
 10
12.2417475468
 20
11.1319501582
 30
0.0
 10
12.241146855
 20
11.1317337078
 30
0.0
 10
12.2404100176
 20
11.1315246592
 30
0.0
 10
12.2398143155
 20
11.1314131682
 30
0.0
 10
12.2393856792
 20
11.1313435532
 30
0.0
  0
SPLINE
  5
348
100
AcDbEntity
  8
0
100
AcDbSpline
 62
9
  6
CONTINUOUS
 70
0
 71
3
 72
15
 73
11
 74
0
 42
0.0000001
 43
0.0000001
 44
0.0000000001
 40
0.0
 40
0.0
 40
0.0
 40
0.0
 40
0.0287747732
 40
0.0634288835
 40
0.1496249492
 40
0.2567696576
 40
0.3821573113
 40
0.5227685015
 40
0.6752198526
 40
1.0
 40
1.0
 40
1.0
 40
1.0
 10
12.2393856792
 20
11.1313435532
 30
0.0
 10
12.2388445879
 20
11.1312556744
 30
0.0
 10
12.2376450871
 20
11.1311039181
 30
0.0
 10
12.2348045251
 20
11.1308618765
 30
0.0
 10
12.2304629146
 20
11.1306852471
 30
0.0
 10
12.2243908882
 20
11.1306230875
 30
0.0
 10
12.2172821926
 20
11.1307077499
 30
0.0
 10
12.2093134229
 20
11.1309397857
 30
0.0
 10
12.1975547553
 20
11.1314702558
 30
0.0
 10
12.1884821179
 20
11.1320932546
 30
0.0
 10
12.1823183383
 20
11.1326323125
 30
0.0
  0
SPLINE
  5
349
100
AcDbEntity
  8
0
100
AcDbSpline
 62
9
  6
CONTINUOUS
 70
0
 71
3
 72
24
 73
20
 74
0
 42
0.0000001
 43
0.0000001
 44
0.0000000001
 40
0.0
 40
0.0
 40
0.0
 40
0.0
 40
0.1935131892
 40
0.37998953
 40
0.5516351296
 40
0.629867865
 40
0.7020444766
 40
0.7674879567
 40
0.8255298541
 40
0.8756211564
 40
0.9173739949
 40
0.9350168225
 40
0.950454687
 40
0.963677422
 40
0.9747109999
 40
0.983615473
 40
0.9905232168
 40
0.9957433733
 40
1.0
 40
1.0
 40
1.0
 40
1.0
 10
9.9123183383
 20
11.1326322732
 30
0.0
 10
9.9084299027
 20
11.1322921132
 30
0.0
 10
9.9007861438
 20
11.1317164504
 30
0.0
 10
9.8896753942
 20
11.1311069954
 30
0.0
 10
9.8808786928
 20
11.1307950924
 30
0.0
 10
9.8743837265
 20
11.1306699878
 30
0.0
 10
9.8700298302
 20
11.1306377423
 30
0.0
 10
9.8660831441
 20
11.130664019
 30
0.0
 10
9.862582744
 20
11.1307481108
 30
0.0
 10
9.8595625337
 20
11.130890554
 30
0.0
 10
9.8573603104
 20
11.1310658235
 30
0.0
 10
9.8558614878
 20
11.1312464142
 30
0.0
 10
9.8549383814
 20
11.1313899262
 30
0.0
 10
9.8541532927
 20
11.1315491461
 30
0.0
 10
9.8535071124
 20
11.1317239358
 30
0.0
 10
9.8529985965
 20
11.1319142014
 30
0.0
 10
9.852626445
 20
11.1321215465
 30
0.0
 10
9.8523812288
 20
11.1323537568
 30
0.0
 10
9.8523183531
 20
11.1325464535
 30
0.0
 10
9.8523183383
 20
11.1326323125
 30
0.0
  0
SPLINE
  5
34A
100
AcDbEntity
  8
0
100
AcDbSpline
 62
9
  6
CONTINUOUS
 70
0
 71
3
 72
10
 73
6
 74
0
 42
0.0000001
 43
0.0000001
 44
0.0000000001
 40
0.0
 40
0.0
 40
0.0
 40
0.0
 40
0.4931197914
 40
0.7456568149
 40
1.0
 40
1.0
 40
1.0
 40
1.0
 10
12.1523183383
 20
11.2364849804
 30
0.0
 10
12.1491301742
 20
11.2354338955
 30
0.0
 10
12.144237208
 20
11.2340178806
 30
0.0
 10
12.1375031093
 20
11.2329589104
 30
0.0
 10
12.1340498029
 20
11.2327707454
 30
0.0
 10
12.1323183383
 20
11.2327707428
 30
0.0
  0
SPLINE
  5
34B
100
AcDbEntity
  8
0
100
AcDbSpline
 62
9
  6
CONTINUOUS
 70
0
 71
3
 72
9
 73
5
 74
0
 42
0.0000001
 43
0.0000001
 44
0.0000000001
 40
0.0
 40
0.0
 40
0.0
 40
0.0
 40
0.4714492444
 40
1.0
 40
1.0
 40
1.0
 40
1.0
 10
12.1888868808
 20
11.2364849804
 30
0.0
 10
12.1881733546
 20
11.2371459798
 30
0.0
 10
12.1864145028
 20
11.2382901362
 30
0.0
 10
12.1844422478
 20
11.2389458037
 30
0.0
 10
12.1833839751
 20
11.2392087561
 30
0.0
  0
SPLINE
  5
34C
100
AcDbEntity
  8
0
100
AcDbSpline
 62
9
  6
CONTINUOUS
 70
0
 71
3
 72
13
 73
9
 74
0
 42
0.0000001
 43
0.0000001
 44
0.0000000001
 40
0.0
 40
0.0
 40
0.0
 40
0.0
 40
0.0924387977
 40
0.1951826693
 40
0.3081566939
 40
0.4307995601
 40
0.701807276
 40
1.0
 40
1.0
 40
1.0
 40
1.0
 10
12.1833839751
 20
11.2392087561
 30
0.0
 10
12.1824423806
 20
11.2394427171
 30
0.0
 10
12.1804188308
 20
11.2397961706
 30
0.0
 10
12.1771912606
 20
11.2400453345
 30
0.0
 10
12.1736379346
 20
11.2400801687
 30
0.0
 10
12.1683231916
 20
11.2398527631
 30
0.0
 10
12.161105607
 20
11.2389228437
 30
0.0
 10
12.1552927018
 20
11.2374590245
 30
0.0
 10
12.1523183383
 20
11.2364849804
 30
0.0
  0
LINE
  5
34D
100
AcDbEntity
  8
0
100
AcDbLine
 62
9
  6
CONTINUOUS
 10
12.1923183383
 20
11.2327707428
 11
12.1888868808
 21
11.2364849804
  0
LINE
  5
34E
100
AcDbEntity
  8
0
100
AcDbLine
 62
9
  6
CONTINUOUS
 10
9.9057497958
 20
11.2364849804
 11
9.9023183383
 21
11.2327707428
  0
SPLINE
  5
34F
100
AcDbEntity
  8
0
100
AcDbSpline
 62
9
  6
CONTINUOUS
 70
0
 71
3
 72
15
 73
11
 74
0
 42
0.0000001
 43
0.0000001
 44
0.0000000001
 40
0.0
 40
0.0
 40
0.0
 40
0.0
 40
0.1663944692
 40
0.3243286183
 40
0.4710649574
 40
0.6049717652
 40
0.7245774499
 40
0.8291963046
 40
0.9197162666
 40
1.0
 40
1.0
 40
1.0
 40
1.0
 10
9.9423183383
 20
11.2364849804
 30
0.0
 10
9.9403322691
 20
11.2371355008
 30
0.0
 10
9.9363996815
 20
11.2382226338
 30
0.0
 10
9.9305797233
 20
11.2393182708
 30
0.0
 10
9.9250994174
 20
11.2399247279
 30
0.0
 10
9.9200720066
 20
11.2401122482
 30
0.0
 10
9.9155713759
 20
11.2399651902
 30
0.0
 10
9.9116454533
 20
11.2394086531
 30
0.0
 10
9.90832865
 20
11.2383493941
 30
0.0
 10
9.906489581
 20
11.237170176
 30
0.0
 10
9.9057497958
 20
11.2364849804
 30
0.0
  0
SPLINE
  5
350
100
AcDbEntity
  8
0
100
AcDbSpline
 62
9
  6
CONTINUOUS
 70
0
 71
3
 72
10
 73
6
 74
0
 42
0.0000001
 43
0.0000001
 44
0.0000000001
 40
0.0
 40
0.0
 40
0.0
 40
0.0
 40
0.2543430881
 40
0.50688012
 40
1.0
 40
1.0
 40
1.0
 40
1.0
 10
9.9623183383
 20
11.2327707428
 30
0.0
 10
9.9605868734
 20
11.23277074
 30
0.0
 10
9.9571335721
 20
11.2329588808
 30
0.0
 10
9.9503994162
 20
11.2340176986
 30
0.0
 10
9.9455066796
 20
11.235434426
 30
0.0
 10
9.9423183383
 20
11.2364849804
 30
0.0
  0
LINE
  5
351
100
AcDbEntity
  8
0
100
AcDbLine
 62
9
  6
CONTINUOUS
 10
12.1823183383
 20
11.1326323125
 11
12.1741367432
 21
11.1337207917
  0
SPLINE
  5
352
100
AcDbEntity
  8
0
100
AcDbSpline
 62
9
  6
CONTINUOUS
 70
0
 71
3
 72
9
 73
5
 74
0
 42
0.0000001
 43
0.0000001
 44
0.0000000001
 40
0.0
 40
0.0
 40
0.0
 40
0.0
 40
0.4999973421
 40
1.0
 40
1.0
 40
1.0
 40
1.0
 10
12.1741367432
 20
11.1337207917
 30
0.0
 10
12.1671827285
 20
11.134274513
 30
0.0
 10
12.1532474788
 20
11.1350524567
 30
0.0
 10
12.1392943818
 20
11.1353031632
 30
0.0
 10
12.1323182825
 20
11.1353027994
 30
0.0
  0
SPLINE
  5
353
100
AcDbEntity
  8
0
100
AcDbSpline
 62
9
  6
CONTINUOUS
 70
0
 71
3
 72
9
 73
5
 74
0
 42
0.0000001
 43
0.0000001
 44
0.0000000001
 40
0.0
 40
0.0
 40
0.0
 40
0.0
 40
0.5000028211
 40
1.0
 40
1.0
 40
1.0
 40
1.0
 10
9.9623183993
 20
11.1353027994
 30
0.0
 10
9.9553422892
 20
11.1353027242
 30
0.0
 10
9.9413891843
 20
11.135052152
 30
0.0
 10
9.9274539135
 20
11.1342742923
 30
0.0
 10
9.9204998753
 20
11.133720787
 30
0.0
  0
LINE
  5
354
100
AcDbEntity
  8
0
100
AcDbLine
 62
9
  6
CONTINUOUS
 10
9.9204998753
 20
11.133720787
 11
9.9123183383
 21
11.1326322732
  0
SPLINE
  5
355
100
AcDbEntity
  8
0
100
AcDbSpline
 62
7
  6
CONTINUOUS
 70
0
 71
3
 72
21
 73
17
 74
0
 42
0.0000001
 43
0.0000001
 44
0.0000000001
 40
0.0
 40
0.0
 40
0.0
 40
0.0
 40
0.0521245311
 40
0.1048884671
 40
0.158669795
 40
0.2137868171
 40
0.2704912162
 40
0.3289545846
 40
0.3892757187
 40
0.4514736473
 40
0.5811505656
 40
0.6484721173
 40
0.7171418575
 40
0.8574636795
 40
0.9286565118
 40
1.0
 40
1.0
 40
1.0
 40
1.0
 10
11.4530574415
 20
7.2865379963
 30
0.0
 10
11.4524101689
 20
7.2771626664
 30
0.0
 10
11.4498693653
 20
7.2583601995
 30
0.0
 10
11.4424131981
 20
7.230666598
 30
0.0
 10
11.4313741827
 20
7.2036126156
 30
0.0
 10
11.4168648593
 20
7.1774423433
 30
0.0
 10
11.3990208487
 20
7.1523843982
 30
0.0
 10
11.378015452
 20
7.1286506009
 30
0.0
 10
11.3540349947
 20
7.106446215
 30
0.0
 10
11.3179087417
 20
7.0787508934
 30
0.0
 10
11.2771656626
 20
7.055346168
 30
0.0
 10
11.2331263567
 20
7.0364321544
 30
0.0
 10
11.1859768727
 20
7.0202261846
 30
0.0
 10
11.136515013
 20
7.0090321238
 30
0.0
 10
11.0858643127
 20
7.0028843301
 30
0.0
 10
11.0601784413
 20
7.0015033739
 30
0.0
 10
11.0473183383
 20
7.0012461346
 30
0.0
  0
SPLINE
  5
356
100
AcDbEntity
  8
0
100
AcDbSpline
 62
9
  6
CONTINUOUS
 70
0
 71
3
 72
17
 73
13
 74
0
 42
0.0000001
 43
0.0000001
 44
0.0000000001
 40
0.0
 40
0.0
 40
0.0
 40
0.0
 40
0.0172832023
 40
0.0424681065
 40
0.0752017762
 40
0.1150509422
 40
0.2143837038
 40
0.3372855754
 40
0.4806468205
 40
0.6414060476
 40
0.8161875748
 40
1.0
 40
1.0
 40
1.0
 40
1.0
 10
10.5363761255
 20
9.0483465832
 30
0.0
 10
10.536545696
 20
9.0482995365
 30
0.0
 10
10.5369757202
 20
9.0482375051
 30
0.0
 10
10.5377385383
 20
9.0481783631
 30
0.0
 10
10.53873368
 20
9.048138978
 30
0.0
 10
10.5404835561
 20
9.0481006389
 30
0.0
 10
10.5431521888
 20
9.0480803968
 30
0.0
 10
10.5468745902
 20
9.0480765257
 30
0.0
 10
10.5512225196
 20
9.0480809862
 30
0.0
 10
10.5560985894
 20
9.0481100099
 30
0.0
 10
10.5613862289
 20
9.0481774146
 30
0.0
 10
10.5650363163
 20
9.0482764403
 30
0.0
 10
10.5669065134
 20
9.0483478866
 30
0.0
  0
SPLINE
  5
357
100
AcDbEntity
  8
0
100
AcDbSpline
 62
9
  6
CONTINUOUS
 70
0
 71
3
 72
11
 73
7
 74
0
 42
0.0000001
 43
0.0000001
 44
0.0000000001
 40
0.0
 40
0.0
 40
0.0
 40
0.0
 40
0.2490220016
 40
0.4986264503
 40
0.7489656923
 40
1.0
 40
1.0
 40
1.0
 40
1.0
 10
10.5669065134
 20
9.0483478866
 30
0.0
 10
10.5730658198
 20
9.0485833588
 30
0.0
 10
10.585389022
 20
9.0492936755
 30
0.0
 10
10.6038836871
 20
9.05055911
 30
0.0
 10
10.6224419915
 20
9.0516327054
 30
0.0
 10
10.6348480521
 20
9.0520233746
 30
0.0
 10
10.6410608786
 20
9.0521223364
 30
0.0
  0
SPLINE
  5
358
100
AcDbEntity
  8
0
100
AcDbSpline
 62
9
  6
CONTINUOUS
 70
0
 71
3
 72
22
 73
18
 74
0
 42
0.0000001
 43
0.0000001
 44
0.0000000001
 40
0.0
 40
0.0
 40
0.0
 40
0.0
 40
0.0012958009
 40
0.0051863629
 40
0.0116272126
 40
0.0205738589
 40
0.0319818727
 40
0.0458068963
 40
0.0805308839
 40
0.1243925554
 40
0.1770394275
 40
0.2379516733
 40
0.3062094181
 40
0.4609013621
 40
0.6335648233
 40
0.8160221247
 40
1.0
 40
1.0
 40
1.0
 40
1.0
 10
10.529327814
 20
9.0521953749
 30
0.0
 10
10.5293277251
 20
9.0521988581
 30
0.0
 10
10.5293462579
 20
9.0521774154
 30
0.0
 10
10.5293646405
 20
9.0521719132
 30
0.0
 10
10.5294106274
 20
9.0521343474
 30
0.0
 10
10.5294674409
 20
9.0520955094
 30
0.0
 10
10.5295429039
 20
9.052040896
 30
0.0
 10
10.5296740717
 20
9.0519481618
 30
0.0
 10
10.5298775889
 20
9.0518049375
 30
0.0
 10
10.5301675028
 20
9.0516040402
 30
0.0
 10
10.5305169448
 20
9.0513650476
 30
0.0
 10
10.530922597
 20
9.0510921872
 30
0.0
 10
10.5315611672
 20
9.050674008
 30
0.0
 10
10.5324655813
 20
9.0501135095
 30
0.0
 10
10.533661632
 20
9.0494423156
 30
0.0
 10
10.5349697503
 20
9.0488148294
 30
0.0
 10
10.5358995382
 20
9.0484792339
 30
0.0
 10
10.5363761255
 20
9.0483465832
 30
0.0
  0
SPLINE
  5
359
100
AcDbEntity
  8
0
100
AcDbSpline
 62
9
  6
CONTINUOUS
 70
0
 71
3
 72
22
 73
18
 74
0
 42
0.0000001
 43
0.0000001
 44
0.0000000001
 40
0.0
 40
0.0
 40
0.0
 40
0.0
 40
0.1843387929
 40
0.3664411365
 40
0.5388360175
 40
0.693562663
 40
0.7618909899
 40
0.822876962
 40
0.8755737991
 40
0.9194521985
 40
0.9541736156
 40
0.9679945989
 40
0.979399118
 40
0.9883446009
 40
0.9947883999
 40
0.9986877949
 40
1.0
 40
1.0
 40
1.0
 40
1.0
 10
11.5582586284
 20
9.0483478023
 30
0.0
 10
11.5587364075
 20
9.0484800778
 30
0.0
 10
11.5596667896
 20
9.0488147365
 30
0.0
 10
11.5609741363
 20
9.0494428079
 30
0.0
 10
11.5621685978
 20
9.0501139805
 30
0.0
 10
11.5630731355
 20
9.0506737438
 30
0.0
 10
11.5637126226
 20
9.05109161
 30
0.0
 10
11.5641190545
 20
9.051364408
 30
0.0
 10
11.5644690466
 20
9.0516033117
 30
0.0
 10
11.5647592571
 20
9.0518043829
 30
0.0
 10
11.5649628448
 20
9.0519471509
 30
0.0
 10
11.5650939914
 20
9.0520406429
 30
0.0
 10
11.5651693824
 20
9.0520937837
 30
0.0
 10
11.5652262028
 20
9.0521366902
 30
0.0
 10
11.5652720079
 20
9.0521652801
 30
0.0
 10
11.5652905938
 20
9.0521870358
 30
0.0
 10
11.5653089131
 20
9.0521919181
 30
0.0
 10
11.5653088355
 20
9.0521954463
 30
0.0
  0
SPLINE
  5
35A
100
AcDbEntity
  8
0
100
AcDbSpline
 62
9
  6
CONTINUOUS
 70
0
 71
3
 72
11
 73
7
 74
0
 42
0.0000001
 43
0.0000001
 44
0.0000000001
 40
0.0
 40
0.0
 40
0.0
 40
0.0
 40
0.2510345642
 40
0.5013773611
 40
0.7509759073
 40
1.0
 40
1.0
 40
1.0
 40
1.0
 10
11.4535758535
 20
9.0521230229
 30
0.0
 10
11.4597883668
 20
9.0520242854
 30
0.0
 10
11.4721938677
 20
9.0516332257
 30
0.0
 10
11.4907511609
 20
9.0505597824
 30
0.0
 10
11.5092447695
 20
9.0492932073
 30
0.0
 10
11.5215671849
 20
9.0485817115
 30
0.0
 10
11.5277262371
 20
9.0483466251
 30
0.0
  0
SPLINE
  5
35B
100
AcDbEntity
  8
0
100
AcDbSpline
 62
9
  6
CONTINUOUS
 70
0
 71
3
 72
17
 73
13
 74
0
 42
0.0000001
 43
0.0000001
 44
0.0000000001
 40
0.0
 40
0.0
 40
0.0
 40
0.0
 40
0.1838117717
 40
0.3585843553
 40
0.5193370332
 40
0.6626960253
 40
0.7855974567
 40
0.8849170392
 40
0.9247514464
 40
0.9574757926
 40
0.982671773
 40
1.0
 40
1.0
 40
1.0
 40
1.0
 10
11.5277262371
 20
9.0483466251
 30
0.0
 10
11.5295965595
 20
9.0482752792
 30
0.0
 10
11.5332468307
 20
9.0481771718
 30
0.0
 10
11.5385346827
 20
9.0481113241
 30
0.0
 10
11.5434109011
 20
9.0480820154
 30
0.0
 10
11.5477590323
 20
9.0480764509
 30
0.0
 10
11.5514815279
 20
9.0480793558
 30
0.0
 10
11.5541500585
 20
9.0480993422
 30
0.0
 10
11.5558996675
 20
9.0481384129
 30
0.0
 10
11.5568947043
 20
9.048178554
 30
0.0
 10
11.5576580305
 20
9.0482383725
 30
0.0
 10
11.5580885498
 20
9.0483008273
 30
0.0
 10
11.5582586284
 20
9.0483478023
 30
0.0
  0
SPLINE
  5
35C
100
AcDbEntity
  8
0
100
AcDbSpline
 62
9
  6
CONTINUOUS
 70
0
 71
3
 72
13
 73
9
 74
0
 42
0.0000001
 43
0.0000001
 44
0.0000000001
 40
0.0
 40
0.0
 40
0.0
 40
0.0
 40
0.0234624654
 40
0.072777013
 40
0.1517498682
 40
0.2609652732
 40
0.5702572109
 40
1.0
 40
1.0
 40
1.0
 40
1.0
 10
10.5083183383
 20
9.0184426514
 30
0.0
 10
10.5083183538
 20
9.018419427
 30
0.0
 10
10.5083916176
 20
9.0183692922
 30
0.0
 10
10.5085289503
 20
9.0183380071
 30
0.0
 10
10.50876543
 20
9.0182960246
 30
0.0
 10
10.5092528604
 20
9.0182477694
 30
0.0
 10
10.5100934692
 20
9.0182001796
 30
0.0
 10
10.5108239432
 20
9.0181779944
 30
0.0
 10
10.5112491899
 20
9.0181672652
 30
0.0
  0
SPLINE
  5
35D
100
AcDbEntity
  8
0
100
AcDbSpline
 62
9
  6
CONTINUOUS
 70
0
 71
3
 72
13
 73
9
 74
0
 42
0.0000001
 43
0.0000001
 44
0.0000000001
 40
0.0
 40
0.0
 40
0.0
 40
0.0
 40
0.0631307933
 40
0.1492976883
 40
0.2564770881
 40
0.3819055848
 40
0.6750442591
 40
1.0
 40
1.0
 40
1.0
 40
1.0
 10
10.5112491899
 20
9.0181672652
 30
0.0
 10
10.5124498048
 20
9.0181369729
 30
0.0
 10
10.5152900412
 20
9.0181059235
 30
0.0
 10
10.5201691596
 20
9.0180877908
 30
0.0
 10
10.5262335401
 20
9.0180817619
 30
0.0
 10
10.5362353105
 20
9.0180909705
 30
0.0
 10
10.5503799541
 20
9.0181437912
 30
0.0
 10
10.5621380987
 20
9.0182989284
 30
0.0
 10
10.5683183383
 20
9.0184439788
 30
0.0
  0
SPLINE
  5
35E
100
AcDbEntity
  8
0
100
AcDbSpline
 62
9
  6
CONTINUOUS
 70
0
 71
3
 72
25
 73
21
 74
0
 42
0.0000001
 43
0.0000001
 44
0.0000000001
 40
0.0
 40
0.0
 40
0.0
 40
0.0
 40
0.1948040784
 40
0.3824921413
 40
0.4711459994
 40
0.5552428829
 40
0.6339861578
 40
0.7066423282
 40
0.772526724
 40
0.8309586077
 40
0.881362691
 40
0.9233030584
 40
0.940966657
 40
0.9563558896
 40
0.9694333657
 40
0.9801822003
 40
0.9885896797
 40
0.9946504246
 40
0.9983852212
 40
1.0
 40
1.0
 40
1.0
 40
1.0
 10
11.5263183383
 20
9.0184426916
 30
0.0
 10
11.5302159539
 20
9.0183513226
 30
0.0
 10
11.5378700237
 20
9.0182230434
 30
0.0
 10
11.547298951
 20
9.0181433133
 30
0.0
 10
11.5545124684
 20
9.018108734
 30
0.0
 10
11.5595456932
 20
9.0180943242
 30
0.0
 10
11.5642587622
 20
9.0180862497
 30
0.0
 10
11.568607345
 20
9.0180829344
 30
0.0
 10
11.5725494255
 20
9.0180849512
 30
0.0
 10
11.5760461732
 20
9.0180919759
 30
0.0
 10
11.5790636631
 20
9.018105397
 30
0.0
 10
11.5812652847
 20
9.0181259953
 30
0.0
 10
11.5827658416
 20
9.0181514053
 30
0.0
 10
11.5836890511
 20
9.0181736367
 30
0.0
 10
11.5844727413
 20
9.0181999868
 30
0.0
 10
11.5851190735
 20
9.0182328706
 30
0.0
 10
11.5856173287
 20
9.0182678199
 30
0.0
 10
11.5859910237
 20
9.0183164951
 30
0.0
 10
11.586193335
 20
9.0183525679
 30
0.0
 10
11.586318305
 20
9.0184115749
 30
0.0
 10
11.5863183383
 20
9.0184438921
 30
0.0
  0
SPLINE
  5
35F
100
AcDbEntity
  8
0
100
AcDbSpline
 62
9
  6
CONTINUOUS
 70
0
 71
3
 72
19
 73
15
 74
0
 42
0.0000001
 43
0.0000001
 44
0.0000000001
 40
0.0
 40
0.0
 40
0.0
 40
0.0
 40
0.1987688427
 40
0.386983037
 40
0.5571746047
 40
0.7021183138
 40
0.7633776105
 40
0.8166469065
 40
0.8618130098
 40
0.8992816233
 40
0.9298609433
 40
0.9550609276
 40
0.9774089355
 40
1.0
 40
1.0
 40
1.0
 40
1.0
 10
10.641037721
 20
9.1556954356
 30
0.0
 10
10.6375834399
 20
9.1564039201
 30
0.0
 10
10.6308312553
 20
9.1576557162
 30
0.0
 10
10.621039113
 20
9.1590323794
 30
0.0
 10
10.6121379454
 20
9.1597955472
 30
0.0
 10
10.6054509985
 20
9.1598981983
 30
0.0
 10
10.6008561516
 20
9.1595806885
 30
0.0
 10
10.5980470943
 20
9.1591911833
 30
0.0
 10
10.595695147
 20
9.1586409877
 30
0.0
 10
10.5938054812
 20
9.1579395642
 30
0.0
 10
10.5923714537
 20
9.1570900217
 30
0.0
 10
10.5913925588
 20
9.1560743681
 30
0.0
 10
10.590905134
 20
9.154894008
 30
0.0
 10
10.5909203562
 20
9.1540749735
 30
0.0
 10
10.590989831
 20
9.1536802724
 30
0.0
  0
SPLINE
  5
360
100
AcDbEntity
  8
0
100
AcDbSpline
 62
9
  6
CONTINUOUS
 70
0
 71
3
 72
24
 73
20
 74
0
 42
0.0000001
 43
0.0000001
 44
0.0000000001
 40
0.0
 40
0.0
 40
0.0
 40
0.0
 40
0.1949153591
 40
0.3834315156
 40
0.5572818256
 40
0.6363852292
 40
0.7091368528
 40
0.7747792339
 40
0.8325693049
 40
0.8819602753
 40
0.9226407267
 40
0.9396334405
 40
0.9543603014
 40
0.966833015
 40
0.9771020696
 40
0.9852543817
 40
0.991458779
 40
0.9960916513
 40
1.0
 40
1.0
 40
1.0
 40
1.0
 10
10.363339356
 20
10.7798576107
 30
0.0
 10
10.3594759911
 20
10.7801727036
 30
0.0
 10
10.3518714596
 20
10.7807374728
 30
0.0
 10
10.3408075053
 20
10.7813846842
 30
0.0
 10
10.332034522
 20
10.7817365415
 30
0.0
 10
10.3255588118
 20
10.7818805692
 30
0.0
 10
10.321233533
 20
10.7819174138
 30
0.0
 10
10.3173320305
 20
10.7818874609
 30
0.0
 10
10.3138961745
 20
10.7817910401
 30
0.0
 10
10.3109598262
 20
10.7816291459
 30
0.0
 10
10.3088386816
 20
10.7814345354
 30
0.0
 10
10.307412042
 20
10.781238482
 30
0.0
 10
10.3065463267
 20
10.781085702
 30
0.0
 10
10.3058196063
 20
10.7809190066
 30
0.0
 10
10.3052313885
 20
10.7807396487
 30
0.0
 10
10.3047789105
 20
10.7805479871
 30
0.0
 10
10.3044589755
 20
10.7803439296
 30
0.0
 10
10.3042617435
 20
10.7801142809
 30
0.0
 10
10.3042374286
 20
10.7799341595
 30
0.0
 10
10.3042508908
 20
10.7798576107
 30
0.0
  0
SPLINE
  5
361
100
AcDbEntity
  8
0
100
AcDbSpline
 62
9
  6
CONTINUOUS
 70
0
 71
3
 72
19
 73
15
 74
0
 42
0.0000001
 43
0.0000001
 44
0.0000000001
 40
0.0
 40
0.0
 40
0.0
 40
0.0
 40
0.0225889146
 40
0.0449085902
 40
0.0700873761
 40
0.1006622222
 40
0.1381343256
 40
0.1833054547
 40
0.2365803569
 40
0.2978457568
 40
0.4427972972
 40
0.6129979852
 40
0.8012233658
 40
1.0
 40
1.0
 40
1.0
 40
1.0
 10
11.503647957
 20
9.1536865754
 30
0.0
 10
11.5037175219
 20
9.1540811979
 30
0.0
 10
11.5037330775
 20
9.1548997406
 30
0.0
 10
11.5032446302
 20
9.1560788077
 30
0.0
 10
11.5022646282
 20
9.1570918746
 30
0.0
 10
11.5008304184
 20
9.1579398641
 30
0.0
 10
11.4989406459
 20
9.1586408018
 30
0.0
 10
11.4965885977
 20
9.159190991
 30
0.0
 10
11.4937794092
 20
9.1595805186
 30
0.0
 10
11.4891844956
 20
9.1598981019
 30
0.0
 10
11.4824975309
 20
9.1597958506
 30
0.0
 10
11.4735963579
 20
9.1590330388
 30
0.0
 10
11.4638042902
 20
9.1576560247
 30
0.0
 10
11.4570528528
 20
9.1564004063
 30
0.0
 10
11.4535989728
 20
9.1556903136
 30
0.0
  0
SPLINE
  5
362
100
AcDbEntity
  8
0
100
AcDbSpline
 62
9
  6
CONTINUOUS
 70
0
 71
3
 72
24
 73
20
 74
0
 42
0.0000001
 43
0.0000001
 44
0.0000000001
 40
0.0
 40
0.0
 40
0.0
 40
0.0
 40
0.0039079287
 40
0.0085406846
 40
0.0147451106
 40
0.0228974942
 40
0.0331666221
 40
0.0456393981
 40
0.0603663097
 40
0.0773590685
 40
0.1180396066
 40
0.1674306557
 40
0.2252207982
 40
0.2908633153
 40
0.3636150506
 40
0.4427184414
 40
0.6165685156
 40
0.8050845909
 40
1.0
 40
1.0
 40
1.0
 40
1.0
 10
11.7903857857
 20
10.7798576107
 30
0.0
 10
11.7903992486
 20
10.7799341509
 30
0.0
 10
11.7903749288
 20
10.7801142615
 30
0.0
 10
11.7901776998
 20
10.7803438967
 30
0.0
 10
11.7898577703
 20
10.7805479606
 30
0.0
 10
11.7894052949
 20
10.7807396372
 30
0.0
 10
11.7888170789
 20
10.7809190147
 30
0.0
 10
11.7880903591
 20
10.7810857296
 30
0.0
 10
11.7872246432
 20
10.7812385243
 30
0.0
 10
11.7857980016
 20
10.781434589
 30
0.0
 10
11.7836768528
 20
10.7816291989
 30
0.0
 10
11.7807404994
 20
10.7817910797
 30
0.0
 10
11.7773046377
 20
10.7818874815
 30
0.0
 10
11.7734031293
 20
10.7819174126
 30
0.0
 10
11.7690778467
 20
10.7818805465
 30
0.0
 10
11.7626021407
 20
10.7817364934
 30
0.0
 10
11.7538291666
 20
10.7813846174
 30
0.0
 10
11.7427652145
 20
10.7807374949
 30
0.0
 10
11.7351606821
 20
10.7801727508
 30
0.0
 10
11.7312973206
 20
10.7798576107
 30
0.0
  0
SPLINE
  5
363
100
AcDbEntity
  8
0
100
AcDbSpline
 62
9
  6
CONTINUOUS
 70
0
 71
3
 72
11
 73
7
 74
0
 42
0.0000001
 43
0.0000001
 44
0.0000000001
 40
0.0
 40
0.0
 40
0.0
 40
0.0
 40
0.2500210798
 40
0.5000013334
 40
0.750020377
 40
1.0
 40
1.0
 40
1.0
 40
1.0
 10
11.453573027
 20
9.0234619759
 30
0.0
 10
11.4596489306
 20
9.0233134137
 30
0.0
 10
11.4717937952
 20
9.0227308918
 30
0.0
 10
11.4899647704
 20
9.0212254855
 30
0.0
 10
11.5081212941
 20
9.0195852068
 30
0.0
 10
11.5202483492
 20
9.0187284514
 30
0.0
 10
11.5263183383
 20
9.0184426916
 30
0.0
  0
SPLINE
  5
364
100
AcDbEntity
  8
0
100
AcDbSpline
 62
9
  6
CONTINUOUS
 70
0
 71
3
 72
11
 73
7
 74
0
 42
0.0000001
 43
0.0000001
 44
0.0000000001
 40
0.0
 40
0.0
 40
0.0
 40
0.0
 40
0.2499791858
 40
0.5000001777
 40
0.7499809403
 40
1.0
 40
1.0
 40
1.0
 40
1.0
 10
10.5683183383
 20
9.0184439788
 30
0.0
 10
10.5743882771
 20
9.0187304493
 30
0.0
 10
10.5865153673
 20
9.0195865564
 30
0.0
 10
10.6046721383
 20
9.0212245347
 30
0.0
 10
10.6228430959
 20
9.0227299532
 30
0.0
 10
10.6349879057
 20
9.0233125429
 30
0.0
 10
10.6410637501
 20
9.023461268
 30
0.0
  0
SPLINE
  5
365
100
AcDbEntity
  8
0
100
AcDbSpline
 62
7
  6
CONTINUOUS
 70
0
 71
3
 72
24
 73
20
 74
0
 42
0.0000001
 43
0.0000001
 44
0.0000000001
 40
0.0
 40
0.0
 40
0.0
 40
0.0
 40
0.0549649437
 40
0.1085991917
 40
0.1615879317
 40
0.2146770897
 40
0.2415140537
 40
0.2686471425
 40
0.3240659009
 40
0.3815036508
 40
0.4413223759
 40
0.5037190955
 40
0.5687251258
 40
0.6362320007
 40
0.7060086474
 40
0.777708738
 40
0.850927639
 40
0.9252274943
 40
1.0
 40
1.0
 40
1.0
 40
1.0
 10
11.4445492359
 20
6.8471263079
 30
0.0
 10
11.4501099665
 20
6.8361112888
 30
0.0
 10
11.4594885181
 20
6.8134804964
 30
0.0
 10
11.4678176104
 20
6.7780103712
 30
0.0
 10
11.4700744434
 20
6.7420564876
 30
0.0
 10
11.4668464314
 20
6.7122397277
 30
0.0
 10
11.4613112252
 20
6.6888287472
 30
0.0
 10
11.4537218387
 20
6.6654487769
 30
0.0
 10
11.4404484968
 20
6.6368115824
 30
0.0
 10
11.4190111173
 20
6.6043593288
 30
0.0
 10
11.3922910628
 20
6.5739924745
 30
0.0
 10
11.3606780714
 20
6.5461397736
 30
0.0
 10
11.3246337367
 20
6.5211737416
 30
0.0
 10
11.2846711199
 20
6.4994334765
 30
0.0
 10
11.2413536762
 20
6.4812261297
 30
0.0
 10
11.1952989937
 20
6.466789336
 30
0.0
 10
11.1471444124
 20
6.4563310007
 30
0.0
 10
11.0975863373
 20
6.4500051341
 30
0.0
 10
11.0641039889
 20
6.4485886284
 30
0.0
 10
11.0473183383
 20
6.4485886284
 30
0.0
  0
SPLINE
  5
366
100
AcDbEntity
  8
0
100
AcDbSpline
 62
9
  6
CONTINUOUS
 70
0
 71
3
 72
19
 73
15
 74
0
 42
0.0000001
 43
0.0000001
 44
0.0000000001
 40
0.0
 40
0.0
 40
0.0
 40
0.0
 40
0.0532470119
 40
0.1068374391
 40
0.1610996785
 40
0.2163329333
 40
0.2727959954
 40
0.3307020444
 40
0.3902089853
 40
0.4514276475
 40
0.5790749291
 40
0.713636603
 40
0.8543823189
 40
1.0
 40
1.0
 40
1.0
 40
1.0
 10
10.5948183383
 20
7.0271790819
 30
0.0
 10
10.5948183383
 20
7.0185634929
 30
0.0
 10
10.5958119731
 20
7.0012608843
 30
0.0
 10
10.6002536287
 20
6.975522162
 30
0.0
 10
10.6076271704
 20
6.9501290081
 30
0.0
 10
10.6178718733
 20
6.9252531381
 30
0.0
 10
10.6309187623
 20
6.9010568326
 30
0.0
 10
10.6466789776
 20
6.8776994935
 30
0.0
 10
10.6650419029
 20
6.8553257374
 30
0.0
 10
10.6932243753
 20
6.8266137536
 30
0.0
 10
10.7345107729
 20
6.7940626007
 30
0.0
 10
10.7913314527
 20
6.7616585331
 30
0.0
 10
10.8546741543
 20
6.7361315454
 30
0.0
 10
10.8996014361
 20
6.7242657296
 30
0.0
 10
10.9226939025
 20
6.7195876321
 30
0.0
  0
SPLINE
  5
367
100
AcDbEntity
  8
0
100
AcDbSpline
 62
9
  6
CONTINUOUS
 70
0
 71
3
 72
39
 73
35
 74
0
 42
0.0000001
 43
0.0000001
 44
0.0000000001
 40
0.0
 40
0.0
 40
0.0
 40
0.0
 40
0.0256894718
 40
0.0516948326
 40
0.0782128946
 40
0.1054330355
 40
0.1193587598
 40
0.1335094789
 40
0.1625180543
 40
0.1925264935
 40
0.2235530958
 40
0.2884853037
 40
0.3223125897
 40
0.3568938098
 40
0.3921015415
 40
0.4277929548
 40
0.4638132868
 40
0.5
 40
0.5361867132
 40
0.5722070452
 40
0.6078984585
 40
0.6431061902
 40
0.6776874103
 40
0.7115146963
 40
0.7764469042
 40
0.8074735065
 40
0.8374819457
 40
0.8664905211
 40
0.8806412402
 40
0.8945669645
 40
0.9217871054
 40
0.9483051674
 40
0.9743105282
 40
1.0
 40
1.0
 40
1.0
 40
1.0
 10
10.3477042168
 20
6.3493048349
 30
0.0
 10
10.348451223
 20
6.3334188765
 30
0.0
 10
10.3521393301
 20
6.3015135566
 30
0.0
 10
10.3641153796
 20
6.254459841
 30
0.0
 10
10.3824332411
 20
6.2084748838
 30
0.0
 10
10.4026764687
 20
6.1716790908
 30
0.0
 10
10.4217239701
 20
6.1432172119
 30
0.0
 10
10.4430145332
 20
6.1149897633
 30
0.0
 10
10.4732539518
 20
6.0811420905
 30
0.0
 10
10.5145041322
 20
6.0435141662
 30
0.0
 10
10.5769472395
 20
5.9966431914
 30
0.0
 10
10.6475405802
 20
5.9573243199
 30
0.0
 10
10.7239155647
 20
5.9258714812
 30
0.0
 10
10.7849719387
 20
5.9059916841
 30
0.0
 10
10.8484246778
 20
5.8903442717
 30
0.0
 10
10.913701284
 20
5.8790606768
 30
0.0
 10
10.9802023924
 20
5.8722537727
 30
0.0
 10
11.0473183383
 20
5.8699735186
 30
0.0
 10
11.1144342842
 20
5.8722537727
 30
0.0
 10
11.1809353926
 20
5.8790606768
 30
0.0
 10
11.2462119988
 20
5.8903442717
 30
0.0
 10
11.3096647379
 20
5.9059916841
 30
0.0
 10
11.3707211119
 20
5.9258714812
 30
0.0
 10
11.4470960964
 20
5.9573243199
 30
0.0
 10
11.5176894371
 20
5.9966431914
 30
0.0
 10
11.5801325443
 20
6.0435141662
 30
0.0
 10
11.6213827247
 20
6.0811420905
 30
0.0
 10
11.6516221433
 20
6.1149897633
 30
0.0
 10
11.6729127065
 20
6.1432172119
 30
0.0
 10
11.6919602079
 20
6.1716790908
 30
0.0
 10
11.7122034354
 20
6.2084748838
 30
0.0
 10
11.7305212969
 20
6.254459841
 30
0.0
 10
11.7424973464
 20
6.3015135566
 30
0.0
 10
11.7461854535
 20
6.3334188765
 30
0.0
 10
11.7469324598
 20
6.3493048349
 30
0.0
  0
SPLINE
  5
368
100
AcDbEntity
  8
0
100
AcDbSpline
 62
7
  6
CONTINUOUS
 70
0
 71
3
 72
23
 73
19
 74
0
 42
0.0000001
 43
0.0000001
 44
0.0000000001
 40
0.0
 40
0.0
 40
0.0
 40
0.0
 40
0.0534132408
 40
0.1096521916
 40
0.1688853557
 40
0.2310330649
 40
0.2957750657
 40
0.3626166899
 40
0.4309297559
 40
0.5
 40
0.5690702441
 40
0.6373833101
 40
0.7042249343
 40
0.7689669351
 40
0.8311146443
 40
0.8903478084
 40
0.9465867592
 40
1.0
 40
1.0
 40
1.0
 40
1.0
 10
11.6973183383
 20
6.5631283412
 30
0.0
 10
11.6841347529
 20
6.5398055777
 30
0.0
 10
11.652469728
 20
6.494418891
 30
0.0
 10
11.5928494418
 20
6.4337751839
 30
0.0
 10
11.5213230187
 20
6.3801439144
 30
0.0
 10
11.4395043129
 20
6.3346514779
 30
0.0
 10
11.3491643616
 20
6.2982347664
 30
0.0
 10
11.2522691665
 20
6.271656344
 30
0.0
 10
11.1509197888
 20
6.2554794529
 30
0.0
 10
11.0473183383
 20
6.2500483016
 30
0.0
 10
10.9437168877
 20
6.2554794529
 30
0.0
 10
10.84236751
 20
6.271656344
 30
0.0
 10
10.745472315
 20
6.2982347664
 30
0.0
 10
10.6551323636
 20
6.3346514779
 30
0.0
 10
10.5733136579
 20
6.3801439144
 30
0.0
 10
10.5017872348
 20
6.4337751839
 30
0.0
 10
10.4421669486
 20
6.494418891
 30
0.0
 10
10.4105019237
 20
6.5398055777
 30
0.0
 10
10.3973183383
 20
6.5631283412
 30
0.0
  0
SPLINE
  5
369
100
AcDbEntity
  8
0
100
AcDbSpline
 62
7
  6
CONTINUOUS
 70
0
 71
3
 72
9
 73
5
 74
0
 42
0.0000001
 43
0.0000001
 44
0.0000000001
 40
0.0
 40
0.0
 40
0.0
 40
0.0
 40
0.4961140402
 40
1.0
 40
1.0
 40
1.0
 40
1.0
 10
11.7473183383
 20
6.4993526985
 30
0.0
 10
11.7473183383
 20
6.4784120727
 30
0.0
 10
11.7434976157
 20
6.436118732
 30
0.0
 10
11.7322643974
 20
6.3951859232
 30
0.0
 10
11.724946596
 20
6.3752157896
 30
0.0
  0
SPLINE
  5
36A
100
AcDbEntity
  8
0
100
AcDbSpline
 62
7
  6
CONTINUOUS
 70
0
 71
3
 72
9
 73
5
 74
0
 42
0.0000001
 43
0.0000001
 44
0.0000000001
 40
0.0
 40
0.0
 40
0.0
 40
0.0
 40
0.5038859598
 40
1.0
 40
1.0
 40
1.0
 40
1.0
 10
10.3696900805
 20
6.3752157896
 30
0.0
 10
10.3623722791
 20
6.3951859232
 30
0.0
 10
10.3511390608
 20
6.436118732
 30
0.0
 10
10.3473183383
 20
6.4784120727
 30
0.0
 10
10.3473183383
 20
6.4993526985
 30
0.0
  0
SPLINE
  5
36B
100
AcDbEntity
  8
0
100
AcDbSpline
 62
7
  6
CONTINUOUS
 70
0
 71
3
 72
24
 73
20
 74
0
 42
0.0000001
 43
0.0000001
 44
0.0000000001
 40
0.0
 40
0.0
 40
0.0
 40
0.0
 40
0.0747425036
 40
0.1490169064
 40
0.2222184014
 40
0.2939120436
 40
0.3636960562
 40
0.4312250608
 40
0.4962675727
 40
0.5587125873
 40
0.6185870628
 40
0.6760811747
 40
0.7315479014
 40
0.7586986086
 40
0.7855472907
 40
0.8386380807
 40
0.891592243
 40
0.9451512895
 40
1.0
 40
1.0
 40
1.0
 40
1.0
 10
11.0473183383
 20
6.4485886284
 30
0.0
 10
11.0305954742
 20
6.4485886284
 30
0.0
 10
10.9972375229
 20
6.4499946545
 30
0.0
 10
10.9478586178
 20
6.4562736012
 30
0.0
 10
10.8998676852
 20
6.4666552489
 30
0.0
 10
10.8539537588
 20
6.4809876074
 30
0.0
 10
10.8107474582
 20
6.4990656772
 30
0.0
 10
10.7708602756
 20
6.5206555367
 30
0.0
 10
10.7348501222
 20
6.5454537027
 30
0.0
 10
10.7032262069
 20
6.5731265231
 30
0.0
 10
10.6764458525
 20
6.6033057571
 30
0.0
 10
10.6548965214
 20
6.6355687922
 30
0.0
 10
10.6414839289
 20
6.6640528933
 30
0.0
 10
10.6337562514
 20
6.6873189517
 30
0.0
 10
10.628068608
 20
6.7106175189
 30
0.0
 10
10.6246171834
 20
6.7403021279
 30
0.0
 10
10.6265562596
 20
6.7761285382
 30
0.0
 10
10.6345263169
 20
6.8115037065
 30
0.0
 10
10.6436502159
 20
6.8341037116
 30
0.0
 10
10.6490804267
 20
6.8451087422
 30
0.0
  0
SPLINE
  5
36C
100
AcDbEntity
  8
0
100
AcDbSpline
 62
9
  6
CONTINUOUS
 70
0
 71
3
 72
17
 73
13
 74
0
 42
0.0000001
 43
0.0000001
 44
0.0000000001
 40
0.0
 40
0.0
 40
0.0
 40
0.0
 40
0.1423397328
 40
0.2825123418
 40
0.4184180616
 40
0.5484418664
 40
0.6714536211
 40
0.7871030001
 40
0.8423813248
 40
0.8961250746
 40
0.9485654281
 40
1.0
 40
1.0
 40
1.0
 40
1.0
 10
11.0473183383
 20
6.5721132582
 30
0.0
 10
11.0269620154
 20
6.5721132582
 30
0.0
 10
10.9865127598
 20
6.5746362112
 30
0.0
 10
10.9275803674
 20
6.5858927201
 30
0.0
 10
10.8723012727
 20
6.6042924602
 30
0.0
 10
10.8223734781
 20
6.6292851435
 30
0.0
 10
10.7793339793
 20
6.6601496961
 30
0.0
 10
10.7498651179
 20
6.6905264738
 30
0.0
 10
10.731276636
 20
6.7167984007
 30
0.0
 10
10.7200116017
 20
6.7370113181
 30
0.0
 10
10.7113284991
 20
6.7578652569
 30
0.0
 10
10.7072714646
 20
6.7722004692
 30
0.0
 10
10.7057088183
 20
6.7793883431
 30
0.0
  0
SPLINE
  5
36D
100
AcDbEntity
  8
0
100
AcDbSpline
 62
7
  6
CONTINUOUS
 70
0
 71
3
 72
21
 73
17
 74
0
 42
0.0000001
 43
0.0000001
 44
0.0000000001
 40
0.0
 40
0.0
 40
0.0
 40
0.0
 40
0.072629811
 40
0.1449728185
 40
0.2871073935
 40
0.356407989
 40
0.4241390232
 40
0.5539372656
 40
0.6158632137
 40
0.6757019567
 40
0.7335071403
 40
0.7894172406
 40
0.8436655412
 40
0.8965698104
 40
0.948529406
 40
1.0
 40
1.0
 40
1.0
 40
1.0
 10
11.0473183383
 20
6.9349920507
 30
0.0
 10
11.0325312018
 20
6.9349920507
 30
0.0
 10
11.0030027474
 20
6.9360190422
 30
0.0
 10
10.9448347874
 20
6.9420980859
 30
0.0
 10
10.8880821118
 20
6.9541516293
 30
0.0
 10
10.8341188019
 20
6.9721533507
 30
0.0
 10
10.7840428272
 20
6.9933138252
 30
0.0
 10
10.7379411258
 20
7.0197501137
 30
0.0
 10
10.6974560179
 20
7.0512294278
 30
0.0
 10
10.6709033161
 20
7.0764562331
 30
0.0
 10
10.6479577963
 20
7.1034199404
 30
0.0
 10
10.6288496449
 20
7.1318748655
 30
0.0
 10
10.6137664479
 20
7.1615460958
 30
0.0
 10
10.6028772294
 20
7.1921560228
 30
0.0
 10
10.5962884187
 20
7.2233916356
 30
0.0
 10
10.5948197236
 20
7.2444786639
 30
0.0
 10
10.5948197236
 20
7.2549578692
 30
0.0
  0
SPLINE
  5
36E
100
AcDbEntity
  8
0
100
AcDbSpline
 62
7
  6
CONTINUOUS
 70
0
 71
3
 72
21
 73
17
 74
0
 42
0.0000001
 43
0.0000001
 44
0.0000000001
 40
0.0
 40
0.0
 40
0.0
 40
0.0
 40
0.072629811
 40
0.1449728185
 40
0.2871073935
 40
0.356407989
 40
0.4241390232
 40
0.5539372656
 40
0.6158632137
 40
0.6757019567
 40
0.7335071403
 40
0.7894172406
 40
0.8436655412
 40
0.8965698104
 40
0.948529406
 40
1.0
 40
1.0
 40
1.0
 40
1.0
 10
11.0473183383
 20
6.9349920507
 30
0.0
 10
11.0621054748
 20
6.9349920507
 30
0.0
 10
11.0916339291
 20
6.9360190422
 30
0.0
 10
11.1498018892
 20
6.9420980859
 30
0.0
 10
11.2065545648
 20
6.9541516293
 30
0.0
 10
11.2605178747
 20
6.9721533507
 30
0.0
 10
11.3105938494
 20
6.9933138252
 30
0.0
 10
11.3566955508
 20
7.0197501137
 30
0.0
 10
11.3971806586
 20
7.0512294278
 30
0.0
 10
11.4237333605
 20
7.0764562331
 30
0.0
 10
11.4466788802
 20
7.1034199404
 30
0.0
 10
11.4657870317
 20
7.1318748655
 30
0.0
 10
11.4808702286
 20
7.1615460958
 30
0.0
 10
11.4917594472
 20
7.1921560228
 30
0.0
 10
11.4983482579
 20
7.2233916356
 30
0.0
 10
11.499816953
 20
7.2444786639
 30
0.0
 10
11.499816953
 20
7.2549578692
 30
0.0
  0
SPLINE
  5
36F
100
AcDbEntity
  8
0
100
AcDbSpline
 62
9
  6
CONTINUOUS
 70
0
 71
3
 72
19
 73
15
 74
0
 42
0.0000001
 43
0.0000001
 44
0.0000000001
 40
0.0
 40
0.0
 40
0.0
 40
0.0
 40
0.1456176814
 40
0.2863633973
 40
0.4209250712
 40
0.5485723528
 40
0.6097910149
 40
0.6692979557
 40
0.7272040047
 40
0.7836670668
 40
0.8389003216
 40
0.893162561
 40
0.9467529881
 40
1.0
 40
1.0
 40
1.0
 40
1.0
 10
11.1719427741
 20
6.7195876321
 30
0.0
 10
11.1950352405
 20
6.7242657296
 30
0.0
 10
11.2399625224
 20
6.7361315455
 30
0.0
 10
11.303305224
 20
6.7616585332
 30
0.0
 10
11.3601259038
 20
6.7940626008
 30
0.0
 10
11.4014123014
 20
6.8266137536
 30
0.0
 10
11.4295947738
 20
6.8553257374
 30
0.0
 10
11.447957699
 20
6.8776994935
 30
0.0
 10
11.4637179143
 20
6.9010568327
 30
0.0
 10
11.4767648033
 20
6.9252531381
 30
0.0
 10
11.4870095062
 20
6.9501290082
 30
0.0
 10
11.4943830479
 20
6.975522162
 30
0.0
 10
11.4988247034
 20
7.0012608843
 30
0.0
 10
11.4998183383
 20
7.0185634929
 30
0.0
 10
11.4998183383
 20
7.0271790819
 30
0.0
  0
SPLINE
  5
370
100
AcDbEntity
  8
0
100
AcDbSpline
 62
7
  6
CONTINUOUS
 70
0
 71
3
 72
19
 73
15
 74
0
 42
0.0000001
 43
0.0000001
 44
0.0000000001
 40
0.0
 40
0.0
 40
0.0
 40
0.0
 40
0.1376301684
 40
0.2745993231
 40
0.4098903606
 40
0.542353894
 40
0.6070092069
 40
0.6701881794
 40
0.7315097137
 40
0.7905681166
 40
0.8468906841
 40
0.9002961011
 40
0.9510261124
 40
1.0
 40
1.0
 40
1.0
 40
1.0
 10
11.0473183383
 20
6.6635798201
 30
0.0
 10
11.0405683633
 20
6.6635798201
 30
0.0
 10
11.0270959039
 20
6.6640536291
 30
0.0
 10
11.007091419
 20
6.66622311
 30
0.0
 10
10.9875716627
 20
6.6699490427
 30
0.0
 10
10.9718850614
 20
6.6745197795
 30
0.0
 10
10.9600044737
 20
6.6792151099
 30
0.0
 10
10.9516365168
 20
6.6832429319
 30
0.0
 10
10.9438851213
 20
6.6878477301
 30
0.0
 10
10.9369280176
 20
6.6930497231
 30
0.0
 10
10.9310039354
 20
6.6988753208
 30
0.0
 10
10.9263793568
 20
6.7053050985
 30
0.0
 10
10.9234026324
 20
6.7122740749
 30
0.0
 10
10.9226939025
 20
6.7171857421
 30
0.0
 10
10.9226939025
 20
6.7195876321
 30
0.0
  0
SPLINE
  5
371
100
AcDbEntity
  8
0
100
AcDbSpline
 62
7
  6
CONTINUOUS
 70
0
 71
3
 72
19
 73
15
 74
0
 42
0.0000001
 43
0.0000001
 44
0.0000000001
 40
0.0
 40
0.0
 40
0.0
 40
0.0
 40
0.0489750524
 40
0.0997080057
 40
0.1531144636
 40
0.2094386815
 40
0.2684969099
 40
0.3298206387
 40
0.392998059
 40
0.4576538857
 40
0.590115536
 40
0.7254049585
 40
0.8623713159
 40
1.0
 40
1.0
 40
1.0
 40
1.0
 10
11.1719427741
 20
6.7195876321
 30
0.0
 10
11.1719427741
 20
6.7171856856
 30
0.0
 10
11.1712336592
 20
6.7122738911
 30
0.0
 10
11.1682572654
 20
6.7053045124
 30
0.0
 10
11.1636321227
 20
6.698874753
 30
0.0
 10
11.1577079942
 20
6.6930490683
 30
0.0
 10
11.150750621
 20
6.6878471104
 30
0.0
 10
11.1429991256
 20
6.6832424616
 30
0.0
 10
11.1346311638
 20
6.6792145165
 30
0.0
 10
11.1227505634
 20
6.6745196073
 30
0.0
 10
11.1070641601
 20
6.6699487971
 30
0.0
 10
11.0875446788
 20
6.6662230275
 30
0.0
 10
11.0675404843
 20
6.6640536563
 30
0.0
 10
11.054068239
 20
6.6635798201
 30
0.0
 10
11.0473183383
 20
6.6635798201
 30
0.0
  0
ENDSEC
  0
SECTION
  2
OBJECTS
  0
DICTIONARY
  5
C
100
AcDbDictionary
280
0
281
1
  3
ACAD_GROUP
350
D
  3
ACAD_MLINESTYLE
350
17
  3
ACAD_LAYOUT
350
1A
  3
ACAD_PLOTSETTINGS
350
19
  3
ACAD_PLOTSTYLENAME
350
E
  0
DICTIONARY
  5
D
102
{ACAD_REACTORS
330
C
102
}
100
AcDbDictionary
280
0
281
1
  0
ACDBDICTIONARYWDFLT
  5
E
102
{ACAD_REACTORS
330
C
102
}
100
AcDbDictionary
281
1
  3
Normal
350
F
100
AcDbDictionaryWithDefault
340
F
  0
DICTIONARY
  5
17
102
{ACAD_REACTORS
330
C
102
}
100
AcDbDictionary
280
0
281
1
  3
Standard
350
18
  0
DICTIONARY
  5
19
102
{ACAD_REACTORS
330
C
102
}
100
AcDbDictionary
281
1
  0
DICTIONARY
  5
1A
102
{ACAD_REACTORS
330
C
102
}
100
AcDbDictionary
281
1
  3
Model
350
372
  3
Layout1
350
373
  0
ACDBPLACEHOLDER
  5
F
102
{ACAD_REACTORS
330
E
102
}
  0
MLINESTYLE
  5
18
102
{ACAD_REACTORS
330
17
102
}
100
AcDbMlineStyle
  2
STANDARD
 70
0
  3

 62
256
 51
90.0
 52
90.0
 71
2
 49
0.5
 62
256
  6
BYLAYER
 49
-0.5
 62
256
  6
BYLAYER
  0
LAYOUT
  5
372
102
{ACAD_REACTORS
330
1A
102
}
100
AcDbPlotSettings
  1

  2
none_device
  4
ANSI_C_(22.00_x_17.00_Inches)
  6

 40
0.0
 41
0.0
 42
0.0
 43
0.0
 44
558.8
 45
431.8
 46
0.0
 47
0.0
 48
0.0
 49
0.0
140
0.0
141
0.0
142
1.0
143
1.0
 70
1024
 72
0
 73
0
 74
0
  7

 75
0
147
1.0
148
0.0
149
0.0
100
AcDbLayout
  1
Model
 70
0
 71
0
 10
0.0
 20
0.0
 11
22.0
 21
17.0
 12
0.0
 22
0.0
 32
0.0
 14
0.0
 24
0.0
 34
0.0
 15
0.0
 25
0.0
 35
0.0
146
0.0
 13
0.0
 23
0.0
 33
0.0
 16
1.0
 26
0.0
 36
0.0
 17
0.0
 27
1.0
 37
0.0
 76
0
330
205
345
0
346
0
  0
LAYOUT
  5
373
102
{ACAD_REACTORS
330
1A
102
}
100
AcDbPlotSettings
  1

  2
none_device
  4
ANSI_C_(22.00_x_17.00_Inches)
  6

 40
0.0
 41
0.0
 42
0.0
 43
0.0
 44
558.8
 45
431.8
 46
0.0
 47
0.0
 48
0.0
 49
0.0
140
0.0
141
0.0
142
1.0
143
1.0
 70
0
 72
0
 73
0
 74
0
  7

 75
0
147
1.0
148
0.0
149
0.0
100
AcDbLayout
  1
Layout1
 70
0
 71
1
 10
0.0
 20
0.0
 11
22.0
 21
17.0
 12
0.0
 22
0.0
 32
0.0
 14
0.0
 24
0.0
 34
0.0
 15
0.0
 25
0.0
 35
0.0
146
0.0
 13
0.0
 23
0.0
 33
0.0
 16
1.0
 26
0.0
 36
0.0
 17
0.0
 27
1.0
 37
0.0
 76
0
330
206
345
0
346
0
  0
ENDSEC
  0
EOF
