999
DXF file: 3-144ts_RIGHT.dxf
999
Pro/ENGINEER 2018400 by Parametric Technology Corporation
  0
SECTION
  2
HEADER
  9
$ACADVER
  1
AC1027
  9
$DWGCODEPAGE
  3
ANSI_1252
  9
$EXTMAX
 10
11.0
 20
8.5
 30
0.0
  9
$EXTMIN
 10
0.0
 20
0.0
 30
0.0
  9
$LIMMIN
 10
0.0
 20
0.0
  9
$LIMMAX
 10
11.0
 20
8.5
  9
$VIEWCTR
 10
5.5
 20
4.25
  9
$VIEWSIZE
 40
8.5
  9
$CLAYER
  8
0
  9
$LTSCALE
 40
0.605
  9
$CELTYPE
  6
BYLAYER
  9
$DIMSCALE
 40
1.0
  9
$DIMASZ
 40
0.1
  9
$DIMEXO
 40
0.0625
  9
$DIMDLI
 40
0.418
  9
$DIMEXE
 40
0.125
  9
$DIMCEN
 40
0.099
  9
$DIMLFAC
 40
1.0
  9
$DIMBLK
  1
_FILLED
  9
$DIMALT
 70
1
  9
$DIMALTD
 70
2
  9
$DIMALTTD
 70
2
  9
$DIMALTF
 40
25.4
  9
$DIMTXT
 40
0.08
  9
$DIMTOL
 70
1
  9
$DIMLIM
 70
0
  9
$DIMTFAC
 40
1.0
  9
$DIMTP
 40
0.001
  9
$DIMTM
 40
0.001
  9
$DIMGAP
 40
0.09
  9
$DIMDSEP
 70
46
  9
$AUNITS
 70
0
  9
$PDMODE
 70
3
  9
$PDSIZE
 40
0.3125
  9
$HANDSEED
  5
2C0
  9
$TILEMODE
 70
1
  9
$MEASUREMENT
 70
0
  9
$INSUNITS
 70
1
  0
ENDSEC
  0
SECTION
  2
CLASSES
  0
CLASS
  1
ACDBDICTIONARYWDFLT
  2
AcDbDictionaryWithDefault
  3
AutoCAD 2000
 90
0
 91
1
280
0
281
0
  0
CLASS
  1
ACDBPLACEHOLDER
  2
AcDbPlaceHolder
  3
AutoCAD 2000
 90
0
 91
1
280
0
281
0
  0
CLASS
  1
LAYOUT
  2
AcDbLayout
  3
AutoCAD 2000
 90
0
 91
0
280
0
281
0
  0
ENDSEC
  0
SECTION
  2
TABLES
  0
TABLE
  2
VPORT
  5
8
100
AcDbSymbolTable
 70
2
  0
VPORT
  5
1F4
100
AcDbSymbolTableRecord
100
AcDbViewportTableRecord
  2
*ACTIVE
 70
0
 10
0.0
 20
0.0
 11
1.0
 21
1.0
 12
5.5
 22
4.25
 13
0.0
 23
0.0
 14
1.0
 24
1.0
 15
0.0
 25
0.0
 16
0.0
 26
0.0
 36
1.0
 17
0.0
 27
0.0
 37
0.0
 40
8.5
 41
1.2941176471
 42
50.0
 43
0.0
 44
0.0
 50
0.0
 51
0.0
 71
0
 72
100
 73
1
 74
1
 75
0
 76
0
 77
0
 78
0
  0
ENDTAB
  0
TABLE
  2
LTYPE
  5
5
100
AcDbSymbolTable
 70
6
  0
LTYPE
  5
14
100
AcDbSymbolTableRecord
100
AcDbLinetypeTableRecord
  2
BYBLOCK
 70
0
  3

 72
65
 73
0
 40
0.0
  0
LTYPE
  5
15
100
AcDbSymbolTableRecord
100
AcDbLinetypeTableRecord
  2
BYLAYER
 70
0
  3

 72
65
 73
0
 40
0.0
  0
LTYPE
  5
16
100
AcDbSymbolTableRecord
100
AcDbLinetypeTableRecord
  2
CONTINUOUS
 70
64
  3
Solid line
 72
65
 73
0
 40
0.0
  0
LTYPE
  5
1F5
100
AcDbSymbolTableRecord
100
AcDbLinetypeTableRecord
  2
CENTER
 70
64
  3
____ _ ____ _ ____ _ ____ _ ____ _ ____ _ ____
 72
65
 73
4
 40
0.6
 49
0.375
 74
0
 49
-0.075
 74
0
 49
0.075
 74
0
 49
-0.075
 74
0
  0
LTYPE
  5
1F6
100
AcDbSymbolTableRecord
100
AcDbLinetypeTableRecord
  2
HIDDEN
 70
64
  3
- - - - - - - - - - - - - - - - - - - -
 72
65
 73
2
 40
0.2
 49
0.1
 74
0
 49
-0.1
 74
0
  0
LTYPE
  5
1F7
100
AcDbSymbolTableRecord
100
AcDbLinetypeTableRecord
  2
PHANTOM
 70
64
  3
_____ _ _ _____ _ _ _____ _ _ _____
 72
65
 73
6
 40
0.8
 49
0.45
 74
0
 49
-0.05
 74
0
 49
0.1
 74
0
 49
-0.05
 74
0
 49
0.1
 74
0
 49
-0.05
 74
0
  0
LTYPE
  5
1F8
100
AcDbSymbolTableRecord
100
AcDbLinetypeTableRecord
  2
DOT
 70
64
  3
. . . . . . . . . . . . . . . . . . . .
 72
65
 73
2
 40
0.2
 49
0.1
 74
0
 49
-0.1
 74
0
  0
LTYPE
  5
1F9
100
AcDbSymbolTableRecord
100
AcDbLinetypeTableRecord
  2
DASHED
 70
64
  3
- - - - - - - - - - - - - - - - - - - -
 72
65
 73
2
 40
0.2
 49
0.1
 74
0
 49
-0.1
 74
0
  0
ENDTAB
  0
TABLE
  2
LAYER
  5
2
100
AcDbSymbolTable
 70
36
  0
LAYER
  5
10
100
AcDbSymbolTableRecord
100
AcDbLayerTableRecord
  2
0
 70
0
 62
7
  6
CONTINUOUS
370
-3
390
F
  0
LAYER
  5
1FA
100
AcDbSymbolTableRecord
100
AcDbLayerTableRecord
  2
DEFAULT_1
 70
0
 62
7
  6
CENTER
370
-3
390
F
  0
LAYER
  5
1FB
100
AcDbSymbolTableRecord
100
AcDbLayerTableRecord
  2
DEFAULT_2
 70
0
 62
8
  6
HIDDEN
370
-3
390
F
  0
LAYER
  5
1FC
100
AcDbSymbolTableRecord
100
AcDbLayerTableRecord
  2
DEFAULT_3
 70
0
 62
7
  6
PHANTOM
370
-3
390
F
  0
LAYER
  5
1FD
100
AcDbSymbolTableRecord
100
AcDbLayerTableRecord
  2
01___PRT_ALL_DTM_PLN
 70
0
 62
7
  6
CONTINUOUS
370
-3
390
F
  0
LAYER
  5
1FE
100
AcDbSymbolTableRecord
100
AcDbLayerTableRecord
  2
01___PRT_DEF_DTM_PLN
 70
0
 62
7
  6
CONTINUOUS
370
-3
390
F
  0
LAYER
  5
1FF
100
AcDbSymbolTableRecord
100
AcDbLayerTableRecord
  2
02___PRT_ALL_AXES
 70
0
 62
7
  6
CONTINUOUS
370
-3
390
F
  0
LAYER
  5
200
100
AcDbSymbolTableRecord
100
AcDbLayerTableRecord
  2
03___PRT_ALL_CURVES
 70
0
 62
7
  6
CONTINUOUS
370
-3
390
F
  0
LAYER
  5
201
100
AcDbSymbolTableRecord
100
AcDbLayerTableRecord
  2
04___PRT_ALL_DTM_PNT
 70
0
 62
7
  6
CONTINUOUS
370
-3
390
F
  0
LAYER
  5
202
100
AcDbSymbolTableRecord
100
AcDbLayerTableRecord
  2
05___PRT_ALL_DTM_CSYS
 70
0
 62
7
  6
CONTINUOUS
370
-3
390
F
  0
LAYER
  5
203
100
AcDbSymbolTableRecord
100
AcDbLayerTableRecord
  2
05___PRT_DEF_DTM_CSYS
 70
0
 62
7
  6
CONTINUOUS
370
-3
390
F
  0
LAYER
  5
204
100
AcDbSymbolTableRecord
100
AcDbLayerTableRecord
  2
06___PRT_ALL_SURFS
 70
0
 62
7
  6
CONTINUOUS
370
-3
390
F
  0
LAYER
  5
205
100
AcDbSymbolTableRecord
100
AcDbLayerTableRecord
  2
ALL_ASSEMBLY_MEMBERS
 70
0
 62
7
  6
CONTINUOUS
370
-3
390
F
  0
LAYER
  5
206
100
AcDbSymbolTableRecord
100
AcDbLayerTableRecord
  2
ALL_FEATURES
 70
0
 62
7
  6
CONTINUOUS
370
-3
390
F
  0
LAYER
  5
207
100
AcDbSymbolTableRecord
100
AcDbLayerTableRecord
  2
AXES_FEATURES
 70
0
 62
7
  6
CONTINUOUS
370
-3
390
F
  0
LAYER
  5
208
100
AcDbSymbolTableRecord
100
AcDbLayerTableRecord
  2
BROACH_SKETCH
 70
0
 62
7
  6
CONTINUOUS
370
-3
390
F
  0
LAYER
  5
209
100
AcDbSymbolTableRecord
100
AcDbLayerTableRecord
  2
CHAMFER_FEATURES
 70
0
 62
7
  6
CONTINUOUS
370
-3
390
F
  0
LAYER
  5
20A
100
AcDbSymbolTableRecord
100
AcDbLayerTableRecord
  2
COSMETIC_SKETCHES
 70
0
 62
7
  6
CONTINUOUS
370
-3
390
F
  0
LAYER
  5
20B
100
AcDbSymbolTableRecord
100
AcDbLayerTableRecord
  2
CUT_FEATURES
 70
0
 62
7
  6
CONTINUOUS
370
-3
390
F
  0
LAYER
  5
20C
100
AcDbSymbolTableRecord
100
AcDbLayerTableRecord
  2
DATUM_CURVES
 70
0
 62
7
  6
CONTINUOUS
370
-3
390
F
  0
LAYER
  5
20D
100
AcDbSymbolTableRecord
100
AcDbLayerTableRecord
  2
DATUM_PLANES
 70
0
 62
7
  6
CONTINUOUS
370
-3
390
F
  0
LAYER
  5
20E
100
AcDbSymbolTableRecord
100
AcDbLayerTableRecord
  2
DATUM_POINTS
 70
0
 62
7
  6
CONTINUOUS
370
-3
390
F
  0
LAYER
  5
20F
100
AcDbSymbolTableRecord
100
AcDbLayerTableRecord
  2
DEFAULT_COORDINATE_SYSTEM
 70
0
 62
7
  6
CONTINUOUS
370
-3
390
F
  0
LAYER
  5
210
100
AcDbSymbolTableRecord
100
AcDbLayerTableRecord
  2
DEFAULT_DATUM_AXES
 70
0
 62
7
  6
CONTINUOUS
370
-3
390
F
  0
LAYER
  5
211
100
AcDbSymbolTableRecord
100
AcDbLayerTableRecord
  2
DEFAULT_DATUM_CURVES
 70
0
 62
7
  6
CONTINUOUS
370
-3
390
F
  0
LAYER
  5
212
100
AcDbSymbolTableRecord
100
AcDbLayerTableRecord
  2
DEFAULT_DATUM_PLANES
 70
0
 62
7
  6
CONTINUOUS
370
-3
390
F
  0
LAYER
  5
213
100
AcDbSymbolTableRecord
100
AcDbLayerTableRecord
  2
DEFAULT_SURFACES
 70
0
 62
7
  6
CONTINUOUS
370
-3
390
F
  0
LAYER
  5
214
100
AcDbSymbolTableRecord
100
AcDbLayerTableRecord
  2
DIMENSIONS
 70
0
 62
7
  6
CONTINUOUS
370
-3
390
F
  0
LAYER
  5
215
100
AcDbSymbolTableRecord
100
AcDbLayerTableRecord
  2
HOLE_FEATURES
 70
0
 62
7
  6
CONTINUOUS
370
-3
390
F
  0
LAYER
  5
216
100
AcDbSymbolTableRecord
100
AcDbLayerTableRecord
  2
MIXEDCOLOR
 70
0
 62
7
  6
CONTINUOUS
370
-3
390
F
  0
LAYER
  5
217
100
AcDbSymbolTableRecord
100
AcDbLayerTableRecord
  2
PART_REFERENCE_DIMENSIONS
 70
0
 62
7
  6
CONTINUOUS
370
-3
390
F
  0
LAYER
  5
218
100
AcDbSymbolTableRecord
100
AcDbLayerTableRecord
  2
PLATED_SURFACE_AREA
 70
0
 62
7
  6
CONTINUOUS
370
-3
390
F
  0
LAYER
  5
219
100
AcDbSymbolTableRecord
100
AcDbLayerTableRecord
  2
POINTS
 70
0
 62
7
  6
CONTINUOUS
370
-3
390
F
  0
LAYER
  5
21A
100
AcDbSymbolTableRecord
100
AcDbLayerTableRecord
  2
PROTRUSION
 70
0
 62
7
  6
CONTINUOUS
370
-3
390
F
  0
LAYER
  5
21B
100
AcDbSymbolTableRecord
100
AcDbLayerTableRecord
  2
PROTRUSION_FEATURES
 70
0
 62
7
  6
CONTINUOUS
370
-3
390
F
  0
LAYER
  5
21C
100
AcDbSymbolTableRecord
100
AcDbLayerTableRecord
  2
QUILT
 70
0
 62
7
  6
CONTINUOUS
370
-3
390
F
  0
LAYER
  5
21D
100
AcDbSymbolTableRecord
100
AcDbLayerTableRecord
  2
REFERENCE_DIMENSIONS
 70
0
 62
7
  6
CONTINUOUS
370
-3
390
F
  0
LAYER
  5
21E
100
AcDbSymbolTableRecord
100
AcDbLayerTableRecord
  2
ROUND_FEATURES
 70
0
 62
7
  6
CONTINUOUS
370
-3
390
F
  0
LAYER
  5
21F
100
AcDbSymbolTableRecord
100
AcDbLayerTableRecord
  2
XSEC_DATUMS
 70
0
 62
7
  6
CONTINUOUS
370
-3
390
F
  0
ENDTAB
  0
TABLE
  2
STYLE
  5
3
100
AcDbSymbolTable
 70
1
  0
STYLE
  5
11
100
AcDbSymbolTableRecord
100
AcDbTextStyleTableRecord
  2
STANDARD
 70
0
 40
0.0
 41
0.8
 50
0.0
 71
0
 42
0.2
  3
txt
  4

  0
STYLE
  5
220
100
AcDbSymbolTableRecord
100
AcDbTextStyleTableRecord
  2
TEXTSTYLE_1
 70
0
 40
0.0
 41
0.8
 50
0.0
 71
0
 42
0.2
  3
gdt
  4

  0
ENDTAB
  0
TABLE
  2
VIEW
  5
6
100
AcDbSymbolTable
 70
0
  0
ENDTAB
  0
TABLE
  2
UCS
  5
7
100
AcDbSymbolTable
 70
0
  0
ENDTAB
  0
TABLE
  2
APPID
  5
9
100
AcDbSymbolTable
 70
1
  0
APPID
  5
221
100
AcDbSymbolTableRecord
100
AcDbRegAppTableRecord
  2
ACAD
 70
0
  0
ENDTAB
  0
TABLE
  2
BLOCK_RECORD
  5
1
100
AcDbSymbolTable
 70
0
  0
BLOCK_RECORD
  5
222
100
AcDbSymbolTableRecord
100
AcDbBlockTableRecord
  2
*Model_Space
  0
BLOCK_RECORD
  5
223
100
AcDbSymbolTableRecord
100
AcDbBlockTableRecord
  2
*Paper_Space
  0
BLOCK_RECORD
  5
224
100
AcDbSymbolTableRecord
100
AcDbBlockTableRecord
  2
_FILLED
  0
ENDTAB
  0
TABLE
  2
DIMSTYLE
  5
A
100
AcDbSymbolTable
 70
1
100
AcDbDimStyleTable
 71
0
  0
DIMSTYLE
105
225
100
AcDbSymbolTableRecord
100
AcDbDimStyleTableRecord
  2
STANDARD
 70
0
  3

  4

 40
1.0
 41
0.1
 42
0.0625
 43
0.38
 44
0.125
 45
0.0
 46
0.0
 47
0.001
 48
0.001
140
0.08
141
0.09
142
0.0
143
25.4
144
1.0
145
0.0
146
1.0
147
0.09
 71
1.0
 72
0.0
 73
1
 74
1
 75
0
 76
0
 77
0
 78
4
 79
1
170
1
171
2
172
0
173
0
174
0
175
0
176
0
177
0
178
0
270
2
179
3
271
3
272
3
273
2
274
2
275
0
280
0
281
0
282
0
283
1
284
4
285
0
286
0
287
3
288
0
340
11
278
46
341
224
342
224
343
224
344
224
  0
ENDTAB
  0
ENDSEC
  0
SECTION
  2
BLOCKS
  0
BLOCK
  5
20
100
AcDbEntity
  8
0
100
AcDbBlockBegin
  2
*Model_Space
 70
0
 10
0.0
 20
0.0
 30
0.0
  3
*Model_Space
  1

  0
ENDBLK
  5
21
100
AcDbEntity
  8
0
100
AcDbBlockEnd
  0
BLOCK
  5
1C
100
AcDbEntity
  8
0
100
AcDbBlockBegin
  2
*Paper_Space
 70
0
 10
0.0
 20
0.0
 30
0.0
  3
*Paper_Space
  1

  0
ENDBLK
  5
1D
100
AcDbEntity
  8
0
100
AcDbBlockEnd
  0
BLOCK
  5
226
100
AcDbEntity
  8
0
100
AcDbBlockBegin
  2
_FILLED
 70
64
 10
0.0
 20
0.0
  3
_FILLED
  1

  0
SOLID
  5
227
100
AcDbEntity
  8
0
  6
BYBLOCK
 62
0
100
AcDbTrace
 10
0.0
 20
0.0
 11
-1.0
 21
0.2
 12
-1.0
 22
-0.2
 13
-1.0
 23
-0.2
  0
ENDBLK
  5
228
100
AcDbEntity
  8
0
  6
BYBLOCK
 62
0
100
AcDbBlockEnd
  0
ENDSEC
  0
SECTION
  2
ENTITIES
  0
MTEXT
  5
229
100
AcDbEntity
  8
0
100
AcDbMText
 62
2
  6
CONTINUOUS
  7
STANDARD
 71
3
 72
1
 10
5.1829386646
 20
3.3507104037
 30
0.0
 11
1.0
 21
0.0
 31
0.0
 73
2
 44
0.9
  1
SCALE  .500
 40
0.08
 41
0.704
  0
LINE
  5
22A
100
AcDbEntity
  8
0
100
AcDbLine
 62
7
  6
CONTINUOUS
 10
0.0
 20
0.0
 11
0.0
 21
8.5
  0
LINE
  5
22B
100
AcDbEntity
  8
0
100
AcDbLine
 62
7
  6
CONTINUOUS
 10
0.0
 20
0.0
 11
11.0
 21
0.0
  0
LINE
  5
22C
100
AcDbEntity
  8
0
100
AcDbLine
 62
7
  6
CONTINUOUS
 10
0.0
 20
8.5
 11
11.0
 21
8.5
  0
LINE
  5
22D
100
AcDbEntity
  8
0
100
AcDbLine
 62
7
  6
CONTINUOUS
 10
11.0
 20
0.0
 11
11.0
 21
8.5
  0
LINE
  5
22E
100
AcDbEntity
  8
0
100
AcDbLine
 62
7
  6
CONTINUOUS
 10
5.6111059874
 20
3.4457104037
 11
5.7836059874
 21
3.4457104037
  0
LINE
  5
22F
100
AcDbEntity
  8
0
100
AcDbLine
 62
7
  6
CONTINUOUS
 10
5.5961059874
 20
3.4607104037
 11
5.7836059874
 21
3.4607104037
  0
LINE
  5
230
100
AcDbEntity
  8
0
100
AcDbLine
 62
7
  6
CONTINUOUS
 10
4.1647713418
 20
4.6639604037
 11
4.1647713418
 21
4.9774604037
  0
LINE
  5
231
100
AcDbEntity
  8
0
100
AcDbLine
 62
7
  6
CONTINUOUS
 10
4.1797713418
 20
4.6489604037
 11
4.1797713418
 21
4.9924604037
  0
LINE
  5
232
100
AcDbEntity
  8
0
100
AcDbLine
 62
7
  6
CONTINUOUS
 10
4.2115213418
 20
5.0224604037
 11
4.2115213418
 21
5.4932104037
  0
LINE
  5
233
100
AcDbEntity
  8
0
100
AcDbLine
 62
7
  6
CONTINUOUS
 10
4.2265213418
 20
4.6089604037
 11
4.2265213418
 21
4.6489604037
  0
LINE
  5
234
100
AcDbEntity
  8
0
100
AcDbLine
 62
7
  6
CONTINUOUS
 10
4.2265213418
 20
4.9924604037
 11
4.2265213418
 21
5.5082104037
  0
LINE
  5
235
100
AcDbEntity
  8
0
100
AcDbLine
 62
7
  6
CONTINUOUS
 10
4.4465213418
 20
4.6089604037
 11
4.4465213418
 21
4.6489604037
  0
LINE
  5
236
100
AcDbEntity
  8
0
100
AcDbLine
 62
7
  6
CONTINUOUS
 10
4.4465213418
 20
4.9924604037
 11
4.4465213418
 21
5.5082104037
  0
LINE
  5
237
100
AcDbEntity
  8
0
100
AcDbLine
 62
7
  6
CONTINUOUS
 10
4.4615213418
 20
5.0224604037
 11
4.4615213418
 21
5.4932104037
  0
LINE
  5
238
100
AcDbEntity
  8
0
100
AcDbLine
 62
7
  6
CONTINUOUS
 10
4.4932713418
 20
4.6489604037
 11
4.4932713418
 21
4.7201196487
  0
LINE
  5
239
100
AcDbEntity
  8
0
100
AcDbLine
 62
7
  6
CONTINUOUS
 10
4.4932713418
 20
4.9213011588
 11
4.4932713418
 21
4.9924604037
  0
LINE
  5
23A
100
AcDbEntity
  8
0
100
AcDbLine
 62
7
  6
CONTINUOUS
 10
4.5082713418
 20
4.6639604037
 11
4.5082713418
 21
4.720119648
  0
LINE
  5
23B
100
AcDbEntity
  8
0
100
AcDbLine
 62
7
  6
CONTINUOUS
 10
4.5082713418
 20
4.9213011591
 11
4.5082713418
 21
4.9774604037
  0
LINE
  5
23C
100
AcDbEntity
  8
0
100
AcDbLine
 62
7
  6
CONTINUOUS
 10
4.5867714098
 20
4.6970512747
 11
4.5867713418
 21
4.6970895849
  0
LINE
  5
23D
100
AcDbEntity
  8
0
100
AcDbLine
 62
7
  6
CONTINUOUS
 10
4.5382713418
 20
4.9769604037
 11
4.5382713418
 21
4.6644604037
  0
LINE
  5
23E
100
AcDbEntity
  8
ALL_FEATURES
100
AcDbLine
 62
7
  6
CONTINUOUS
 10
4.6092243364
 20
4.6851367202
 11
4.6092243364
 21
4.7051367202
  0
LINE
  5
23F
100
AcDbEntity
  8
ALL_FEATURES
100
AcDbLine
 62
7
  6
CONTINUOUS
 10
4.6323183471
 20
4.6851367202
 11
4.6323183471
 21
4.7051367202
  0
LINE
  5
240
100
AcDbEntity
  8
ALL_FEATURES
100
AcDbLine
 62
7
  6
CONTINUOUS
 10
4.6533163417
 20
4.6964747294
 11
4.6533163417
 21
4.6983161115
  0
LINE
  5
241
100
AcDbEntity
  8
0
100
AcDbLine
 62
7
  6
CONTINUOUS
 10
4.6957713418
 20
4.9769604037
 11
4.6957713418
 21
4.6644604037
  0
LINE
  5
242
100
AcDbEntity
  8
0
100
AcDbLine
 62
7
  6
CONTINUOUS
 10
4.7207713418
 20
4.3432104037
 11
4.7207713418
 21
5.2982104037
  0
LINE
  5
243
100
AcDbEntity
  8
0
100
AcDbLine
 62
7
  6
CONTINUOUS
 10
4.7357713418
 20
4.3282104037
 11
4.7357713418
 21
5.3132104037
  0
LINE
  5
244
100
AcDbEntity
  8
0
100
AcDbLine
 62
7
  6
CONTINUOUS
 10
5.5707713418
 20
4.3282104037
 11
4.7357713418
 21
4.3282104037
  0
LINE
  5
245
100
AcDbEntity
  8
ALL_FEATURES
100
AcDbLine
 62
7
  6
CONTINUOUS
 10
5.5711059874
 20
4.3282104037
 11
5.5961059874
 21
4.3282104037
  0
LINE
  5
246
100
AcDbEntity
  8
ALL_FEATURES
100
AcDbLine
 62
7
  6
CONTINUOUS
 10
4.5954599478
 20
4.686187791
 11
4.5918674459
 21
4.6887280734
  0
LINE
  5
247
100
AcDbEntity
  8
ALL_FEATURES
100
AcDbLine
 62
7
  6
CONTINUOUS
 10
4.597677331
 20
4.6951367202
 11
4.6092243364
 21
4.6851367202
  0
LINE
  5
248
100
AcDbEntity
  8
ALL_FEATURES
100
AcDbLine
 62
7
  6
CONTINUOUS
 10
4.6438653525
 20
4.6951367202
 11
4.6323183471
 21
4.7051367202
  0
LINE
  5
249
100
AcDbEntity
  8
ALL_FEATURES
100
AcDbLine
 62
7
  6
CONTINUOUS
 10
4.6092243364
 20
4.7051367202
 11
4.597677331
 21
4.6951367202
  0
LINE
  5
24A
100
AcDbEntity
  8
ALL_FEATURES
100
AcDbLine
 62
7
  6
CONTINUOUS
 10
4.6323183471
 20
4.6851367202
 11
4.6438653525
 21
4.6951367202
  0
LINE
  5
24B
100
AcDbEntity
  8
0
100
AcDbLine
 62
7
  6
CONTINUOUS
 10
4.9807713418
 20
5.3102382646
 11
4.9807713418
 21
5.4127436718
  0
LINE
  5
24C
100
AcDbEntity
  8
ALL_FEATURES
100
AcDbLine
 62
7
  6
CONTINUOUS
 10
4.6460827358
 20
4.686187791
 11
4.6473442229
 21
4.6870797971
  0
LINE
  5
24D
100
AcDbEntity
  8
0
100
AcDbLine
 62
7
  6
CONTINUOUS
 10
4.4467999822
 20
4.6089604037
 11
4.2262427013
 21
4.6089604037
  0
LINE
  5
24E
100
AcDbEntity
  8
0
100
AcDbLine
 62
7
  6
CONTINUOUS
 10
4.4617071021
 20
4.6222937371
 11
4.2113355815
 21
4.6222937371
  0
LINE
  5
24F
100
AcDbEntity
  8
0
100
AcDbLine
 62
7
  6
CONTINUOUS
 10
4.5042897291
 20
4.6489604037
 11
4.1797713418
 21
4.6489604037
  0
LINE
  5
250
100
AcDbEntity
  8
0
100
AcDbLine
 62
7
  6
CONTINUOUS
 10
4.5082713418
 20
4.6639604037
 11
4.1647713418
 21
4.6639604037
  0
LINE
  5
251
100
AcDbEntity
  8
0
100
AcDbLine
 62
7
  6
CONTINUOUS
 10
4.5382713418
 20
4.6644604037
 11
4.6957713418
 21
4.6644604037
  0
LINE
  5
252
100
AcDbEntity
  8
ALL_FEATURES
100
AcDbLine
 62
7
  6
CONTINUOUS
 10
4.6092243364
 20
4.6851367202
 11
4.6323183471
 21
4.6851367202
  0
LINE
  5
253
100
AcDbEntity
  8
ALL_FEATURES
100
AcDbLine
 62
7
  6
CONTINUOUS
 10
4.6323183471
 20
4.7051367202
 11
4.6092243364
 21
4.7051367202
  0
LINE
  5
254
100
AcDbEntity
  8
0
100
AcDbLine
 62
7
  6
CONTINUOUS
 10
4.4932713418
 20
4.7201196487
 11
4.5082713418
 21
4.7201196486
  0
LINE
  5
255
100
AcDbEntity
  8
ALL_FEATURES
100
AcDbLine
 62
7
  6
CONTINUOUS
 10
5.1107713418
 20
5.310238873
 11
5.1107713418
 21
5.4127436718
  0
LINE
  5
256
100
AcDbEntity
  8
0
100
AcDbLine
 62
7
  6
CONTINUOUS
 10
4.7207713418
 20
4.7282104037
 11
4.6957713418
 21
4.7282104037
  0
LINE
  5
257
100
AcDbEntity
  8
0
100
AcDbLine
 62
7
  6
CONTINUOUS
 10
4.7207713418
 20
4.9132104037
 11
4.6957713418
 21
4.9132104037
  0
LINE
  5
258
100
AcDbEntity
  8
0
100
AcDbLine
 62
7
  6
CONTINUOUS
 10
4.4932713418
 20
4.9213011588
 11
4.5082713418
 21
4.9213011588
  0
LINE
  5
259
100
AcDbEntity
  8
0
100
AcDbLine
 62
7
  6
CONTINUOUS
 10
4.5382713418
 20
4.9769604037
 11
4.6957713418
 21
4.9769604037
  0
LINE
  5
25A
100
AcDbEntity
  8
0
100
AcDbLine
 62
7
  6
CONTINUOUS
 10
4.1647713418
 20
4.9774604037
 11
4.5082713418
 21
4.9774604037
  0
LINE
  5
25B
100
AcDbEntity
  8
0
100
AcDbLine
 62
7
  6
CONTINUOUS
 10
4.1797713418
 20
4.9924604037
 11
4.5042892525
 21
4.9924604037
  0
LINE
  5
25C
100
AcDbEntity
  8
0
100
AcDbLine
 62
7
  6
CONTINUOUS
 10
4.4615213418
 20
5.0224604037
 11
4.2115213418
 21
5.0224604037
  0
LINE
  5
25D
100
AcDbEntity
  8
02___PRT_ALL_AXES
100
AcDbLine
 62
7
  6
CONTINUOUS
 10
5.5707713418
 20
5.3132104037
 11
5.5707713418
 21
4.3282104037
  0
LINE
  5
25E
100
AcDbEntity
  8
ALL_FEATURES
100
AcDbLine
 62
7
  6
CONTINUOUS
 10
5.5711059874
 20
5.3132104037
 11
5.5711059874
 21
4.3282104037
  0
LINE
  5
25F
100
AcDbEntity
  8
0
100
AcDbLine
 62
7
  6
CONTINUOUS
 10
5.5961059874
 20
3.4607104037
 11
5.5961059874
 21
6.1807104037
  0
LINE
  5
260
100
AcDbEntity
  8
0
100
AcDbLine
 62
7
  6
CONTINUOUS
 10
5.6111059874
 20
3.4457104037
 11
5.6111059874
 21
6.1957104037
  0
LINE
  5
261
100
AcDbEntity
  8
0
100
AcDbLine
 62
7
  6
CONTINUOUS
 10
5.5707713418
 20
5.3132104037
 11
5.1332713418
 21
5.3132104037
  0
LINE
  5
262
100
AcDbEntity
  8
0
100
AcDbLine
 62
7
  6
CONTINUOUS
 10
4.9582713418
 20
5.3132104037
 11
4.7357713418
 21
5.3132104037
  0
LINE
  5
263
100
AcDbEntity
  8
ALL_FEATURES
100
AcDbLine
 62
7
  6
CONTINUOUS
 10
5.5711059874
 20
5.3132104037
 11
5.5961059874
 21
5.3132104037
  0
LINE
  5
264
100
AcDbEntity
  8
0
100
AcDbLine
 62
7
  6
CONTINUOUS
 10
5.7836059874
 20
3.4457104037
 11
5.7836059874
 21
6.1957104037
  0
LINE
  5
265
100
AcDbEntity
  8
ALL_FEATURES
100
AcDbLine
 62
7
  6
CONTINUOUS
 10
4.9807713418
 20
5.4127436718
 11
5.1107713418
 21
5.4127436718
  0
LINE
  5
266
100
AcDbEntity
  8
ALL_FEATURES
100
AcDbLine
 62
7
  6
CONTINUOUS
 10
5.0903167963
 20
5.4411845631
 11
5.0012258872
 21
5.4411845631
  0
LINE
  5
267
100
AcDbEntity
  8
0
100
AcDbLine
 62
7
  6
CONTINUOUS
 10
4.4615213418
 20
5.4932104037
 11
4.2115213418
 21
5.4932104037
  0
LINE
  5
268
100
AcDbEntity
  8
0
100
AcDbLine
 62
7
  6
CONTINUOUS
 10
4.4465213418
 20
5.5082104037
 11
4.2265213418
 21
5.5082104037
  0
LINE
  5
269
100
AcDbEntity
  8
0
100
AcDbLine
 62
7
  6
CONTINUOUS
 10
5.5961059874
 20
6.1807104037
 11
5.7836059874
 21
6.1807104037
  0
LINE
  5
26A
100
AcDbEntity
  8
0
100
AcDbLine
 62
7
  6
CONTINUOUS
 10
5.6111059874
 20
6.1957104037
 11
5.7836059874
 21
6.1957104037
  0
ARC
  5
26B
100
AcDbEntity
  8
0
100
AcDbCircle
 62
7
  6
CONTINUOUS
 10
4.6184831334
 20
4.7937036775
 40
0.1243746391
100
AcDbArc
 50
263.73865522
 51
265.6191165911
  0
ARC
  5
26C
100
AcDbEntity
  8
0
100
AcDbCircle
 62
7
  6
CONTINUOUS
 10
4.625057701
 20
4.7485924021
 40
0.0703216484
100
AcDbArc
 50
266.5054498684
 51
273.4272900449
  0
ARC
  5
26D
100
AcDbEntity
  8
0
100
AcDbCircle
 62
7
  6
CONTINUOUS
 10
4.6279697137
 20
4.6576810924
 40
0.0520686496
100
AcDbArc
 50
59.4217123047
 51
60.1058693443
  0
ARC
  5
26E
100
AcDbEntity
  8
0
100
AcDbCircle
 62
7
  6
CONTINUOUS
 10
4.6133030768
 20
4.6581625523
 40
0.0515167531
100
AcDbArc
 50
119.2681198613
 51
122.4578625886
  0
ARC
  5
26F
100
AcDbEntity
  8
0
100
AcDbCircle
 62
7
  6
CONTINUOUS
 10
4.6116924464
 20
4.6607549064
 40
0.048464979
100
AcDbArc
 50
122.495970656
 51
122.7711439262
  0
ARC
  5
270
100
AcDbEntity
  8
0
100
AcDbCircle
 62
7
  6
CONTINUOUS
 10
4.6107935213
 20
4.6621412747
 40
0.0468126919
100
AcDbArc
 50
122.7644960572
 51
125.0149178329
  0
ARC
  5
271
100
AcDbEntity
  8
0
100
AcDbCircle
 62
7
  6
CONTINUOUS
 10
4.6095315737
 20
4.6639714601
 40
0.0445896757
100
AcDbArc
 50
125.0362520882
 51
125.2649907417
  0
ARC
  5
272
100
AcDbEntity
  8
0
100
AcDbCircle
 62
7
  6
CONTINUOUS
 10
4.6132111964
 20
4.7130570769
 40
0.0324776875
100
AcDbArc
 50
236.5425318187
 51
239.679920935
  0
ARC
  5
273
100
AcDbEntity
  8
0
100
AcDbCircle
 62
7
  6
CONTINUOUS
 10
4.6110642529
 20
4.7137417206
 40
0.0320603398
100
AcDbArc
 50
240.4548620533
 51
243.6127327622
  0
ARC
  5
274
100
AcDbEntity
  8
0
100
AcDbCircle
 62
7
  6
CONTINUOUS
 10
4.6121676751
 20
4.7114685426
 40
0.0305770693
100
AcDbArc
 50
235.5955521223
 51
236.5328210692
  0
ARC
  5
275
100
AcDbEntity
  8
0
100
AcDbCircle
 62
7
  6
CONTINUOUS
 10
4.1815213418
 20
4.6189604037
 40
0.03
100
AcDbArc
 50
6.3793702084
 51
90.0
  0
ARC
  5
276
100
AcDbEntity
  8
0
100
AcDbCircle
 62
7
  6
CONTINUOUS
 10
4.4915213418
 20
4.6189604037
 40
0.03
100
AcDbArc
 50
90.0
 51
173.6206297916
  0
ARC
  5
277
100
AcDbEntity
  8
0
100
AcDbCircle
 62
7
  6
CONTINUOUS
 10
4.5382713418
 20
4.6344604037
 40
0.03
100
AcDbArc
 50
90.0
 51
139.0382114477
  0
ARC
  5
278
100
AcDbEntity
  8
0
100
AcDbCircle
 62
7
  6
CONTINUOUS
 10
4.5956844947
 20
4.6789961056
 40
0.0240907506
100
AcDbArc
 50
141.2723730539
 51
141.8644994977
  0
ARC
  5
279
100
AcDbEntity
  8
0
100
AcDbCircle
 62
7
  6
CONTINUOUS
 10
4.6066832157
 20
4.7046335359
 40
0.021802811
100
AcDbArc
 50
225.7559453457
 51
226.1934547247
  0
ARC
  5
27A
100
AcDbEntity
  8
0
100
AcDbCircle
 62
7
  6
CONTINUOUS
 10
4.6053852861
 20
4.7048680551
 40
0.021512372
100
AcDbArc
 50
229.3745266497
 51
233.4077595356
  0
ARC
  5
27B
100
AcDbEntity
  8
ALL_FEATURES
100
AcDbCircle
 62
7
  6
CONTINUOUS
 10
4.6356516447
 20
4.7012062216
 40
0.0182804408
100
AcDbArc
 50
309.6322339612
 51
310.8927448448
  0
ARC
  5
27C
100
AcDbEntity
  8
0
100
AcDbCircle
 62
7
  6
CONTINUOUS
 10
4.4467999822
 20
4.6239604037
 40
0.015
100
AcDbArc
 50
270.0
 51
353.6206297668
  0
ARC
  5
27D
100
AcDbEntity
  8
0
100
AcDbCircle
 62
7
  6
CONTINUOUS
 10
4.2262427013
 20
4.6239604037
 40
0.015
100
AcDbArc
 50
186.3793702084
 51
270.0
  0
ARC
  5
27E
100
AcDbEntity
  8
0
100
AcDbCircle
 62
7
  6
CONTINUOUS
 10
4.5042897291
 20
4.6639604037
 40
0.015
100
AcDbArc
 50
270.0
 51
319.0382113997
  0
ARC
  5
27F
100
AcDbEntity
  8
0
100
AcDbCircle
 62
7
  6
CONTINUOUS
 10
4.4932713418
 20
4.6639604037
 40
0.015
100
AcDbArc
 50
270.0
 51
360.0
  0
ARC
  5
280
100
AcDbEntity
  8
0
100
AcDbCircle
 62
7
  6
CONTINUOUS
 10
4.1797713418
 20
4.6639604037
 40
0.015
100
AcDbArc
 50
180.0
 51
270.0
  0
ARC
  5
281
100
AcDbEntity
  8
0
100
AcDbCircle
 62
7
  6
CONTINUOUS
 10
4.7357713418
 20
4.3432104037
 40
0.015
100
AcDbArc
 50
180.0
 51
270.0
  0
ARC
  5
282
100
AcDbEntity
  8
0
100
AcDbCircle
 62
7
  6
CONTINUOUS
 10
4.6009860802
 20
4.6933041994
 40
0.0147002527
100
AcDbArc
 50
165.232417275
 51
176.1700803468
  0
ARC
  5
283
100
AcDbEntity
  8
0
100
AcDbCircle
 62
7
  6
CONTINUOUS
 10
4.5921482736
 20
4.6930239995
 40
0.0138466476
100
AcDbArc
 50
190.0690822252
 51
197.9344613343
  0
ARC
  5
284
100
AcDbEntity
  8
0
100
AcDbCircle
 62
7
  6
CONTINUOUS
 10
4.5975222606
 20
4.6970882666
 40
0.0107509182
100
AcDbArc
 50
175.9732486014
 51
179.9929740201
  0
ARC
  5
285
100
AcDbEntity
  8
0
100
AcDbCircle
 62
7
  6
CONTINUOUS
 10
4.61639809
 20
4.8956420706
 40
0.2260712984
100
AcDbArc
 50
268.1202740906
 51
268.9001590101
  0
ARC
  5
286
100
AcDbEntity
  8
0
100
AcDbCircle
 62
7
  6
CONTINUOUS
 10
4.4915213418
 20
5.0224604037
 40
0.03
100
AcDbArc
 50
180.0
 51
270.0
  0
ARC
  5
287
100
AcDbEntity
  8
0
100
AcDbCircle
 62
7
  6
CONTINUOUS
 10
4.1815213418
 20
5.0224604037
 40
0.03
100
AcDbArc
 50
270.0
 51
360.0
  0
ARC
  5
288
100
AcDbEntity
  8
0
100
AcDbCircle
 62
7
  6
CONTINUOUS
 10
4.5382713418
 20
5.0069604037
 40
0.03
100
AcDbArc
 50
220.9616993287
 51
270.0
  0
ARC
  5
289
100
AcDbEntity
  8
0
100
AcDbCircle
 62
7
  6
CONTINUOUS
 10
4.4932713418
 20
4.9774604037
 40
0.015
100
AcDbArc
 50
0.0
 51
90.0
  0
ARC
  5
28A
100
AcDbEntity
  8
0
100
AcDbCircle
 62
7
  6
CONTINUOUS
 10
4.1797713418
 20
4.9774604037
 40
0.015
100
AcDbArc
 50
90.0
 51
180.0
  0
ARC
  5
28B
100
AcDbEntity
  8
0
100
AcDbCircle
 62
7
  6
CONTINUOUS
 10
4.4465213418
 20
5.4932104037
 40
0.015
100
AcDbArc
 50
0.0
 51
90.0
  0
ARC
  5
28C
100
AcDbEntity
  8
0
100
AcDbCircle
 62
7
  6
CONTINUOUS
 10
4.2265213418
 20
5.4932104037
 40
0.015
100
AcDbArc
 50
90.0
 51
180.0
  0
ARC
  5
28D
100
AcDbEntity
  8
0
100
AcDbCircle
 62
7
  6
CONTINUOUS
 10
4.5042896607
 20
4.9774604037
 40
0.015
100
AcDbArc
 50
40.9617953928
 51
89.9999999911
  0
ARC
  5
28E
100
AcDbEntity
  8
0
100
AcDbCircle
 62
7
  6
CONTINUOUS
 10
4.7357713418
 20
5.2982104037
 40
0.015
100
AcDbArc
 50
90.0
 51
180.0
  0
ARC
  5
28F
100
AcDbEntity
  8
0
100
AcDbCircle
 62
7
  6
CONTINUOUS
 10
5.6111059874
 20
3.4607104037
 40
0.015
100
AcDbArc
 50
180.0
 51
270.0
  0
ARC
  5
290
100
AcDbEntity
  8
ALL_FEATURES
100
AcDbCircle
 62
7
  6
CONTINUOUS
 10
5.0457713418
 20
5.3084604037
 40
0.14
100
AcDbArc
 50
71.446995465
 51
108.553004535
  0
ARC
  5
291
100
AcDbEntity
  8
ALL_FEATURES
100
AcDbCircle
 62
7
  6
CONTINUOUS
 10
5.0107713418
 20
5.4127436718
 40
0.03
100
AcDbArc
 50
108.553004535
 51
180.0
  0
ARC
  5
292
100
AcDbEntity
  8
ALL_FEATURES
100
AcDbCircle
 62
7
  6
CONTINUOUS
 10
5.0807713418
 20
5.4127436718
 40
0.03
100
AcDbArc
 50
0.0
 51
71.446995465
  0
ARC
  5
293
100
AcDbEntity
  8
0
100
AcDbCircle
 62
7
  6
CONTINUOUS
 10
5.6111059874
 20
6.1807104037
 40
0.015
100
AcDbArc
 50
90.0
 51
180.0
  0
SPLINE
  5
294
100
AcDbEntity
  8
ALL_FEATURES
100
AcDbSpline
 62
7
  6
CONTINUOUS
 70
0
 71
3
 72
33
 73
29
 74
0
 42
0.0000001
 43
0.0000001
 44
0.0000000001
 40
0.0
 40
0.0
 40
0.0
 40
0.0
 40
0.0248724383
 40
0.0507048984
 40
0.0774802624
 40
0.1051737689
 40
0.133749754
 40
0.163166197
 40
0.1933754369
 40
0.2243218703
 40
0.2881764587
 40
0.3542117934
 40
0.3878711876
 40
0.4218541538
 40
0.4904702893
 40
0.5594263898
 40
0.5938328429
 40
0.6280814059
 40
0.6620921574
 40
0.6957870079
 40
0.7619155041
 40
0.8258909262
 40
0.856907103
 40
0.8871918254
 40
0.9166889526
 40
0.9453500147
 40
0.9731325558
 40
1.0
 40
1.0
 40
1.0
 40
1.0
 10
4.6460827332
 20
4.6861877919
 30
0.0
 10
4.645741876
 20
4.6859467609
 30
0.0
 10
4.6450328411
 20
4.6854751749
 30
0.0
 10
4.6439138031
 20
4.6848116624
 30
0.0
 10
4.6427223765
 20
4.6841804595
 30
0.0
 10
4.641462241
 20
4.6835837155
 30
0.0
 10
4.6401373869
 20
4.6830231091
 30
0.0
 10
4.6387519332
 20
4.68250042
 30
0.0
 10
4.6373101549
 20
4.6820173835
 30
0.0
 10
4.635297846
 20
4.681421825
 30
0.0
 10
4.6326712999
 20
4.6807893415
 30
0.0
 10
4.6299657779
 20
4.6803147558
 30
0.0
 10
4.6277405686
 20
4.6800252144
 30
0.0
 10
4.6254647739
 20
4.6797961084
 30
0.0
 10
4.6225884259
 20
4.6796310852
 30
0.0
 10
4.6197002747
 20
4.6796270641
 30
0.0
 10
4.6173922121
 20
4.6797209559
 30
0.0
 10
4.6156728801
 20
4.6798395637
 30
0.0
 10
4.6139695247
 20
4.6800061577
 30
0.0
 10
4.611740892
 20
4.6802895701
 30
0.0
 10
4.6090298327
 20
4.6807567424
 30
0.0
 10
4.6063966513
 20
4.6813818951
 30
0.0
 10
4.6043780305
 20
4.6819718094
 30
0.0
 10
4.6029309275
 20
4.6824508505
 30
0.0
 10
4.6015397084
 20
4.682969685
 30
0.0
 10
4.6002086693
 20
4.6835266278
 30
0.0
 10
4.5989419716
 20
4.6841198572
 30
0.0
 10
4.5981291271
 20
4.6845457378
 30
0.0
 10
4.5977348772
 20
4.6847646572
 30
0.0
  0
LINE
  5
295
100
AcDbEntity
  8
ALL_FEATURES
100
AcDbLine
 62
7
  6
CONTINUOUS
 10
4.5977348772
 20
4.6847646572
 11
4.5954599503
 21
4.6861877919
  0
SPLINE
  5
296
100
AcDbEntity
  8
ALL_FEATURES
100
AcDbSpline
 62
7
  6
CONTINUOUS
 70
0
 71
3
 72
18
 73
14
 74
0
 42
0.0000001
 43
0.0000001
 44
0.0000000001
 40
0.0
 40
0.0
 40
0.0
 40
0.0
 40
0.1488883156
 40
0.2895444484
 40
0.422332917
 40
0.5478519442
 40
0.6669964781
 40
0.7245771054
 40
0.7810485743
 40
0.8366124093
 40
0.8914817758
 40
0.9458710672
 40
1.0
 40
1.0
 40
1.0
 40
1.0
 10
4.6473442091
 20
4.687079802
 30
0.0
 10
4.6478129149
 20
4.6874112058
 30
0.0
 10
4.6487008729
 20
4.688090109
 30
0.0
 10
4.6499065681
 20
4.6891876485
 30
0.0
 10
4.6509411705
 20
4.6903295617
 30
0.0
 10
4.6517981272
 20
4.6915094859
 30
0.0
 10
4.6523660885
 20
4.692530985
 30
0.0
 10
4.6527217545
 20
4.6933573892
 30
0.0
 10
4.6529382167
 20
4.6939750661
 30
0.0
 10
4.6531069643
 20
4.6945966288
 30
0.0
 10
4.6532276544
 20
4.6952211449
 30
0.0
 10
4.6533001761
 20
4.6958474734
 30
0.0
 10
4.6533163417
 20
4.6962660375
 30
0.0
 10
4.6533163417
 20
4.6964747294
 30
0.0
  0
LINE
  5
297
100
AcDbEntity
  8
ALL_FEATURES
100
AcDbLine
 62
7
  6
CONTINUOUS
 10
4.6489021576
 20
4.7053641433
 11
4.6512521851
 21
4.7032478953
  0
SPLINE
  5
298
100
AcDbEntity
  8
ALL_FEATURES
100
AcDbSpline
 62
7
  6
CONTINUOUS
 70
0
 71
3
 72
15
 73
11
 74
0
 42
0.0000001
 43
0.0000001
 44
0.0000000001
 40
0.0
 40
0.0
 40
0.0
 40
0.0
 40
0.1393719624
 40
0.2733923663
 40
0.4025598569
 40
0.5274818498
 40
0.6488603461
 40
0.7674826807
 40
0.8842196877
 40
1.0
 40
1.0
 40
1.0
 40
1.0
 10
4.6512521851
 20
4.7032478953
 30
0.0
 10
4.6514189392
 20
4.7030565542
 30
0.0
 10
4.6517335256
 20
4.7026700252
 30
0.0
 10
4.6521531616
 20
4.7020680597
 30
0.0
 10
4.6525099342
 20
4.7014569839
 30
0.0
 10
4.6528030673
 20
4.700838257
 30
0.0
 10
4.6530319443
 20
4.7002133223
 30
0.0
 10
4.6531958615
 20
4.6995835915
 30
0.0
 10
4.653294341
 20
4.6989507075
 30
0.0
 10
4.6533163044
 20
4.6985269568
 30
0.0
 10
4.6533163166
 20
4.6983161114
 30
0.0
  0
SPLINE
  5
299
100
AcDbEntity
  8
ALL_FEATURES
100
AcDbSpline
 62
7
  6
CONTINUOUS
 70
0
 71
3
 72
18
 73
14
 74
0
 42
0.0000001
 43
0.0000001
 44
0.0000000001
 40
0.0
 40
0.0
 40
0.0
 40
0.0
 40
0.1488738005
 40
0.2895407806
 40
0.4223304363
 40
0.5478474532
 40
0.6669846483
 40
0.7245707198
 40
0.78105337
 40
0.8366303826
 40
0.8915049971
 40
0.9458884803
 40
1.0
 40
1.0
 40
1.0
 40
1.0
 10
4.5954599503
 20
4.6861877919
 30
0.0
 10
4.5950135546
 20
4.6865034525
 30
0.0
 10
4.5941677888
 20
4.6871501421
 30
0.0
 10
4.5930192641
 20
4.6881954946
 30
0.0
 10
4.5920338627
 20
4.6892833154
 30
0.0
 10
4.5912174691
 20
4.6904070975
 30
0.0
 10
4.5906765407
 20
4.6913801262
 30
0.0
 10
4.5903377028
 20
4.6921673075
 30
0.0
 10
4.5901314887
 20
4.6927557696
 30
0.0
 10
4.5899708351
 20
4.6933479587
 30
0.0
 10
4.5898558691
 20
4.6939428694
 30
0.0
 10
4.5897867588
 20
4.6945393925
 30
0.0
 10
4.5897713418
 20
4.6949379999
 30
0.0
 10
4.5897713418
 20
4.6951367202
 30
0.0
  0
SPLINE
  5
29A
100
AcDbEntity
  8
ALL_FEATURES
100
AcDbSpline
 62
7
  6
CONTINUOUS
 70
0
 71
3
 72
15
 73
11
 74
0
 42
0.0000001
 43
0.0000001
 44
0.0000000001
 40
0.0
 40
0.0
 40
0.0
 40
0.0
 40
0.1119864835
 40
0.2254705068
 40
0.3417146691
 40
0.4619047979
 40
0.5870880069
 40
0.7181134907
 40
0.8556014139
 40
1.0
 40
1.0
 40
1.0
 40
1.0
 10
4.6517713418
 20
4.6951367202
 30
0.0
 10
4.6517713418
 20
4.6947982517
 30
0.0
 10
4.6517262636
 20
4.6941159782
 30
0.0
 10
4.6515250654
 20
4.6931002505
 30
0.0
 10
4.651190926
 20
4.6920940318
 30
0.0
 10
4.6507258662
 20
4.6911023758
 30
0.0
 10
4.6501325345
 20
4.6901293031
 30
0.0
 10
4.6494136404
 20
4.6891788356
 30
0.0
 10
4.6485728005
 20
4.6882546111
 30
0.0
 10
4.6479487482
 20
4.6876730922
 30
0.0
 10
4.6476188456
 20
4.6873873715
 30
0.0
  0
LINE
  5
29B
100
AcDbEntity
  8
ALL_FEATURES
100
AcDbLine
 62
7
  6
CONTINUOUS
 10
4.6473119586
 20
4.6871274576
 11
4.6460827332
 21
4.6861877919
  0
SPLINE
  5
29C
100
AcDbEntity
  8
ALL_FEATURES
100
AcDbSpline
 62
7
  6
CONTINUOUS
 70
0
 71
3
 72
57
 73
53
 74
0
 42
0.0000001
 43
0.0000001
 44
0.0000000001
 40
0.0
 40
0.0
 40
0.0
 40
0.0
 40
0.0101374816
 40
0.0203545342
 40
0.030717035
 40
0.0412877362
 40
0.0521267712
 40
0.063288665
 40
0.0748210662
 40
0.0867626748
 40
0.1119752046
 40
0.1253000067
 40
0.1391156056
 40
0.1534276382
 40
0.1682369058
 40
0.1835383135
 40
0.1993234256
 40
0.223879815
 40
0.2494418539
 40
0.275941433
 40
0.3032964249
 40
0.3314157675
 40
0.3601988439
 40
0.3895383782
 40
0.4193212881
 40
0.4494298299
 40
0.4797435251
 40
0.5101394032
 40
0.5404941922
 40
0.6005786629
 40
0.6300789135
 40
0.6590595863
 40
0.6874118541
 40
0.7150321017
 40
0.7418265545
 40
0.767709283
 40
0.7926078335
 40
0.8164615261
 40
0.839227236
 40
0.8608793218
 40
0.8814150653
 40
0.9008572423
 40
0.9192578963
 40
0.9280964925
 40
0.9367096793
 40
0.9533223621
 40
0.9613714473
 40
0.9692777895
 40
0.9770670478
 40
0.9847654767
 40
0.9924003759
 40
1.0
 40
1.0
 40
1.0
 40
1.0
 10
4.5897713418
 20
4.6951367202
 30
0.0
 10
4.5897713418
 20
4.6953904042
 30
0.0
 10
4.5897965312
 20
4.6959001107
 30
0.0
 10
4.5899092926
 20
4.6966616176
 30
0.0
 10
4.5900967232
 20
4.6974194677
 30
0.0
 10
4.5903585194
 20
4.6981713576
 30
0.0
 10
4.5906937823
 20
4.6989153993
 30
0.0
 10
4.5911014929
 20
4.6996498865
 30
0.0
 10
4.5915807336
 20
4.7003731121
 30
0.0
 10
4.592326747
 20
4.7013374598
 30
0.0
 10
4.5932017904
 20
4.7022541443
 30
0.0
 10
4.5941852636
 20
4.703120273
 30
0.0
 10
4.5950004115
 20
4.7037626893
 30
0.0
 10
4.5958773934
 20
4.7043842019
 30
0.0
 10
4.5968142318
 20
4.7049833478
 30
0.0
 10
4.5978085841
 20
4.7055588159
 30
0.0
 10
4.5990420452
 20
4.7062056721
 30
0.0
 10
4.6005394835
 20
4.7068989382
 30
0.0
 10
4.6023210118
 20
4.7076099031
 30
0.0
 10
4.6042021223
 20
4.7082533967
 30
0.0
 10
4.6061725908
 20
4.7088262349
 30
0.0
 10
4.6082218819
 20
4.7093250977
 30
0.0
 10
4.6103389091
 20
4.7097474846
 30
0.0
 10
4.6125122844
 20
4.7100909739
 30
0.0
 10
4.6147302603
 20
4.7103537923
 30
0.0
 10
4.6169808761
 20
4.710534488
 30
0.0
 10
4.6192519532
 20
4.7106320552
 30
0.0
 10
4.6215312924
 20
4.7106460482
 30
0.0
 10
4.6245541771
 20
4.7105533052
 30
0.0
 10
4.6275479347
 20
4.7102957124
 30
0.0
 10
4.6304849816
 20
4.709870879
 30
0.0
 10
4.6326221009
 20
4.7094744917
 30
0.0
 10
4.6346952171
 20
4.7090008994
 30
0.0
 10
4.636693155
 20
4.7084523443
 30
0.0
 10
4.638605204
 20
4.7078320797
 30
0.0
 10
4.6404210217
 20
4.7071431628
 30
0.0
 10
4.6421309276
 20
4.7063895225
 30
0.0
 10
4.6437256944
 20
4.7055749668
 30
0.0
 10
4.6451968479
 20
4.7047039503
 30
0.0
 10
4.6465364919
 20
4.7037809503
 30
0.0
 10
4.6477374832
 20
4.7028107255
 30
0.0
 10
4.6487933064
 20
4.7017983316
 30
0.0
 10
4.6495574234
 20
4.7009118655
 30
0.0
 10
4.6500869981
 20
4.7001871098
 30
0.0
 10
4.6505508556
 20
4.699471548
 30
0.0
 10
4.6509423718
 20
4.6987337867
 30
0.0
 10
4.6512526138
 20
4.6979796245
 30
0.0
 10
4.6514415138
 20
4.6974157469
 30
0.0
 10
4.6515886534
 20
4.696848628
 30
0.0
 10
4.6516939414
 20
4.6962791466
 30
0.0
 10
4.6517572269
 20
4.6957082776
 30
0.0
 10
4.6517713418
 20
4.6953268959
 30
0.0
 10
4.6517713418
 20
4.6951367202
 30
0.0
  0
SPLINE
  5
29D
100
AcDbEntity
  8
ALL_FEATURES
100
AcDbSpline
 62
7
  6
CONTINUOUS
 70
0
 71
3
 72
18
 73
14
 74
0
 42
0.0000001
 43
0.0000001
 44
0.0000000001
 40
0.0
 40
0.0
 40
0.0
 40
0.0
 40
0.0535546292
 40
0.1073910493
 40
0.1617475103
 40
0.2168561999
 40
0.2729465702
 40
0.3302335536
 40
0.4490869395
 40
0.5747463325
 40
0.7081162617
 40
0.8497766212
 40
1.0
 40
1.0
 40
1.0
 40
1.0
 10
4.6533163417
 20
4.6964747294
 30
0.0
 10
4.6533163417
 20
4.6966933904
 30
0.0
 10
4.6532985854
 20
4.6971320658
 30
0.0
 10
4.6532189484
 20
4.6977883239
 30
0.0
 10
4.6530864303
 20
4.6984424821
 30
0.0
 10
4.6529011739
 20
4.6990932302
 30
0.0
 10
4.6526636042
 20
4.6997395052
 30
0.0
 10
4.6522730122
 20
4.7006042672
 30
0.0
 10
4.6516493619
 20
4.701671572
 30
0.0
 10
4.6507102797
 20
4.7028999726
 30
0.0
 10
4.6495778881
 20
4.7040848473
 30
0.0
 10
4.6482600054
 20
4.7052188619
 30
0.0
 10
4.6472917121
 20
4.7059162512
 30
0.0
 10
4.6467809277
 20
4.7062558149
 30
0.0
  0
SPLINE
  5
29E
100
AcDbEntity
  8
0
100
AcDbSpline
 62
7
  6
CONTINUOUS
 70
0
 71
3
 72
22
 73
18
 74
0
 42
0.0000001
 43
0.0000001
 44
0.0000000001
 40
0.0
 40
0.0
 40
0.0
 40
0.0
 40
0.1764907016
 40
0.2606839038
 40
0.3413551803
 40
0.4179843523
 40
0.4901590067
 40
0.5575915221
 40
0.6201138953
 40
0.6777718003
 40
0.7307960244
 40
0.7797052824
 40
0.8253184013
 40
0.8687559467
 40
0.9113947572
 40
0.9546901592
 40
1.0
 40
1.0
 40
1.0
 40
1.0
 10
4.6292616578
 20
4.6783965263
 30
0.0
 10
4.6316350178
 20
4.6785401752
 30
0.0
 10
4.6351345082
 20
4.6789336188
 30
0.0
 10
4.6396441427
 20
4.6798449577
 30
0.0
 10
4.6427898131
 20
4.6806844457
 30
0.0
 10
4.6457193508
 20
4.6816798207
 30
0.0
 10
4.6484036274
 20
4.6828192431
 30
0.0
 10
4.6508170874
 20
4.6840880661
 30
0.0
 10
4.6529359818
 20
4.6854739916
 30
0.0
 10
4.6547416437
 20
4.6869605825
 30
0.0
 10
4.6562165094
 20
4.688534628
 30
0.0
 10
4.657345865
 20
4.6901810824
 30
0.0
 10
4.6581173469
 20
4.6918841342
 30
0.0
 10
4.6585164645
 20
4.6936258701
 30
0.0
 10
4.6585384644
 20
4.6953821881
 30
0.0
 10
4.6581824465
 20
4.6971266989
 30
0.0
 10
4.6577143169
 20
4.6982335797
 30
0.0
 10
4.657429873
 20
4.6987736756
 30
0.0
  0
SPLINE
  5
29F
100
AcDbEntity
  8
0
100
AcDbSpline
 62
7
  6
CONTINUOUS
 70
0
 71
3
 72
9
 73
5
 74
0
 42
0.0000001
 43
0.0000001
 44
0.0000000001
 40
0.0
 40
0.0
 40
0.0
 40
0.0
 40
0.2385737557
 40
1.0
 40
1.0
 40
1.0
 40
1.0
 10
4.657429873
 20
4.6987736756
 30
0.0
 10
4.6573053816
 20
4.6990100573
 30
0.0
 10
4.6567468931
 20
4.6999815013
 30
0.0
 10
4.6560508647
 20
4.7008706088
 30
0.0
 10
4.6554731366
 20
4.701497714
 30
0.0
  0
LINE
  5
2A0
100
AcDbEntity
  8
0
100
AcDbLine
 62
7
  6
CONTINUOUS
 10
4.6554731366
 20
4.701497714
 11
4.6544623481
 21
4.702504986
  0
LINE
  5
2A1
100
AcDbEntity
  8
0
100
AcDbLine
 62
7
  6
CONTINUOUS
 10
4.5783168834
 20
4.6897630325
 11
4.5786817858
 21
4.6925422546
  0
SPLINE
  5
2A2
100
AcDbEntity
  8
0
100
AcDbSpline
 62
7
  6
CONTINUOUS
 70
0
 71
3
 72
11
 73
7
 74
0
 42
0.0000001
 43
0.0000001
 44
0.0000000001
 40
0.0
 40
0.0
 40
0.0
 40
0.0
 40
0.2600029401
 40
0.5162370116
 40
0.7644257043
 40
1.0
 40
1.0
 40
1.0
 40
1.0
 10
4.6207713418
 20
4.711228833
 30
0.0
 10
4.6178259073
 20
4.711228833
 30
0.0
 10
4.6119714609
 20
4.7108697832
 30
0.0
 10
4.6034365511
 20
4.709283193
 30
0.0
 10
4.595428033
 20
4.7067357212
 30
0.0
 10
4.5904444266
 20
4.7044079503
 30
0.0
 10
4.5881166832
 20
4.7031027508
 30
0.0
  0
LINE
  5
2A3
100
AcDbEntity
  8
0
100
AcDbLine
 62
7
  6
CONTINUOUS
 10
4.5867978824
 20
4.69784322
 11
4.5872246349
 21
4.7002060328
  0
SPLINE
  5
2A4
100
AcDbEntity
  8
0
100
AcDbSpline
 62
7
  6
CONTINUOUS
 70
0
 71
3
 72
9
 73
5
 74
0
 42
0.0000001
 43
0.0000001
 44
0.0000000001
 40
0.0
 40
0.0
 40
0.0
 40
0.0
 40
0.4900029021
 40
1.0
 40
1.0
 40
1.0
 40
1.0
 10
4.5872246349
 20
4.7002060328
 30
0.0
 10
4.5873847363
 20
4.7007546258
 30
0.0
 10
4.5877932268
 20
4.7018516246
 30
0.0
 10
4.5883445662
 20
4.7028833069
 30
0.0
 10
4.5886554005
 20
4.703390421
 30
0.0
  0
LINE
  5
2A5
100
AcDbEntity
  8
0
100
AcDbLine
 62
7
  6
CONTINUOUS
 10
4.5915907513
 20
4.6888988581
 11
4.593145179
 21
4.6875352953
  0
LINE
  5
2A6
100
AcDbEntity
  8
0
100
AcDbLine
 62
7
  6
CONTINUOUS
 10
4.593145179
 20
4.6875352953
 11
4.5948906814
 21
4.6862403311
  0
SPLINE
  5
2A7
100
AcDbEntity
  8
0
100
AcDbSpline
 62
7
  6
CONTINUOUS
 70
0
 71
3
 72
11
 73
7
 74
0
 42
0.0000001
 43
0.0000001
 44
0.0000000001
 40
0.0
 40
0.0
 40
0.0
 40
0.0
 40
0.226578385
 40
0.4669432623
 40
0.7240708988
 40
1.0
 40
1.0
 40
1.0
 40
1.0
 10
4.5786817858
 20
4.6925422546
 30
0.0
 10
4.5789311412
 20
4.6933233259
 30
0.0
 10
4.5795957827
 20
4.6948876583
 30
0.0
 10
4.581003292
 20
4.6971091136
 30
0.0
 10
4.5828304884
 20
4.6992400447
 30
0.0
 10
4.5842620077
 20
4.7005403724
 30
0.0
 10
4.5850352012
 20
4.701172162
 30
0.0
  0
SPLINE
  5
2A8
100
AcDbEntity
  8
0
100
AcDbSpline
 62
7
  6
CONTINUOUS
 70
0
 71
3
 72
12
 73
8
 74
0
 42
0.0000001
 43
0.0000001
 44
0.0000000001
 40
0.0
 40
0.0
 40
0.0
 40
0.0
 40
0.1095770832
 40
0.2250688147
 40
0.4707609035
 40
0.7313052265
 40
1.0
 40
1.0
 40
1.0
 40
1.0
 10
4.5968154801
 20
4.6850217301
 30
0.0
 10
4.5975992896
 20
4.6845482808
 30
0.0
 10
4.5992522797
 20
4.6836458899
 30
0.0
 10
4.6028385099
 20
4.6820220069
 30
0.0
 10
4.6077806194
 20
4.6803704907
 30
0.0
 10
4.614125129
 20
4.6790199664
 30
0.0
 10
4.6185301192
 20
4.6785384119
 30
0.0
 10
4.6207713435
 20
4.6784015097
 30
0.0
  0
SPLINE
  5
2A9
100
AcDbEntity
  8
0
100
AcDbSpline
 62
7
  6
CONTINUOUS
 70
0
 71
3
 72
11
 73
7
 74
0
 42
0.0000001
 43
0.0000001
 44
0.0000000001
 40
0.0
 40
0.0
 40
0.0
 40
0.0
 40
0.26041512
 40
0.5169127694
 40
0.7650352613
 40
1.0
 40
1.0
 40
1.0
 40
1.0
 10
4.6207713418
 20
4.711228833
 30
0.0
 10
4.6237707045
 20
4.711228833
 30
0.0
 10
4.6297309291
 20
4.7108565759
 30
0.0
 10
4.6384106032
 20
4.7092128422
 30
0.0
 10
4.6465341163
 20
4.7065774565
 30
0.0
 10
4.6515745343
 20
4.7041707231
 30
0.0
 10
4.6539206731
 20
4.7028218941
 30
0.0
  0
LINE
  5
2AA
100
AcDbEntity
  8
0
100
AcDbLine
 62
7
  6
CONTINUOUS
 10
4.6544578272
 20
4.7025088083
 11
4.6577553712
 21
4.7003785007
  0
SPLINE
  5
2AB
100
AcDbEntity
  8
0
100
AcDbSpline
 62
7
  6
CONTINUOUS
 70
0
 71
3
 72
32
 73
28
 74
0
 42
0.0000001
 43
0.0000001
 44
0.0000000001
 40
0.0
 40
0.0
 40
0.0
 40
0.0
 40
0.0651519826
 40
0.0953855978
 40
0.1238968479
 40
0.1506251453
 40
0.1755720984
 40
0.1988463785
 40
0.2206930076
 40
0.2414848403
 40
0.2617446162
 40
0.2820541891
 40
0.3029825453
 40
0.3250118681
 40
0.3484830388
 40
0.3736141916
 40
0.4005090605
 40
0.429181976
 40
0.4596000975
 40
0.4916872715
 40
0.5253340362
 40
0.5968210552
 40
0.6730034668
 40
0.7526859693
 40
0.8346210657
 40
0.9175465809
 40
1.0
 40
1.0
 40
1.0
 40
1.0
 10
4.6577553712
 20
4.7003785007
 30
0.0
 10
4.6591998102
 20
4.6993571366
 30
0.0
 10
4.6612317743
 20
4.6977335695
 30
0.0
 10
4.6636040413
 20
4.6953440532
 30
0.0
 10
4.6650940604
 20
4.6935603105
 30
0.0
 10
4.6663219377
 20
4.6917574638
 30
0.0
 10
4.6672707733
 20
4.6899511665
 30
0.0
 10
4.6679233496
 20
4.6881570328
 30
0.0
 10
4.6682697905
 20
4.6863927002
 30
0.0
 10
4.6682962488
 20
4.6846750566
 30
0.0
 10
4.6680003925
 20
4.683024627
 30
0.0
 10
4.6673882228
 20
4.6814598643
 30
0.0
 10
4.6664704885
 20
4.6799970727
 30
0.0
 10
4.6652700193
 20
4.6786415091
 30
0.0
 10
4.6638044776
 20
4.6773961302
 30
0.0
 10
4.6620936924
 20
4.6762597129
 30
0.0
 10
4.6601573004
 20
4.6752281462
 30
0.0
 10
4.6580132391
 20
4.6742987288
 30
0.0
 10
4.6556798375
 20
4.6734668489
 30
0.0
 10
4.6531747621
 20
4.6727273932
 30
0.0
 10
4.6495548155
 20
4.671840413
 30
0.0
 10
4.644706855
 20
4.6709578943
 30
0.0
 10
4.6385774171
 20
4.6702042943
 30
0.0
 10
4.6321377986
 20
4.6697068996
 30
0.0
 10
4.6255017041
 20
4.6694420915
 30
0.0
 10
4.6187854459
 20
4.6693977877
 30
0.0
 10
4.6142954327
 20
4.6695145066
 30
0.0
 10
4.6120587266
 20
4.6696124224
 30
0.0
  0
LINE
  5
2AC
100
AcDbEntity
  8
0
100
AcDbLine
 62
7
  6
CONTINUOUS
 10
4.5952550083
 20
4.6858502673
 11
4.5925614138
 21
4.68759581
  0
SPLINE
  5
2AD
100
AcDbEntity
  8
0
100
AcDbSpline
 62
7
  6
CONTINUOUS
 70
0
 71
3
 72
9
 73
5
 74
0
 42
0.0000001
 43
0.0000001
 44
0.0000000001
 40
0.0
 40
0.0
 40
0.0
 40
0.0
 40
0.2623771539
 40
1.0
 40
1.0
 40
1.0
 40
1.0
 10
4.5913783285
 20
4.688540554
 30
0.0
 10
4.5911379136
 20
4.6887473244
 30
0.0
 10
4.5902408419
 20
4.6895570437
 30
0.0
 10
4.5894236715
 20
4.6904584811
 30
0.0
 10
4.5888926575
 20
4.6911745415
 30
0.0
  0
SPLINE
  5
2AE
100
AcDbEntity
  8
0
100
AcDbSpline
 62
7
  6
CONTINUOUS
 70
0
 71
3
 72
11
 73
7
 74
0
 42
0.0000001
 43
0.0000001
 44
0.0000000001
 40
0.0
 40
0.0
 40
0.0
 40
0.0
 40
0.267390258
 40
0.5204394145
 40
0.763107612
 40
1.0
 40
1.0
 40
1.0
 40
1.0
 10
4.5888926575
 20
4.6911745415
 30
0.0
 10
4.5885555719
 20
4.6916290938
 30
0.0
 10
4.5879538629
 20
4.6925564675
 30
0.0
 10
4.5872792217
 20
4.6940308163
 30
0.0
 10
4.5868687467
 20
4.6955332531
 30
0.0
 10
4.5867734153
 20
4.6965499225
 30
0.0
 10
4.5867714098
 20
4.6970512747
 30
0.0
  0
SPLINE
  5
2AF
100
AcDbEntity
  8
0
100
AcDbSpline
 62
7
  6
CONTINUOUS
 70
0
 71
3
 72
17
 73
13
 74
0
 42
0.0000001
 43
0.0000001
 44
0.0000000001
 40
0.0
 40
0.0
 40
0.0
 40
0.0
 40
0.0504317345
 40
0.1010264568
 40
0.1523630107
 40
0.2049687761
 40
0.3154528037
 40
0.4348206665
 40
0.5637413643
 40
0.7017840974
 40
0.847853656
 40
1.0
 40
1.0
 40
1.0
 40
1.0
 10
4.5863186572
 20
4.6942861019
 30
0.0
 10
4.5862763806
 20
4.6936449632
 30
0.0
 10
4.5862779352
 20
4.6923531959
 30
0.0
 10
4.5865420818
 20
4.6904245688
 30
0.0
 10
4.5870614091
 20
4.6885198005
 30
0.0
 10
4.5880984709
 20
4.6859860447
 30
0.0
 10
4.5900316496
 20
4.6829160101
 30
0.0
 10
4.593163108
 20
4.679557844
 30
0.0
 10
4.5970435018
 20
4.6765036149
 30
0.0
 10
4.6015671049
 20
4.6737920371
 30
0.0
 10
4.6066204587
 20
4.6714564754
 30
0.0
 10
4.6102068337
 20
4.6701851628
 30
0.0
 10
4.6120587266
 20
4.6696124224
 30
0.0
  0
SPLINE
  5
2B0
100
AcDbEntity
  8
0
100
AcDbSpline
 62
7
  6
CONTINUOUS
 70
0
 71
3
 72
10
 73
6
 74
0
 42
0.0000001
 43
0.0000001
 44
0.0000000001
 40
0.0
 40
0.0
 40
0.0
 40
0.0
 40
0.2252332782
 40
0.4674209896
 40
1.0
 40
1.0
 40
1.0
 40
1.0
 10
4.6570361326
 20
4.6897682289
 30
0.0
 10
4.6563257026
 20
4.6892538656
 30
0.0
 10
4.6547936096
 20
4.6882647348
 30
0.0
 10
4.6513452421
 20
4.6864484243
 30
0.0
 10
4.6485152723
 20
4.6853643515
 30
0.0
 10
4.6465388617
 20
4.6847358762
 30
0.0
  0
LINE
  5
2B1
100
AcDbEntity
  8
0
100
AcDbLine
 62
7
  6
CONTINUOUS
 10
4.6465388617
 20
4.6847358762
 11
4.6405411953
 21
4.6831821723
  0
SPLINE
  5
2B2
100
AcDbEntity
  8
0
100
AcDbSpline
 62
7
  6
CONTINUOUS
 70
0
 71
3
 72
17
 73
13
 74
0
 42
0.0000001
 43
0.0000001
 44
0.0000000001
 40
0.0
 40
0.0
 40
0.0
 40
0.0
 40
0.0625026416
 40
0.1250072746
 40
0.1875096625
 40
0.2500112792
 40
0.3750089666
 40
0.5000086944
 40
0.6250083845
 40
0.7500076174
 40
0.8750050405
 40
1.0
 40
1.0
 40
1.0
 40
1.0
 10
4.5042897291
 20
4.8207097482
 30
0.0
 10
4.50428974
 20
4.822820541
 30
0.0
 10
4.5042151546
 20
4.8270425537
 30
0.0
 10
4.5038867869
 20
4.8333675691
 30
0.0
 10
4.5033589272
 20
4.8396788795
 30
0.0
 10
4.5024244853
 20
4.848070767
 30
0.0
 10
4.5009050706
 20
4.8585166768
 30
0.0
 10
4.4988081179
 20
4.8710058718
 30
0.0
 10
4.4967218375
 20
4.8834971437
 30
0.0
 10
4.4949084897
 20
4.8960329486
 30
0.0
 10
4.4936173086
 20
4.9086356148
 30
0.0
 10
4.4932713518
 20
4.9170799219
 30
0.0
 10
4.4932713418
 20
4.9213011588
 30
0.0
  0
SPLINE
  5
2B3
100
AcDbEntity
  8
0
100
AcDbSpline
 62
7
  6
CONTINUOUS
 70
0
 71
3
 72
17
 73
13
 74
0
 42
0.0000001
 43
0.0000001
 44
0.0000000001
 40
0.0
 40
0.0
 40
0.0
 40
0.0
 40
0.1250004014
 40
0.2499994534
 40
0.3749976284
 40
0.4999964402
 40
0.6249953881
 40
0.7499920623
 40
0.8124934496
 40
0.8749952118
 40
0.9374983718
 40
1.0
 40
1.0
 40
1.0
 40
1.0
 10
4.4932713418
 20
4.7201196487
 30
0.0
 10
4.4932713614
 20
4.7243410148
 30
0.0
 10
4.4936173335
 20
4.7327854508
 30
0.0
 10
4.4949085099
 20
4.7453881572
 30
0.0
 10
4.4967218431
 20
4.7579237887
 30
0.0
 10
4.4988080927
 20
4.7704148068
 30
0.0
 10
4.5009050096
 20
4.7829037505
 30
0.0
 10
4.5024244327
 20
4.7933494518
 30
0.0
 10
4.5033588536
 20
4.8017411697
 30
0.0
 10
4.50388666
 20
4.8080523214
 30
0.0
 10
4.5042152314
 20
4.8143771402
 30
0.0
 10
4.5042897211
 20
4.818599017
 30
0.0
 10
4.5042897291
 20
4.8207097482
 30
0.0
  0
SPLINE
  5
2B4
100
AcDbEntity
  8
0
100
AcDbSpline
 62
7
  6
CONTINUOUS
 70
0
 71
3
 72
9
 73
5
 74
0
 42
0.0000001
 43
0.0000001
 44
0.0000000001
 40
0.0
 40
0.0
 40
0.0
 40
0.0
 40
0.5235443426
 40
1.0
 40
1.0
 40
1.0
 40
1.0
 10
4.5837873305
 20
4.7003785078
 30
0.0
 10
4.5824521273
 20
4.6994343503
 30
0.0
 10
4.5799973405
 20
4.6974900398
 30
0.0
 10
4.5778216397
 20
4.6952287524
 30
0.0
 10
4.5768906055
 20
4.6940677343
 30
0.0
  0
LINE
  5
2B5
100
AcDbEntity
  8
0
100
AcDbLine
 62
7
  6
CONTINUOUS
 10
4.5767358533
 20
4.6938727064
 11
4.5756219271
 21
4.6923222401
  0
SPLINE
  5
2B6
100
AcDbEntity
  8
0
100
AcDbSpline
 62
7
  6
CONTINUOUS
 70
0
 71
3
 72
23
 73
19
 74
0
 42
0.0000001
 43
0.0000001
 44
0.0000000001
 40
0.0
 40
0.0
 40
0.0
 40
0.0
 40
0.0568560899
 40
0.1089953842
 40
0.1572640461
 40
0.2031407733
 40
0.2258271045
 40
0.2486584239
 40
0.2956758348
 40
0.3459290845
 40
0.4005060624
 40
0.459948157
 40
0.5243824925
 40
0.5936794197
 40
0.6675224208
 40
0.7455554403
 40
0.8273539754
 40
1.0
 40
1.0
 40
1.0
 40
1.0
 10
4.5756219271
 20
4.6923222401
 30
0.0
 10
4.5751527175
 20
4.6916024783
 30
0.0
 10
4.574340766
 20
4.6901612788
 30
0.0
 10
4.5735254798
 20
4.6879155362
 30
0.0
 10
4.5731934068
 20
4.6857127339
 30
0.0
 10
4.5733426932
 20
4.6839348799
 30
0.0
 10
4.5737088658
 20
4.682600075
 30
0.0
 10
4.574240209
 20
4.6813032054
 30
0.0
 10
4.5752223982
 20
4.6797578675
 30
0.0
 10
4.5768267768
 20
4.6781000553
 30
0.0
 10
4.578829297
 20
4.6766179908
 30
0.0
 10
4.581190501
 20
4.6753033109
 30
0.0
 10
4.58387623
 20
4.6741493178
 30
0.0
 10
4.5868508792
 20
4.6731454946
 30
0.0
 10
4.5900817604
 20
4.67228247
 30
0.0
 10
4.5935377296
 20
4.6715507945
 30
0.0
 10
4.5984944004
 20
4.6707224782
 30
0.0
 10
4.6023190439
 20
4.6702951468
 30
0.0
 10
4.6049183752
 20
4.6700709626
 30
0.0
  0
SPLINE
  5
2B7
100
AcDbEntity
  8
0
100
AcDbSpline
 62
7
  6
CONTINUOUS
 70
0
 71
3
 72
15
 73
11
 74
0
 42
0.0000001
 43
0.0000001
 44
0.0000000001
 40
0.0
 40
0.0
 40
0.0
 40
0.0
 40
0.1241067273
 40
0.2484487954
 40
0.3730709998
 40
0.4979889697
 40
0.6231918678
 40
0.7486412454
 40
0.8742721401
 40
1.0
 40
1.0
 40
1.0
 40
1.0
 10
4.5082713418
 20
4.7201196487
 30
0.0
 10
4.508271348
 20
4.7242941653
 30
0.0
 10
4.5085466656
 20
4.7326517145
 30
0.0
 10
4.5095049216
 20
4.7451656921
 30
0.0
 10
4.5107851129
 20
4.7576771464
 30
0.0
 10
4.5121929336
 20
4.7702032384
 30
0.0
 10
4.5135488217
 20
4.7827633382
 30
0.0
 10
4.514682171
 20
4.7953705811
 30
0.0
 10
4.5154390944
 20
4.8080248795
 30
0.0
 10
4.5156169255
 20
4.8164806613
 30
0.0
 10
4.5156169333
 20
4.8207097071
 30
0.0
  0
SPLINE
  5
2B8
100
AcDbEntity
  8
0
100
AcDbSpline
 62
7
  6
CONTINUOUS
 70
0
 71
3
 72
28
 73
24
 74
0
 42
0.0000001
 43
0.0000001
 44
0.0000000001
 40
0.0
 40
0.0
 40
0.0
 40
0.0
 40
0.0003940076
 40
0.0015727914
 40
0.0035318076
 40
0.0062665173
 40
0.0140448822
 40
0.0248624092
 40
0.0386283905
 40
0.0552387179
 40
0.0745880771
 40
0.0965442315
 40
0.1476678807
 40
0.207369674
 40
0.2742930505
 40
0.347072636
 40
0.4243407443
 40
0.5047920679
 40
0.6703250409
 40
0.7535197869
 40
0.8361160683
 40
0.9180267014
 40
1.0
 40
1.0
 40
1.0
 40
1.0
 10
4.5156169333
 20
4.6541270704
 30
0.0
 10
4.5156154242
 20
4.654127781
 30
0.0
 10
4.515610239
 20
4.6541320859
 30
0.0
 10
4.5155975907
 20
4.6541399904
 30
0.0
 10
4.5155772566
 20
4.6541543487
 30
0.0
 10
4.5155336429
 20
4.6541840815
 30
0.0
 10
4.5154594232
 20
4.6542355478
 30
0.0
 10
4.5153468898
 20
4.6543136839
 30
0.0
 10
4.5152042326
 20
4.6544140058
 30
0.0
 10
4.5150327913
 20
4.6545361758
 30
0.0
 10
4.5148341446
 20
4.6546799096
 30
0.0
 10
4.5145190862
 20
4.6549119898
 30
0.0
 10
4.514071788
 20
4.6552525508
 30
0.0
 10
4.5134844045
 20
4.6557230744
 30
0.0
 10
4.5128417328
 20
4.6562707124
 30
0.0
 10
4.5121643893
 20
4.6568914806
 30
0.0
 10
4.5114736178
 20
4.6575813817
 30
0.0
 10
4.5105558126
 20
4.6585967665
 30
0.0
 10
4.5097150198
 20
4.6597159429
 30
0.0
 10
4.5090270468
 20
4.6609406766
 30
0.0
 10
4.5086152862
 20
4.6619080129
 30
0.0
 10
4.508339354
 20
4.662918191
 30
0.0
 10
4.5082713489
 20
4.6636133643
 30
0.0
 10
4.5082713418
 20
4.6639604037
 30
0.0
  0
SPLINE
  5
2B9
100
AcDbEntity
  8
0
100
AcDbSpline
 62
7
  6
CONTINUOUS
 70
0
 71
3
 72
31
 73
27
 74
0
 42
0.0000001
 43
0.0000001
 44
0.0000000001
 40
0.0
 40
0.0
 40
0.0
 40
0.0
 40
0.0819779233
 40
0.16388244
 40
0.2464571388
 40
0.3296599552
 40
0.4951979539
 40
0.5756488506
 40
0.6529205765
 40
0.7257009766
 40
0.7926288515
 40
0.8523301523
 40
0.8790468851
 40
0.9034602343
 40
0.9254132416
 40
0.9447617438
 40
0.9613793618
 40
0.9751422553
 40
0.9859546624
 40
0.9902306737
 40
0.9937405924
 40
0.9964755054
 40
0.9984314008
 40
0.9991167347
 40
0.9996067392
 40
1.0
 40
1.0
 40
1.0
 40
1.0
 10
4.5082713418
 20
4.9774604037
 30
0.0
 10
4.5082713444
 20
4.9778074594
 30
0.0
 10
4.5083398172
 20
4.9785025865
 30
0.0
 10
4.5086156264
 20
4.9795126235
 30
0.0
 10
4.5090267992
 20
4.9804801312
 30
0.0
 10
4.5097151458
 20
4.9817046147
 30
0.0
 10
4.5105557197
 20
4.982823964
 30
0.0
 10
4.511473558
 20
4.9838393603
 30
0.0
 10
4.5121643335
 20
4.9845292645
 30
0.0
 10
4.5128416914
 20
4.985150062
 30
0.0
 10
4.5134843884
 20
4.9856976845
 30
0.0
 10
4.5139911135
 20
4.9861036331
 30
0.0
 10
4.5143629036
 20
4.9863898773
 30
0.0
 10
4.5146101718
 20
4.9865758615
 30
0.0
 10
4.5148341484
 20
4.9867408913
 30
0.0
 10
4.5150327895
 20
4.9868846524
 30
0.0
 10
4.515204279
 20
4.9870067765
 30
0.0
 10
4.5153469297
 20
4.9871070954
 30
0.0
 10
4.5154471893
 20
4.9871768532
 30
0.0
 10
4.5155119568
 20
4.9872216352
 30
0.0
 10
4.5155486589
 20
4.9872468511
 30
0.0
 10
4.515577225
 20
4.9872666314
 30
0.0
 10
4.5155960803
 20
4.9872792781
 30
0.0
 10
4.515606888
 20
4.9872870939
 30
0.0
 10
4.5156125852
 20
4.9872902877
 30
0.0
 10
4.515615247
 20
4.9872934835
 30
0.0
 10
4.5156168934
 20
4.9872937311
 30
0.0
  0
SPLINE
  5
2BA
100
AcDbEntity
  8
0
100
AcDbSpline
 62
7
  6
CONTINUOUS
 70
0
 71
3
 72
15
 73
11
 74
0
 42
0.0000001
 43
0.0000001
 44
0.0000000001
 40
0.0
 40
0.0
 40
0.0
 40
0.0
 40
0.1257292159
 40
0.2513605521
 40
0.3768103417
 40
0.5020136251
 40
0.6269320508
 40
0.751554656
 40
0.8758963764
 40
1.0
 40
1.0
 40
1.0
 40
1.0
 10
4.5156169333
 20
4.8207097071
 30
0.0
 10
4.5156169504
 20
4.824938857
 30
0.0
 10
4.515439171
 20
4.833394818
 30
0.0
 10
4.5146822223
 20
4.8460493654
 30
0.0
 10
4.5135488834
 20
4.8586568265
 30
0.0
 10
4.5121929857
 20
4.8712171435
 30
0.0
 10
4.5107851289
 20
4.883743449
 30
0.0
 10
4.509504899
 20
4.896255091
 30
0.0
 10
4.5085466135
 20
4.9087691386
 30
0.0
 10
4.5082713457
 20
4.9171266888
 30
0.0
 10
4.5082713418
 20
4.9213011588
 30
0.0
  0
SPLINE
  5
2BB
100
AcDbEntity
  8
0
100
AcDbSpline
 62
7
  6
CONTINUOUS
 70
0
 71
3
 72
15
 73
11
 74
0
 42
0.0000001
 43
0.0000001
 44
0.0000000001
 40
0.0
 40
0.0
 40
0.0
 40
0.0
 40
0.1537283784
 40
0.3016672726
 40
0.4417622155
 40
0.572745319
 40
0.6938116033
 40
0.8047350322
 40
0.9062174683
 40
1.0
 40
1.0
 40
1.0
 40
1.0
 10
4.6089826075
 20
4.6696924245
 30
0.0
 10
4.6071207702
 20
4.6700598119
 30
0.0
 10
4.6034920091
 20
4.670915548
 30
0.0
 10
4.5982947349
 20
4.6725875278
 30
0.0
 10
4.5935239428
 20
4.674606617
 30
0.0
 10
4.5892713437
 20
4.6769394941
 30
0.0
 10
4.5856138954
 20
4.6795492517
 30
0.0
 10
4.5826216889
 20
4.6824008419
 30
0.0
 10
4.5803533046
 20
4.6854498899
 30
0.0
 10
4.5793303945
 20
4.6876585727
 30
0.0
 10
4.5789744434
 20
4.6887602164
 30
0.0
  0
SPLINE
  5
2BC
100
AcDbEntity
  8
0
100
AcDbSpline
 62
7
  6
CONTINUOUS
 70
0
 71
3
 72
19
 73
15
 74
0
 42
0.0000001
 43
0.0000001
 44
0.0000000001
 40
0.0
 40
0.0
 40
0.0
 40
0.0
 40
0.1641799191
 40
0.3188814631
 40
0.4619857819
 40
0.5288393242
 40
0.5924256924
 40
0.7096668006
 40
0.763640926
 40
0.8147802393
 40
0.863443326
 40
0.9101239368
 40
0.9554180973
 40
1.0
 40
1.0
 40
1.0
 40
1.0
 10
4.6049183752
 20
4.6700709626
 30
0.0
 10
4.6030168579
 20
4.6704536635
 30
0.0
 10
4.5993511309
 20
4.6713464955
 30
0.0
 10
4.5941798385
 20
4.6731161934
 30
0.0
 10
4.5902616127
 20
4.6749321997
 30
0.0
 10
4.5874700192
 20
4.6765652859
 30
0.0
 10
4.5850506519
 20
4.6782132589
 30
0.0
 10
4.5829323031
 20
4.6800294332
 30
0.0
 10
4.5812047933
 20
4.6820137175
 30
0.0
 10
4.5801615547
 20
4.6835058186
 30
0.0
 10
4.5793424878
 20
4.6850352879
 30
0.0
 10
4.5787522731
 20
4.6865939146
 30
0.0
 10
4.5783959382
 20
4.6881728464
 30
0.0
 10
4.5783168195
 20
4.6892363352
 30
0.0
 10
4.5783168834
 20
4.6897630325
 30
0.0
  0
SPLINE
  5
2BD
100
AcDbEntity
  8
0
100
AcDbSpline
 62
7
  6
CONTINUOUS
 70
0
 71
3
 72
15
 73
11
 74
0
 42
0.0000001
 43
0.0000001
 44
0.0000000001
 40
0.0
 40
0.0
 40
0.0
 40
0.0
 40
0.0413886599
 40
0.1544241533
 40
0.3154799328
 40
0.4999966735
 40
0.6845138246
 40
0.845569841
 40
0.9586076352
 40
1.0
 40
1.0
 40
1.0
 40
1.0
 10
5.1332713418
 20
5.3132104037
 30
0.0
 10
5.1308750689
 20
5.3128488811
 30
0.0
 10
5.1219264285
 20
5.3115517975
 30
0.0
 10
5.1035883261
 20
5.3093030239
 30
0.0
 10
5.0768143521
 20
5.307113874
 30
0.0
 10
5.0457719022
 20
5.3062233542
 30
0.0
 10
5.0147294365
 20
5.3071138081
 30
0.0
 10
4.987955286
 20
5.3093029207
 30
0.0
 10
4.9696168179
 20
5.3115517172
 30
0.0
 10
4.9606678291
 20
5.3128488484
 30
0.0
 10
4.9582713418
 20
5.3132104037
 30
0.0
  0
ENDSEC
  0
SECTION
  2
OBJECTS
  0
DICTIONARY
  5
C
100
AcDbDictionary
280
0
281
1
  3
ACAD_GROUP
350
D
  3
ACAD_MLINESTYLE
350
17
  3
ACAD_LAYOUT
350
1A
  3
ACAD_PLOTSETTINGS
350
19
  3
ACAD_PLOTSTYLENAME
350
E
  0
DICTIONARY
  5
D
102
{ACAD_REACTORS
330
C
102
}
100
AcDbDictionary
280
0
281
1
  0
ACDBDICTIONARYWDFLT
  5
E
102
{ACAD_REACTORS
330
C
102
}
100
AcDbDictionary
281
1
  3
Normal
350
F
100
AcDbDictionaryWithDefault
340
F
  0
DICTIONARY
  5
17
102
{ACAD_REACTORS
330
C
102
}
100
AcDbDictionary
280
0
281
1
  3
Standard
350
18
  0
DICTIONARY
  5
19
102
{ACAD_REACTORS
330
C
102
}
100
AcDbDictionary
281
1
  0
DICTIONARY
  5
1A
102
{ACAD_REACTORS
330
C
102
}
100
AcDbDictionary
281
1
  3
Model
350
2BE
  3
Layout1
350
2BF
  0
ACDBPLACEHOLDER
  5
F
102
{ACAD_REACTORS
330
E
102
}
  0
MLINESTYLE
  5
18
102
{ACAD_REACTORS
330
17
102
}
100
AcDbMlineStyle
  2
STANDARD
 70
0
  3

 62
256
 51
90.0
 52
90.0
 71
2
 49
0.5
 62
256
  6
BYLAYER
 49
-0.5
 62
256
  6
BYLAYER
  0
LAYOUT
  5
2BE
102
{ACAD_REACTORS
330
1A
102
}
100
AcDbPlotSettings
  1

  2
none_device
  4
ANSI_A_(11.00_x_8.50_Inches)
  6

 40
0.0
 41
0.0
 42
0.0
 43
0.0
 44
279.4
 45
215.9
 46
0.0
 47
0.0
 48
0.0
 49
0.0
140
0.0
141
0.0
142
1.0
143
1.0
 70
1024
 72
0
 73
0
 74
0
  7

 75
0
147
1.0
148
0.0
149
0.0
100
AcDbLayout
  1
Model
 70
0
 71
0
 10
0.0
 20
0.0
 11
11.0
 21
8.5
 12
0.0
 22
0.0
 32
0.0
 14
0.0
 24
0.0
 34
0.0
 15
0.0
 25
0.0
 35
0.0
146
0.0
 13
0.0
 23
0.0
 33
0.0
 16
1.0
 26
0.0
 36
0.0
 17
0.0
 27
1.0
 37
0.0
 76
0
330
222
345
0
346
0
  0
LAYOUT
  5
2BF
102
{ACAD_REACTORS
330
1A
102
}
100
AcDbPlotSettings
  1

  2
none_device
  4
ANSI_A_(11.00_x_8.50_Inches)
  6

 40
0.0
 41
0.0
 42
0.0
 43
0.0
 44
279.4
 45
215.9
 46
0.0
 47
0.0
 48
0.0
 49
0.0
140
0.0
141
0.0
142
1.0
143
1.0
 70
0
 72
0
 73
0
 74
0
  7

 75
0
147
1.0
148
0.0
149
0.0
100
AcDbLayout
  1
Layout1
 70
0
 71
1
 10
0.0
 20
0.0
 11
11.0
 21
8.5
 12
0.0
 22
0.0
 32
0.0
 14
0.0
 24
0.0
 34
0.0
 15
0.0
 25
0.0
 35
0.0
146
0.0
 13
0.0
 23
0.0
 33
0.0
 16
1.0
 26
0.0
 36
0.0
 17
0.0
 27
1.0
 37
0.0
 76
0
330
223
345
0
346
0
  0
ENDSEC
  0
EOF
