999
DXF file: 3-144ts_TOP.dxf
999
Pro/ENGINEER 2018400 by Parametric Technology Corporation
  0
SECTION
  2
HEADER
  9
$ACADVER
  1
AC1027
  9
$DWGCODEPAGE
  3
ANSI_1252
  9
$EXTMAX
 10
11.0
 20
8.5
 30
0.0
  9
$EXTMIN
 10
0.0
 20
0.0
 30
0.0
  9
$LIMMIN
 10
0.0
 20
0.0
  9
$LIMMAX
 10
11.0
 20
8.5
  9
$VIEWCTR
 10
5.5
 20
4.25
  9
$VIEWSIZE
 40
8.5
  9
$CLAYER
  8
0
  9
$LTSCALE
 40
0.605
  9
$CELTYPE
  6
BYLAYER
  9
$DIMSCALE
 40
1.0
  9
$DIMASZ
 40
0.1
  9
$DIMEXO
 40
0.0625
  9
$DIMDLI
 40
0.418
  9
$DIMEXE
 40
0.125
  9
$DIMCEN
 40
0.099
  9
$DIMLFAC
 40
1.0
  9
$DIMBLK
  1
_FILLED
  9
$DIMALT
 70
1
  9
$DIMALTD
 70
2
  9
$DIMALTTD
 70
2
  9
$DIMALTF
 40
25.4
  9
$DIMTXT
 40
0.08
  9
$DIMTOL
 70
1
  9
$DIMLIM
 70
0
  9
$DIMTFAC
 40
1.0
  9
$DIMTP
 40
0.001
  9
$DIMTM
 40
0.001
  9
$DIMGAP
 40
0.09
  9
$DIMDSEP
 70
46
  9
$AUNITS
 70
0
  9
$PDMODE
 70
3
  9
$PDSIZE
 40
0.3125
  9
$HANDSEED
  5
27E
  9
$TILEMODE
 70
1
  9
$MEASUREMENT
 70
0
  9
$INSUNITS
 70
1
  0
ENDSEC
  0
SECTION
  2
CLASSES
  0
CLASS
  1
ACDBDICTIONARYWDFLT
  2
AcDbDictionaryWithDefault
  3
AutoCAD 2000
 90
0
 91
1
280
0
281
0
  0
CLASS
  1
ACDBPLACEHOLDER
  2
AcDbPlaceHolder
  3
AutoCAD 2000
 90
0
 91
1
280
0
281
0
  0
CLASS
  1
LAYOUT
  2
AcDbLayout
  3
AutoCAD 2000
 90
0
 91
0
280
0
281
0
  0
ENDSEC
  0
SECTION
  2
TABLES
  0
TABLE
  2
VPORT
  5
8
100
AcDbSymbolTable
 70
2
  0
VPORT
  5
1F4
100
AcDbSymbolTableRecord
100
AcDbViewportTableRecord
  2
*ACTIVE
 70
0
 10
0.0
 20
0.0
 11
1.0
 21
1.0
 12
5.5
 22
4.25
 13
0.0
 23
0.0
 14
1.0
 24
1.0
 15
0.0
 25
0.0
 16
0.0
 26
0.0
 36
1.0
 17
0.0
 27
0.0
 37
0.0
 40
8.5
 41
1.2941176471
 42
50.0
 43
0.0
 44
0.0
 50
0.0
 51
0.0
 71
0
 72
100
 73
1
 74
1
 75
0
 76
0
 77
0
 78
0
  0
ENDTAB
  0
TABLE
  2
LTYPE
  5
5
100
AcDbSymbolTable
 70
6
  0
LTYPE
  5
14
100
AcDbSymbolTableRecord
100
AcDbLinetypeTableRecord
  2
BYBLOCK
 70
0
  3

 72
65
 73
0
 40
0.0
  0
LTYPE
  5
15
100
AcDbSymbolTableRecord
100
AcDbLinetypeTableRecord
  2
BYLAYER
 70
0
  3

 72
65
 73
0
 40
0.0
  0
LTYPE
  5
16
100
AcDbSymbolTableRecord
100
AcDbLinetypeTableRecord
  2
CONTINUOUS
 70
64
  3
Solid line
 72
65
 73
0
 40
0.0
  0
LTYPE
  5
1F5
100
AcDbSymbolTableRecord
100
AcDbLinetypeTableRecord
  2
CENTER
 70
64
  3
____ _ ____ _ ____ _ ____ _ ____ _ ____ _ ____
 72
65
 73
4
 40
0.6
 49
0.375
 74
0
 49
-0.075
 74
0
 49
0.075
 74
0
 49
-0.075
 74
0
  0
LTYPE
  5
1F6
100
AcDbSymbolTableRecord
100
AcDbLinetypeTableRecord
  2
HIDDEN
 70
64
  3
- - - - - - - - - - - - - - - - - - - -
 72
65
 73
2
 40
0.2
 49
0.1
 74
0
 49
-0.1
 74
0
  0
LTYPE
  5
1F7
100
AcDbSymbolTableRecord
100
AcDbLinetypeTableRecord
  2
PHANTOM
 70
64
  3
_____ _ _ _____ _ _ _____ _ _ _____
 72
65
 73
6
 40
0.8
 49
0.45
 74
0
 49
-0.05
 74
0
 49
0.1
 74
0
 49
-0.05
 74
0
 49
0.1
 74
0
 49
-0.05
 74
0
  0
LTYPE
  5
1F8
100
AcDbSymbolTableRecord
100
AcDbLinetypeTableRecord
  2
DOT
 70
64
  3
. . . . . . . . . . . . . . . . . . . .
 72
65
 73
2
 40
0.2
 49
0.1
 74
0
 49
-0.1
 74
0
  0
LTYPE
  5
1F9
100
AcDbSymbolTableRecord
100
AcDbLinetypeTableRecord
  2
DASHED
 70
64
  3
- - - - - - - - - - - - - - - - - - - -
 72
65
 73
2
 40
0.2
 49
0.1
 74
0
 49
-0.1
 74
0
  0
ENDTAB
  0
TABLE
  2
LAYER
  5
2
100
AcDbSymbolTable
 70
36
  0
LAYER
  5
10
100
AcDbSymbolTableRecord
100
AcDbLayerTableRecord
  2
0
 70
0
 62
7
  6
CONTINUOUS
370
-3
390
F
  0
LAYER
  5
1FA
100
AcDbSymbolTableRecord
100
AcDbLayerTableRecord
  2
DEFAULT_1
 70
0
 62
7
  6
CENTER
370
-3
390
F
  0
LAYER
  5
1FB
100
AcDbSymbolTableRecord
100
AcDbLayerTableRecord
  2
DEFAULT_2
 70
0
 62
8
  6
HIDDEN
370
-3
390
F
  0
LAYER
  5
1FC
100
AcDbSymbolTableRecord
100
AcDbLayerTableRecord
  2
DEFAULT_3
 70
0
 62
7
  6
PHANTOM
370
-3
390
F
  0
LAYER
  5
1FD
100
AcDbSymbolTableRecord
100
AcDbLayerTableRecord
  2
01___PRT_ALL_DTM_PLN
 70
0
 62
7
  6
CONTINUOUS
370
-3
390
F
  0
LAYER
  5
1FE
100
AcDbSymbolTableRecord
100
AcDbLayerTableRecord
  2
01___PRT_DEF_DTM_PLN
 70
0
 62
7
  6
CONTINUOUS
370
-3
390
F
  0
LAYER
  5
1FF
100
AcDbSymbolTableRecord
100
AcDbLayerTableRecord
  2
02___PRT_ALL_AXES
 70
0
 62
7
  6
CONTINUOUS
370
-3
390
F
  0
LAYER
  5
200
100
AcDbSymbolTableRecord
100
AcDbLayerTableRecord
  2
03___PRT_ALL_CURVES
 70
0
 62
7
  6
CONTINUOUS
370
-3
390
F
  0
LAYER
  5
201
100
AcDbSymbolTableRecord
100
AcDbLayerTableRecord
  2
04___PRT_ALL_DTM_PNT
 70
0
 62
7
  6
CONTINUOUS
370
-3
390
F
  0
LAYER
  5
202
100
AcDbSymbolTableRecord
100
AcDbLayerTableRecord
  2
05___PRT_ALL_DTM_CSYS
 70
0
 62
7
  6
CONTINUOUS
370
-3
390
F
  0
LAYER
  5
203
100
AcDbSymbolTableRecord
100
AcDbLayerTableRecord
  2
05___PRT_DEF_DTM_CSYS
 70
0
 62
7
  6
CONTINUOUS
370
-3
390
F
  0
LAYER
  5
204
100
AcDbSymbolTableRecord
100
AcDbLayerTableRecord
  2
06___PRT_ALL_SURFS
 70
0
 62
7
  6
CONTINUOUS
370
-3
390
F
  0
LAYER
  5
205
100
AcDbSymbolTableRecord
100
AcDbLayerTableRecord
  2
ALL_ASSEMBLY_MEMBERS
 70
0
 62
7
  6
CONTINUOUS
370
-3
390
F
  0
LAYER
  5
206
100
AcDbSymbolTableRecord
100
AcDbLayerTableRecord
  2
ALL_FEATURES
 70
0
 62
7
  6
CONTINUOUS
370
-3
390
F
  0
LAYER
  5
207
100
AcDbSymbolTableRecord
100
AcDbLayerTableRecord
  2
AXES_FEATURES
 70
0
 62
7
  6
CONTINUOUS
370
-3
390
F
  0
LAYER
  5
208
100
AcDbSymbolTableRecord
100
AcDbLayerTableRecord
  2
BROACH_SKETCH
 70
0
 62
7
  6
CONTINUOUS
370
-3
390
F
  0
LAYER
  5
209
100
AcDbSymbolTableRecord
100
AcDbLayerTableRecord
  2
CHAMFER_FEATURES
 70
0
 62
7
  6
CONTINUOUS
370
-3
390
F
  0
LAYER
  5
20A
100
AcDbSymbolTableRecord
100
AcDbLayerTableRecord
  2
COSMETIC_SKETCHES
 70
0
 62
7
  6
CONTINUOUS
370
-3
390
F
  0
LAYER
  5
20B
100
AcDbSymbolTableRecord
100
AcDbLayerTableRecord
  2
CUT_FEATURES
 70
0
 62
7
  6
CONTINUOUS
370
-3
390
F
  0
LAYER
  5
20C
100
AcDbSymbolTableRecord
100
AcDbLayerTableRecord
  2
DATUM_CURVES
 70
0
 62
7
  6
CONTINUOUS
370
-3
390
F
  0
LAYER
  5
20D
100
AcDbSymbolTableRecord
100
AcDbLayerTableRecord
  2
DATUM_PLANES
 70
0
 62
7
  6
CONTINUOUS
370
-3
390
F
  0
LAYER
  5
20E
100
AcDbSymbolTableRecord
100
AcDbLayerTableRecord
  2
DATUM_POINTS
 70
0
 62
7
  6
CONTINUOUS
370
-3
390
F
  0
LAYER
  5
20F
100
AcDbSymbolTableRecord
100
AcDbLayerTableRecord
  2
DEFAULT_COORDINATE_SYSTEM
 70
0
 62
7
  6
CONTINUOUS
370
-3
390
F
  0
LAYER
  5
210
100
AcDbSymbolTableRecord
100
AcDbLayerTableRecord
  2
DEFAULT_DATUM_AXES
 70
0
 62
7
  6
CONTINUOUS
370
-3
390
F
  0
LAYER
  5
211
100
AcDbSymbolTableRecord
100
AcDbLayerTableRecord
  2
DEFAULT_DATUM_CURVES
 70
0
 62
7
  6
CONTINUOUS
370
-3
390
F
  0
LAYER
  5
212
100
AcDbSymbolTableRecord
100
AcDbLayerTableRecord
  2
DEFAULT_DATUM_PLANES
 70
0
 62
7
  6
CONTINUOUS
370
-3
390
F
  0
LAYER
  5
213
100
AcDbSymbolTableRecord
100
AcDbLayerTableRecord
  2
DEFAULT_SURFACES
 70
0
 62
7
  6
CONTINUOUS
370
-3
390
F
  0
LAYER
  5
214
100
AcDbSymbolTableRecord
100
AcDbLayerTableRecord
  2
DIMENSIONS
 70
0
 62
7
  6
CONTINUOUS
370
-3
390
F
  0
LAYER
  5
215
100
AcDbSymbolTableRecord
100
AcDbLayerTableRecord
  2
HOLE_FEATURES
 70
0
 62
7
  6
CONTINUOUS
370
-3
390
F
  0
LAYER
  5
216
100
AcDbSymbolTableRecord
100
AcDbLayerTableRecord
  2
MIXEDCOLOR
 70
0
 62
7
  6
CONTINUOUS
370
-3
390
F
  0
LAYER
  5
217
100
AcDbSymbolTableRecord
100
AcDbLayerTableRecord
  2
PART_REFERENCE_DIMENSIONS
 70
0
 62
7
  6
CONTINUOUS
370
-3
390
F
  0
LAYER
  5
218
100
AcDbSymbolTableRecord
100
AcDbLayerTableRecord
  2
PLATED_SURFACE_AREA
 70
0
 62
7
  6
CONTINUOUS
370
-3
390
F
  0
LAYER
  5
219
100
AcDbSymbolTableRecord
100
AcDbLayerTableRecord
  2
POINTS
 70
0
 62
7
  6
CONTINUOUS
370
-3
390
F
  0
LAYER
  5
21A
100
AcDbSymbolTableRecord
100
AcDbLayerTableRecord
  2
PROTRUSION
 70
0
 62
7
  6
CONTINUOUS
370
-3
390
F
  0
LAYER
  5
21B
100
AcDbSymbolTableRecord
100
AcDbLayerTableRecord
  2
PROTRUSION_FEATURES
 70
0
 62
7
  6
CONTINUOUS
370
-3
390
F
  0
LAYER
  5
21C
100
AcDbSymbolTableRecord
100
AcDbLayerTableRecord
  2
QUILT
 70
0
 62
7
  6
CONTINUOUS
370
-3
390
F
  0
LAYER
  5
21D
100
AcDbSymbolTableRecord
100
AcDbLayerTableRecord
  2
REFERENCE_DIMENSIONS
 70
0
 62
7
  6
CONTINUOUS
370
-3
390
F
  0
LAYER
  5
21E
100
AcDbSymbolTableRecord
100
AcDbLayerTableRecord
  2
ROUND_FEATURES
 70
0
 62
7
  6
CONTINUOUS
370
-3
390
F
  0
LAYER
  5
21F
100
AcDbSymbolTableRecord
100
AcDbLayerTableRecord
  2
XSEC_DATUMS
 70
0
 62
7
  6
CONTINUOUS
370
-3
390
F
  0
ENDTAB
  0
TABLE
  2
STYLE
  5
3
100
AcDbSymbolTable
 70
1
  0
STYLE
  5
11
100
AcDbSymbolTableRecord
100
AcDbTextStyleTableRecord
  2
STANDARD
 70
0
 40
0.0
 41
0.8
 50
0.0
 71
0
 42
0.2
  3
txt
  4

  0
STYLE
  5
220
100
AcDbSymbolTableRecord
100
AcDbTextStyleTableRecord
  2
TEXTSTYLE_1
 70
0
 40
0.0
 41
0.8
 50
0.0
 71
0
 42
0.2
  3
gdt
  4

  0
ENDTAB
  0
TABLE
  2
VIEW
  5
6
100
AcDbSymbolTable
 70
0
  0
ENDTAB
  0
TABLE
  2
UCS
  5
7
100
AcDbSymbolTable
 70
0
  0
ENDTAB
  0
TABLE
  2
APPID
  5
9
100
AcDbSymbolTable
 70
1
  0
APPID
  5
221
100
AcDbSymbolTableRecord
100
AcDbRegAppTableRecord
  2
ACAD
 70
0
  0
ENDTAB
  0
TABLE
  2
BLOCK_RECORD
  5
1
100
AcDbSymbolTable
 70
0
  0
BLOCK_RECORD
  5
222
100
AcDbSymbolTableRecord
100
AcDbBlockTableRecord
  2
*Model_Space
  0
BLOCK_RECORD
  5
223
100
AcDbSymbolTableRecord
100
AcDbBlockTableRecord
  2
*Paper_Space
  0
BLOCK_RECORD
  5
224
100
AcDbSymbolTableRecord
100
AcDbBlockTableRecord
  2
_FILLED
  0
ENDTAB
  0
TABLE
  2
DIMSTYLE
  5
A
100
AcDbSymbolTable
 70
1
100
AcDbDimStyleTable
 71
0
  0
DIMSTYLE
105
225
100
AcDbSymbolTableRecord
100
AcDbDimStyleTableRecord
  2
STANDARD
 70
0
  3

  4

 40
1.0
 41
0.1
 42
0.0625
 43
0.38
 44
0.125
 45
0.0
 46
0.0
 47
0.001
 48
0.001
140
0.08
141
0.09
142
0.0
143
25.4
144
1.0
145
0.0
146
1.0
147
0.09
 71
1.0
 72
0.0
 73
1
 74
1
 75
0
 76
0
 77
0
 78
4
 79
1
170
1
171
2
172
0
173
0
174
0
175
0
176
0
177
0
178
0
270
2
179
3
271
3
272
3
273
2
274
2
275
0
280
0
281
0
282
0
283
1
284
4
285
0
286
0
287
3
288
0
340
11
278
46
341
224
342
224
343
224
344
224
  0
ENDTAB
  0
ENDSEC
  0
SECTION
  2
BLOCKS
  0
BLOCK
  5
20
100
AcDbEntity
  8
0
100
AcDbBlockBegin
  2
*Model_Space
 70
0
 10
0.0
 20
0.0
 30
0.0
  3
*Model_Space
  1

  0
ENDBLK
  5
21
100
AcDbEntity
  8
0
100
AcDbBlockEnd
  0
BLOCK
  5
1C
100
AcDbEntity
  8
0
100
AcDbBlockBegin
  2
*Paper_Space
 70
0
 10
0.0
 20
0.0
 30
0.0
  3
*Paper_Space
  1

  0
ENDBLK
  5
1D
100
AcDbEntity
  8
0
100
AcDbBlockEnd
  0
BLOCK
  5
226
100
AcDbEntity
  8
0
100
AcDbBlockBegin
  2
_FILLED
 70
64
 10
0.0
 20
0.0
  3
_FILLED
  1

  0
SOLID
  5
227
100
AcDbEntity
  8
0
  6
BYBLOCK
 62
0
100
AcDbTrace
 10
0.0
 20
0.0
 11
-1.0
 21
0.2
 12
-1.0
 22
-0.2
 13
-1.0
 23
-0.2
  0
ENDBLK
  5
228
100
AcDbEntity
  8
0
  6
BYBLOCK
 62
0
100
AcDbBlockEnd
  0
ENDSEC
  0
SECTION
  2
ENTITIES
  0
MTEXT
  5
229
100
AcDbEntity
  8
0
100
AcDbMText
 62
2
  6
CONTINUOUS
  7
STANDARD
 71
3
 72
1
 10
5.1829386646
 20
3.7075430809
 30
0.0
 11
1.0
 21
0.0
 31
0.0
 73
2
 44
0.9
  1
SCALE  .500
 40
0.08
 41
0.704
  0
LINE
  5
22A
100
AcDbEntity
  8
0
100
AcDbLine
 62
7
  6
CONTINUOUS
 10
0.0
 20
0.0
 11
0.0
 21
8.5
  0
LINE
  5
22B
100
AcDbEntity
  8
0
100
AcDbLine
 62
7
  6
CONTINUOUS
 10
0.0
 20
0.0
 11
11.0
 21
0.0
  0
LINE
  5
22C
100
AcDbEntity
  8
0
100
AcDbLine
 62
7
  6
CONTINUOUS
 10
0.0
 20
8.5
 11
11.0
 21
8.5
  0
LINE
  5
22D
100
AcDbEntity
  8
0
100
AcDbLine
 62
7
  6
CONTINUOUS
 10
11.0
 20
0.0
 11
11.0
 21
8.5
  0
LINE
  5
22E
100
AcDbEntity
  8
0
100
AcDbLine
 62
7
  6
CONTINUOUS
 10
3.2454386646
 20
5.2488777266
 11
3.2454386646
 21
5.4213777266
  0
LINE
  5
22F
100
AcDbEntity
  8
0
100
AcDbLine
 62
7
  6
CONTINUOUS
 10
3.2604386646
 20
5.2338777266
 11
3.2604386646
 21
5.4213777266
  0
LINE
  5
230
100
AcDbEntity
  8
0
100
AcDbLine
 62
7
  6
CONTINUOUS
 10
5.0261886646
 20
3.8025430809
 11
5.3396886646
 21
3.8025430809
  0
LINE
  5
231
100
AcDbEntity
  8
0
100
AcDbLine
 62
7
  6
CONTINUOUS
 10
5.0111886646
 20
3.8175430809
 11
5.3546886646
 21
3.8175430809
  0
LINE
  5
232
100
AcDbEntity
  8
0
100
AcDbLine
 62
7
  6
CONTINUOUS
 10
5.2929386646
 20
3.8192930809
 11
5.0729386646
 21
3.8192930809
  0
LINE
  5
233
100
AcDbEntity
  8
0
100
AcDbLine
 62
7
  6
CONTINUOUS
 10
5.2929386646
 20
3.8492930809
 11
5.0729386646
 21
3.8492930809
  0
LINE
  5
234
100
AcDbEntity
  8
0
100
AcDbLine
 62
7
  6
CONTINUOUS
 10
5.0279386646
 20
3.8642930809
 11
5.3379386646
 21
3.8642930809
  0
LINE
  5
235
100
AcDbEntity
  8
0
100
AcDbLine
 62
7
  6
CONTINUOUS
 10
5.0279386646
 20
4.0842930809
 11
5.3379386646
 21
4.0842930809
  0
LINE
  5
236
100
AcDbEntity
  8
0
100
AcDbLine
 62
7
  6
CONTINUOUS
 10
5.0729386646
 20
4.0992930809
 11
5.2929386646
 21
4.0992930809
  0
LINE
  5
237
100
AcDbEntity
  8
0
100
AcDbLine
 62
7
  6
CONTINUOUS
 10
5.0729386646
 20
4.1292930809
 11
5.2929386646
 21
4.1292930809
  0
LINE
  5
238
100
AcDbEntity
  8
0
100
AcDbLine
 62
7
  6
CONTINUOUS
 10
5.0111886646
 20
4.1310430809
 11
5.0823479096
 21
4.1310430809
  0
LINE
  5
239
100
AcDbEntity
  8
0
100
AcDbLine
 62
7
  6
CONTINUOUS
 10
5.2835294196
 20
4.1310430809
 11
5.3546886646
 21
4.1310430809
  0
LINE
  5
23A
100
AcDbEntity
  8
0
100
AcDbLine
 62
7
  6
CONTINUOUS
 10
5.3396886646
 20
4.1460430809
 11
5.2835294202
 21
4.1460430809
  0
LINE
  5
23B
100
AcDbEntity
  8
0
100
AcDbLine
 62
7
  6
CONTINUOUS
 10
5.0823479089
 20
4.1460430809
 11
5.0261886646
 21
4.1460430809
  0
LINE
  5
23C
100
AcDbEntity
  8
0
100
AcDbLine
 62
7
  6
CONTINUOUS
 10
5.0266886646
 20
4.1760430809
 11
5.3391886646
 21
4.1760430809
  0
LINE
  5
23D
100
AcDbEntity
  8
02___PRT_ALL_AXES
100
AcDbLine
 62
7
  6
CONTINUOUS
 10
4.6904386646
 20
5.2085430809
 11
4.6904386646
 21
4.3735430809
  0
LINE
  5
23E
100
AcDbEntity
  8
0
100
AcDbLine
 62
7
  6
CONTINUOUS
 10
4.6904386646
 20
5.2088777266
 11
4.6904386646
 21
5.2338777266
  0
LINE
  5
23F
100
AcDbEntity
  8
0
100
AcDbLine
 62
7
  6
CONTINUOUS
 10
5.0266886646
 20
4.3335430809
 11
5.3391886646
 21
4.3335430809
  0
LINE
  5
240
100
AcDbEntity
  8
0
100
AcDbLine
 62
7
  6
CONTINUOUS
 10
5.6604330688
 20
4.3585430809
 11
4.7054442604
 21
4.3585430809
  0
LINE
  5
241
100
AcDbEntity
  8
0
100
AcDbLine
 62
7
  6
CONTINUOUS
 10
5.6754386646
 20
4.3735430809
 11
4.6904386646
 21
4.3735430809
  0
LINE
  5
242
100
AcDbEntity
  8
0
100
AcDbLine
 62
7
  6
CONTINUOUS
 10
5.0111886646
 20
4.1420543404
 11
5.0111886646
 21
3.8175430809
  0
LINE
  5
243
100
AcDbEntity
  8
0
100
AcDbLine
 62
7
  6
CONTINUOUS
 10
5.0261886646
 20
3.8025430809
 11
5.0261886646
 21
4.1460430809
  0
LINE
  5
244
100
AcDbEntity
  8
0
100
AcDbLine
 62
7
  6
CONTINUOUS
 10
5.0266886646
 20
4.1760430809
 11
5.0266886646
 21
4.3335430809
  0
LINE
  5
245
100
AcDbEntity
  8
0
100
AcDbLine
 62
7
  6
CONTINUOUS
 10
5.0279386646
 20
3.8642930809
 11
5.0279386646
 21
4.0842930809
  0
LINE
  5
246
100
AcDbEntity
  8
0
100
AcDbLine
 62
7
  6
CONTINUOUS
 10
5.0579386646
 20
3.8642930809
 11
5.0579386646
 21
4.0842930809
  0
LINE
  5
247
100
AcDbEntity
  8
0
100
AcDbLine
 62
7
  6
CONTINUOUS
 10
5.0729386646
 20
3.8192930809
 11
5.0729386646
 21
4.1292930809
  0
LINE
  5
248
100
AcDbEntity
  8
0
100
AcDbLine
 62
7
  6
CONTINUOUS
 10
5.0823479096
 20
4.1310430809
 11
5.0823479096
 21
4.1460430809
  0
LINE
  5
249
100
AcDbEntity
  8
0
100
AcDbLine
 62
7
  6
CONTINUOUS
 10
5.0904386646
 20
4.3585430809
 11
5.0904386646
 21
4.3335430809
  0
LINE
  5
24A
100
AcDbEntity
  8
ALL_FEATURES
100
AcDbLine
 62
7
  6
CONTINUOUS
 10
5.1534386646
 20
4.7469630507
 11
5.1534386646
 21
4.7414632846
  0
LINE
  5
24B
100
AcDbEntity
  8
ALL_FEATURES
100
AcDbLine
 62
7
  6
CONTINUOUS
 10
5.2094496589
 20
4.7482930809
 11
5.1883452712
 21
4.7482930809
  0
LINE
  5
24C
100
AcDbEntity
  8
ALL_FEATURES
100
AcDbLine
 62
7
  6
CONTINUOUS
 10
5.1564276702
 20
4.7482930809
 11
5.177532058
 21
4.7482930809
  0
LINE
  5
24D
100
AcDbEntity
  8
ALL_FEATURES
100
AcDbLine
 62
7
  6
CONTINUOUS
 10
5.2124386646
 20
4.7469630507
 11
5.2124386646
 21
4.7414632846
  0
LINE
  5
24E
100
AcDbEntity
  8
0
100
AcDbLine
 62
7
  6
CONTINUOUS
 10
5.2754386646
 20
4.3585430809
 11
5.2754386646
 21
4.3335430809
  0
LINE
  5
24F
100
AcDbEntity
  8
0
100
AcDbLine
 62
7
  6
CONTINUOUS
 10
5.2835294196
 20
4.1310430809
 11
5.2835294196
 21
4.1460430809
  0
LINE
  5
250
100
AcDbEntity
  8
0
100
AcDbLine
 62
7
  6
CONTINUOUS
 10
5.2929386646
 20
3.8192930809
 11
5.2929386646
 21
4.1292930809
  0
LINE
  5
251
100
AcDbEntity
  8
0
100
AcDbLine
 62
7
  6
CONTINUOUS
 10
5.3079386646
 20
4.0842930809
 11
5.3079386646
 21
3.8642930809
  0
LINE
  5
252
100
AcDbEntity
  8
0
100
AcDbLine
 62
7
  6
CONTINUOUS
 10
5.3379386646
 20
4.0842930809
 11
5.3379386646
 21
3.8642930809
  0
LINE
  5
253
100
AcDbEntity
  8
0
100
AcDbLine
 62
7
  6
CONTINUOUS
 10
5.3391886646
 20
4.1760430809
 11
5.3391886646
 21
4.3335430809
  0
LINE
  5
254
100
AcDbEntity
  8
0
100
AcDbLine
 62
7
  6
CONTINUOUS
 10
5.3396886646
 20
3.8025430809
 11
5.3396886646
 21
4.1460430809
  0
LINE
  5
255
100
AcDbEntity
  8
0
100
AcDbLine
 62
7
  6
CONTINUOUS
 10
5.3546886646
 20
3.8175430809
 11
5.3546886646
 21
4.1420614682
  0
LWPOLYLINE
  5
256
100
AcDbEntity
  8
0
100
AcDbPolyline
 62
7
  6
CONTINUOUS
 90
11
 70
0
 10
5.0163553674
 20
4.1533882666
 10
5.0156350195
 20
4.1527203322
 10
5.0147399405
 20
4.151752622
 10
5.0139333641
 20
4.150710183
 10
5.0132214896
 20
4.1496010917
 10
5.0126097806
 20
4.1484339345
 10
5.0121029205
 20
4.1472177345
 10
5.0117047818
 20
4.1459618838
 10
5.0114183992
 20
4.1446760793
 10
5.0112459457
 20
4.1433702484
 10
5.0111887121
 20
4.142061153
  0
LINE
  5
257
100
AcDbEntity
  8
02___PRT_ALL_AXES
100
AcDbLine
 62
7
  6
CONTINUOUS
 10
4.6904386646
 20
5.2085430809
 11
5.6754386646
 21
5.2085430809
  0
LINE
  5
258
100
AcDbEntity
  8
ALL_FEATURES
100
AcDbLine
 62
7
  6
CONTINUOUS
 10
4.6904386646
 20
5.2088777266
 11
5.6754386646
 21
5.2088777266
  0
LINE
  5
259
100
AcDbEntity
  8
0
100
AcDbLine
 62
7
  6
CONTINUOUS
 10
7.1054386646
 20
5.2338777266
 11
3.2604386646
 21
5.2338777266
  0
LINE
  5
25A
100
AcDbEntity
  8
0
100
AcDbLine
 62
7
  6
CONTINUOUS
 10
7.1204386646
 20
5.2488777266
 11
3.2454386646
 21
5.2488777266
  0
LINE
  5
25B
100
AcDbEntity
  8
02___PRT_ALL_AXES
100
AcDbLine
 62
7
  6
CONTINUOUS
 10
5.6754386646
 20
5.2085430809
 11
5.6754386646
 21
4.3735430809
  0
LINE
  5
25C
100
AcDbEntity
  8
0
100
AcDbLine
 62
7
  6
CONTINUOUS
 10
5.6754386646
 20
5.2088777266
 11
5.6754386646
 21
5.2338777266
  0
LINE
  5
25D
100
AcDbEntity
  8
0
100
AcDbLine
 62
7
  6
CONTINUOUS
 10
3.2454386646
 20
5.4213777266
 11
7.1204386646
 21
5.4213777266
  0
LINE
  5
25E
100
AcDbEntity
  8
0
100
AcDbLine
 62
7
  6
CONTINUOUS
 10
7.1054386646
 20
5.2338777266
 11
7.1054386646
 21
5.4213777266
  0
LINE
  5
25F
100
AcDbEntity
  8
0
100
AcDbLine
 62
7
  6
CONTINUOUS
 10
7.1204386646
 20
5.2488777266
 11
7.1204386646
 21
5.4213777266
  0
ARC
  5
260
100
AcDbEntity
  8
0
100
AcDbCircle
 62
7
  6
CONTINUOUS
 10
5.0729386646
 20
3.8642930809
 40
0.045
100
AcDbArc
 50
180.0
 51
270.0
  0
ARC
  5
261
100
AcDbEntity
  8
0
100
AcDbCircle
 62
7
  6
CONTINUOUS
 10
5.0729386646
 20
4.0842930809
 40
0.045
100
AcDbArc
 50
90.0
 51
180.0
  0
ARC
  5
262
100
AcDbEntity
  8
0
100
AcDbCircle
 62
7
  6
CONTINUOUS
 10
4.9966886646
 20
4.1760430809
 40
0.03
100
AcDbArc
 50
310.9613174844
 51
360.0
  0
ARC
  5
263
100
AcDbEntity
  8
0
100
AcDbCircle
 62
7
  6
CONTINUOUS
 10
5.0729386646
 20
4.0842930809
 40
0.015
100
AcDbArc
 50
90.0
 51
180.0
  0
ARC
  5
264
100
AcDbEntity
  8
0
100
AcDbCircle
 62
7
  6
CONTINUOUS
 10
5.0729386646
 20
3.8642930809
 40
0.015
100
AcDbArc
 50
180.0
 51
270.0
  0
ARC
  5
265
100
AcDbEntity
  8
0
100
AcDbCircle
 62
7
  6
CONTINUOUS
 10
5.0261886646
 20
3.8175430809
 40
0.015
100
AcDbArc
 50
180.0
 51
270.0
  0
ARC
  5
266
100
AcDbEntity
  8
0
100
AcDbCircle
 62
7
  6
CONTINUOUS
 10
5.0261886646
 20
4.1310430809
 40
0.015
100
AcDbArc
 50
90.0
 51
180.0
  0
ARC
  5
267
100
AcDbEntity
  8
0
100
AcDbCircle
 62
7
  6
CONTINUOUS
 10
4.7054386646
 20
4.3735430809
 40
0.015
100
AcDbArc
 50
180.0
 51
270.0
  0
ARC
  5
268
100
AcDbEntity
  8
0
100
AcDbCircle
 62
7
  6
CONTINUOUS
 10
3.2604386646
 20
5.2488777266
 40
0.015
100
AcDbArc
 50
180.0
 51
270.0
  0
ARC
  5
269
100
AcDbEntity
  8
0
100
AcDbCircle
 62
7
  6
CONTINUOUS
 10
5.2929386646
 20
3.8642930809
 40
0.045
100
AcDbArc
 50
270.0
 51
360.0
  0
ARC
  5
26A
100
AcDbEntity
  8
0
100
AcDbCircle
 62
7
  6
CONTINUOUS
 10
5.2929386646
 20
4.0842930809
 40
0.045
100
AcDbArc
 50
0.0
 51
90.0
  0
ARC
  5
26B
100
AcDbEntity
  8
0
100
AcDbCircle
 62
7
  6
CONTINUOUS
 10
5.3691886646
 20
4.1760430809
 40
0.03
100
AcDbArc
 50
180.0
 51
229.0382114502
  0
ARC
  5
26C
100
AcDbEntity
  8
0
100
AcDbCircle
 62
7
  6
CONTINUOUS
 10
5.2929386646
 20
4.0842930809
 40
0.015
100
AcDbArc
 50
0.0
 51
90.0
  0
ARC
  5
26D
100
AcDbEntity
  8
0
100
AcDbCircle
 62
7
  6
CONTINUOUS
 10
5.2929386646
 20
3.8642930809
 40
0.015
100
AcDbArc
 50
270.0
 51
360.0
  0
ARC
  5
26E
100
AcDbEntity
  8
0
100
AcDbCircle
 62
7
  6
CONTINUOUS
 10
5.3396886646
 20
4.1420614682
 40
0.015
100
AcDbArc
 50
0.0
 51
49.03821145
  0
ARC
  5
26F
100
AcDbEntity
  8
0
100
AcDbCircle
 62
7
  6
CONTINUOUS
 10
5.3396886646
 20
4.1310430809
 40
0.015
100
AcDbArc
 50
0.0
 51
90.0
  0
ARC
  5
270
100
AcDbEntity
  8
0
100
AcDbCircle
 62
7
  6
CONTINUOUS
 10
5.3396886646
 20
3.8175430809
 40
0.015
100
AcDbArc
 50
270.0
 51
360.0
  0
ARC
  5
271
100
AcDbEntity
  8
0
100
AcDbCircle
 62
7
  6
CONTINUOUS
 10
5.6604386646
 20
4.3735430809
 40
0.015
100
AcDbArc
 50
270.0
 51
360.0
  0
CIRCLE
  5
272
100
AcDbEntity
  8
0
100
AcDbCircle
 62
7
  6
CONTINUOUS
 10
5.1829386646
 20
4.6835430809
 40
0.07
  0
CIRCLE
  5
273
100
AcDbEntity
  8
ALL_FEATURES
100
AcDbCircle
 62
7
  6
CONTINUOUS
 10
5.1829386646
 20
4.6835430809
 40
0.065
  0
CIRCLE
  5
274
100
AcDbEntity
  8
ALL_FEATURES
100
AcDbCircle
 62
7
  6
CONTINUOUS
 10
5.1829386646
 20
4.6835430809
 40
0.0445454545
  0
ARC
  5
275
100
AcDbEntity
  8
0
100
AcDbCircle
 62
7
  6
CONTINUOUS
 10
7.1054386646
 20
5.2488777266
 40
0.015
100
AcDbArc
 50
270.0
 51
360.0
  0
SPLINE
  5
276
100
AcDbEntity
  8
0
100
AcDbSpline
 62
7
  6
CONTINUOUS
 70
0
 71
3
 72
23
 73
19
 74
0
 42
0.0000001
 43
0.0000001
 44
0.0000000001
 40
0.0
 40
0.0
 40
0.0
 40
0.0
 40
0.0620529983
 40
0.1242238534
 40
0.1865351075
 40
0.248994263
 40
0.3115957824
 40
0.3743202185
 40
0.437135482
 40
0.4999991217
 40
0.5628627483
 40
0.6256779676
 40
0.6884024073
 40
0.7510039514
 40
0.8134632217
 40
0.8757745504
 40
0.9379459893
 40
1.0
 40
1.0
 40
1.0
 40
1.0
 10
5.2835294196
 20
4.1460430809
 30
0.0
 10
5.2793548987
 20
4.1460430863
 30
0.0
 10
5.2709973284
 20
4.1463184037
 30
0.0
 10
5.2584832899
 20
4.1472766534
 30
0.0
 10
5.2459717399
 20
4.1485568678
 30
0.0
 10
5.2334455395
 20
4.1499647145
 30
0.0
 10
5.2208853386
 20
4.151320579
 30
0.0
 10
5.2082780811
 20
4.1524539789
 30
0.0
 10
5.1956235798
 20
4.1532109069
 30
0.0
 10
5.1829388433
 20
4.1534775162
 30
0.0
 10
5.170254107
 20
4.1532109602
 30
0.0
 10
5.1575996134
 20
4.1524539679
 30
0.0
 10
5.1449923508
 20
4.1513206414
 30
0.0
 10
5.1324321439
 20
4.1499647387
 30
0.0
 10
5.1199059268
 20
4.148556913
 30
0.0
 10
5.1073943249
 20
4.1472766972
 30
0.0
 10
5.0948801766
 20
4.1463184091
 30
0.0
 10
5.0865224986
 20
4.1460430876
 30
0.0
 10
5.0823479096
 20
4.1460430809
 30
0.0
  0
SPLINE
  5
277
100
AcDbEntity
  8
0
100
AcDbSpline
 62
7
  6
CONTINUOUS
 70
0
 71
3
 72
31
 73
27
 74
0
 42
0.0000001
 43
0.0000001
 44
0.0000000001
 40
0.0
 40
0.0
 40
0.0
 40
0.0
 40
0.000393662
 40
0.0015724216
 40
0.003531475
 40
0.0062660233
 40
0.0097712733
 40
0.0140424366
 40
0.0248566875
 40
0.0386209668
 40
0.0552309184
 40
0.0745795179
 40
0.0965318663
 40
0.1209394751
 40
0.1476541406
 40
0.2073485532
 40
0.2742695334
 40
0.3470418139
 40
0.4243049797
 40
0.5047473916
 40
0.5871382697
 40
0.6703807956
 40
0.753573662
 40
0.8361403511
 40
0.9180313092
 40
1.0
 40
1.0
 40
1.0
 40
1.0
 10
5.3495219979
 20
4.1533886724
 30
0.0
 10
5.3495224053
 20
4.1533902887
 30
0.0
 10
5.3495153819
 20
4.1533775058
 30
0.0
 10
5.3495101022
 20
4.1533721807
 30
0.0
 10
5.349494253
 20
4.1533476809
 30
0.0
 10
5.3494753779
 20
4.153320831
 30
0.0
 10
5.3494498089
 20
4.1532835159
 30
0.0
 10
5.3494051719
 20
4.1532191042
 30
0.0
 10
5.3493353441
 20
4.153118606
 30
0.0
 10
5.3492350894
 20
4.1529760286
 30
0.0
 10
5.3491128952
 20
4.1528045484
 30
0.0
 10
5.3489691739
 20
4.1526059013
 30
0.0
 10
5.3488041512
 20
4.1523819077
 30
0.0
 10
5.3486181411
 20
4.1521346605
 30
0.0
 10
5.348331917
 20
4.1517628648
 30
0.0
 10
5.3479259526
 20
4.1512561406
 30
0.0
 10
5.3473783344
 20
4.1506134412
 30
0.0
 10
5.3467575182
 20
4.14993606
 30
0.0
 10
5.3460676608
 20
4.1492453613
 30
0.0
 10
5.3453132035
 20
4.1485632512
 30
0.0
 10
5.3444987191
 20
4.1479122953
 30
0.0
 10
5.3436288956
 20
4.147315857
 30
0.0
 10
5.3427083104
 20
4.1467985715
 30
0.0
 10
5.3417409013
 20
4.1463872811
 30
0.0
 10
5.3407308113
 20
4.1461116743
 30
0.0
 10
5.3400357213
 20
4.1460430828
 30
0.0
 10
5.3396886646
 20
4.1460430809
 30
0.0
  0
SPLINE
  5
278
100
AcDbEntity
  8
0
100
AcDbSpline
 62
7
  6
CONTINUOUS
 70
0
 71
3
 72
36
 73
32
 74
0
 42
0.0000001
 43
0.0000001
 44
0.0000000001
 40
0.0
 40
0.0
 40
0.0
 40
0.0
 40
0.0001005978
 40
0.0003993818
 40
0.0008972707
 40
0.0015948166
 40
0.0024910992
 40
0.0035847533
 40
0.0063587101
 40
0.0099057616
 40
0.0142150009
 40
0.0192755453
 40
0.025076538
 40
0.038856564
 40
0.0554688093
 40
0.074826065
 40
0.0968042713
 40
0.1212402582
 40
0.1479706352
 40
0.1768340683
 40
0.2076714769
 40
0.274594721
 40
0.347351275
 40
0.4245914725
 40
0.5049980392
 40
0.5873521891
 40
0.670547795
 40
0.7536981912
 40
0.8362198615
 40
0.9180708195
 40
1.0
 40
1.0
 40
1.0
 40
1.0
 10
5.0163553755
 20
4.1533883557
 30
0.0
 10
5.0163557816
 20
4.1533884842
 30
0.0
 10
5.0163564544
 20
4.1533860126
 30
0.0
 10
5.0163589347
 20
4.1533839559
 30
0.0
 10
5.0163623547
 20
4.1533781466
 30
0.0
 10
5.0163674346
 20
4.1533711055
 30
0.0
 10
5.0163738208
 20
4.153361605
 30
0.0
 10
5.0163852015
 20
4.1533449918
 30
0.0
 10
5.0164028957
 20
4.1533190345
 30
0.0
 10
5.016428347
 20
4.153281925
 30
0.0
 10
5.0164593707
 20
4.153236883
 30
0.0
 10
5.0164959508
 20
4.1531840859
 30
0.0
 10
5.0165556135
 20
4.1530984973
 30
0.0
 10
5.016643852
 20
4.1529732107
 30
0.0
 10
5.0167662727
 20
4.1528018002
 30
0.0
 10
5.016910218
 20
4.1526031148
 30
0.0
 10
5.0170753997
 20
4.1523789188
 30
0.0
 10
5.017261565
 20
4.1521314238
 30
0.0
 10
5.0174683002
 20
4.1518629481
 30
0.0
 10
5.0176952093
 20
4.1515758315
 30
0.0
 10
5.0180334069
 20
4.1511598264
 30
0.0
 10
5.0185018016
 20
4.150610249
 30
0.0
 10
5.0191226371
 20
4.1499331233
 30
0.0
 10
5.0198123639
 20
4.1492427625
 30
0.0
 10
5.0205666821
 20
4.148561133
 30
0.0
 10
5.0213808269
 20
4.1479105901
 30
0.0
 10
5.0222503688
 20
4.1473147262
 30
0.0
 10
5.0231704941
 20
4.1467978119
 30
0.0
 10
5.0241375044
 20
4.14638706
 30
0.0
 10
5.0251470057
 20
4.1461113405
 30
0.0
 10
5.0258417816
 20
4.1460430851
 30
0.0
 10
5.0261886646
 20
4.1460430809
 30
0.0
  0
SPLINE
  5
279
100
AcDbEntity
  8
0
100
AcDbSpline
 62
7
  6
CONTINUOUS
 70
0
 71
3
 72
27
 73
23
 74
0
 42
0.0000001
 43
0.0000001
 44
0.0000000001
 40
0.0
 40
0.0
 40
0.0
 40
0.0
 40
0.0624994835
 40
0.1249983226
 40
0.1874976195
 40
0.2499972755
 40
0.3124969903
 40
0.3749952669
 40
0.4062457825
 40
0.4374964279
 40
0.4687473426
 40
0.4999983516
 40
0.5312492677
 40
0.562500174
 40
0.5937509472
 40
0.6250013663
 40
0.6874995707
 40
0.7499992871
 40
0.8124990092
 40
0.8749983586
 40
0.9374987422
 40
1.0
 40
1.0
 40
1.0
 40
1.0
 10
5.2835294196
 20
4.1310430809
 30
0.0
 10
5.2793080746
 20
4.1310430978
 30
0.0
 10
5.2708636785
 20
4.1313890693
 30
0.0
 10
5.2582609712
 20
4.1326802501
 30
0.0
 10
5.2457252731
 20
4.134493588
 30
0.0
 10
5.2332341277
 20
4.1365798635
 30
0.0
 10
5.2207450668
 20
4.1386767457
 30
0.0
 10
5.2102993133
 20
4.1401962955
 30
0.0
 10
5.2019075469
 20
4.1411305231
 30
0.0
 10
5.1955964615
 20
4.1416585218
 30
0.0
 10
5.1892715836
 20
4.1419871002
 30
0.0
 10
5.1829390046
 20
4.1420985678
 30
0.0
 10
5.1766064305
 20
4.1419869981
 30
0.0
 10
5.1702815437
 20
4.141658583
 30
0.0
 10
5.1639704481
 20
4.1411306621
 30
0.0
 10
5.155578696
 20
4.1401963323
 30
0.0
 10
5.1451329407
 20
4.1386768859
 30
0.0
 10
5.1326438841
 20
4.1365799721
 30
0.0
 10
5.1201527324
 20
4.1344936873
 30
0.0
 10
5.107616927
 20
4.1326803064
 30
0.0
 10
5.0950139947
 20
4.1313890837
 30
0.0
 10
5.0865693744
 20
4.1310431025
 30
0.0
 10
5.0823479096
 20
4.1310430809
 30
0.0
  0
SPLINE
  5
27A
100
AcDbEntity
  8
0
100
AcDbSpline
 62
7
  6
CONTINUOUS
 70
0
 71
3
 72
23
 73
19
 74
0
 42
0.0000001
 43
0.0000001
 44
0.0000000001
 40
0.0
 40
0.0
 40
0.0
 40
0.0
 40
0.0625866979
 40
0.1251076705
 40
0.1875525981
 40
0.2499564937
 40
0.312376402
 40
0.3748553831
 40
0.4374033922
 40
0.4999978231
 40
0.5625923302
 40
0.6251402693
 40
0.6876191169
 40
0.7500382529
 40
0.812441637
 40
0.8748865268
 40
0.9374099108
 40
1.0
 40
1.0
 40
1.0
 40
1.0
 10
5.1829386646
 20
4.5960430809
 30
0.0
 10
5.1774310768
 20
4.5960430809
 30
0.0
 10
5.1663829649
 20
4.5972799908
 30
0.0
 10
5.1506636706
 20
4.6027033698
 30
0.0
 10
5.1364594842
 20
4.6113120789
 30
0.0
 10
5.1243004535
 20
4.6225945582
 30
0.0
 10
5.1145403527
 20
4.6359987758
 30
0.0
 10
5.1074174531
 20
4.6509782313
 30
0.0
 10
5.1030849404
 20
4.6670005016
 30
0.0
 10
5.1016310231
 20
4.6835425059
 30
0.0
 10
5.1030847372
 20
4.7000845217
 30
0.0
 10
5.1074170468
 20
4.7161068355
 30
0.0
 10
5.1145397189
 20
4.7310863011
 30
0.0
 10
5.1242995334
 20
4.7444905716
 30
0.0
 10
5.1364582975
 20
4.7557731547
 30
0.0
 10
5.1506624262
 20
4.7643822872
 30
0.0
 10
5.1663821639
 20
4.7698059694
 30
0.0
 10
5.1774307784
 20
4.7710430809
 30
0.0
 10
5.1829386646
 20
4.7710430809
 30
0.0
  0
SPLINE
  5
27B
100
AcDbEntity
  8
0
100
AcDbSpline
 62
7
  6
CONTINUOUS
 70
0
 71
3
 72
23
 73
19
 74
0
 42
0.0000001
 43
0.0000001
 44
0.0000000001
 40
0.0
 40
0.0
 40
0.0
 40
0.0
 40
0.0625863773
 40
0.1251072034
 40
0.1875522095
 40
0.2499562008
 40
0.3123762017
 40
0.3748552337
 40
0.4374033064
 40
0.4999978021
 40
0.5625923739
 40
0.625140375
 40
0.687619275
 40
0.7500385041
 40
0.8124419837
 40
0.8748869525
 40
0.9374101998
 40
1.0
 40
1.0
 40
1.0
 40
1.0
 10
5.1829386646
 20
4.7710430809
 30
0.0
 10
5.1884462242
 20
4.7710430809
 30
0.0
 10
5.1994942956
 20
4.7698061885
 30
0.0
 10
5.2152135611
 20
4.7643828322
 30
0.0
 10
5.2294177648
 20
4.7557741472
 30
0.0
 10
5.2415768241
 20
4.7444916627
 30
0.0
 10
5.2513369484
 20
4.7310874358
 30
0.0
 10
5.2584598634
 20
4.7161079669
 30
0.0
 10
5.2627923859
 20
4.7000856827
 30
0.0
 10
5.2642463071
 20
4.6835436613
 30
0.0
 10
5.2627925909
 20
4.6670016284
 30
0.0
 10
5.2584602736
 20
4.6509793002
 30
0.0
 10
5.2513375879
 20
4.6359998203
 30
0.0
 10
5.2415777516
 20
4.6225955391
 30
0.0
 10
5.2294189603
 20
4.6113129492
 30
0.0
 10
5.2152148149
 20
4.6027038382
 30
0.0
 10
5.1994951032
 20
4.597280175
 30
0.0
 10
5.1884465254
 20
4.5960430809
 30
0.0
 10
5.1829386646
 20
4.5960430809
 30
0.0
  0
ENDSEC
  0
SECTION
  2
OBJECTS
  0
DICTIONARY
  5
C
100
AcDbDictionary
280
0
281
1
  3
ACAD_GROUP
350
D
  3
ACAD_MLINESTYLE
350
17
  3
ACAD_LAYOUT
350
1A
  3
ACAD_PLOTSETTINGS
350
19
  3
ACAD_PLOTSTYLENAME
350
E
  0
DICTIONARY
  5
D
102
{ACAD_REACTORS
330
C
102
}
100
AcDbDictionary
280
0
281
1
  0
ACDBDICTIONARYWDFLT
  5
E
102
{ACAD_REACTORS
330
C
102
}
100
AcDbDictionary
281
1
  3
Normal
350
F
100
AcDbDictionaryWithDefault
340
F
  0
DICTIONARY
  5
17
102
{ACAD_REACTORS
330
C
102
}
100
AcDbDictionary
280
0
281
1
  3
Standard
350
18
  0
DICTIONARY
  5
19
102
{ACAD_REACTORS
330
C
102
}
100
AcDbDictionary
281
1
  0
DICTIONARY
  5
1A
102
{ACAD_REACTORS
330
C
102
}
100
AcDbDictionary
281
1
  3
Model
350
27C
  3
Layout1
350
27D
  0
ACDBPLACEHOLDER
  5
F
102
{ACAD_REACTORS
330
E
102
}
  0
MLINESTYLE
  5
18
102
{ACAD_REACTORS
330
17
102
}
100
AcDbMlineStyle
  2
STANDARD
 70
0
  3

 62
256
 51
90.0
 52
90.0
 71
2
 49
0.5
 62
256
  6
BYLAYER
 49
-0.5
 62
256
  6
BYLAYER
  0
LAYOUT
  5
27C
102
{ACAD_REACTORS
330
1A
102
}
100
AcDbPlotSettings
  1

  2
none_device
  4
ANSI_A_(11.00_x_8.50_Inches)
  6

 40
0.0
 41
0.0
 42
0.0
 43
0.0
 44
279.4
 45
215.9
 46
0.0
 47
0.0
 48
0.0
 49
0.0
140
0.0
141
0.0
142
1.0
143
1.0
 70
1024
 72
0
 73
0
 74
0
  7

 75
0
147
1.0
148
0.0
149
0.0
100
AcDbLayout
  1
Model
 70
0
 71
0
 10
0.0
 20
0.0
 11
11.0
 21
8.5
 12
0.0
 22
0.0
 32
0.0
 14
0.0
 24
0.0
 34
0.0
 15
0.0
 25
0.0
 35
0.0
146
0.0
 13
0.0
 23
0.0
 33
0.0
 16
1.0
 26
0.0
 36
0.0
 17
0.0
 27
1.0
 37
0.0
 76
0
330
222
345
0
346
0
  0
LAYOUT
  5
27D
102
{ACAD_REACTORS
330
1A
102
}
100
AcDbPlotSettings
  1

  2
none_device
  4
ANSI_A_(11.00_x_8.50_Inches)
  6

 40
0.0
 41
0.0
 42
0.0
 43
0.0
 44
279.4
 45
215.9
 46
0.0
 47
0.0
 48
0.0
 49
0.0
140
0.0
141
0.0
142
1.0
143
1.0
 70
0
 72
0
 73
0
 74
0
  7

 75
0
147
1.0
148
0.0
149
0.0
100
AcDbLayout
  1
Layout1
 70
0
 71
1
 10
0.0
 20
0.0
 11
11.0
 21
8.5
 12
0.0
 22
0.0
 32
0.0
 14
0.0
 24
0.0
 34
0.0
 15
0.0
 25
0.0
 35
0.0
146
0.0
 13
0.0
 23
0.0
 33
0.0
 16
1.0
 26
0.0
 36
0.0
 17
0.0
 27
1.0
 37
0.0
 76
0
330
223
345
0
346
0
  0
ENDSEC
  0
EOF
