999
DXF file: 3-3145_FRONT.dxf
999
Pro/ENGINEER 2018400 by Parametric Technology Corporation
  0
SECTION
  2
HEADER
  9
$ACADVER
  1
AC1027
  9
$DWGCODEPAGE
  3
ANSI_1252
  9
$EXTMAX
 10
11.0
 20
8.5
 30
0.0
  9
$EXTMIN
 10
0.0
 20
0.0
 30
0.0
  9
$LIMMIN
 10
0.0
 20
0.0
  9
$LIMMAX
 10
11.0
 20
8.5
  9
$VIEWCTR
 10
5.5
 20
4.25
  9
$VIEWSIZE
 40
8.5
  9
$CLAYER
  8
0
  9
$LTSCALE
 40
0.605
  9
$CELTYPE
  6
BYLAYER
  9
$DIMSCALE
 40
1.0
  9
$DIMASZ
 40
0.1
  9
$DIMEXO
 40
0.0625
  9
$DIMDLI
 40
0.418
  9
$DIMEXE
 40
0.125
  9
$DIMCEN
 40
0.099
  9
$DIMLFAC
 40
1.0
  9
$DIMBLK
  1
_FILLED
  9
$DIMALT
 70
1
  9
$DIMALTD
 70
2
  9
$DIMALTTD
 70
2
  9
$DIMALTF
 40
25.4
  9
$DIMTXT
 40
0.08
  9
$DIMTOL
 70
1
  9
$DIMLIM
 70
0
  9
$DIMTFAC
 40
1.0
  9
$DIMTP
 40
0.001
  9
$DIMTM
 40
0.001
  9
$DIMGAP
 40
0.09
  9
$DIMDSEP
 70
46
  9
$AUNITS
 70
0
  9
$PDMODE
 70
3
  9
$PDSIZE
 40
0.3125
  9
$HANDSEED
  5
3EC
  9
$TILEMODE
 70
1
  9
$MEASUREMENT
 70
0
  9
$INSUNITS
 70
1
  0
ENDSEC
  0
SECTION
  2
CLASSES
  0
CLASS
  1
ACDBDICTIONARYWDFLT
  2
AcDbDictionaryWithDefault
  3
AutoCAD 2000
 90
0
 91
1
280
0
281
0
  0
CLASS
  1
ACDBPLACEHOLDER
  2
AcDbPlaceHolder
  3
AutoCAD 2000
 90
0
 91
1
280
0
281
0
  0
CLASS
  1
LAYOUT
  2
AcDbLayout
  3
AutoCAD 2000
 90
0
 91
0
280
0
281
0
  0
ENDSEC
  0
SECTION
  2
TABLES
  0
TABLE
  2
VPORT
  5
8
100
AcDbSymbolTable
 70
2
  0
VPORT
  5
1F4
100
AcDbSymbolTableRecord
100
AcDbViewportTableRecord
  2
*ACTIVE
 70
0
 10
0.0
 20
0.0
 11
1.0
 21
1.0
 12
5.5
 22
4.25
 13
0.0
 23
0.0
 14
1.0
 24
1.0
 15
0.0
 25
0.0
 16
0.0
 26
0.0
 36
1.0
 17
0.0
 27
0.0
 37
0.0
 40
8.5
 41
1.2941176471
 42
50.0
 43
0.0
 44
0.0
 50
0.0
 51
0.0
 71
0
 72
100
 73
1
 74
1
 75
0
 76
0
 77
0
 78
0
  0
ENDTAB
  0
TABLE
  2
LTYPE
  5
5
100
AcDbSymbolTable
 70
6
  0
LTYPE
  5
14
100
AcDbSymbolTableRecord
100
AcDbLinetypeTableRecord
  2
BYBLOCK
 70
0
  3

 72
65
 73
0
 40
0.0
  0
LTYPE
  5
15
100
AcDbSymbolTableRecord
100
AcDbLinetypeTableRecord
  2
BYLAYER
 70
0
  3

 72
65
 73
0
 40
0.0
  0
LTYPE
  5
16
100
AcDbSymbolTableRecord
100
AcDbLinetypeTableRecord
  2
CONTINUOUS
 70
64
  3
Solid line
 72
65
 73
0
 40
0.0
  0
LTYPE
  5
1F5
100
AcDbSymbolTableRecord
100
AcDbLinetypeTableRecord
  2
CENTER
 70
64
  3
____ _ ____ _ ____ _ ____ _ ____ _ ____ _ ____
 72
65
 73
4
 40
0.6
 49
0.375
 74
0
 49
-0.075
 74
0
 49
0.075
 74
0
 49
-0.075
 74
0
  0
LTYPE
  5
1F6
100
AcDbSymbolTableRecord
100
AcDbLinetypeTableRecord
  2
HIDDEN
 70
64
  3
- - - - - - - - - - - - - - - - - - - -
 72
65
 73
2
 40
0.2
 49
0.1
 74
0
 49
-0.1
 74
0
  0
LTYPE
  5
1F7
100
AcDbSymbolTableRecord
100
AcDbLinetypeTableRecord
  2
PHANTOM
 70
64
  3
_____ _ _ _____ _ _ _____ _ _ _____
 72
65
 73
6
 40
0.8
 49
0.45
 74
0
 49
-0.05
 74
0
 49
0.1
 74
0
 49
-0.05
 74
0
 49
0.1
 74
0
 49
-0.05
 74
0
  0
LTYPE
  5
1F8
100
AcDbSymbolTableRecord
100
AcDbLinetypeTableRecord
  2
DOT
 70
64
  3
. . . . . . . . . . . . . . . . . . . .
 72
65
 73
2
 40
0.2
 49
0.1
 74
0
 49
-0.1
 74
0
  0
LTYPE
  5
1F9
100
AcDbSymbolTableRecord
100
AcDbLinetypeTableRecord
  2
DASHED
 70
64
  3
- - - - - - - - - - - - - - - - - - - -
 72
65
 73
2
 40
0.2
 49
0.1
 74
0
 49
-0.1
 74
0
  0
ENDTAB
  0
TABLE
  2
LAYER
  5
2
100
AcDbSymbolTable
 70
36
  0
LAYER
  5
10
100
AcDbSymbolTableRecord
100
AcDbLayerTableRecord
  2
0
 70
0
 62
7
  6
CONTINUOUS
370
-3
390
F
  0
LAYER
  5
1FA
100
AcDbSymbolTableRecord
100
AcDbLayerTableRecord
  2
DEFAULT_1
 70
0
 62
7
  6
CENTER
370
-3
390
F
  0
LAYER
  5
1FB
100
AcDbSymbolTableRecord
100
AcDbLayerTableRecord
  2
DEFAULT_2
 70
0
 62
8
  6
HIDDEN
370
-3
390
F
  0
LAYER
  5
1FC
100
AcDbSymbolTableRecord
100
AcDbLayerTableRecord
  2
DEFAULT_3
 70
0
 62
7
  6
PHANTOM
370
-3
390
F
  0
LAYER
  5
1FD
100
AcDbSymbolTableRecord
100
AcDbLayerTableRecord
  2
01_ALL_DTM_PLN
 70
0
 62
7
  6
CONTINUOUS
370
-3
390
F
  0
LAYER
  5
1FE
100
AcDbSymbolTableRecord
100
AcDbLayerTableRecord
  2
01__ASM_ALL_DTM_PLN
 70
0
 62
7
  6
CONTINUOUS
370
-3
390
F
  0
LAYER
  5
1FF
100
AcDbSymbolTableRecord
100
AcDbLayerTableRecord
  2
01__ASM_DEF_DTM_PLN
 70
0
 62
7
  6
CONTINUOUS
370
-3
390
F
  0
LAYER
  5
200
100
AcDbSymbolTableRecord
100
AcDbLayerTableRecord
  2
01___PRT_ALL_DTM_PLN
 70
0
 62
7
  6
CONTINUOUS
370
-3
390
F
  0
LAYER
  5
201
100
AcDbSymbolTableRecord
100
AcDbLayerTableRecord
  2
01___PRT_DEF_DTM_PLN
 70
0
 62
7
  6
CONTINUOUS
370
-3
390
F
  0
LAYER
  5
202
100
AcDbSymbolTableRecord
100
AcDbLayerTableRecord
  2
02_ALL_AXES
 70
0
 62
7
  6
CONTINUOUS
370
-3
390
F
  0
LAYER
  5
203
100
AcDbSymbolTableRecord
100
AcDbLayerTableRecord
  2
02__ASM_ALL_AXES
 70
0
 62
7
  6
CONTINUOUS
370
-3
390
F
  0
LAYER
  5
204
100
AcDbSymbolTableRecord
100
AcDbLayerTableRecord
  2
02___PRT_ALL_AXES
 70
0
 62
7
  6
CONTINUOUS
370
-3
390
F
  0
LAYER
  5
205
100
AcDbSymbolTableRecord
100
AcDbLayerTableRecord
  2
03_ALL_CURVES
 70
0
 62
7
  6
CONTINUOUS
370
-3
390
F
  0
LAYER
  5
206
100
AcDbSymbolTableRecord
100
AcDbLayerTableRecord
  2
03__ASM_ALL_CURVES
 70
0
 62
7
  6
CONTINUOUS
370
-3
390
F
  0
LAYER
  5
207
100
AcDbSymbolTableRecord
100
AcDbLayerTableRecord
  2
03___PRT_ALL_CURVES
 70
0
 62
7
  6
CONTINUOUS
370
-3
390
F
  0
LAYER
  5
208
100
AcDbSymbolTableRecord
100
AcDbLayerTableRecord
  2
04_ALL_DTM_PNT
 70
0
 62
7
  6
CONTINUOUS
370
-3
390
F
  0
LAYER
  5
209
100
AcDbSymbolTableRecord
100
AcDbLayerTableRecord
  2
04__ASM_ALL_DTM_PNT
 70
0
 62
7
  6
CONTINUOUS
370
-3
390
F
  0
LAYER
  5
20A
100
AcDbSymbolTableRecord
100
AcDbLayerTableRecord
  2
04___PRT_ALL_DTM_PNT
 70
0
 62
7
  6
CONTINUOUS
370
-3
390
F
  0
LAYER
  5
20B
100
AcDbSymbolTableRecord
100
AcDbLayerTableRecord
  2
05_ALL_DTM_CSYS
 70
0
 62
7
  6
CONTINUOUS
370
-3
390
F
  0
LAYER
  5
20C
100
AcDbSymbolTableRecord
100
AcDbLayerTableRecord
  2
05__ASM_ALL_DTM_CSYS
 70
0
 62
7
  6
CONTINUOUS
370
-3
390
F
  0
LAYER
  5
20D
100
AcDbSymbolTableRecord
100
AcDbLayerTableRecord
  2
05__ASM_DEF_DTM_CSYS
 70
0
 62
7
  6
CONTINUOUS
370
-3
390
F
  0
LAYER
  5
20E
100
AcDbSymbolTableRecord
100
AcDbLayerTableRecord
  2
05___PRT_ALL_DTM_CSYS
 70
0
 62
7
  6
CONTINUOUS
370
-3
390
F
  0
LAYER
  5
20F
100
AcDbSymbolTableRecord
100
AcDbLayerTableRecord
  2
05___PRT_DEF_DTM_CSYS
 70
0
 62
7
  6
CONTINUOUS
370
-3
390
F
  0
LAYER
  5
210
100
AcDbSymbolTableRecord
100
AcDbLayerTableRecord
  2
06_ALL_SURFS
 70
0
 62
7
  6
CONTINUOUS
370
-3
390
F
  0
LAYER
  5
211
100
AcDbSymbolTableRecord
100
AcDbLayerTableRecord
  2
06__ASM_ALL_SURFS
 70
0
 62
7
  6
CONTINUOUS
370
-3
390
F
  0
LAYER
  5
212
100
AcDbSymbolTableRecord
100
AcDbLayerTableRecord
  2
06___PRT_ALL_SURFS
 70
0
 62
7
  6
CONTINUOUS
370
-3
390
F
  0
LAYER
  5
213
100
AcDbSymbolTableRecord
100
AcDbLayerTableRecord
  2
07__ASM_ALL_SKELETONS
 70
0
 62
7
  6
CONTINUOUS
370
-3
390
F
  0
LAYER
  5
214
100
AcDbSymbolTableRecord
100
AcDbLayerTableRecord
  2
3-985_ASSY_PLANES
 70
0
 62
7
  6
CONTINUOUS
370
-3
390
F
  0
LAYER
  5
215
100
AcDbSymbolTableRecord
100
AcDbLayerTableRecord
  2
ALL_ASSEMBLY_MEMBERS
 70
0
 62
7
  6
CONTINUOUS
370
-3
390
F
  0
LAYER
  5
216
100
AcDbSymbolTableRecord
100
AcDbLayerTableRecord
  2
ALL_FEATURES
 70
0
 62
7
  6
CONTINUOUS
370
-3
390
F
  0
LAYER
  5
217
100
AcDbSymbolTableRecord
100
AcDbLayerTableRecord
  2
AXES_FEATURES
 70
0
 62
7
  6
CONTINUOUS
370
-3
390
F
  0
LAYER
  5
218
100
AcDbSymbolTableRecord
100
AcDbLayerTableRecord
  2
CHAMFER_FEATURES
 70
0
 62
7
  6
CONTINUOUS
370
-3
390
F
  0
LAYER
  5
219
100
AcDbSymbolTableRecord
100
AcDbLayerTableRecord
  2
CURVE
 70
0
 62
7
  6
CONTINUOUS
370
-3
390
F
  0
LAYER
  5
21A
100
AcDbSymbolTableRecord
100
AcDbLayerTableRecord
  2
CUT_FEATURES
 70
0
 62
7
  6
CONTINUOUS
370
-3
390
F
  0
LAYER
  5
21B
100
AcDbSymbolTableRecord
100
AcDbLayerTableRecord
  2
DATUM_CURVES
 70
0
 62
7
  6
CONTINUOUS
370
-3
390
F
  0
LAYER
  5
21C
100
AcDbSymbolTableRecord
100
AcDbLayerTableRecord
  2
DATUM_PLANES
 70
0
 62
7
  6
CONTINUOUS
370
-3
390
F
  0
LAYER
  5
21D
100
AcDbSymbolTableRecord
100
AcDbLayerTableRecord
  2
DEFAULT_COORDINATE_SYSTEM
 70
0
 62
7
  6
CONTINUOUS
370
-3
390
F
  0
LAYER
  5
21E
100
AcDbSymbolTableRecord
100
AcDbLayerTableRecord
  2
DEFAULT_DATUM_AXES
 70
0
 62
7
  6
CONTINUOUS
370
-3
390
F
  0
LAYER
  5
21F
100
AcDbSymbolTableRecord
100
AcDbLayerTableRecord
  2
DEFAULT_DATUM_CURVES
 70
0
 62
7
  6
CONTINUOUS
370
-3
390
F
  0
LAYER
  5
220
100
AcDbSymbolTableRecord
100
AcDbLayerTableRecord
  2
DEFAULT_DATUM_PLANES
 70
0
 62
7
  6
CONTINUOUS
370
-3
390
F
  0
LAYER
  5
221
100
AcDbSymbolTableRecord
100
AcDbLayerTableRecord
  2
DEFAULT_SURFACES
 70
0
 62
7
  6
CONTINUOUS
370
-3
390
F
  0
LAYER
  5
222
100
AcDbSymbolTableRecord
100
AcDbLayerTableRecord
  2
DIMENSIONS
 70
0
 62
7
  6
CONTINUOUS
370
-3
390
F
  0
LAYER
  5
223
100
AcDbSymbolTableRecord
100
AcDbLayerTableRecord
  2
HOLE_FEATURES
 70
0
 62
7
  6
CONTINUOUS
370
-3
390
F
  0
LAYER
  5
224
100
AcDbSymbolTableRecord
100
AcDbLayerTableRecord
  2
MIXEDCOLOR
 70
0
 62
7
  6
CONTINUOUS
370
-3
390
F
  0
LAYER
  5
225
100
AcDbSymbolTableRecord
100
AcDbLayerTableRecord
  2
NONE
 70
0
 62
7
  6
CONTINUOUS
370
-3
390
F
  0
LAYER
  5
226
100
AcDbSymbolTableRecord
100
AcDbLayerTableRecord
  2
PART_REFERENCE_DIMENSIONS
 70
0
 62
7
  6
CONTINUOUS
370
-3
390
F
  0
LAYER
  5
227
100
AcDbSymbolTableRecord
100
AcDbLayerTableRecord
  2
PROTRUSION_FEATURES
 70
0
 62
7
  6
CONTINUOUS
370
-3
390
F
  0
LAYER
  5
228
100
AcDbSymbolTableRecord
100
AcDbLayerTableRecord
  2
REFERENCE_DIMENSIONS
 70
0
 62
7
  6
CONTINUOUS
370
-3
390
F
  0
LAYER
  5
229
100
AcDbSymbolTableRecord
100
AcDbLayerTableRecord
  2
SIZE_REF
 70
0
 62
7
  6
CONTINUOUS
370
-3
390
F
  0
LAYER
  5
22A
100
AcDbSymbolTableRecord
100
AcDbLayerTableRecord
  2
XSEC_DATUMS
 70
0
 62
7
  6
CONTINUOUS
370
-3
390
F
  0
ENDTAB
  0
TABLE
  2
STYLE
  5
3
100
AcDbSymbolTable
 70
1
  0
STYLE
  5
11
100
AcDbSymbolTableRecord
100
AcDbTextStyleTableRecord
  2
STANDARD
 70
0
 40
0.0
 41
0.8
 50
0.0
 71
0
 42
0.2
  3
txt
  4

  0
STYLE
  5
22B
100
AcDbSymbolTableRecord
100
AcDbTextStyleTableRecord
  2
TEXTSTYLE_1
 70
0
 40
0.0
 41
0.8
 50
0.0
 71
0
 42
0.2
  3
gdt
  4

  0
ENDTAB
  0
TABLE
  2
VIEW
  5
6
100
AcDbSymbolTable
 70
0
  0
ENDTAB
  0
TABLE
  2
UCS
  5
7
100
AcDbSymbolTable
 70
0
  0
ENDTAB
  0
TABLE
  2
APPID
  5
9
100
AcDbSymbolTable
 70
1
  0
APPID
  5
22C
100
AcDbSymbolTableRecord
100
AcDbRegAppTableRecord
  2
ACAD
 70
0
  0
ENDTAB
  0
TABLE
  2
BLOCK_RECORD
  5
1
100
AcDbSymbolTable
 70
0
  0
BLOCK_RECORD
  5
22D
100
AcDbSymbolTableRecord
100
AcDbBlockTableRecord
  2
*Model_Space
  0
BLOCK_RECORD
  5
22E
100
AcDbSymbolTableRecord
100
AcDbBlockTableRecord
  2
*Paper_Space
  0
BLOCK_RECORD
  5
22F
100
AcDbSymbolTableRecord
100
AcDbBlockTableRecord
  2
_FILLED
  0
ENDTAB
  0
TABLE
  2
DIMSTYLE
  5
A
100
AcDbSymbolTable
 70
1
100
AcDbDimStyleTable
 71
0
  0
DIMSTYLE
105
230
100
AcDbSymbolTableRecord
100
AcDbDimStyleTableRecord
  2
STANDARD
 70
0
  3

  4

 40
1.0
 41
0.1
 42
0.0625
 43
0.38
 44
0.125
 45
0.0
 46
0.0
 47
0.001
 48
0.001
140
0.08
141
0.09
142
0.0
143
25.4
144
1.0
145
0.0
146
1.0
147
0.09
 71
1.0
 72
0.0
 73
1
 74
1
 75
0
 76
0
 77
0
 78
4
 79
1
170
1
171
2
172
0
173
0
174
0
175
0
176
0
177
0
178
0
270
2
179
3
271
3
272
3
273
2
274
2
275
0
280
0
281
0
282
0
283
1
284
4
285
0
286
0
287
3
288
0
340
11
278
46
341
22F
342
22F
343
22F
344
22F
  0
ENDTAB
  0
ENDSEC
  0
SECTION
  2
BLOCKS
  0
BLOCK
  5
20
100
AcDbEntity
  8
0
100
AcDbBlockBegin
  2
*Model_Space
 70
0
 10
0.0
 20
0.0
 30
0.0
  3
*Model_Space
  1

  0
ENDBLK
  5
21
100
AcDbEntity
  8
0
100
AcDbBlockEnd
  0
BLOCK
  5
1C
100
AcDbEntity
  8
0
100
AcDbBlockBegin
  2
*Paper_Space
 70
0
 10
0.0
 20
0.0
 30
0.0
  3
*Paper_Space
  1

  0
ENDBLK
  5
1D
100
AcDbEntity
  8
0
100
AcDbBlockEnd
  0
BLOCK
  5
231
100
AcDbEntity
  8
0
100
AcDbBlockBegin
  2
_FILLED
 70
64
 10
0.0
 20
0.0
  3
_FILLED
  1

  0
SOLID
  5
232
100
AcDbEntity
  8
0
  6
BYBLOCK
 62
0
100
AcDbTrace
 10
0.0
 20
0.0
 11
-1.0
 21
0.2
 12
-1.0
 22
-0.2
 13
-1.0
 23
-0.2
  0
ENDBLK
  5
233
100
AcDbEntity
  8
0
  6
BYBLOCK
 62
0
100
AcDbBlockEnd
  0
ENDSEC
  0
SECTION
  2
ENTITIES
  0
MTEXT
  5
234
100
AcDbEntity
  8
0
100
AcDbMText
 62
2
  6
CONTINUOUS
  7
STANDARD
 71
3
 72
1
 10
2.7271545031
 20
1.4206715839
 30
0.0
 11
1.0
 21
0.0
 31
0.0
 73
2
 44
0.9
  1
SCALE  .500
 40
0.08
 41
0.704
  0
LINE
  5
235
100
AcDbEntity
  8
0
100
AcDbLine
 62
7
  6
CONTINUOUS
 10
0.0
 20
0.0
 11
0.0
 21
8.5
  0
LINE
  5
236
100
AcDbEntity
  8
0
100
AcDbLine
 62
7
  6
CONTINUOUS
 10
0.0
 20
0.0
 11
11.0
 21
0.0
  0
LINE
  5
237
100
AcDbEntity
  8
0
100
AcDbLine
 62
7
  6
CONTINUOUS
 10
0.0
 20
8.5
 11
11.0
 21
8.5
  0
LINE
  5
238
100
AcDbEntity
  8
0
100
AcDbLine
 62
7
  6
CONTINUOUS
 10
11.0
 20
0.0
 11
11.0
 21
8.5
  0
LINE
  5
239
100
AcDbEntity
  8
ALL_ASSEMBLY_MEMBERS
100
AcDbLine
 62
7
  6
CONTINUOUS
 10
1.5024371118
 20
5.9078843168
 11
1.5024371118
 21
6.1278843168
  0
LINE
  5
23A
100
AcDbEntity
  8
ALL_ASSEMBLY_MEMBERS
100
AcDbLine
 62
7
  6
CONTINUOUS
 10
1.5174371118
 20
5.8928843168
 11
1.5174371118
 21
6.1428843168
  0
LINE
  5
23B
100
AcDbEntity
  8
ALL_ASSEMBLY_MEMBERS
100
AcDbLine
 62
7
  6
CONTINUOUS
 10
2.4206871118
 20
6.5853843168
 11
2.4206871118
 21
6.1428843168
  0
LINE
  5
23C
100
AcDbEntity
  8
ALL_ASSEMBLY_MEMBERS
100
AcDbLine
 62
7
  6
CONTINUOUS
 10
2.4206871118
 20
5.8928843168
 11
2.4206871118
 21
5.4503843168
  0
LINE
  5
23D
100
AcDbEntity
  8
ALL_ASSEMBLY_MEMBERS
100
AcDbLine
 62
7
  6
CONTINUOUS
 10
2.4356871118
 20
6.5853843168
 11
2.4356871118
 21
6.1428843168
  0
LINE
  5
23E
100
AcDbEntity
  8
ALL_ASSEMBLY_MEMBERS
100
AcDbLine
 62
7
  6
CONTINUOUS
 10
2.4356871118
 20
5.8928843168
 11
2.4356871118
 21
5.4503843168
  0
LINE
  5
23F
100
AcDbEntity
  8
ALL_ASSEMBLY_MEMBERS
100
AcDbLine
 62
7
  6
CONTINUOUS
 10
2.4506871118
 20
5.4353843168
 11
2.4506871118
 21
5.4203843168
  0
LINE
  5
240
100
AcDbEntity
  8
ALL_ASSEMBLY_MEMBERS
100
AcDbLine
 62
7
  6
CONTINUOUS
 10
2.4506871118
 20
6.6003843168
 11
2.4506871118
 21
6.6153843168
  0
LINE
  5
241
100
AcDbEntity
  8
ALL_ASSEMBLY_MEMBERS
100
AcDbLine
 62
7
  6
CONTINUOUS
 10
3.3601766029
 20
6.3894180405
 11
3.2581238124
 21
6.28736525
  0
LINE
  5
242
100
AcDbEntity
  8
ALL_ASSEMBLY_MEMBERS
100
AcDbLine
 62
7
  6
CONTINUOUS
 10
2.6466533881
 20
5.6758948256
 11
2.7487061786
 21
5.7779476161
  0
LINE
  5
243
100
AcDbEntity
  8
ALL_ASSEMBLY_MEMBERS
100
AcDbLine
 62
7
  6
CONTINUOUS
 10
3.3897208355
 20
6.3598738079
 11
3.287668045
 21
6.2578210174
  0
LINE
  5
244
100
AcDbEntity
  8
ALL_ASSEMBLY_MEMBERS
100
AcDbLine
 62
7
  6
CONTINUOUS
 10
2.6761976207
 20
5.646350593
 11
2.7782504112
 21
5.7484033835
  0
LINE
  5
245
100
AcDbEntity
  8
ALL_ASSEMBLY_MEMBERS
100
AcDbLine
 62
7
  6
CONTINUOUS
 10
2.5819371118
 20
6.4241343168
 11
2.5819371118
 21
6.1428843168
  0
LINE
  5
246
100
AcDbEntity
  8
ALL_ASSEMBLY_MEMBERS
100
AcDbLine
 62
7
  6
CONTINUOUS
 10
2.5819371118
 20
5.8928843168
 11
2.5819371118
 21
5.6116343168
  0
LINE
  5
247
100
AcDbEntity
  8
ALL_ASSEMBLY_MEMBERS
100
AcDbLine
 62
7
  6
CONTINUOUS
 10
2.5969371118
 20
6.4241343168
 11
2.5969371118
 21
6.1428843168
  0
LINE
  5
248
100
AcDbEntity
  8
ALL_ASSEMBLY_MEMBERS
100
AcDbLine
 62
7
  6
CONTINUOUS
 10
2.5969371118
 20
5.8928843168
 11
2.5969371118
 21
5.6116343168
  0
LINE
  5
249
100
AcDbEntity
  8
ALL_ASSEMBLY_MEMBERS
100
AcDbLine
 62
7
  6
CONTINUOUS
 10
2.6119371118
 20
5.5966343168
 11
2.6119371118
 21
5.5816343168
  0
LINE
  5
24A
100
AcDbEntity
  8
ALL_ASSEMBLY_MEMBERS
100
AcDbLine
 62
7
  6
CONTINUOUS
 10
2.6119371118
 20
6.4391343168
 11
2.6119371118
 21
6.4541343168
  0
LINE
  5
24B
100
AcDbEntity
  8
ALL_ASSEMBLY_MEMBERS
100
AcDbLine
 62
7
  6
CONTINUOUS
 10
2.6318812718
 20
6.3598738079
 11
2.6318812718
 21
6.1428843168
  0
LINE
  5
24C
100
AcDbEntity
  8
ALL_ASSEMBLY_MEMBERS
100
AcDbLine
 62
7
  6
CONTINUOUS
 10
2.6318812718
 20
5.8928843168
 11
2.6318812718
 21
5.6758948256
  0
LINE
  5
24D
100
AcDbEntity
  8
ALL_ASSEMBLY_MEMBERS
100
AcDbLine
 62
7
  6
CONTINUOUS
 10
2.6466533881
 20
6.3598738079
 11
2.6466533881
 21
6.1428843168
  0
LINE
  5
24E
100
AcDbEntity
  8
ALL_ASSEMBLY_MEMBERS
100
AcDbLine
 62
7
  6
CONTINUOUS
 10
2.6466533881
 20
5.8928843168
 11
2.6466533881
 21
5.6758948256
  0
LINE
  5
24F
100
AcDbEntity
  8
ALL_ASSEMBLY_MEMBERS
100
AcDbLine
 62
7
  6
CONTINUOUS
 10
2.6761976207
 20
6.4041901568
 11
2.6761976207
 21
6.3894180405
  0
LINE
  5
250
100
AcDbEntity
  8
ALL_ASSEMBLY_MEMBERS
100
AcDbLine
 62
7
  6
CONTINUOUS
 10
2.6761976207
 20
5.6315784767
 11
2.6761976207
 21
5.646350593
  0
LINE
  5
251
100
AcDbEntity
  8
ALL_ASSEMBLY_MEMBERS
100
AcDbLine
 62
7
  6
CONTINUOUS
 10
2.7486871118
 20
6.2573843168
 11
2.7486871118
 21
6.1428843168
  0
LINE
  5
252
100
AcDbEntity
  8
ALL_ASSEMBLY_MEMBERS
100
AcDbLine
 62
7
  6
CONTINUOUS
 10
2.7486871118
 20
5.8928843168
 11
2.7486871118
 21
5.7783843168
  0
LINE
  5
253
100
AcDbEntity
  8
ALL_ASSEMBLY_MEMBERS
100
AcDbLine
 62
7
  6
CONTINUOUS
 10
2.7636871118
 20
6.2573843168
 11
2.7636871118
 21
6.1428843168
  0
LINE
  5
254
100
AcDbEntity
  8
ALL_ASSEMBLY_MEMBERS
100
AcDbLine
 62
7
  6
CONTINUOUS
 10
2.7636871118
 20
5.8928843168
 11
2.7636871118
 21
5.7783843168
  0
LINE
  5
255
100
AcDbEntity
  8
ALL_ASSEMBLY_MEMBERS
100
AcDbLine
 62
7
  6
CONTINUOUS
 10
2.7786871118
 20
5.7633843168
 11
2.7786871118
 21
5.7483843168
  0
LINE
  5
256
100
AcDbEntity
  8
ALL_ASSEMBLY_MEMBERS
100
AcDbLine
 62
7
  6
CONTINUOUS
 10
2.7786871118
 20
6.2723843168
 11
2.7786871118
 21
6.2873843168
  0
LINE
  5
257
100
AcDbEntity
  8
ALL_ASSEMBLY_MEMBERS
100
AcDbLine
 62
7
  6
CONTINUOUS
 10
2.8164371118
 20
6.1428843168
 11
2.8164371118
 21
5.8928843168
  0
LINE
  5
258
100
AcDbEntity
  8
ALL_ASSEMBLY_MEMBERS
100
AcDbLine
 62
7
  6
CONTINUOUS
 10
2.8464371118
 20
5.8611343168
 11
2.8464371118
 21
6.1746343168
  0
LINE
  5
259
100
AcDbEntity
  8
ALL_ASSEMBLY_MEMBERS
100
AcDbLine
 62
7
  6
CONTINUOUS
 10
2.8614371118
 20
5.8461343168
 11
2.8614371118
 21
6.1896343168
  0
LINE
  5
25A
100
AcDbEntity
  8
ALL_ASSEMBLY_MEMBERS
100
AcDbLine
 62
7
  6
CONTINUOUS
 10
5.5100134831
 20
2.5506002348
 11
5.4843728555
 21
2.5505760219
  0
LINE
  5
25B
100
AcDbEntity
  8
ALL_ASSEMBLY_MEMBERS
100
AcDbLine
 62
7
  6
CONTINUOUS
 10
4.3781871118
 20
2.3803843168
 11
5.5931871118
 21
2.3803843168
  0
LINE
  5
25C
100
AcDbEntity
  8
ALL_ASSEMBLY_MEMBERS
100
AcDbLine
 62
7
  6
CONTINUOUS
 10
4.3781871118
 20
2.3953843168
 11
5.5931871118
 21
2.3953843168
  0
LINE
  5
25D
100
AcDbEntity
  8
ALL_ASSEMBLY_MEMBERS
100
AcDbLine
 62
7
  6
CONTINUOUS
 10
4.3631871118
 20
2.4103843168
 11
4.3481871118
 21
2.4103843168
  0
LINE
  5
25E
100
AcDbEntity
  8
ALL_ASSEMBLY_MEMBERS
100
AcDbLine
 62
7
  6
CONTINUOUS
 10
5.6081871118
 20
2.4103843168
 11
5.6231871118
 21
2.4103843168
  0
LINE
  5
25F
100
AcDbEntity
  8
ALL_ASSEMBLY_MEMBERS
100
AcDbLine
 62
7
  6
CONTINUOUS
 10
4.4656871118
 20
2.4678843168
 11
5.5056871118
 21
2.4678843168
  0
LINE
  5
260
100
AcDbEntity
  8
ALL_ASSEMBLY_MEMBERS
100
AcDbLine
 62
7
  6
CONTINUOUS
 10
4.5168412966
 20
2.4942248039
 11
5.4545330525
 21
2.4942248039
  0
LINE
  5
261
100
AcDbEntity
  8
ALL_ASSEMBLY_MEMBERS
100
AcDbLine
 62
7
  6
CONTINUOUS
 10
4.4356871118
 20
2.4978843166
 11
4.4882845581
 21
2.4978843168
  0
LINE
  5
262
100
AcDbEntity
  8
ALL_ASSEMBLY_MEMBERS
100
AcDbLine
 62
7
  6
CONTINUOUS
 10
5.4830897913
 20
2.4978843168
 11
5.5356871118
 21
2.4978843168
  0
LINE
  5
263
100
AcDbEntity
  8
ALL_ASSEMBLY_MEMBERS
100
AcDbLine
 62
7
  6
CONTINUOUS
 10
4.5168412966
 20
2.5204299175
 11
5.4545330525
 21
2.5204299175
  0
LINE
  5
264
100
AcDbEntity
  8
ALL_ASSEMBLY_MEMBERS
100
AcDbLine
 62
7
  6
CONTINUOUS
 10
5.3090159754
 20
2.6195031203
 11
4.6623582482
 21
2.6195031203
  0
LINE
  5
265
100
AcDbEntity
  8
ALL_ASSEMBLY_MEMBERS
100
AcDbLine
 62
7
  6
CONTINUOUS
 10
4.4613607568
 20
2.5506002329
 11
4.4870013345
 21
2.5505760249
  0
LINE
  5
266
100
AcDbEntity
  8
ALL_ASSEMBLY_MEMBERS
100
AcDbLine
 62
7
  6
CONTINUOUS
 10
3.1749371118
 20
6.1896343168
 11
3.1749371118
 21
5.8461343168
  0
LINE
  5
267
100
AcDbEntity
  8
ALL_ASSEMBLY_MEMBERS
100
AcDbLine
 62
7
  6
CONTINUOUS
 10
3.1899371118
 20
6.1746343168
 11
3.1899371118
 21
5.8611343168
  0
LINE
  5
268
100
AcDbEntity
  8
ALL_ASSEMBLY_MEMBERS
100
AcDbLine
 62
7
  6
CONTINUOUS
 10
3.2166037785
 20
6.1430700771
 11
3.2166037785
 21
5.8926985565
  0
LINE
  5
269
100
AcDbEntity
  8
ALL_ASSEMBLY_MEMBERS
100
AcDbLine
 62
7
  6
CONTINUOUS
 10
3.2299371118
 20
6.1281629572
 11
3.2299371118
 21
5.9076056763
  0
LINE
  5
26A
100
AcDbEntity
  8
ALL_ASSEMBLY_MEMBERS
100
AcDbLine
 62
7
  6
CONTINUOUS
 10
3.2576871118
 20
5.7633843168
 11
3.2576871118
 21
5.7483843168
  0
LINE
  5
26B
100
AcDbEntity
  8
ALL_ASSEMBLY_MEMBERS
100
AcDbLine
 62
7
  6
CONTINUOUS
 10
3.2576871118
 20
6.2723843168
 11
3.2576871118
 21
6.2873843168
  0
LINE
  5
26C
100
AcDbEntity
  8
ALL_ASSEMBLY_MEMBERS
100
AcDbLine
 62
7
  6
CONTINUOUS
 10
3.2726871118
 20
5.7783843168
 11
3.2726871118
 21
6.2573843168
  0
LINE
  5
26D
100
AcDbEntity
  8
ALL_ASSEMBLY_MEMBERS
100
AcDbLine
 62
7
  6
CONTINUOUS
 10
3.2876871118
 20
5.7783843168
 11
3.2876871118
 21
6.2573843168
  0
LINE
  5
26E
100
AcDbEntity
  8
ALL_ASSEMBLY_MEMBERS
100
AcDbLine
 62
7
  6
CONTINUOUS
 10
3.3601766029
 20
6.4041901568
 11
3.3601766029
 21
6.3894180405
  0
LINE
  5
26F
100
AcDbEntity
  8
ALL_ASSEMBLY_MEMBERS
100
AcDbLine
 62
7
  6
CONTINUOUS
 10
3.3601766029
 20
5.6315784767
 11
3.3601766029
 21
5.646350593
  0
LINE
  5
270
100
AcDbEntity
  8
ALL_ASSEMBLY_MEMBERS
100
AcDbLine
 62
7
  6
CONTINUOUS
 10
3.3897208355
 20
5.6758948256
 11
3.3897208355
 21
6.3598738079
  0
LINE
  5
271
100
AcDbEntity
  8
ALL_ASSEMBLY_MEMBERS
100
AcDbLine
 62
7
  6
CONTINUOUS
 10
5.2823630597
 20
2.6547125656
 11
4.6890111639
 21
2.6547125656
  0
LINE
  5
272
100
AcDbEntity
  8
ALL_ASSEMBLY_MEMBERS
100
AcDbLine
 62
7
  6
CONTINUOUS
 10
3.4044929518
 20
5.6758948256
 11
3.4044929518
 21
6.3598738079
  0
LINE
  5
273
100
AcDbEntity
  8
ALL_ASSEMBLY_MEMBERS
100
AcDbLine
 62
7
  6
CONTINUOUS
 10
3.4244371118
 20
5.5966343168
 11
3.4244371118
 21
5.5816343168
  0
LINE
  5
274
100
AcDbEntity
  8
ALL_ASSEMBLY_MEMBERS
100
AcDbLine
 62
7
  6
CONTINUOUS
 10
3.4244371118
 20
6.4391343168
 11
3.4244371118
 21
6.4541343168
  0
LINE
  5
275
100
AcDbEntity
  8
ALL_ASSEMBLY_MEMBERS
100
AcDbLine
 62
7
  6
CONTINUOUS
 10
3.4394371118
 20
5.6116343168
 11
3.4394371118
 21
6.4241343168
  0
LINE
  5
276
100
AcDbEntity
  8
ALL_ASSEMBLY_MEMBERS
100
AcDbLine
 62
7
  6
CONTINUOUS
 10
3.4544371118
 20
5.6116343168
 11
3.4544371118
 21
6.4241343168
  0
LINE
  5
277
100
AcDbEntity
  8
ALL_ASSEMBLY_MEMBERS
100
AcDbLine
 62
7
  6
CONTINUOUS
 10
3.5856871118
 20
5.4353843168
 11
3.5856871118
 21
5.4203843168
  0
LINE
  5
278
100
AcDbEntity
  8
ALL_ASSEMBLY_MEMBERS
100
AcDbLine
 62
7
  6
CONTINUOUS
 10
3.5856871118
 20
6.6003843168
 11
3.5856871118
 21
6.6153843168
  0
LINE
  5
279
100
AcDbEntity
  8
ALL_ASSEMBLY_MEMBERS
100
AcDbLine
 62
7
  6
CONTINUOUS
 10
3.6006871118
 20
5.4503843168
 11
3.6006871118
 21
6.5853843168
  0
LINE
  5
27A
100
AcDbEntity
  8
ALL_ASSEMBLY_MEMBERS
100
AcDbLine
 62
7
  6
CONTINUOUS
 10
3.6156871118
 20
5.4503843168
 11
3.6156871118
 21
6.5853843168
  0
LINE
  5
27B
100
AcDbEntity
  8
ALL_ASSEMBLY_MEMBERS
100
AcDbLine
 62
7
  6
CONTINUOUS
 10
5.1932887171
 20
3.1594902681
 11
4.7780855065
 21
3.1594902681
  0
LINE
  5
27C
100
AcDbEntity
  8
ALL_ASSEMBLY_MEMBERS
100
AcDbLine
 62
7
  6
CONTINUOUS
 10
5.5056871118
 20
2.5195344988
 11
5.4800914094
 21
2.5349523589
  0
LINE
  5
27D
100
AcDbEntity
  8
ALL_ASSEMBLY_MEMBERS
100
AcDbLine
 62
7
  6
CONTINUOUS
 10
5.1932887171
 20
3.1841484278
 11
4.7780855065
 21
3.1841484278
  0
LINE
  5
27E
100
AcDbEntity
  8
ALL_ASSEMBLY_MEMBERS
100
AcDbLine
 62
7
  6
CONTINUOUS
 10
4.4656871122
 20
3.5150397284
 11
4.4916011091
 21
3.5002951171
  0
LINE
  5
27F
100
AcDbEntity
  8
ALL_ASSEMBLY_MEMBERS
100
AcDbLine
 62
7
  6
CONTINUOUS
 10
5.5096276483
 20
3.4854438883
 11
5.4836517289
 21
3.4854190944
  0
LINE
  5
280
100
AcDbEntity
  8
ALL_ASSEMBLY_MEMBERS
100
AcDbLine
 62
7
  6
CONTINUOUS
 10
5.4538163999
 20
3.5153644382
 11
4.5175576525
 21
3.5153644372
  0
LINE
  5
281
100
AcDbEntity
  8
ALL_ASSEMBLY_MEMBERS
100
AcDbLine
 62
7
  6
CONTINUOUS
 10
4.4889301632
 20
3.5378843168
 11
4.4356871118
 21
3.5378843168
  0
LINE
  5
282
100
AcDbEntity
  8
ALL_ASSEMBLY_MEMBERS
100
AcDbLine
 62
7
  6
CONTINUOUS
 10
5.4824441772
 20
3.5378843168
 11
5.5356871118
 21
3.5378843169
  0
LINE
  5
283
100
AcDbEntity
  8
ALL_ASSEMBLY_MEMBERS
100
AcDbLine
 62
7
  6
CONTINUOUS
 10
5.4538164003
 20
3.5415582168
 11
4.5175576523
 21
3.5415581818
  0
LINE
  5
284
100
AcDbEntity
  8
ALL_ASSEMBLY_MEMBERS
100
AcDbLine
 62
7
  6
CONTINUOUS
 10
5.5056871118
 20
3.5678843168
 11
4.4656871118
 21
3.5678843168
  0
LINE
  5
285
100
AcDbEntity
  8
ALL_ASSEMBLY_MEMBERS
100
AcDbLine
 62
7
  6
CONTINUOUS
 10
4.3631871118
 20
3.6253843168
 11
4.3481871118
 21
3.6253843168
  0
LINE
  5
286
100
AcDbEntity
  8
ALL_ASSEMBLY_MEMBERS
100
AcDbLine
 62
7
  6
CONTINUOUS
 10
5.6081871118
 20
3.6253843168
 11
5.6231871118
 21
3.6253843168
  0
LINE
  5
287
100
AcDbEntity
  8
ALL_ASSEMBLY_MEMBERS
100
AcDbLine
 62
7
  6
CONTINUOUS
 10
5.5931871118
 20
3.6403843168
 11
4.3781871118
 21
3.6403843168
  0
LINE
  5
288
100
AcDbEntity
  8
ALL_ASSEMBLY_MEMBERS
100
AcDbLine
 62
7
  6
CONTINUOUS
 10
5.5931871118
 20
3.6553843168
 11
4.3781871118
 21
3.6553843168
  0
LINE
  5
289
100
AcDbEntity
  8
ALL_ASSEMBLY_MEMBERS
100
AcDbLine
 62
7
  6
CONTINUOUS
 10
4.461746564
 20
3.4854438873
 11
4.4877224598
 21
3.485419093
  0
LINE
  5
28A
100
AcDbEntity
  8
ALL_ASSEMBLY_MEMBERS
100
AcDbLine
 62
7
  6
CONTINUOUS
 10
4.4889301632
 20
3.5378843168
 11
4.5032072869
 21
3.5117367803
  0
LINE
  5
28B
100
AcDbEntity
  8
ALL_ASSEMBLY_MEMBERS
100
AcDbLine
 62
7
  6
CONTINUOUS
 10
4.3481871118
 20
3.6253843168
 11
4.3481871118
 21
2.4103843168
  0
LINE
  5
28C
100
AcDbEntity
  8
ALL_ASSEMBLY_MEMBERS
100
AcDbLine
 62
7
  6
CONTINUOUS
 10
4.3631871118
 20
3.6253843168
 11
4.3631871118
 21
2.4103843168
  0
LINE
  5
28D
100
AcDbEntity
  8
ALL_ASSEMBLY_MEMBERS
100
AcDbLine
 62
7
  6
CONTINUOUS
 10
4.3781871118
 20
2.3953843168
 11
4.3781871118
 21
2.3803843168
  0
LINE
  5
28E
100
AcDbEntity
  8
ALL_ASSEMBLY_MEMBERS
100
AcDbLine
 62
7
  6
CONTINUOUS
 10
4.3781871118
 20
3.6403843168
 11
4.3781871118
 21
3.6553843168
  0
LINE
  5
28F
100
AcDbEntity
  8
ALL_ASSEMBLY_MEMBERS
100
AcDbLine
 62
7
  6
CONTINUOUS
 10
4.4356871118
 20
3.5378843168
 11
4.4356871118
 21
2.4978843168
  0
LINE
  5
290
100
AcDbEntity
  8
ALL_ASSEMBLY_MEMBERS
100
AcDbLine
 62
7
  6
CONTINUOUS
 10
4.4656871118
 20
2.5195347055
 11
4.4656871118
 21
2.4678843168
  0
LINE
  5
291
100
AcDbEntity
  8
ALL_ASSEMBLY_MEMBERS
100
AcDbLine
 62
7
  6
CONTINUOUS
 10
4.4656871118
 20
3.515039727
 11
4.4656871117
 21
3.5678843168
  0
LINE
  5
292
100
AcDbEntity
  8
ALL_ASSEMBLY_MEMBERS
100
AcDbLine
 62
7
  6
CONTINUOUS
 10
4.4617465642
 20
3.4854438873
 11
4.4613607596
 21
2.5506002354
  0
LINE
  5
293
100
AcDbEntity
  8
ALL_ASSEMBLY_MEMBERS
100
AcDbLine
 62
7
  6
CONTINUOUS
 10
5.3268085299
 20
2.8221147751
 11
5.3223381219
 21
2.8282914062
  0
LINE
  5
294
100
AcDbEntity
  8
ALL_ASSEMBLY_MEMBERS
100
AcDbLine
 62
7
  6
CONTINUOUS
 10
5.3267740203
 20
2.8221406999
 11
5.3223381219
 21
2.8282914062
  0
LINE
  5
295
100
AcDbEntity
  8
ALL_ASSEMBLY_MEMBERS
100
AcDbLine
 62
7
  6
CONTINUOUS
 10
5.4830897913
 20
2.4978843168
 11
5.4688160185
 21
2.5240801163
  0
LWPOLYLINE
  5
296
100
AcDbEntity
  8
ALL_ASSEMBLY_MEMBERS
100
AcDbPolyline
 62
7
  6
CONTINUOUS
 90
53
 70
0
 10
4.6509929874
 20
2.8181460998
 10
4.6509902165
 20
2.8181696269
 10
4.6510016835
 20
2.8180333103
 10
4.6510234907
 20
2.8176992972
 10
4.6510467772
 20
2.8172154143
 10
4.6510677814
 20
2.8165860278
 10
4.6510836975
 20
2.8158008659
 10
4.6510914922
 20
2.8148876992
 10
4.6510894806
 20
2.8138491957
 10
4.6510761601
 20
2.8126802509
 10
4.6510505938
 20
2.8113989624
 10
4.6510121184
 20
2.810009107
 10
4.6509600137
 20
2.8085077353
 10
4.6508940962
 20
2.8069038679
 10
4.6508140742
 20
2.805199818
 10
4.6507194578
 20
2.8033947101
 10
4.650610055
 20
2.8014924765
 10
4.6504856217
 20
2.7994944469
 10
4.650345902
 20
2.7974008843
 10
4.6501908051
 20
2.7952137186
 10
4.650020226
 20
2.7929337833
 10
4.6498340564
 20
2.7905619873
 10
4.6496321907
 20
2.7881002701
 10
4.6494145282
 20
2.785550192
 10
4.6491809594
 20
2.7829126616
 10
4.648931407
 20
2.7801884638
 10
4.6486658773
 20
2.777378795
 10
4.6483844583
 20
2.7744851842
 10
4.6480871699
 20
2.7715088922
 10
4.6477740168
 20
2.7684518067
 10
4.6474450138
 20
2.7653155735
 10
4.6471001454
 20
2.7621011516
 10
4.646739518
 20
2.7588102396
 10
4.6463633533
 20
2.7554451157
 10
4.6459718588
 20
2.7520076012
 10
4.6455651875
 20
2.7484999831
 10
4.6451435021
 20
2.7449249224
 10
4.6447070011
 20
2.7412849846
 10
4.6442560036
 20
2.7375833041
 10
4.6437908205
 20
2.7338224833
 10
4.6433117221
 20
2.7300043591
 10
4.6428191331
 20
2.726132054
 10
4.6423133835
 20
2.7222087198
 10
4.6417946607
 20
2.7182362907
 10
4.6412633822
 20
2.7142181909
 10
4.6407200243
 20
2.7101579534
 10
4.6401649288
 20
2.7060577766
 10
4.6395986925
 20
2.7019215524
 10
4.6390218369
 20
2.697753784
 10
4.6384346641
 20
2.6935578739
 10
4.6378378199
 20
2.689339096
 10
4.6372320675
 20
2.6851028657
 10
4.6366180459
 20
2.6808530243
  0
LINE
  5
297
100
AcDbEntity
  8
ALL_ASSEMBLY_MEMBERS
100
AcDbLine
 62
7
  6
CONTINUOUS
 10
4.5168412966
 20
2.4942248039
 11
4.5168412966
 21
2.5204299175
  0
LINE
  5
298
100
AcDbEntity
  8
ALL_ASSEMBLY_MEMBERS
100
AcDbLine
 62
7
  6
CONTINUOUS
 10
4.5175576523
 20
3.5415581818
 11
4.5175576525
 21
3.5153644372
  0
LINE
  5
299
100
AcDbEntity
  8
ALL_ASSEMBLY_MEMBERS
100
AcDbLine
 62
7
  6
CONTINUOUS
 10
4.6890111639
 20
2.6547125656
 11
4.6890111639
 21
2.6195031203
  0
LINE
  5
29A
100
AcDbEntity
  8
ALL_ASSEMBLY_MEMBERS
100
AcDbLine
 62
7
  6
CONTINUOUS
 10
4.4877224598
 20
3.485419093
 11
4.4870013693
 21
2.5505760237
  0
LINE
  5
29B
100
AcDbEntity
  8
ALL_ASSEMBLY_MEMBERS
100
AcDbLine
 62
7
  6
CONTINUOUS
 10
4.6360214317
 20
2.676763527
 11
4.6360195881
 21
2.6765152035
  0
LINE
  5
29C
100
AcDbEntity
  8
ALL_ASSEMBLY_MEMBERS
100
AcDbLine
 62
7
  6
CONTINUOUS
 10
4.6326753308
 20
2.6538530912
 11
4.6326684079
 21
2.653584349
  0
LINE
  5
29D
100
AcDbEntity
  8
ALL_ASSEMBLY_MEMBERS
100
AcDbLine
 62
7
  6
CONTINUOUS
 10
2.6466533881
 20
6.3598738079
 11
2.7487061786
 21
6.2578210174
  0
LINE
  5
29E
100
AcDbEntity
  8
ALL_ASSEMBLY_MEMBERS
100
AcDbLine
 62
7
  6
CONTINUOUS
 10
3.3601766029
 20
5.646350593
 11
3.2581238124
 21
5.7484033835
  0
LINE
  5
29F
100
AcDbEntity
  8
ALL_ASSEMBLY_MEMBERS
100
AcDbLine
 62
7
  6
CONTINUOUS
 10
2.6761976207
 20
6.3894180405
 11
2.7782504112
 21
6.28736525
  0
LINE
  5
2A0
100
AcDbEntity
  8
ALL_ASSEMBLY_MEMBERS
100
AcDbLine
 62
7
  6
CONTINUOUS
 10
3.3897208355
 20
5.6758948256
 11
3.287668045
 21
5.7779476161
  0
LINE
  5
2A1
100
AcDbEntity
  8
ALL_ASSEMBLY_MEMBERS
100
AcDbLine
 62
7
  6
CONTINUOUS
 10
4.7780855065
 20
3.1841484278
 11
4.7780855065
 21
3.1594902681
  0
LINE
  5
2A2
100
AcDbEntity
  8
ALL_ASSEMBLY_MEMBERS
100
AcDbLine
 62
7
  6
CONTINUOUS
 10
4.6366180459
 20
2.6808530243
 11
4.6326710807
 21
2.653824241
  0
LINE
  5
2A3
100
AcDbEntity
  8
ALL_ASSEMBLY_MEMBERS
100
AcDbLine
 62
7
  6
CONTINUOUS
 10
4.7487444804
 20
3.1599299269
 11
4.6595359016
 21
2.6549355303
  0
LINE
  5
2A4
100
AcDbEntity
  8
ALL_ASSEMBLY_MEMBERS
100
AcDbLine
 62
7
  6
CONTINUOUS
 10
5.311838322
 20
2.6549355303
 11
5.2226297432
 21
3.1599299269
  0
LINE
  5
2A5
100
AcDbEntity
  8
ALL_ASSEMBLY_MEMBERS
100
AcDbLine
 62
7
  6
CONTINUOUS
 10
5.3386988928
 20
2.6538530908
 11
5.3387058157
 21
2.653584349
  0
LINE
  5
2A6
100
AcDbEntity
  8
ALL_ASSEMBLY_MEMBERS
100
AcDbLine
 62
7
  6
CONTINUOUS
 10
5.1932887171
 20
3.1594902681
 11
5.1932887171
 21
3.1841484278
  0
LINE
  5
2A7
100
AcDbEntity
  8
ALL_ASSEMBLY_MEMBERS
100
AcDbLine
 62
7
  6
CONTINUOUS
 10
5.2823630597
 20
2.6195031203
 11
5.2823630597
 21
2.6547125656
  0
LINE
  5
2A8
100
AcDbEntity
  8
ALL_ASSEMBLY_MEMBERS
100
AcDbLine
 62
7
  6
CONTINUOUS
 10
7.2976766029
 20
6.3894180405
 11
7.1956238124
 21
6.28736525
  0
LINE
  5
2A9
100
AcDbEntity
  8
ALL_ASSEMBLY_MEMBERS
100
AcDbLine
 62
7
  6
CONTINUOUS
 10
6.5841533881
 20
5.6758948256
 11
6.6862061786
 21
5.7779476161
  0
LINE
  5
2AA
100
AcDbEntity
  8
ALL_ASSEMBLY_MEMBERS
100
AcDbLine
 62
7
  6
CONTINUOUS
 10
5.3354806673
 20
2.6758908552
 11
5.3353527772
 21
2.6767636273
  0
LWPOLYLINE
  5
2AB
100
AcDbEntity
  8
ALL_ASSEMBLY_MEMBERS
100
AcDbPolyline
 62
7
  6
CONTINUOUS
 90
51
 70
0
 10
5.3353527921
 20
2.6767635255
 10
5.3346706286
 20
2.68144243
 10
5.3340638605
 20
2.6856475854
 10
5.3334654559
 20
2.6898376705
 10
5.3328759871
 20
2.6940092284
 10
5.3322961797
 20
2.6981570742
 10
5.3317266492
 20
2.7022761618
 10
5.3311676518
 20
2.7063634668
 10
5.3306196527
 20
2.7104145463
 10
5.3300832313
 20
2.7144255601
 10
5.3295587135
 20
2.7183945677
 10
5.3290465799
 20
2.7223181255
 10
5.3285472489
 20
2.7261929051
 10
5.328060884
 20
2.7300172426
 10
5.3275877897
 20
2.7337881006
 10
5.3271282532
 20
2.7375024987
 10
5.3266825009
 20
2.7411589067
 10
5.3262508865
 20
2.7447548056
 10
5.3258337556
 20
2.7482872707
 10
5.3254313019
 20
2.7517542126
 10
5.3250437112
 20
2.7551531964
 10
5.3246711138
 20
2.7584818696
 10
5.324313566
 20
2.7617383312
 10
5.3239712702
 20
2.7649203486
 10
5.3236443784
 20
2.7680263805
 10
5.3233329156
 20
2.7710556712
 10
5.3230369564
 20
2.7740065827
 10
5.3227565364
 20
2.7768774193
 10
5.3224915788
 20
2.7796672307
 10
5.3222420428
 20
2.7823745524
 10
5.3220079727
 20
2.7849980225
 10
5.321789381
 20
2.7875366693
 10
5.3215862558
 20
2.7899892494
 10
5.3213985281
 20
2.7923546266
 10
5.3212260748
 20
2.7946317706
 10
5.3210687024
 20
2.7968200443
 10
5.3209262649
 20
2.7989178711
 10
5.3207987463
 20
2.8009227447
 10
5.3206859983
 20
2.8028339088
 10
5.3205878221
 20
2.804650552
 10
5.3205040605
 20
2.8063697746
 10
5.3204343188
 20
2.8079920193
 10
5.3203782578
 20
2.8095152483
 10
5.3203355977
 20
2.8109322452
 10
5.3203057061
 20
2.812246469
 10
5.3202881422
 20
2.8134527937
 10
5.3202822237
 20
2.8145320654
 10
5.3202866088
 20
2.8154881465
 10
5.3202998017
 20
2.8163189729
 10
5.3203191712
 20
2.8169989238
 10
5.3203402532
 20
2.8175006576
  0
LINE
  5
2AC
100
AcDbEntity
  8
ALL_ASSEMBLY_MEMBERS
100
AcDbLine
 62
7
  6
CONTINUOUS
 10
5.3387031429
 20
2.653824241
 11
5.3354806673
 21
2.6758908552
  0
LINE
  5
2AD
100
AcDbEntity
  8
ALL_ASSEMBLY_MEMBERS
100
AcDbLine
 62
7
  6
CONTINUOUS
 10
5.3353527921
 20
2.6767635255
 11
5.3353546355
 21
2.6765152034
  0
LINE
  5
2AE
100
AcDbEntity
  8
ALL_ASSEMBLY_MEMBERS
100
AcDbLine
 62
7
  6
CONTINUOUS
 10
5.4843728555
 20
2.5505760218
 11
5.4836517636
 21
3.4854190942
  0
LINE
  5
2AF
100
AcDbEntity
  8
ALL_ASSEMBLY_MEMBERS
100
AcDbLine
 62
7
  6
CONTINUOUS
 10
5.5100134947
 20
2.5506002348
 11
5.5096276507
 21
3.4854438883
  0
LINE
  5
2B0
100
AcDbEntity
  8
ALL_ASSEMBLY_MEMBERS
100
AcDbLine
 62
7
  6
CONTINUOUS
 10
5.4538164003
 20
3.5415582168
 11
5.4538163999
 21
3.5153644382
  0
LINE
  5
2B1
100
AcDbEntity
  8
ALL_ASSEMBLY_MEMBERS
100
AcDbLine
 62
7
  6
CONTINUOUS
 10
5.4545330525
 20
2.4942248039
 11
5.4545330525
 21
2.5204299175
  0
LINE
  5
2B2
100
AcDbEntity
  8
ALL_ASSEMBLY_MEMBERS
100
AcDbLine
 62
7
  6
CONTINUOUS
 10
5.5056871119
 20
2.4678843168
 11
5.5056871118
 21
2.5195344987
  0
LINE
  5
2B3
100
AcDbEntity
  8
ALL_ASSEMBLY_MEMBERS
100
AcDbLine
 62
7
  6
CONTINUOUS
 10
5.5056871118
 20
3.5150397047
 11
5.5056871118
 21
3.5678843168
  0
LINE
  5
2B4
100
AcDbEntity
  8
ALL_ASSEMBLY_MEMBERS
100
AcDbLine
 62
7
  6
CONTINUOUS
 10
5.5356871118
 20
2.4978843168
 11
5.5356871118
 21
3.5378843168
  0
LINE
  5
2B5
100
AcDbEntity
  8
ALL_ASSEMBLY_MEMBERS
100
AcDbLine
 62
7
  6
CONTINUOUS
 10
4.4882845583
 20
2.4978843167
 11
4.5025583319
 21
2.5240801178
  0
LINE
  5
2B6
100
AcDbEntity
  8
ALL_ASSEMBLY_MEMBERS
100
AcDbLine
 62
7
  6
CONTINUOUS
 10
7.3272208355
 20
6.3598738079
 11
7.225168045
 21
6.2578210174
  0
LINE
  5
2B7
100
AcDbEntity
  8
ALL_ASSEMBLY_MEMBERS
100
AcDbLine
 62
7
  6
CONTINUOUS
 10
6.6136976207
 20
5.646350593
 11
6.7157504112
 21
5.7484033835
  0
LINE
  5
2B8
100
AcDbEntity
  8
ALL_ASSEMBLY_MEMBERS
100
AcDbLine
 62
7
  6
CONTINUOUS
 10
5.5931871118
 20
2.3953843168
 11
5.5931871118
 21
2.3803843168
  0
LINE
  5
2B9
100
AcDbEntity
  8
ALL_ASSEMBLY_MEMBERS
100
AcDbLine
 62
7
  6
CONTINUOUS
 10
5.5931871118
 20
3.6403843168
 11
5.5931871118
 21
3.6553843168
  0
LINE
  5
2BA
100
AcDbEntity
  8
ALL_ASSEMBLY_MEMBERS
100
AcDbLine
 62
7
  6
CONTINUOUS
 10
5.6081871118
 20
2.4103843168
 11
5.6081871118
 21
3.6253843168
  0
LINE
  5
2BB
100
AcDbEntity
  8
ALL_ASSEMBLY_MEMBERS
100
AcDbLine
 62
7
  6
CONTINUOUS
 10
5.6231871118
 20
2.4103843168
 11
5.6231871118
 21
3.6253843168
  0
LINE
  5
2BC
100
AcDbEntity
  8
ALL_ASSEMBLY_MEMBERS
100
AcDbLine
 62
7
  6
CONTINUOUS
 10
4.6490361017
 20
2.8282914063
 11
4.6448914244
 21
2.8225533205
  0
LINE
  5
2BD
100
AcDbEntity
  8
ALL_ASSEMBLY_MEMBERS
100
AcDbLine
 62
7
  6
CONTINUOUS
 10
4.6490361017
 20
2.8282914063
 11
4.6448531395
 21
2.8225144518
  0
LINE
  5
2BE
100
AcDbEntity
  8
ALL_ASSEMBLY_MEMBERS
100
AcDbLine
 62
7
  6
CONTINUOUS
 10
5.4824441771
 20
3.5378843168
 11
5.4681669431
 21
3.5117368421
  0
LINE
  5
2BF
100
AcDbEntity
  8
ALL_ASSEMBLY_MEMBERS
100
AcDbLine
 62
7
  6
CONTINUOUS
 10
5.5056871118
 20
3.5150397047
 11
5.4797730888
 21
3.5002951406
  0
LINE
  5
2C0
100
AcDbEntity
  8
ALL_ASSEMBLY_MEMBERS
100
AcDbLine
 62
7
  6
CONTINUOUS
 10
2.4506871118
 20
5.4203843168
 11
3.5856871118
 21
5.4203843168
  0
LINE
  5
2C1
100
AcDbEntity
  8
ALL_ASSEMBLY_MEMBERS
100
AcDbLine
 62
7
  6
CONTINUOUS
 10
6.3881871118
 20
5.4203843168
 11
7.5231871118
 21
5.4203843168
  0
LINE
  5
2C2
100
AcDbEntity
  8
ALL_ASSEMBLY_MEMBERS
100
AcDbLine
 62
7
  6
CONTINUOUS
 10
2.4506871118
 20
5.4353843168
 11
3.5856871118
 21
5.4353843168
  0
LINE
  5
2C3
100
AcDbEntity
  8
ALL_ASSEMBLY_MEMBERS
100
AcDbLine
 62
7
  6
CONTINUOUS
 10
6.3881871118
 20
5.4353843168
 11
7.5231871118
 21
5.4353843168
  0
LINE
  5
2C4
100
AcDbEntity
  8
ALL_ASSEMBLY_MEMBERS
100
AcDbLine
 62
7
  6
CONTINUOUS
 10
6.3731871118
 20
5.4503843168
 11
6.3581871118
 21
5.4503843168
  0
LINE
  5
2C5
100
AcDbEntity
  8
ALL_ASSEMBLY_MEMBERS
100
AcDbLine
 62
7
  6
CONTINUOUS
 10
2.4356871118
 20
5.4503843168
 11
2.4206871118
 21
5.4503843168
  0
LINE
  5
2C6
100
AcDbEntity
  8
ALL_ASSEMBLY_MEMBERS
100
AcDbLine
 62
7
  6
CONTINUOUS
 10
3.6006871118
 20
5.4503843168
 11
3.6156871118
 21
5.4503843168
  0
LINE
  5
2C7
100
AcDbEntity
  8
ALL_ASSEMBLY_MEMBERS
100
AcDbLine
 62
7
  6
CONTINUOUS
 10
7.5381871118
 20
5.4503843168
 11
7.5531871118
 21
5.4503843168
  0
LINE
  5
2C8
100
AcDbEntity
  8
ALL_ASSEMBLY_MEMBERS
100
AcDbLine
 62
7
  6
CONTINUOUS
 10
2.6119371118
 20
5.5816343168
 11
3.4244371118
 21
5.5816343168
  0
LINE
  5
2C9
100
AcDbEntity
  8
ALL_ASSEMBLY_MEMBERS
100
AcDbLine
 62
7
  6
CONTINUOUS
 10
6.5494371118
 20
5.5816343168
 11
7.3619371118
 21
5.5816343168
  0
LINE
  5
2CA
100
AcDbEntity
  8
ALL_ASSEMBLY_MEMBERS
100
AcDbLine
 62
7
  6
CONTINUOUS
 10
2.6119371118
 20
5.5966343168
 11
3.4244371118
 21
5.5966343168
  0
LINE
  5
2CB
100
AcDbEntity
  8
ALL_ASSEMBLY_MEMBERS
100
AcDbLine
 62
7
  6
CONTINUOUS
 10
6.5494371118
 20
5.5966343168
 11
7.3619371118
 21
5.5966343168
  0
LINE
  5
2CC
100
AcDbEntity
  8
ALL_ASSEMBLY_MEMBERS
100
AcDbLine
 62
7
  6
CONTINUOUS
 10
6.5344371118
 20
5.6116343168
 11
6.5194371118
 21
5.6116343168
  0
LINE
  5
2CD
100
AcDbEntity
  8
ALL_ASSEMBLY_MEMBERS
100
AcDbLine
 62
7
  6
CONTINUOUS
 10
2.5969371118
 20
5.6116343168
 11
2.5819371118
 21
5.6116343168
  0
LINE
  5
2CE
100
AcDbEntity
  8
ALL_ASSEMBLY_MEMBERS
100
AcDbLine
 62
7
  6
CONTINUOUS
 10
3.4394371118
 20
5.6116343168
 11
3.4544371118
 21
5.6116343168
  0
LINE
  5
2CF
100
AcDbEntity
  8
ALL_ASSEMBLY_MEMBERS
100
AcDbLine
 62
7
  6
CONTINUOUS
 10
7.3769371118
 20
5.6116343168
 11
7.3919371118
 21
5.6116343168
  0
LINE
  5
2D0
100
AcDbEntity
  8
ALL_ASSEMBLY_MEMBERS
100
AcDbLine
 62
7
  6
CONTINUOUS
 10
6.3581871118
 20
6.5853843168
 11
6.3581871118
 21
5.4503843168
  0
LINE
  5
2D1
100
AcDbEntity
  8
ALL_ASSEMBLY_MEMBERS
100
AcDbLine
 62
7
  6
CONTINUOUS
 10
6.3731871118
 20
6.5853843168
 11
6.3731871118
 21
5.4503843168
  0
LINE
  5
2D2
100
AcDbEntity
  8
ALL_ASSEMBLY_MEMBERS
100
AcDbLine
 62
7
  6
CONTINUOUS
 10
2.6761976207
 20
5.6315784767
 11
3.3601766029
 21
5.6315784767
  0
LINE
  5
2D3
100
AcDbEntity
  8
ALL_ASSEMBLY_MEMBERS
100
AcDbLine
 62
7
  6
CONTINUOUS
 10
6.6136976207
 20
5.6315784767
 11
7.2976766029
 21
5.6315784767
  0
LINE
  5
2D4
100
AcDbEntity
  8
ALL_ASSEMBLY_MEMBERS
100
AcDbLine
 62
7
  6
CONTINUOUS
 10
2.6761976207
 20
5.646350593
 11
3.3601766029
 21
5.646350593
  0
LINE
  5
2D5
100
AcDbEntity
  8
ALL_ASSEMBLY_MEMBERS
100
AcDbLine
 62
7
  6
CONTINUOUS
 10
6.6136976207
 20
5.646350593
 11
7.2976766029
 21
5.646350593
  0
LINE
  5
2D6
100
AcDbEntity
  8
ALL_ASSEMBLY_MEMBERS
100
AcDbLine
 62
7
  6
CONTINUOUS
 10
7.3419929518
 20
5.6758948256
 11
7.3272208355
 21
5.6758948256
  0
LINE
  5
2D7
100
AcDbEntity
  8
ALL_ASSEMBLY_MEMBERS
100
AcDbLine
 62
7
  6
CONTINUOUS
 10
3.4044929518
 20
5.6758948256
 11
3.3897208355
 21
5.6758948256
  0
LINE
  5
2D8
100
AcDbEntity
  8
ALL_ASSEMBLY_MEMBERS
100
AcDbLine
 62
7
  6
CONTINUOUS
 10
2.6318812718
 20
5.6758948256
 11
2.6466533881
 21
5.6758948256
  0
LINE
  5
2D9
100
AcDbEntity
  8
ALL_ASSEMBLY_MEMBERS
100
AcDbLine
 62
7
  6
CONTINUOUS
 10
6.5693812718
 20
5.6758948256
 11
6.5841533881
 21
5.6758948256
  0
LINE
  5
2DA
100
AcDbEntity
  8
ALL_ASSEMBLY_MEMBERS
100
AcDbLine
 62
7
  6
CONTINUOUS
 10
2.7786871118
 20
5.7483843168
 11
3.2576871118
 21
5.7483843168
  0
LINE
  5
2DB
100
AcDbEntity
  8
ALL_ASSEMBLY_MEMBERS
100
AcDbLine
 62
7
  6
CONTINUOUS
 10
6.7161871118
 20
5.7483843168
 11
7.1951871118
 21
5.7483843168
  0
LINE
  5
2DC
100
AcDbEntity
  8
ALL_ASSEMBLY_MEMBERS
100
AcDbLine
 62
7
  6
CONTINUOUS
 10
2.7786871118
 20
5.7633843168
 11
3.2576871118
 21
5.7633843168
  0
LINE
  5
2DD
100
AcDbEntity
  8
ALL_ASSEMBLY_MEMBERS
100
AcDbLine
 62
7
  6
CONTINUOUS
 10
6.7161871118
 20
5.7633843168
 11
7.1951871118
 21
5.7633843168
  0
LINE
  5
2DE
100
AcDbEntity
  8
ALL_ASSEMBLY_MEMBERS
100
AcDbLine
 62
7
  6
CONTINUOUS
 10
6.7011871118
 20
5.7783843168
 11
6.6861871118
 21
5.7783843168
  0
LINE
  5
2DF
100
AcDbEntity
  8
ALL_ASSEMBLY_MEMBERS
100
AcDbLine
 62
7
  6
CONTINUOUS
 10
2.7636871118
 20
5.7783843168
 11
2.7486871118
 21
5.7783843168
  0
LINE
  5
2E0
100
AcDbEntity
  8
ALL_ASSEMBLY_MEMBERS
100
AcDbLine
 62
7
  6
CONTINUOUS
 10
3.2726871118
 20
5.7783843168
 11
3.2876871118
 21
5.7783843168
  0
LINE
  5
2E1
100
AcDbEntity
  8
ALL_ASSEMBLY_MEMBERS
100
AcDbLine
 62
7
  6
CONTINUOUS
 10
7.2101871118
 20
5.7783843168
 11
7.2251871118
 21
5.7783843168
  0
LINE
  5
2E2
100
AcDbEntity
  8
ALL_ASSEMBLY_MEMBERS
100
AcDbLine
 62
7
  6
CONTINUOUS
 10
3.1749371118
 20
5.8461343168
 11
2.8614371118
 21
5.8461343168
  0
LINE
  5
2E3
100
AcDbEntity
  8
ALL_ASSEMBLY_MEMBERS
100
AcDbLine
 62
7
  6
CONTINUOUS
 10
6.7989371118
 20
5.8461343168
 11
7.1124371118
 21
5.8461343168
  0
LINE
  5
2E4
100
AcDbEntity
  8
ALL_ASSEMBLY_MEMBERS
100
AcDbLine
 62
7
  6
CONTINUOUS
 10
3.1899371118
 20
5.8611343168
 11
2.8464371118
 21
5.8611343168
  0
LINE
  5
2E5
100
AcDbEntity
  8
ALL_ASSEMBLY_MEMBERS
100
AcDbLine
 62
7
  6
CONTINUOUS
 10
6.7839371118
 20
5.8611343168
 11
7.1274371118
 21
5.8611343168
  0
LINE
  5
2E6
100
AcDbEntity
  8
ALL_ASSEMBLY_MEMBERS
100
AcDbLine
 62
7
  6
CONTINUOUS
 10
2.8164371118
 20
5.8928843168
 11
1.5174371118
 21
5.8928843168
  0
LINE
  5
2E7
100
AcDbEntity
  8
ALL_ASSEMBLY_MEMBERS
100
AcDbLine
 62
7
  6
CONTINUOUS
 10
7.1574371118
 20
5.8928843168
 11
8.4564371118
 21
5.8928843168
  0
LINE
  5
2E8
100
AcDbEntity
  8
ALL_ASSEMBLY_MEMBERS
100
AcDbLine
 62
7
  6
CONTINUOUS
 10
6.3881871118
 20
5.4353843168
 11
6.3881871118
 21
5.4203843168
  0
LINE
  5
2E9
100
AcDbEntity
  8
ALL_ASSEMBLY_MEMBERS
100
AcDbLine
 62
7
  6
CONTINUOUS
 10
6.3881871118
 20
6.6003843168
 11
6.3881871118
 21
6.6153843168
  0
LINE
  5
2EA
100
AcDbEntity
  8
ALL_ASSEMBLY_MEMBERS
100
AcDbLine
 62
7
  6
CONTINUOUS
 10
6.5194371118
 20
6.4241343168
 11
6.5194371118
 21
5.6116343168
  0
LINE
  5
2EB
100
AcDbEntity
  8
ALL_ASSEMBLY_MEMBERS
100
AcDbLine
 62
7
  6
CONTINUOUS
 10
6.5344371118
 20
6.4241343168
 11
6.5344371118
 21
5.6116343168
  0
LINE
  5
2EC
100
AcDbEntity
  8
ALL_ASSEMBLY_MEMBERS
100
AcDbLine
 62
7
  6
CONTINUOUS
 10
6.5494371118
 20
5.5966343168
 11
6.5494371118
 21
5.5816343168
  0
LINE
  5
2ED
100
AcDbEntity
  8
ALL_ASSEMBLY_MEMBERS
100
AcDbLine
 62
7
  6
CONTINUOUS
 10
6.5494371118
 20
6.4391343168
 11
6.5494371118
 21
6.4541343168
  0
LINE
  5
2EE
100
AcDbEntity
  8
ALL_ASSEMBLY_MEMBERS
100
AcDbLine
 62
7
  6
CONTINUOUS
 10
6.5693812718
 20
6.3598738079
 11
6.5693812718
 21
5.6758948256
  0
LINE
  5
2EF
100
AcDbEntity
  8
ALL_ASSEMBLY_MEMBERS
100
AcDbLine
 62
7
  6
CONTINUOUS
 10
6.5841533881
 20
6.3598738079
 11
6.5841533881
 21
5.6758948256
  0
LINE
  5
2F0
100
AcDbEntity
  8
ALL_ASSEMBLY_MEMBERS
100
AcDbLine
 62
7
  6
CONTINUOUS
 10
6.6136976207
 20
6.4041901568
 11
6.6136976207
 21
6.3894180405
  0
LINE
  5
2F1
100
AcDbEntity
  8
ALL_ASSEMBLY_MEMBERS
100
AcDbLine
 62
7
  6
CONTINUOUS
 10
6.6136976207
 20
5.6315784767
 11
6.6136976207
 21
5.646350593
  0
LINE
  5
2F2
100
AcDbEntity
  8
ALL_ASSEMBLY_MEMBERS
100
AcDbLine
 62
7
  6
CONTINUOUS
 10
4.4656871118
 20
2.5195347055
 11
4.4912828794
 21
2.5349524666
  0
LINE
  5
2F3
100
AcDbEntity
  8
ALL_ASSEMBLY_MEMBERS
100
AcDbLine
 62
7
  6
CONTINUOUS
 10
3.2299371118
 20
5.9078843168
 11
3.1899371118
 21
5.9078843168
  0
LINE
  5
2F4
100
AcDbEntity
  8
ALL_ASSEMBLY_MEMBERS
100
AcDbLine
 62
7
  6
CONTINUOUS
 10
1.5024371118
 20
5.9078843168
 11
2.8464371118
 21
5.9078843168
  0
LINE
  5
2F5
100
AcDbEntity
  8
ALL_ASSEMBLY_MEMBERS
100
AcDbLine
 62
7
  6
CONTINUOUS
 10
6.7439371118
 20
5.9078843168
 11
6.7839371118
 21
5.9078843168
  0
LINE
  5
2F6
100
AcDbEntity
  8
ALL_ASSEMBLY_MEMBERS
100
AcDbLine
 62
7
  6
CONTINUOUS
 10
7.1274371118
 20
5.9078843168
 11
8.4714371118
 21
5.9078843168
  0
LINE
  5
2F7
100
AcDbEntity
  8
ALL_ASSEMBLY_MEMBERS
100
AcDbLine
 62
7
  6
CONTINUOUS
 10
3.2299371118
 20
6.1278843168
 11
3.1899371118
 21
6.1278843168
  0
LINE
  5
2F8
100
AcDbEntity
  8
ALL_ASSEMBLY_MEMBERS
100
AcDbLine
 62
7
  6
CONTINUOUS
 10
1.5024371118
 20
6.1278843168
 11
2.8464371118
 21
6.1278843168
  0
LINE
  5
2F9
100
AcDbEntity
  8
ALL_ASSEMBLY_MEMBERS
100
AcDbLine
 62
7
  6
CONTINUOUS
 10
6.7439371118
 20
6.1278843168
 11
6.7839371118
 21
6.1278843168
  0
LINE
  5
2FA
100
AcDbEntity
  8
ALL_ASSEMBLY_MEMBERS
100
AcDbLine
 62
7
  6
CONTINUOUS
 10
7.1274371118
 20
6.1278843168
 11
8.4714371118
 21
6.1278843168
  0
LINE
  5
2FB
100
AcDbEntity
  8
ALL_ASSEMBLY_MEMBERS
100
AcDbLine
 62
7
  6
CONTINUOUS
 10
2.8164371118
 20
6.1428843168
 11
1.5174371118
 21
6.1428843168
  0
LINE
  5
2FC
100
AcDbEntity
  8
ALL_ASSEMBLY_MEMBERS
100
AcDbLine
 62
7
  6
CONTINUOUS
 10
7.1574371118
 20
6.1428843168
 11
8.4564371118
 21
6.1428843168
  0
LINE
  5
2FD
100
AcDbEntity
  8
ALL_ASSEMBLY_MEMBERS
100
AcDbLine
 62
7
  6
CONTINUOUS
 10
6.6861871118
 20
6.2573843168
 11
6.6861871118
 21
5.7783843168
  0
LINE
  5
2FE
100
AcDbEntity
  8
ALL_ASSEMBLY_MEMBERS
100
AcDbLine
 62
7
  6
CONTINUOUS
 10
6.7011871118
 20
6.2573843168
 11
6.7011871118
 21
5.7783843168
  0
LINE
  5
2FF
100
AcDbEntity
  8
ALL_ASSEMBLY_MEMBERS
100
AcDbLine
 62
7
  6
CONTINUOUS
 10
6.7161871118
 20
5.7633843168
 11
6.7161871118
 21
5.7483843168
  0
LINE
  5
300
100
AcDbEntity
  8
ALL_ASSEMBLY_MEMBERS
100
AcDbLine
 62
7
  6
CONTINUOUS
 10
6.7161871118
 20
6.2723843168
 11
6.7161871118
 21
6.2873843168
  0
LINE
  5
301
100
AcDbEntity
  8
ALL_ASSEMBLY_MEMBERS
100
AcDbLine
 62
7
  6
CONTINUOUS
 10
6.7439371118
 20
5.9076056763
 11
6.7439371118
 21
6.1281629572
  0
LINE
  5
302
100
AcDbEntity
  8
ALL_ASSEMBLY_MEMBERS
100
AcDbLine
 62
7
  6
CONTINUOUS
 10
6.7572704451
 20
5.8926985565
 11
6.7572704451
 21
6.1430700771
  0
LINE
  5
303
100
AcDbEntity
  8
ALL_ASSEMBLY_MEMBERS
100
AcDbLine
 62
7
  6
CONTINUOUS
 10
6.7839371118
 20
5.8611343168
 11
6.7839371118
 21
6.1746343168
  0
LINE
  5
304
100
AcDbEntity
  8
ALL_ASSEMBLY_MEMBERS
100
AcDbLine
 62
7
  6
CONTINUOUS
 10
6.7989371118
 20
5.8461343168
 11
6.7989371118
 21
6.1896343168
  0
LINE
  5
305
100
AcDbEntity
  8
ALL_ASSEMBLY_MEMBERS
100
AcDbLine
 62
7
  6
CONTINUOUS
 10
2.8464371118
 20
6.1746343168
 11
3.1899371118
 21
6.1746343168
  0
LINE
  5
306
100
AcDbEntity
  8
ALL_ASSEMBLY_MEMBERS
100
AcDbLine
 62
7
  6
CONTINUOUS
 10
6.7839371118
 20
6.1746343168
 11
7.1274371118
 21
6.1746343168
  0
LINE
  5
307
100
AcDbEntity
  8
ALL_ASSEMBLY_MEMBERS
100
AcDbLine
 62
7
  6
CONTINUOUS
 10
3.1749371118
 20
6.1896343168
 11
2.8614371118
 21
6.1896343168
  0
LINE
  5
308
100
AcDbEntity
  8
ALL_ASSEMBLY_MEMBERS
100
AcDbLine
 62
7
  6
CONTINUOUS
 10
6.7989371118
 20
6.1896343168
 11
7.1124371118
 21
6.1896343168
  0
LINE
  5
309
100
AcDbEntity
  8
ALL_ASSEMBLY_MEMBERS
100
AcDbLine
 62
7
  6
CONTINUOUS
 10
6.7011871118
 20
6.2573843168
 11
6.6861871118
 21
6.2573843168
  0
LINE
  5
30A
100
AcDbEntity
  8
ALL_ASSEMBLY_MEMBERS
100
AcDbLine
 62
7
  6
CONTINUOUS
 10
2.7636871118
 20
6.2573843168
 11
2.7486871118
 21
6.2573843168
  0
LINE
  5
30B
100
AcDbEntity
  8
ALL_ASSEMBLY_MEMBERS
100
AcDbLine
 62
7
  6
CONTINUOUS
 10
3.2726871118
 20
6.2573843168
 11
3.2876871118
 21
6.2573843167
  0
LINE
  5
30C
100
AcDbEntity
  8
ALL_ASSEMBLY_MEMBERS
100
AcDbLine
 62
7
  6
CONTINUOUS
 10
7.2101871118
 20
6.2573843168
 11
7.2251871118
 21
6.2573843167
  0
LINE
  5
30D
100
AcDbEntity
  8
ALL_ASSEMBLY_MEMBERS
100
AcDbLine
 62
7
  6
CONTINUOUS
 10
7.1951871118
 20
6.2723843168
 11
6.7161871118
 21
6.2723843168
  0
LINE
  5
30E
100
AcDbEntity
  8
ALL_ASSEMBLY_MEMBERS
100
AcDbLine
 62
7
  6
CONTINUOUS
 10
3.2576871118
 20
6.2723843168
 11
2.7786871118
 21
6.2723843168
  0
LINE
  5
30F
100
AcDbEntity
  8
ALL_ASSEMBLY_MEMBERS
100
AcDbLine
 62
7
  6
CONTINUOUS
 10
7.1951871118
 20
6.2873843168
 11
6.7161871118
 21
6.2873843168
  0
LINE
  5
310
100
AcDbEntity
  8
ALL_ASSEMBLY_MEMBERS
100
AcDbLine
 62
7
  6
CONTINUOUS
 10
3.2576871118
 20
6.2873843168
 11
2.7786871118
 21
6.2873843168
  0
LINE
  5
311
100
AcDbEntity
  8
ALL_ASSEMBLY_MEMBERS
100
AcDbLine
 62
7
  6
CONTINUOUS
 10
7.3419929518
 20
6.3598738079
 11
7.3272208355
 21
6.3598738079
  0
LINE
  5
312
100
AcDbEntity
  8
ALL_ASSEMBLY_MEMBERS
100
AcDbLine
 62
7
  6
CONTINUOUS
 10
3.4044929518
 20
6.3598738079
 11
3.3897208355
 21
6.3598738079
  0
LINE
  5
313
100
AcDbEntity
  8
ALL_ASSEMBLY_MEMBERS
100
AcDbLine
 62
7
  6
CONTINUOUS
 10
2.6318812718
 20
6.3598738079
 11
2.6466533881
 21
6.3598738079
  0
LINE
  5
314
100
AcDbEntity
  8
ALL_ASSEMBLY_MEMBERS
100
AcDbLine
 62
7
  6
CONTINUOUS
 10
6.5693812718
 20
6.3598738079
 11
6.5841533881
 21
6.3598738079
  0
LINE
  5
315
100
AcDbEntity
  8
ALL_ASSEMBLY_MEMBERS
100
AcDbLine
 62
7
  6
CONTINUOUS
 10
7.2976766029
 20
6.3894180405
 11
6.6136976207
 21
6.3894180405
  0
LINE
  5
316
100
AcDbEntity
  8
ALL_ASSEMBLY_MEMBERS
100
AcDbLine
 62
7
  6
CONTINUOUS
 10
3.3601766029
 20
6.3894180405
 11
2.6761976207
 21
6.3894180405
  0
LINE
  5
317
100
AcDbEntity
  8
ALL_ASSEMBLY_MEMBERS
100
AcDbLine
 62
7
  6
CONTINUOUS
 10
7.2976766029
 20
6.4041901568
 11
6.6136976207
 21
6.4041901568
  0
LINE
  5
318
100
AcDbEntity
  8
ALL_ASSEMBLY_MEMBERS
100
AcDbLine
 62
7
  6
CONTINUOUS
 10
3.3601766029
 20
6.4041901568
 11
2.6761976207
 21
6.4041901568
  0
LINE
  5
319
100
AcDbEntity
  8
ALL_ASSEMBLY_MEMBERS
100
AcDbLine
 62
7
  6
CONTINUOUS
 10
6.5344371118
 20
6.4241343168
 11
6.5194371118
 21
6.4241343168
  0
LINE
  5
31A
100
AcDbEntity
  8
ALL_ASSEMBLY_MEMBERS
100
AcDbLine
 62
7
  6
CONTINUOUS
 10
2.5969371118
 20
6.4241343168
 11
2.5819371118
 21
6.4241343168
  0
LINE
  5
31B
100
AcDbEntity
  8
ALL_ASSEMBLY_MEMBERS
100
AcDbLine
 62
7
  6
CONTINUOUS
 10
3.4394371118
 20
6.4241343168
 11
3.4544371118
 21
6.4241343167
  0
LINE
  5
31C
100
AcDbEntity
  8
ALL_ASSEMBLY_MEMBERS
100
AcDbLine
 62
7
  6
CONTINUOUS
 10
7.3769371118
 20
6.4241343168
 11
7.3919371118
 21
6.4241343167
  0
LINE
  5
31D
100
AcDbEntity
  8
ALL_ASSEMBLY_MEMBERS
100
AcDbLine
 62
7
  6
CONTINUOUS
 10
7.1124371118
 20
6.1896343168
 11
7.1124371118
 21
5.8461343168
  0
LINE
  5
31E
100
AcDbEntity
  8
ALL_ASSEMBLY_MEMBERS
100
AcDbLine
 62
7
  6
CONTINUOUS
 10
7.1274371118
 20
6.1746343168
 11
7.1274371118
 21
5.8611343168
  0
LINE
  5
31F
100
AcDbEntity
  8
ALL_ASSEMBLY_MEMBERS
100
AcDbLine
 62
7
  6
CONTINUOUS
 10
7.1574371118
 20
5.8928843168
 11
7.1574371118
 21
6.1428843168
  0
LINE
  5
320
100
AcDbEntity
  8
ALL_ASSEMBLY_MEMBERS
100
AcDbLine
 62
7
  6
CONTINUOUS
 10
7.1951871118
 20
5.7633843168
 11
7.1951871118
 21
5.7483843168
  0
LINE
  5
321
100
AcDbEntity
  8
ALL_ASSEMBLY_MEMBERS
100
AcDbLine
 62
7
  6
CONTINUOUS
 10
7.1951871118
 20
6.2723843168
 11
7.1951871118
 21
6.2873843168
  0
LINE
  5
322
100
AcDbEntity
  8
ALL_ASSEMBLY_MEMBERS
100
AcDbLine
 62
7
  6
CONTINUOUS
 10
7.3619371118
 20
6.4391343168
 11
6.5494371118
 21
6.4391343168
  0
LINE
  5
323
100
AcDbEntity
  8
ALL_ASSEMBLY_MEMBERS
100
AcDbLine
 62
7
  6
CONTINUOUS
 10
3.4244371118
 20
6.4391343168
 11
2.6119371118
 21
6.4391343168
  0
LINE
  5
324
100
AcDbEntity
  8
ALL_ASSEMBLY_MEMBERS
100
AcDbLine
 62
7
  6
CONTINUOUS
 10
7.3619371118
 20
6.4541343168
 11
6.5494371118
 21
6.4541343168
  0
LINE
  5
325
100
AcDbEntity
  8
ALL_ASSEMBLY_MEMBERS
100
AcDbLine
 62
7
  6
CONTINUOUS
 10
3.4244371118
 20
6.4541343168
 11
2.6119371118
 21
6.4541343168
  0
LINE
  5
326
100
AcDbEntity
  8
ALL_ASSEMBLY_MEMBERS
100
AcDbLine
 62
7
  6
CONTINUOUS
 10
6.3731871118
 20
6.5853843168
 11
6.3581871118
 21
6.5853843168
  0
LINE
  5
327
100
AcDbEntity
  8
ALL_ASSEMBLY_MEMBERS
100
AcDbLine
 62
7
  6
CONTINUOUS
 10
2.4356871118
 20
6.5853843168
 11
2.4206871118
 21
6.5853843168
  0
LINE
  5
328
100
AcDbEntity
  8
ALL_ASSEMBLY_MEMBERS
100
AcDbLine
 62
7
  6
CONTINUOUS
 10
3.6006871118
 20
6.5853843168
 11
3.6156871118
 21
6.5853843167
  0
LINE
  5
329
100
AcDbEntity
  8
ALL_ASSEMBLY_MEMBERS
100
AcDbLine
 62
7
  6
CONTINUOUS
 10
7.5381871118
 20
6.5853843168
 11
7.5531871118
 21
6.5853843167
  0
LINE
  5
32A
100
AcDbEntity
  8
ALL_ASSEMBLY_MEMBERS
100
AcDbLine
 62
7
  6
CONTINUOUS
 10
7.5231871118
 20
6.6003843168
 11
6.3881871118
 21
6.6003843168
  0
LINE
  5
32B
100
AcDbEntity
  8
ALL_ASSEMBLY_MEMBERS
100
AcDbLine
 62
7
  6
CONTINUOUS
 10
3.5856871118
 20
6.6003843168
 11
2.4506871118
 21
6.6003843168
  0
LINE
  5
32C
100
AcDbEntity
  8
ALL_ASSEMBLY_MEMBERS
100
AcDbLine
 62
7
  6
CONTINUOUS
 10
7.5231871118
 20
6.6153843168
 11
6.3881871118
 21
6.6153843168
  0
LINE
  5
32D
100
AcDbEntity
  8
ALL_ASSEMBLY_MEMBERS
100
AcDbLine
 62
7
  6
CONTINUOUS
 10
3.5856871118
 20
6.6153843168
 11
2.4506871118
 21
6.6153843168
  0
LINE
  5
32E
100
AcDbEntity
  8
ALL_ASSEMBLY_MEMBERS
100
AcDbLine
 62
7
  6
CONTINUOUS
 10
7.2101871118
 20
5.7783843168
 11
7.2101871118
 21
5.8928843168
  0
LINE
  5
32F
100
AcDbEntity
  8
ALL_ASSEMBLY_MEMBERS
100
AcDbLine
 62
7
  6
CONTINUOUS
 10
7.2101871118
 20
6.1428843168
 11
7.2101871118
 21
6.2573843168
  0
LINE
  5
330
100
AcDbEntity
  8
ALL_ASSEMBLY_MEMBERS
100
AcDbLine
 62
7
  6
CONTINUOUS
 10
7.2251871118
 20
5.7783843168
 11
7.2251871118
 21
5.8928843168
  0
LINE
  5
331
100
AcDbEntity
  8
ALL_ASSEMBLY_MEMBERS
100
AcDbLine
 62
7
  6
CONTINUOUS
 10
7.2251871118
 20
6.1428843168
 11
7.2251871118
 21
6.2573843168
  0
LINE
  5
332
100
AcDbEntity
  8
ALL_ASSEMBLY_MEMBERS
100
AcDbLine
 62
7
  6
CONTINUOUS
 10
7.2976766029
 20
6.4041901568
 11
7.2976766029
 21
6.3894180405
  0
LINE
  5
333
100
AcDbEntity
  8
ALL_ASSEMBLY_MEMBERS
100
AcDbLine
 62
7
  6
CONTINUOUS
 10
7.2976766029
 20
5.6315784767
 11
7.2976766029
 21
5.646350593
  0
LINE
  5
334
100
AcDbEntity
  8
ALL_ASSEMBLY_MEMBERS
100
AcDbLine
 62
7
  6
CONTINUOUS
 10
7.3272208355
 20
5.6758948256
 11
7.3272208355
 21
5.8928843168
  0
LINE
  5
335
100
AcDbEntity
  8
ALL_ASSEMBLY_MEMBERS
100
AcDbLine
 62
7
  6
CONTINUOUS
 10
7.3272208355
 20
6.1428843168
 11
7.3272208355
 21
6.3598738079
  0
LINE
  5
336
100
AcDbEntity
  8
ALL_ASSEMBLY_MEMBERS
100
AcDbLine
 62
7
  6
CONTINUOUS
 10
7.3419929518
 20
5.6758948256
 11
7.3419929518
 21
5.8928843168
  0
LINE
  5
337
100
AcDbEntity
  8
ALL_ASSEMBLY_MEMBERS
100
AcDbLine
 62
7
  6
CONTINUOUS
 10
7.3419929518
 20
6.1428843168
 11
7.3419929518
 21
6.3598738079
  0
LINE
  5
338
100
AcDbEntity
  8
ALL_ASSEMBLY_MEMBERS
100
AcDbLine
 62
7
  6
CONTINUOUS
 10
7.3619371118
 20
5.5966343168
 11
7.3619371118
 21
5.5816343168
  0
LINE
  5
339
100
AcDbEntity
  8
ALL_ASSEMBLY_MEMBERS
100
AcDbLine
 62
7
  6
CONTINUOUS
 10
7.3619371118
 20
6.4391343168
 11
7.3619371118
 21
6.4541343168
  0
LINE
  5
33A
100
AcDbEntity
  8
ALL_ASSEMBLY_MEMBERS
100
AcDbLine
 62
7
  6
CONTINUOUS
 10
7.3769371118
 20
5.6116343168
 11
7.3769371118
 21
5.8928843168
  0
LINE
  5
33B
100
AcDbEntity
  8
ALL_ASSEMBLY_MEMBERS
100
AcDbLine
 62
7
  6
CONTINUOUS
 10
7.3769371118
 20
6.1428843168
 11
7.3769371118
 21
6.4241343168
  0
LINE
  5
33C
100
AcDbEntity
  8
ALL_ASSEMBLY_MEMBERS
100
AcDbLine
 62
7
  6
CONTINUOUS
 10
7.3919371118
 20
5.6116343168
 11
7.3919371118
 21
5.8928843168
  0
LINE
  5
33D
100
AcDbEntity
  8
ALL_ASSEMBLY_MEMBERS
100
AcDbLine
 62
7
  6
CONTINUOUS
 10
7.3919371118
 20
6.1428843168
 11
7.3919371118
 21
6.4241343168
  0
LINE
  5
33E
100
AcDbEntity
  8
ALL_ASSEMBLY_MEMBERS
100
AcDbLine
 62
7
  6
CONTINUOUS
 10
7.2976766029
 20
5.646350593
 11
7.1956238124
 21
5.7484033835
  0
LINE
  5
33F
100
AcDbEntity
  8
ALL_ASSEMBLY_MEMBERS
100
AcDbLine
 62
7
  6
CONTINUOUS
 10
6.5841533881
 20
6.3598738079
 11
6.6862061786
 21
6.2578210174
  0
LINE
  5
340
100
AcDbEntity
  8
ALL_ASSEMBLY_MEMBERS
100
AcDbLine
 62
7
  6
CONTINUOUS
 10
7.5231871118
 20
5.4353843168
 11
7.5231871118
 21
5.4203843168
  0
LINE
  5
341
100
AcDbEntity
  8
ALL_ASSEMBLY_MEMBERS
100
AcDbLine
 62
7
  6
CONTINUOUS
 10
7.5231871118
 20
6.6003843168
 11
7.5231871118
 21
6.6153843168
  0
LINE
  5
342
100
AcDbEntity
  8
ALL_ASSEMBLY_MEMBERS
100
AcDbLine
 62
7
  6
CONTINUOUS
 10
7.5381871118
 20
5.4503843168
 11
7.5381871118
 21
5.8928843168
  0
LINE
  5
343
100
AcDbEntity
  8
ALL_ASSEMBLY_MEMBERS
100
AcDbLine
 62
7
  6
CONTINUOUS
 10
7.5381871118
 20
6.1428843168
 11
7.5381871118
 21
6.5853843168
  0
LINE
  5
344
100
AcDbEntity
  8
ALL_ASSEMBLY_MEMBERS
100
AcDbLine
 62
7
  6
CONTINUOUS
 10
7.5531871118
 20
5.4503843168
 11
7.5531871118
 21
5.8928843168
  0
LINE
  5
345
100
AcDbEntity
  8
ALL_ASSEMBLY_MEMBERS
100
AcDbLine
 62
7
  6
CONTINUOUS
 10
7.5531871118
 20
6.1428843168
 11
7.5531871118
 21
6.5853843168
  0
LINE
  5
346
100
AcDbEntity
  8
ALL_ASSEMBLY_MEMBERS
100
AcDbLine
 62
7
  6
CONTINUOUS
 10
7.3272208355
 20
5.6758948256
 11
7.225168045
 21
5.7779476161
  0
LINE
  5
347
100
AcDbEntity
  8
ALL_ASSEMBLY_MEMBERS
100
AcDbLine
 62
7
  6
CONTINUOUS
 10
6.6136976207
 20
6.3894180405
 11
6.7157504112
 21
6.28736525
  0
LINE
  5
348
100
AcDbEntity
  8
ALL_ASSEMBLY_MEMBERS
100
AcDbLine
 62
7
  6
CONTINUOUS
 10
8.4564371118
 20
6.1428843168
 11
8.4564371118
 21
5.8928843168
  0
LINE
  5
349
100
AcDbEntity
  8
ALL_ASSEMBLY_MEMBERS
100
AcDbLine
 62
7
  6
CONTINUOUS
 10
8.4714371118
 20
6.1278843168
 11
8.4714371118
 21
5.9078843168
  0
ARC
  5
34A
100
AcDbEntity
  8
ALL_ASSEMBLY_MEMBERS
100
AcDbCircle
 62
7
  6
CONTINUOUS
 10
4.5174956115
 20
3.485574903
 40
0.0596009361
100
AcDbArc
 50
118.6383441969
 51
150.3719986225
  0
ARC
  5
34B
100
AcDbEntity
  8
ALL_ASSEMBLY_MEMBERS
100
AcDbCircle
 62
7
  6
CONTINUOUS
 10
4.778313572
 20
3.1539886478
 40
0.0301606023
100
AcDbArc
 50
90.43325727
 51
168.6389127461
  0
ARC
  5
34C
100
AcDbEntity
  8
ALL_ASSEMBLY_MEMBERS
100
AcDbCircle
 62
7
  6
CONTINUOUS
 10
4.3781871118
 20
3.6253843168
 40
0.03
100
AcDbArc
 50
90.0
 51
180.0
  0
ARC
  5
34D
100
AcDbEntity
  8
ALL_ASSEMBLY_MEMBERS
100
AcDbCircle
 62
7
  6
CONTINUOUS
 10
4.3781871118
 20
2.4103843168
 40
0.03
100
AcDbArc
 50
180.0
 51
270.0
  0
ARC
  5
34E
100
AcDbEntity
  8
ALL_ASSEMBLY_MEMBERS
100
AcDbCircle
 62
7
  6
CONTINUOUS
 10
4.6623582482
 20
2.6495031203
 40
0.03
100
AcDbArc
 50
171.7316206109
 51
269.9908556145
  0
ARC
  5
34F
100
AcDbEntity
  8
ALL_ASSEMBLY_MEMBERS
100
AcDbCircle
 62
7
  6
CONTINUOUS
 10
4.4656871118
 20
2.4978843168
 40
0.03
100
AcDbArc
 50
180.0
 51
270.0
  0
ARC
  5
350
100
AcDbEntity
  8
ALL_ASSEMBLY_MEMBERS
100
AcDbCircle
 62
7
  6
CONTINUOUS
 10
4.4656871118
 20
3.5378843168
 40
0.03
100
AcDbArc
 50
90.0
 51
180.0
  0
ARC
  5
351
100
AcDbEntity
  8
ALL_ASSEMBLY_MEMBERS
100
AcDbCircle
 62
7
  6
CONTINUOUS
 10
4.6787416769
 20
2.8246056068
 40
0.0299334112
100
AcDbArc
 50
172.927018417
 51
202.2584539261
  0
ARC
  5
352
100
AcDbEntity
  8
ALL_ASSEMBLY_MEMBERS
100
AcDbCircle
 62
7
  6
CONTINUOUS
 10
4.6623109784
 20
2.649528404
 40
0.029918768
100
AcDbArc
 50
172.2086936287
 51
178.2496034692
  0
ARC
  5
353
100
AcDbEntity
  8
ALL_ASSEMBLY_MEMBERS
100
AcDbCircle
 62
7
  6
CONTINUOUS
 10
4.6623620419
 20
2.6492458022
 40
0.0297426821
100
AcDbArc
 50
263.629711931
 51
269.9926918907
  0
ARC
  5
354
100
AcDbEntity
  8
ALL_ASSEMBLY_MEMBERS
100
AcDbCircle
 62
7
  6
CONTINUOUS
 10
4.5172439629
 20
3.4858909241
 40
0.0294115049
100
AcDbArc
 50
118.5060282272
 51
150.6760541426
  0
ARC
  5
355
100
AcDbEntity
  8
ALL_ASSEMBLY_MEMBERS
100
AcDbCircle
 62
7
  6
CONTINUOUS
 10
4.3781871118
 20
2.4103843168
 40
0.015
100
AcDbArc
 50
180.0
 51
270.0
  0
ARC
  5
356
100
AcDbEntity
  8
ALL_ASSEMBLY_MEMBERS
100
AcDbCircle
 62
7
  6
CONTINUOUS
 10
4.3781871118
 20
3.6253843168
 40
0.015
100
AcDbArc
 50
90.0
 51
180.0
  0
ARC
  5
357
100
AcDbEntity
  8
ALL_ASSEMBLY_MEMBERS
100
AcDbCircle
 62
7
  6
CONTINUOUS
 10
2.4506871118
 20
5.4503843168
 40
0.03
100
AcDbArc
 50
180.0
 51
270.0
  0
ARC
  5
358
100
AcDbEntity
  8
ALL_ASSEMBLY_MEMBERS
100
AcDbCircle
 62
7
  6
CONTINUOUS
 10
1.5174371118
 20
5.9078843168
 40
0.015
100
AcDbArc
 50
180.0
 51
270.0
  0
ARC
  5
359
100
AcDbEntity
  8
ALL_ASSEMBLY_MEMBERS
100
AcDbCircle
 62
7
  6
CONTINUOUS
 10
2.4506871118
 20
5.4503843168
 40
0.015
100
AcDbArc
 50
180.0
 51
270.0
  0
ARC
  5
35A
100
AcDbEntity
  8
ALL_ASSEMBLY_MEMBERS
100
AcDbCircle
 62
7
  6
CONTINUOUS
 10
2.4506871118
 20
6.5853843168
 40
0.03
100
AcDbArc
 50
90.0
 51
180.0
  0
ARC
  5
35B
100
AcDbEntity
  8
ALL_ASSEMBLY_MEMBERS
100
AcDbCircle
 62
7
  6
CONTINUOUS
 10
1.5174371118
 20
6.1278843168
 40
0.015
100
AcDbArc
 50
90.0
 51
180.0
  0
ARC
  5
35C
100
AcDbEntity
  8
ALL_ASSEMBLY_MEMBERS
100
AcDbCircle
 62
7
  6
CONTINUOUS
 10
2.4506871118
 20
6.5853843168
 40
0.015
100
AcDbArc
 50
90.0
 51
180.0
  0
ARC
  5
35D
100
AcDbEntity
  8
ALL_ASSEMBLY_MEMBERS
100
AcDbCircle
 62
7
  6
CONTINUOUS
 10
2.8164371118
 20
5.8628843168
 40
0.03
100
AcDbArc
 50
5.0000000028
 51
90.0
  0
ARC
  5
35E
100
AcDbEntity
  8
ALL_ASSEMBLY_MEMBERS
100
AcDbCircle
 62
7
  6
CONTINUOUS
 10
3.2199371118
 20
5.8628843168
 40
0.03
100
AcDbArc
 50
96.3793702084
 51
175.3544125252
  0
ARC
  5
35F
100
AcDbEntity
  8
ALL_ASSEMBLY_MEMBERS
100
AcDbCircle
 62
7
  6
CONTINUOUS
 10
3.2576871118
 20
5.7783843168
 40
0.03
100
AcDbArc
 50
270.0
 51
360.0
  0
ARC
  5
360
100
AcDbEntity
  8
ALL_ASSEMBLY_MEMBERS
100
AcDbCircle
 62
7
  6
CONTINUOUS
 10
2.7786871118
 20
5.7783843168
 40
0.03
100
AcDbArc
 50
180.0
 51
270.0
  0
ARC
  5
361
100
AcDbEntity
  8
ALL_ASSEMBLY_MEMBERS
100
AcDbCircle
 62
7
  6
CONTINUOUS
 10
3.4244371118
 20
5.6116343168
 40
0.03
100
AcDbArc
 50
270.0
 51
360.0
  0
ARC
  5
362
100
AcDbEntity
  8
ALL_ASSEMBLY_MEMBERS
100
AcDbCircle
 62
7
  6
CONTINUOUS
 10
2.6119371118
 20
5.6116343168
 40
0.03
100
AcDbArc
 50
180.0
 51
270.0
  0
ARC
  5
363
100
AcDbEntity
  8
ALL_ASSEMBLY_MEMBERS
100
AcDbCircle
 62
7
  6
CONTINUOUS
 10
3.5856871118
 20
5.4503843168
 40
0.03
100
AcDbArc
 50
270.0
 51
360.0
  0
ARC
  5
364
100
AcDbEntity
  8
ALL_ASSEMBLY_MEMBERS
100
AcDbCircle
 62
7
  6
CONTINUOUS
 10
3.2149371118
 20
5.9076056763
 40
0.015
100
AcDbArc
 50
276.3793702084
 51
360.0
  0
ARC
  5
365
100
AcDbEntity
  8
ALL_ASSEMBLY_MEMBERS
100
AcDbCircle
 62
7
  6
CONTINUOUS
 10
3.1749371118
 20
5.8611343168
 40
0.015
100
AcDbArc
 50
270.0
 51
360.0
  0
ARC
  5
366
100
AcDbEntity
  8
ALL_ASSEMBLY_MEMBERS
100
AcDbCircle
 62
7
  6
CONTINUOUS
 10
2.8614371118
 20
5.8611343168
 40
0.015
100
AcDbArc
 50
180.0
 51
270.0
  0
ARC
  5
367
100
AcDbEntity
  8
ALL_ASSEMBLY_MEMBERS
100
AcDbCircle
 62
7
  6
CONTINUOUS
 10
3.4244371118
 20
5.6116343168
 40
0.015
100
AcDbArc
 50
270.0
 51
360.0
  0
ARC
  5
368
100
AcDbEntity
  8
ALL_ASSEMBLY_MEMBERS
100
AcDbCircle
 62
7
  6
CONTINUOUS
 10
2.6119371118
 20
5.6116343168
 40
0.015
100
AcDbArc
 50
180.0
 51
270.0
  0
ARC
  5
369
100
AcDbEntity
  8
ALL_ASSEMBLY_MEMBERS
100
AcDbCircle
 62
7
  6
CONTINUOUS
 10
3.2576871118
 20
5.7783843168
 40
0.015
100
AcDbArc
 50
270.0
 51
360.0
  0
ARC
  5
36A
100
AcDbEntity
  8
ALL_ASSEMBLY_MEMBERS
100
AcDbCircle
 62
7
  6
CONTINUOUS
 10
2.7786871118
 20
5.7783843168
 40
0.015
100
AcDbArc
 50
180.0
 51
270.0
  0
ARC
  5
36B
100
AcDbEntity
  8
ALL_ASSEMBLY_MEMBERS
100
AcDbCircle
 62
7
  6
CONTINUOUS
 10
3.5856871118
 20
5.4503843168
 40
0.015
100
AcDbArc
 50
270.0
 51
360.0
  0
ARC
  5
36C
100
AcDbEntity
  8
ALL_ASSEMBLY_MEMBERS
100
AcDbCircle
 62
7
  6
CONTINUOUS
 10
2.8164371118
 20
6.1728843168
 40
0.03
100
AcDbArc
 50
270.0
 51
355.0000042442
  0
ARC
  5
36D
100
AcDbEntity
  8
ALL_ASSEMBLY_MEMBERS
100
AcDbCircle
 62
7
  6
CONTINUOUS
 10
3.2199371118
 20
6.1728843168
 40
0.03
100
AcDbArc
 50
184.6455905493
 51
263.6206297916
  0
ARC
  5
36E
100
AcDbEntity
  8
ALL_ASSEMBLY_MEMBERS
100
AcDbCircle
 62
7
  6
CONTINUOUS
 10
2.7786871118
 20
6.2573843168
 40
0.03
100
AcDbArc
 50
90.0
 51
180.0
  0
ARC
  5
36F
100
AcDbEntity
  8
ALL_ASSEMBLY_MEMBERS
100
AcDbCircle
 62
7
  6
CONTINUOUS
 10
3.2576871118
 20
6.2573843168
 40
0.03
100
AcDbArc
 50
0.0
 51
90.0
  0
ARC
  5
370
100
AcDbEntity
  8
ALL_ASSEMBLY_MEMBERS
100
AcDbCircle
 62
7
  6
CONTINUOUS
 10
2.6119371118
 20
6.4241343168
 40
0.03
100
AcDbArc
 50
90.0
 51
180.0
  0
ARC
  5
371
100
AcDbEntity
  8
ALL_ASSEMBLY_MEMBERS
100
AcDbCircle
 62
7
  6
CONTINUOUS
 10
3.4244371118
 20
6.4241343168
 40
0.03
100
AcDbArc
 50
0.0
 51
90.0
  0
ARC
  5
372
100
AcDbEntity
  8
ALL_ASSEMBLY_MEMBERS
100
AcDbCircle
 62
7
  6
CONTINUOUS
 10
3.5856871118
 20
6.5853843168
 40
0.03
100
AcDbArc
 50
0.0
 51
90.0
  0
ARC
  5
373
100
AcDbEntity
  8
ALL_ASSEMBLY_MEMBERS
100
AcDbCircle
 62
7
  6
CONTINUOUS
 10
3.2149371118
 20
6.1281629572
 40
0.015
100
AcDbArc
 50
0.0
 51
83.6206297669
  0
ARC
  5
374
100
AcDbEntity
  8
ALL_ASSEMBLY_MEMBERS
100
AcDbCircle
 62
7
  6
CONTINUOUS
 10
2.8614371118
 20
6.1746343168
 40
0.015
100
AcDbArc
 50
90.0
 51
180.0
  0
ARC
  5
375
100
AcDbEntity
  8
ALL_ASSEMBLY_MEMBERS
100
AcDbCircle
 62
7
  6
CONTINUOUS
 10
3.1749371118
 20
6.1746343168
 40
0.015
100
AcDbArc
 50
0.0
 51
90.0
  0
ARC
  5
376
100
AcDbEntity
  8
ALL_ASSEMBLY_MEMBERS
100
AcDbCircle
 62
7
  6
CONTINUOUS
 10
2.6119371118
 20
6.4241343168
 40
0.015
100
AcDbArc
 50
90.0
 51
180.0
  0
ARC
  5
377
100
AcDbEntity
  8
ALL_ASSEMBLY_MEMBERS
100
AcDbCircle
 62
7
  6
CONTINUOUS
 10
3.4244371118
 20
6.4241343168
 40
0.015
100
AcDbArc
 50
0.0
 51
90.0
  0
ARC
  5
378
100
AcDbEntity
  8
ALL_ASSEMBLY_MEMBERS
100
AcDbCircle
 62
7
  6
CONTINUOUS
 10
2.7786871118
 20
6.2573843168
 40
0.015
100
AcDbArc
 50
90.0
 51
180.0
  0
ARC
  5
379
100
AcDbEntity
  8
ALL_ASSEMBLY_MEMBERS
100
AcDbCircle
 62
7
  6
CONTINUOUS
 10
3.2576871118
 20
6.2573843168
 40
0.015
100
AcDbArc
 50
0.0
 51
90.0
  0
ARC
  5
37A
100
AcDbEntity
  8
ALL_ASSEMBLY_MEMBERS
100
AcDbCircle
 62
7
  6
CONTINUOUS
 10
3.5856871118
 20
6.5853843168
 40
0.015
100
AcDbArc
 50
0.0
 51
90.0
  0
ARC
  5
37B
100
AcDbEntity
  8
ALL_ASSEMBLY_MEMBERS
100
AcDbCircle
 62
7
  6
CONTINUOUS
 10
5.1930606549
 20
3.1539886517
 40
0.0301605983
100
AcDbArc
 50
11.3610811561
 51
89.566748923
  0
ARC
  5
37C
100
AcDbEntity
  8
ALL_ASSEMBLY_MEMBERS
100
AcDbCircle
 62
7
  6
CONTINUOUS
 10
5.5931871118
 20
2.4103843168
 40
0.03
100
AcDbArc
 50
270.0
 51
360.0
  0
ARC
  5
37D
100
AcDbEntity
  8
ALL_ASSEMBLY_MEMBERS
100
AcDbCircle
 62
7
  6
CONTINUOUS
 10
5.5931871118
 20
3.6253843168
 40
0.03
100
AcDbArc
 50
0.0
 51
90.0
  0
ARC
  5
37E
100
AcDbEntity
  8
ALL_ASSEMBLY_MEMBERS
100
AcDbCircle
 62
7
  6
CONTINUOUS
 10
5.3090159754
 20
2.6495031203
 40
0.03
100
AcDbArc
 50
270.0091435567
 51
8.2683793888
  0
ARC
  5
37F
100
AcDbEntity
  8
ALL_ASSEMBLY_MEMBERS
100
AcDbCircle
 62
7
  6
CONTINUOUS
 10
5.5056871118
 20
2.4978843168
 40
0.03
100
AcDbArc
 50
270.0
 51
360.0
  0
ARC
  5
380
100
AcDbEntity
  8
ALL_ASSEMBLY_MEMBERS
100
AcDbCircle
 62
7
  6
CONTINUOUS
 10
5.5056871118
 20
3.5378843168
 40
0.03
100
AcDbArc
 50
0.0
 51
90.0
  0
ARC
  5
381
100
AcDbEntity
  8
ALL_ASSEMBLY_MEMBERS
100
AcDbCircle
 62
7
  6
CONTINUOUS
 10
5.2926325409
 20
2.8246056057
 40
0.0299334171
100
AcDbArc
 50
337.7386658252
 51
7.0729805066
  0
ARC
  5
382
100
AcDbEntity
  8
ALL_ASSEMBLY_MEMBERS
100
AcDbCircle
 62
7
  6
CONTINUOUS
 10
5.309063246
 20
2.6495284042
 40
0.0299187671
100
AcDbArc
 50
1.7503932063
 51
7.7913062676
  0
ARC
  5
383
100
AcDbEntity
  8
ALL_ASSEMBLY_MEMBERS
100
AcDbCircle
 62
7
  6
CONTINUOUS
 10
5.3090121817
 20
2.6492457994
 40
0.0297426794
100
AcDbArc
 50
270.0073081878
 51
276.3702989889
  0
ARC
  5
384
100
AcDbEntity
  8
ALL_ASSEMBLY_MEMBERS
100
AcDbCircle
 62
7
  6
CONTINUOUS
 10
5.5931871118
 20
3.6253843168
 40
0.015
100
AcDbArc
 50
0.0
 51
90.0
  0
ARC
  5
385
100
AcDbEntity
  8
ALL_ASSEMBLY_MEMBERS
100
AcDbCircle
 62
7
  6
CONTINUOUS
 10
5.5931871118
 20
2.4103843168
 40
0.015
100
AcDbArc
 50
270.0
 51
360.0
  0
ARC
  5
386
100
AcDbEntity
  8
ALL_ASSEMBLY_MEMBERS
100
AcDbCircle
 62
7
  6
CONTINUOUS
 10
7.1574371118
 20
5.8628843168
 40
0.03
100
AcDbArc
 50
90.0
 51
175.0000042442
  0
ARC
  5
387
100
AcDbEntity
  8
ALL_ASSEMBLY_MEMBERS
100
AcDbCircle
 62
7
  6
CONTINUOUS
 10
6.7539371118
 20
5.8628843168
 40
0.03
100
AcDbArc
 50
4.6455905493
 51
83.6206297916
  0
ARC
  5
388
100
AcDbEntity
  8
ALL_ASSEMBLY_MEMBERS
100
AcDbCircle
 62
7
  6
CONTINUOUS
 10
7.1951871118
 20
5.7783843168
 40
0.03
100
AcDbArc
 50
270.0
 51
360.0
  0
ARC
  5
389
100
AcDbEntity
  8
ALL_ASSEMBLY_MEMBERS
100
AcDbCircle
 62
7
  6
CONTINUOUS
 10
6.7161871118
 20
5.7783843168
 40
0.03
100
AcDbArc
 50
180.0
 51
270.0
  0
ARC
  5
38A
100
AcDbEntity
  8
ALL_ASSEMBLY_MEMBERS
100
AcDbCircle
 62
7
  6
CONTINUOUS
 10
7.3619371118
 20
5.6116343168
 40
0.03
100
AcDbArc
 50
270.0
 51
360.0
  0
ARC
  5
38B
100
AcDbEntity
  8
ALL_ASSEMBLY_MEMBERS
100
AcDbCircle
 62
7
  6
CONTINUOUS
 10
6.5494371118
 20
5.6116343168
 40
0.03
100
AcDbArc
 50
180.0
 51
270.0
  0
ARC
  5
38C
100
AcDbEntity
  8
ALL_ASSEMBLY_MEMBERS
100
AcDbCircle
 62
7
  6
CONTINUOUS
 10
6.3881871118
 20
5.4503843168
 40
0.03
100
AcDbArc
 50
180.0
 51
270.0
  0
ARC
  5
38D
100
AcDbEntity
  8
ALL_ASSEMBLY_MEMBERS
100
AcDbCircle
 62
7
  6
CONTINUOUS
 10
6.7589371118
 20
5.9076056763
 40
0.015
100
AcDbArc
 50
180.0
 51
263.6206297669
  0
ARC
  5
38E
100
AcDbEntity
  8
ALL_ASSEMBLY_MEMBERS
100
AcDbCircle
 62
7
  6
CONTINUOUS
 10
7.1124371118
 20
5.8611343168
 40
0.015
100
AcDbArc
 50
270.0
 51
360.0
  0
ARC
  5
38F
100
AcDbEntity
  8
ALL_ASSEMBLY_MEMBERS
100
AcDbCircle
 62
7
  6
CONTINUOUS
 10
6.7989371118
 20
5.8611343168
 40
0.015
100
AcDbArc
 50
180.0
 51
270.0
  0
ARC
  5
390
100
AcDbEntity
  8
ALL_ASSEMBLY_MEMBERS
100
AcDbCircle
 62
7
  6
CONTINUOUS
 10
7.3619371118
 20
5.6116343168
 40
0.015
100
AcDbArc
 50
270.0
 51
360.0
  0
ARC
  5
391
100
AcDbEntity
  8
ALL_ASSEMBLY_MEMBERS
100
AcDbCircle
 62
7
  6
CONTINUOUS
 10
6.5494371118
 20
5.6116343168
 40
0.015
100
AcDbArc
 50
180.0
 51
270.0
  0
ARC
  5
392
100
AcDbEntity
  8
ALL_ASSEMBLY_MEMBERS
100
AcDbCircle
 62
7
  6
CONTINUOUS
 10
7.1951871118
 20
5.7783843168
 40
0.015
100
AcDbArc
 50
270.0
 51
360.0
  0
ARC
  5
393
100
AcDbEntity
  8
ALL_ASSEMBLY_MEMBERS
100
AcDbCircle
 62
7
  6
CONTINUOUS
 10
6.7161871118
 20
5.7783843168
 40
0.015
100
AcDbArc
 50
180.0
 51
270.0
  0
ARC
  5
394
100
AcDbEntity
  8
ALL_ASSEMBLY_MEMBERS
100
AcDbCircle
 62
7
  6
CONTINUOUS
 10
6.3881871118
 20
5.4503843168
 40
0.015
100
AcDbArc
 50
180.0
 51
270.0
  0
ARC
  5
395
100
AcDbEntity
  8
ALL_ASSEMBLY_MEMBERS
100
AcDbCircle
 62
7
  6
CONTINUOUS
 10
7.1574371118
 20
6.1728843168
 40
0.03
100
AcDbArc
 50
185.0000000028
 51
270.0
  0
ARC
  5
396
100
AcDbEntity
  8
ALL_ASSEMBLY_MEMBERS
100
AcDbCircle
 62
7
  6
CONTINUOUS
 10
6.7539371118
 20
6.1728843168
 40
0.03
100
AcDbArc
 50
276.3793702084
 51
355.3544125252
  0
ARC
  5
397
100
AcDbEntity
  8
ALL_ASSEMBLY_MEMBERS
100
AcDbCircle
 62
7
  6
CONTINUOUS
 10
6.7161871118
 20
6.2573843168
 40
0.03
100
AcDbArc
 50
90.0
 51
180.0
  0
ARC
  5
398
100
AcDbEntity
  8
ALL_ASSEMBLY_MEMBERS
100
AcDbCircle
 62
7
  6
CONTINUOUS
 10
7.1951871118
 20
6.2573843168
 40
0.03
100
AcDbArc
 50
0.0
 51
90.0
  0
ARC
  5
399
100
AcDbEntity
  8
ALL_ASSEMBLY_MEMBERS
100
AcDbCircle
 62
7
  6
CONTINUOUS
 10
6.5494371118
 20
6.4241343168
 40
0.03
100
AcDbArc
 50
90.0
 51
180.0
  0
ARC
  5
39A
100
AcDbEntity
  8
ALL_ASSEMBLY_MEMBERS
100
AcDbCircle
 62
7
  6
CONTINUOUS
 10
7.3619371118
 20
6.4241343168
 40
0.03
100
AcDbArc
 50
0.0
 51
90.0
  0
ARC
  5
39B
100
AcDbEntity
  8
ALL_ASSEMBLY_MEMBERS
100
AcDbCircle
 62
7
  6
CONTINUOUS
 10
6.3881871118
 20
6.5853843168
 40
0.03
100
AcDbArc
 50
90.0
 51
180.0
  0
ARC
  5
39C
100
AcDbEntity
  8
ALL_ASSEMBLY_MEMBERS
100
AcDbCircle
 62
7
  6
CONTINUOUS
 10
6.7589371118
 20
6.1281629572
 40
0.015
100
AcDbArc
 50
96.3793702084
 51
180.0
  0
ARC
  5
39D
100
AcDbEntity
  8
ALL_ASSEMBLY_MEMBERS
100
AcDbCircle
 62
7
  6
CONTINUOUS
 10
6.7989371118
 20
6.1746343168
 40
0.015
100
AcDbArc
 50
90.0
 51
180.0
  0
ARC
  5
39E
100
AcDbEntity
  8
ALL_ASSEMBLY_MEMBERS
100
AcDbCircle
 62
7
  6
CONTINUOUS
 10
7.1124371118
 20
6.1746343168
 40
0.015
100
AcDbArc
 50
0.0
 51
90.0
  0
ARC
  5
39F
100
AcDbEntity
  8
ALL_ASSEMBLY_MEMBERS
100
AcDbCircle
 62
7
  6
CONTINUOUS
 10
6.5494371118
 20
6.4241343168
 40
0.015
100
AcDbArc
 50
90.0
 51
180.0
  0
ARC
  5
3A0
100
AcDbEntity
  8
ALL_ASSEMBLY_MEMBERS
100
AcDbCircle
 62
7
  6
CONTINUOUS
 10
7.3619371118
 20
6.4241343168
 40
0.015
100
AcDbArc
 50
0.0
 51
90.0
  0
ARC
  5
3A1
100
AcDbEntity
  8
ALL_ASSEMBLY_MEMBERS
100
AcDbCircle
 62
7
  6
CONTINUOUS
 10
6.7161871118
 20
6.2573843168
 40
0.015
100
AcDbArc
 50
90.0
 51
180.0
  0
ARC
  5
3A2
100
AcDbEntity
  8
ALL_ASSEMBLY_MEMBERS
100
AcDbCircle
 62
7
  6
CONTINUOUS
 10
7.1951871118
 20
6.2573843168
 40
0.015
100
AcDbArc
 50
0.0
 51
90.0
  0
ARC
  5
3A3
100
AcDbEntity
  8
ALL_ASSEMBLY_MEMBERS
100
AcDbCircle
 62
7
  6
CONTINUOUS
 10
6.3881871118
 20
6.5853843168
 40
0.015
100
AcDbArc
 50
90.0
 51
180.0
  0
ARC
  5
3A4
100
AcDbEntity
  8
ALL_ASSEMBLY_MEMBERS
100
AcDbCircle
 62
7
  6
CONTINUOUS
 10
7.5231871118
 20
5.4503843168
 40
0.03
100
AcDbArc
 50
270.0
 51
360.0
  0
ARC
  5
3A5
100
AcDbEntity
  8
ALL_ASSEMBLY_MEMBERS
100
AcDbCircle
 62
7
  6
CONTINUOUS
 10
8.4564371118
 20
5.9078843168
 40
0.015
100
AcDbArc
 50
270.0
 51
360.0
  0
ARC
  5
3A6
100
AcDbEntity
  8
ALL_ASSEMBLY_MEMBERS
100
AcDbCircle
 62
7
  6
CONTINUOUS
 10
7.5231871118
 20
5.4503843168
 40
0.015
100
AcDbArc
 50
270.0
 51
360.0
  0
ARC
  5
3A7
100
AcDbEntity
  8
ALL_ASSEMBLY_MEMBERS
100
AcDbCircle
 62
7
  6
CONTINUOUS
 10
7.5231871118
 20
6.5853843168
 40
0.03
100
AcDbArc
 50
0.0
 51
90.0
  0
ARC
  5
3A8
100
AcDbEntity
  8
ALL_ASSEMBLY_MEMBERS
100
AcDbCircle
 62
7
  6
CONTINUOUS
 10
8.4564371118
 20
6.1278843168
 40
0.015
100
AcDbArc
 50
0.0
 51
90.0
  0
ARC
  5
3A9
100
AcDbEntity
  8
ALL_ASSEMBLY_MEMBERS
100
AcDbCircle
 62
7
  6
CONTINUOUS
 10
7.5231871118
 20
6.5853843168
 40
0.015
100
AcDbArc
 50
0.0
 51
90.0
  0
SPLINE
  5
3AA
100
AcDbEntity
  8
ALL_ASSEMBLY_MEMBERS
100
AcDbSpline
 62
7
  6
CONTINUOUS
 70
0
 71
3
 72
19
 73
15
 74
0
 42
0.0000001
 43
0.0000001
 44
0.0000000001
 40
0.0
 40
0.0
 40
0.0
 40
0.0
 40
0.1247240327
 40
0.2496187989
 40
0.3121721266
 40
0.3747624547
 40
0.4373684844
 40
0.4999838172
 40
0.5626002394
 40
0.6252108576
 40
0.6878074687
 40
0.7503679925
 40
0.8752767893
 40
1.0
 40
1.0
 40
1.0
 40
1.0
 10
2.6761976207
 20
6.3894180405
 30
0.0
 10
2.6742573055
 20
6.3894458756
 30
0.0
 10
2.6703587255
 20
6.3891343327
 30
0.0
 10
2.6656523807
 20
6.3878049093
 30
0.0
 10
2.6621048794
 20
6.3861944014
 30
0.0
 10
2.6595768596
 20
6.3847204362
 30
0.0
 10
2.6572119129
 20
6.38299545
 30
0.0
 10
2.6550379189
 20
6.3810345648
 30
0.0
 10
2.6530768281
 20
6.3788606468
 30
0.0
 10
2.651351759
 20
6.3764955369
 30
0.0
 10
2.6498773729
 20
6.3739674353
 30
0.0
 10
2.6482667649
 20
6.3704195011
 30
0.0
 10
2.6469370586
 20
6.3657129121
 30
0.0
 10
2.6466255535
 20
6.3618141103
 30
0.0
 10
2.6466533881
 20
6.3598738079
 30
0.0
  0
SPLINE
  5
3AB
100
AcDbEntity
  8
ALL_ASSEMBLY_MEMBERS
100
AcDbSpline
 62
7
  6
CONTINUOUS
 70
0
 71
3
 72
21
 73
17
 74
0
 42
0.0000001
 43
0.0000001
 44
0.0000000001
 40
0.0
 40
0.0
 40
0.0
 40
0.0
 40
0.1248761845
 40
0.1874153834
 40
0.249925513
 40
0.3124322046
 40
0.3749498828
 40
0.4374676479
 40
0.4999845664
 40
0.5625026841
 40
0.6250246763
 40
0.6875480711
 40
0.7500618472
 40
0.8125803472
 40
0.8751245507
 40
1.0
 40
1.0
 40
1.0
 40
1.0
 10
3.3601766029
 20
5.6315784767
 30
0.0
 10
3.3630761073
 20
5.6315786717
 30
0.0
 10
3.3674432
 20
5.6319970932
 30
0.0
 10
3.3730846032
 20
5.6333838304
 30
0.0
 10
3.3771990453
 20
5.6348337542
 30
0.0
 10
3.3811498187
 20
5.6366810573
 30
0.0
 10
3.3848989051
 20
5.6389101392
 30
0.0
 10
3.3884091717
 20
5.6414995592
 30
0.0
 10
3.391643117
 20
5.644426818
 30
0.0
 10
3.3945706442
 20
5.6476606676
 30
0.0
 10
3.3971602136
 20
5.6511711379
 30
0.0
 10
3.3993898489
 20
5.6549203571
 30
0.0
 10
3.4012373022
 20
5.6588716145
 30
0.0
 10
3.402687459
 20
5.6629864713
 30
0.0
 10
3.4040743825
 20
5.6686281379
 30
0.0
 10
3.4044927432
 20
5.6729953384
 30
0.0
 10
3.4044929518
 20
5.6758948256
 30
0.0
  0
SPLINE
  5
3AC
100
AcDbEntity
  8
ALL_ASSEMBLY_MEMBERS
100
AcDbSpline
 62
7
  6
CONTINUOUS
 70
0
 71
3
 72
21
 73
17
 74
0
 42
0.0000001
 43
0.0000001
 44
0.0000000001
 40
0.0
 40
0.0
 40
0.0
 40
0.0
 40
0.1248761845
 40
0.1874153834
 40
0.249925513
 40
0.3124322046
 40
0.3749498828
 40
0.4374676479
 40
0.4999845664
 40
0.5625026841
 40
0.6250246763
 40
0.6875480711
 40
0.7500618472
 40
0.8125803472
 40
0.8751245507
 40
1.0
 40
1.0
 40
1.0
 40
1.0
 10
3.4044929518
 20
6.3598738079
 30
0.0
 10
3.4044927569
 20
6.3627733122
 30
0.0
 10
3.4040743353
 20
6.367140405
 30
0.0
 10
3.4026875982
 20
6.3727818082
 30
0.0
 10
3.4012376744
 20
6.3768962503
 30
0.0
 10
3.3993903712
 20
6.3808470236
 30
0.0
 10
3.3971612893
 20
6.3845961101
 30
0.0
 10
3.3945718694
 20
6.3881063766
 30
0.0
 10
3.3916446106
 20
6.391340322
 30
0.0
 10
3.388410761
 20
6.3942678491
 30
0.0
 10
3.3849002906
 20
6.3968574186
 30
0.0
 10
3.3811510715
 20
6.3990870538
 30
0.0
 10
3.3771998141
 20
6.4009345072
 30
0.0
 10
3.3730849573
 20
6.4023846639
 30
0.0
 10
3.3674432906
 20
6.4037715874
 30
0.0
 10
3.3630760902
 20
6.4041899482
 30
0.0
 10
3.3601766029
 20
6.4041901568
 30
0.0
  0
SPLINE
  5
3AD
100
AcDbEntity
  8
ALL_ASSEMBLY_MEMBERS
100
AcDbSpline
 62
7
  6
CONTINUOUS
 70
0
 71
3
 72
21
 73
17
 74
0
 42
0.0000001
 43
0.0000001
 44
0.0000000001
 40
0.0
 40
0.0
 40
0.0
 40
0.0
 40
0.1248761845
 40
0.1874153834
 40
0.249925513
 40
0.3124322046
 40
0.3749498828
 40
0.4374676479
 40
0.4999845664
 40
0.5625026841
 40
0.6250246763
 40
0.6875480711
 40
0.7500618472
 40
0.8125803472
 40
0.8751245507
 40
1.0
 40
1.0
 40
1.0
 40
1.0
 10
2.6761976207
 20
6.4041901568
 30
0.0
 10
2.6732981164
 20
6.4041899618
 30
0.0
 10
2.6689310236
 20
6.4037715403
 30
0.0
 10
2.6632896204
 20
6.4023848031
 30
0.0
 10
2.6591751783
 20
6.4009348794
 30
0.0
 10
2.6552244049
 20
6.3990875762
 30
0.0
 10
2.6514753185
 20
6.3968584943
 30
0.0
 10
2.6479650519
 20
6.3942690744
 30
0.0
 10
2.6447311066
 20
6.3913418156
 30
0.0
 10
2.6418035794
 20
6.388107966
 30
0.0
 10
2.63921401
 20
6.3845974956
 30
0.0
 10
2.6369843747
 20
6.3808482764
 30
0.0
 10
2.6351369214
 20
6.3768970191
 30
0.0
 10
2.6336867646
 20
6.3727821622
 30
0.0
 10
2.6322998411
 20
6.3671404956
 30
0.0
 10
2.6318814804
 20
6.3627732951
 30
0.0
 10
2.6318812718
 20
6.3598738079
 30
0.0
  0
SPLINE
  5
3AE
100
AcDbEntity
  8
ALL_ASSEMBLY_MEMBERS
100
AcDbSpline
 62
7
  6
CONTINUOUS
 70
0
 71
3
 72
21
 73
17
 74
0
 42
0.0000001
 43
0.0000001
 44
0.0000000001
 40
0.0
 40
0.0
 40
0.0
 40
0.0
 40
0.1248761845
 40
0.1874153834
 40
0.249925513
 40
0.3124322046
 40
0.3749498828
 40
0.4374676479
 40
0.4999845664
 40
0.5625026841
 40
0.6250246763
 40
0.6875480711
 40
0.7500618472
 40
0.8125803472
 40
0.8751245507
 40
1.0
 40
1.0
 40
1.0
 40
1.0
 10
2.6318812718
 20
5.6758948256
 30
0.0
 10
2.6318814667
 20
5.6729953213
 30
0.0
 10
2.6322998883
 20
5.6686282285
 30
0.0
 10
2.6336866254
 20
5.6629868254
 30
0.0
 10
2.6351365492
 20
5.6588723833
 30
0.0
 10
2.6369838524
 20
5.6549216099
 30
0.0
 10
2.6392129343
 20
5.6511725235
 30
0.0
 10
2.6418023542
 20
5.6476622569
 30
0.0
 10
2.644729613
 20
5.6444283116
 30
0.0
 10
2.6479634626
 20
5.6415007844
 30
0.0
 10
2.651473933
 20
5.638911215
 30
0.0
 10
2.6552231521
 20
5.6366815797
 30
0.0
 10
2.6591744095
 20
5.6348341263
 30
0.0
 10
2.6632892663
 20
5.6333839696
 30
0.0
 10
2.668930933
 20
5.6319970461
 30
0.0
 10
2.6732981334
 20
5.6315786854
 30
0.0
 10
2.6761976207
 20
5.6315784767
 30
0.0
  0
SPLINE
  5
3AF
100
AcDbEntity
  8
ALL_ASSEMBLY_MEMBERS
100
AcDbSpline
 62
7
  6
CONTINUOUS
 70
0
 71
3
 72
19
 73
15
 74
0
 42
0.0000001
 43
0.0000001
 44
0.0000000001
 40
0.0
 40
0.0
 40
0.0
 40
0.0
 40
0.1247240327
 40
0.2496187989
 40
0.3121721266
 40
0.3747624547
 40
0.4373684844
 40
0.4999838172
 40
0.5626002394
 40
0.6252108576
 40
0.6878074687
 40
0.7503679925
 40
0.8752767893
 40
1.0
 40
1.0
 40
1.0
 40
1.0
 10
3.3897208355
 20
6.3598738079
 30
0.0
 10
3.3897486706
 20
6.361814123
 30
0.0
 10
3.3894371277
 20
6.365712703
 30
0.0
 10
3.3881077043
 20
6.3704190479
 30
0.0
 10
3.3864971965
 20
6.3739665492
 30
0.0
 10
3.3850232312
 20
6.376494569
 30
0.0
 10
3.383298245
 20
6.3788595157
 30
0.0
 10
3.3813373599
 20
6.3810335096
 30
0.0
 10
3.3791634418
 20
6.3829946004
 30
0.0
 10
3.3767983319
 20
6.3847196695
 30
0.0
 10
3.3742702303
 20
6.3861940557
 30
0.0
 10
3.3707222961
 20
6.3878046636
 30
0.0
 10
3.3660157071
 20
6.38913437
 30
0.0
 10
3.3621169053
 20
6.3894458751
 30
0.0
 10
3.3601766029
 20
6.3894180405
 30
0.0
  0
SPLINE
  5
3B0
100
AcDbEntity
  8
ALL_ASSEMBLY_MEMBERS
100
AcDbSpline
 62
7
  6
CONTINUOUS
 70
0
 71
3
 72
19
 73
15
 74
0
 42
0.0000001
 43
0.0000001
 44
0.0000000001
 40
0.0
 40
0.0
 40
0.0
 40
0.0
 40
0.1247240327
 40
0.2496187989
 40
0.3121721266
 40
0.3747624547
 40
0.4373684844
 40
0.4999838172
 40
0.5626002394
 40
0.6252108576
 40
0.6878074687
 40
0.7503679925
 40
0.8752767893
 40
1.0
 40
1.0
 40
1.0
 40
1.0
 10
3.3601766029
 20
5.646350593
 30
0.0
 10
3.3621169181
 20
5.646322758
 30
0.0
 10
3.3660154981
 20
5.6466343009
 30
0.0
 10
3.3707218429
 20
5.6479637242
 30
0.0
 10
3.3742693443
 20
5.6495742321
 30
0.0
 10
3.376797364
 20
5.6510481974
 30
0.0
 10
3.3791623107
 20
5.6527731835
 30
0.0
 10
3.3813363047
 20
5.6547340687
 30
0.0
 10
3.3832973955
 20
5.6569079867
 30
0.0
 10
3.3850224646
 20
5.6592730967
 30
0.0
 10
3.3864968507
 20
5.6618011982
 30
0.0
 10
3.3881074587
 20
5.6653491324
 30
0.0
 10
3.3894371651
 20
5.6700557214
 30
0.0
 10
3.3897486701
 20
5.6739545233
 30
0.0
 10
3.3897208355
 20
5.6758948256
 30
0.0
  0
SPLINE
  5
3B1
100
AcDbEntity
  8
ALL_ASSEMBLY_MEMBERS
100
AcDbSpline
 62
7
  6
CONTINUOUS
 70
0
 71
3
 72
19
 73
15
 74
0
 42
0.0000001
 43
0.0000001
 44
0.0000000001
 40
0.0
 40
0.0
 40
0.0
 40
0.0
 40
0.1247240327
 40
0.2496187989
 40
0.3121721266
 40
0.3747624547
 40
0.4373684844
 40
0.4999838172
 40
0.5626002394
 40
0.6252108576
 40
0.6878074687
 40
0.7503679925
 40
0.8752767893
 40
1.0
 40
1.0
 40
1.0
 40
1.0
 10
2.6466533881
 20
5.6758948256
 30
0.0
 10
2.646625553
 20
5.6739545105
 30
0.0
 10
2.6469370959
 20
5.6700559305
 30
0.0
 10
2.6482665193
 20
5.6653495856
 30
0.0
 10
2.6498770271
 20
5.6618020843
 30
0.0
 10
2.6513509924
 20
5.6592740645
 30
0.0
 10
2.6530759786
 20
5.6569091179
 30
0.0
 10
2.6550368637
 20
5.6547351239
 30
0.0
 10
2.6572107818
 20
5.6527740331
 30
0.0
 10
2.6595758917
 20
5.651048964
 30
0.0
 10
2.6621039933
 20
5.6495745779
 30
0.0
 10
2.6656519275
 20
5.6479639699
 30
0.0
 10
2.6703585165
 20
5.6466342635
 30
0.0
 10
2.6742573183
 20
5.6463227584
 30
0.0
 10
2.6761976207
 20
5.646350593
 30
0.0
  0
SPLINE
  5
3B2
100
AcDbEntity
  8
ALL_ASSEMBLY_MEMBERS
100
AcDbSpline
 62
7
  6
CONTINUOUS
 70
0
 71
3
 72
19
 73
15
 74
0
 42
0.0000001
 43
0.0000001
 44
0.0000000001
 40
0.0
 40
0.0
 40
0.0
 40
0.0
 40
0.1247240327
 40
0.2496187989
 40
0.3121721266
 40
0.3747624547
 40
0.4373684844
 40
0.4999838172
 40
0.5626002394
 40
0.6252108576
 40
0.6878074687
 40
0.7503679925
 40
0.8752767893
 40
1.0
 40
1.0
 40
1.0
 40
1.0
 10
7.2976766029
 20
5.646350593
 30
0.0
 10
7.2996169181
 20
5.646322758
 30
0.0
 10
7.3035154981
 20
5.6466343009
 30
0.0
 10
7.3082218429
 20
5.6479637242
 30
0.0
 10
7.3117693443
 20
5.6495742321
 30
0.0
 10
7.314297364
 20
5.6510481974
 30
0.0
 10
7.3166623107
 20
5.6527731835
 30
0.0
 10
7.3188363047
 20
5.6547340687
 30
0.0
 10
7.3207973955
 20
5.6569079867
 30
0.0
 10
7.3225224646
 20
5.6592730967
 30
0.0
 10
7.3239968507
 20
5.6618011982
 30
0.0
 10
7.3256074587
 20
5.6653491324
 30
0.0
 10
7.3269371651
 20
5.6700557214
 30
0.0
 10
7.3272486701
 20
5.6739545233
 30
0.0
 10
7.3272208355
 20
5.6758948256
 30
0.0
  0
SPLINE
  5
3B3
100
AcDbEntity
  8
ALL_ASSEMBLY_MEMBERS
100
AcDbSpline
 62
7
  6
CONTINUOUS
 70
0
 71
3
 72
21
 73
17
 74
0
 42
0.0000001
 43
0.0000001
 44
0.0000000001
 40
0.0
 40
0.0
 40
0.0
 40
0.0
 40
0.1248761845
 40
0.1874153834
 40
0.249925513
 40
0.3124322046
 40
0.3749498828
 40
0.4374676479
 40
0.4999845664
 40
0.5625026841
 40
0.6250246763
 40
0.6875480711
 40
0.7500618472
 40
0.8125803472
 40
0.8751245507
 40
1.0
 40
1.0
 40
1.0
 40
1.0
 10
6.6136976207
 20
6.4041901568
 30
0.0
 10
6.6107981164
 20
6.4041899618
 30
0.0
 10
6.6064310236
 20
6.4037715403
 30
0.0
 10
6.6007896204
 20
6.4023848031
 30
0.0
 10
6.5966751783
 20
6.4009348794
 30
0.0
 10
6.5927244049
 20
6.3990875762
 30
0.0
 10
6.5889753185
 20
6.3968584943
 30
0.0
 10
6.5854650519
 20
6.3942690744
 30
0.0
 10
6.5822311066
 20
6.3913418156
 30
0.0
 10
6.5793035794
 20
6.388107966
 30
0.0
 10
6.57671401
 20
6.3845974956
 30
0.0
 10
6.5744843747
 20
6.3808482764
 30
0.0
 10
6.5726369214
 20
6.3768970191
 30
0.0
 10
6.5711867646
 20
6.3727821622
 30
0.0
 10
6.5697998411
 20
6.3671404956
 30
0.0
 10
6.5693814804
 20
6.3627732951
 30
0.0
 10
6.5693812718
 20
6.3598738079
 30
0.0
  0
SPLINE
  5
3B4
100
AcDbEntity
  8
ALL_ASSEMBLY_MEMBERS
100
AcDbSpline
 62
7
  6
CONTINUOUS
 70
0
 71
3
 72
21
 73
17
 74
0
 42
0.0000001
 43
0.0000001
 44
0.0000000001
 40
0.0
 40
0.0
 40
0.0
 40
0.0
 40
0.1248761845
 40
0.1874153834
 40
0.249925513
 40
0.3124322046
 40
0.3749498828
 40
0.4374676479
 40
0.4999845664
 40
0.5625026841
 40
0.6250246763
 40
0.6875480711
 40
0.7500618472
 40
0.8125803472
 40
0.8751245507
 40
1.0
 40
1.0
 40
1.0
 40
1.0
 10
6.5693812718
 20
5.6758948256
 30
0.0
 10
6.5693814667
 20
5.6729953213
 30
0.0
 10
6.5697998883
 20
5.6686282285
 30
0.0
 10
6.5711866254
 20
5.6629868254
 30
0.0
 10
6.5726365492
 20
5.6588723833
 30
0.0
 10
6.5744838524
 20
5.6549216099
 30
0.0
 10
6.5767129343
 20
5.6511725235
 30
0.0
 10
6.5793023542
 20
5.6476622569
 30
0.0
 10
6.582229613
 20
5.6444283116
 30
0.0
 10
6.5854634626
 20
5.6415007844
 30
0.0
 10
6.588973933
 20
5.638911215
 30
0.0
 10
6.5927231521
 20
5.6366815797
 30
0.0
 10
6.5966744095
 20
5.6348341263
 30
0.0
 10
6.6007892663
 20
5.6333839696
 30
0.0
 10
6.606430933
 20
5.6319970461
 30
0.0
 10
6.6107981334
 20
5.6315786854
 30
0.0
 10
6.6136976207
 20
5.6315784767
 30
0.0
  0
SPLINE
  5
3B5
100
AcDbEntity
  8
ALL_ASSEMBLY_MEMBERS
100
AcDbSpline
 62
7
  6
CONTINUOUS
 70
0
 71
3
 72
21
 73
17
 74
0
 42
0.0000001
 43
0.0000001
 44
0.0000000001
 40
0.0
 40
0.0
 40
0.0
 40
0.0
 40
0.1248761845
 40
0.1874153834
 40
0.249925513
 40
0.3124322046
 40
0.3749498828
 40
0.4374676479
 40
0.4999845664
 40
0.5625026841
 40
0.6250246763
 40
0.6875480711
 40
0.7500618472
 40
0.8125803472
 40
0.8751245507
 40
1.0
 40
1.0
 40
1.0
 40
1.0
 10
7.2976766029
 20
5.6315784767
 30
0.0
 10
7.3005761073
 20
5.6315786717
 30
0.0
 10
7.3049432
 20
5.6319970932
 30
0.0
 10
7.3105846032
 20
5.6333838304
 30
0.0
 10
7.3146990453
 20
5.6348337542
 30
0.0
 10
7.3186498187
 20
5.6366810573
 30
0.0
 10
7.3223989051
 20
5.6389101392
 30
0.0
 10
7.3259091717
 20
5.6414995592
 30
0.0
 10
7.329143117
 20
5.644426818
 30
0.0
 10
7.3320706442
 20
5.6476606676
 30
0.0
 10
7.3346602136
 20
5.6511711379
 30
0.0
 10
7.3368898489
 20
5.6549203571
 30
0.0
 10
7.3387373022
 20
5.6588716145
 30
0.0
 10
7.340187459
 20
5.6629864713
 30
0.0
 10
7.3415743825
 20
5.6686281379
 30
0.0
 10
7.3419927432
 20
5.6729953384
 30
0.0
 10
7.3419929518
 20
5.6758948256
 30
0.0
  0
SPLINE
  5
3B6
100
AcDbEntity
  8
ALL_ASSEMBLY_MEMBERS
100
AcDbSpline
 62
7
  6
CONTINUOUS
 70
0
 71
3
 72
21
 73
17
 74
0
 42
0.0000001
 43
0.0000001
 44
0.0000000001
 40
0.0
 40
0.0
 40
0.0
 40
0.0
 40
0.1248761845
 40
0.1874153834
 40
0.249925513
 40
0.3124322046
 40
0.3749498828
 40
0.4374676479
 40
0.4999845664
 40
0.5625026841
 40
0.6250246763
 40
0.6875480711
 40
0.7500618472
 40
0.8125803472
 40
0.8751245507
 40
1.0
 40
1.0
 40
1.0
 40
1.0
 10
7.3419929518
 20
6.3598738079
 30
0.0
 10
7.3419927569
 20
6.3627733122
 30
0.0
 10
7.3415743353
 20
6.367140405
 30
0.0
 10
7.3401875982
 20
6.3727818082
 30
0.0
 10
7.3387376744
 20
6.3768962503
 30
0.0
 10
7.3368903712
 20
6.3808470236
 30
0.0
 10
7.3346612893
 20
6.3845961101
 30
0.0
 10
7.3320718694
 20
6.3881063766
 30
0.0
 10
7.3291446106
 20
6.391340322
 30
0.0
 10
7.325910761
 20
6.3942678491
 30
0.0
 10
7.3224002906
 20
6.3968574186
 30
0.0
 10
7.3186510715
 20
6.3990870538
 30
0.0
 10
7.3146998141
 20
6.4009345072
 30
0.0
 10
7.3105849573
 20
6.4023846639
 30
0.0
 10
7.3049432906
 20
6.4037715874
 30
0.0
 10
7.3005760902
 20
6.4041899482
 30
0.0
 10
7.2976766029
 20
6.4041901568
 30
0.0
  0
SPLINE
  5
3B7
100
AcDbEntity
  8
ALL_ASSEMBLY_MEMBERS
100
AcDbSpline
 62
7
  6
CONTINUOUS
 70
0
 71
3
 72
19
 73
15
 74
0
 42
0.0000001
 43
0.0000001
 44
0.0000000001
 40
0.0
 40
0.0
 40
0.0
 40
0.0
 40
0.1247240327
 40
0.2496187989
 40
0.3121721266
 40
0.3747624547
 40
0.4373684844
 40
0.4999838172
 40
0.5626002394
 40
0.6252108576
 40
0.6878074687
 40
0.7503679925
 40
0.8752767893
 40
1.0
 40
1.0
 40
1.0
 40
1.0
 10
6.5841533881
 20
5.6758948256
 30
0.0
 10
6.584125553
 20
5.6739545105
 30
0.0
 10
6.5844370959
 20
5.6700559305
 30
0.0
 10
6.5857665193
 20
5.6653495856
 30
0.0
 10
6.5873770271
 20
5.6618020843
 30
0.0
 10
6.5888509924
 20
5.6592740645
 30
0.0
 10
6.5905759786
 20
5.6569091179
 30
0.0
 10
6.5925368637
 20
5.6547351239
 30
0.0
 10
6.5947107818
 20
5.6527740331
 30
0.0
 10
6.5970758917
 20
5.651048964
 30
0.0
 10
6.5996039933
 20
5.6495745779
 30
0.0
 10
6.6031519275
 20
5.6479639699
 30
0.0
 10
6.6078585165
 20
5.6466342635
 30
0.0
 10
6.6117573183
 20
5.6463227584
 30
0.0
 10
6.6136976207
 20
5.646350593
 30
0.0
  0
SPLINE
  5
3B8
100
AcDbEntity
  8
ALL_ASSEMBLY_MEMBERS
100
AcDbSpline
 62
7
  6
CONTINUOUS
 70
0
 71
3
 72
19
 73
15
 74
0
 42
0.0000001
 43
0.0000001
 44
0.0000000001
 40
0.0
 40
0.0
 40
0.0
 40
0.0
 40
0.1247240327
 40
0.2496187989
 40
0.3121721266
 40
0.3747624547
 40
0.4373684844
 40
0.4999838172
 40
0.5626002394
 40
0.6252108576
 40
0.6878074687
 40
0.7503679925
 40
0.8752767893
 40
1.0
 40
1.0
 40
1.0
 40
1.0
 10
6.6136976207
 20
6.3894180405
 30
0.0
 10
6.6117573055
 20
6.3894458756
 30
0.0
 10
6.6078587255
 20
6.3891343327
 30
0.0
 10
6.6031523807
 20
6.3878049093
 30
0.0
 10
6.5996048794
 20
6.3861944014
 30
0.0
 10
6.5970768596
 20
6.3847204362
 30
0.0
 10
6.5947119129
 20
6.38299545
 30
0.0
 10
6.5925379189
 20
6.3810345648
 30
0.0
 10
6.5905768281
 20
6.3788606468
 30
0.0
 10
6.588851759
 20
6.3764955369
 30
0.0
 10
6.5873773729
 20
6.3739674353
 30
0.0
 10
6.5857667649
 20
6.3704195011
 30
0.0
 10
6.5844370586
 20
6.3657129121
 30
0.0
 10
6.5841255535
 20
6.3618141103
 30
0.0
 10
6.5841533881
 20
6.3598738079
 30
0.0
  0
SPLINE
  5
3B9
100
AcDbEntity
  8
ALL_ASSEMBLY_MEMBERS
100
AcDbSpline
 62
7
  6
CONTINUOUS
 70
0
 71
3
 72
19
 73
15
 74
0
 42
0.0000001
 43
0.0000001
 44
0.0000000001
 40
0.0
 40
0.0
 40
0.0
 40
0.0
 40
0.1247240327
 40
0.2496187989
 40
0.3121721266
 40
0.3747624547
 40
0.4373684844
 40
0.4999838172
 40
0.5626002394
 40
0.6252108576
 40
0.6878074687
 40
0.7503679925
 40
0.8752767893
 40
1.0
 40
1.0
 40
1.0
 40
1.0
 10
7.3272208355
 20
6.3598738079
 30
0.0
 10
7.3272486706
 20
6.361814123
 30
0.0
 10
7.3269371277
 20
6.365712703
 30
0.0
 10
7.3256077043
 20
6.3704190479
 30
0.0
 10
7.3239971965
 20
6.3739665492
 30
0.0
 10
7.3225232312
 20
6.376494569
 30
0.0
 10
7.320798245
 20
6.3788595157
 30
0.0
 10
7.3188373599
 20
6.3810335096
 30
0.0
 10
7.3166634418
 20
6.3829946004
 30
0.0
 10
7.3142983319
 20
6.3847196695
 30
0.0
 10
7.3117702303
 20
6.3861940557
 30
0.0
 10
7.3082222961
 20
6.3878046636
 30
0.0
 10
7.3035157071
 20
6.38913437
 30
0.0
 10
7.2996169053
 20
6.3894458751
 30
0.0
 10
7.2976766029
 20
6.3894180405
 30
0.0
  0
SPLINE
  5
3BA
100
AcDbEntity
  8
ALL_ASSEMBLY_MEMBERS
100
AcDbSpline
 62
7
  6
CONTINUOUS
 70
0
 71
3
 72
19
 73
15
 74
0
 42
0.0000001
 43
0.0000001
 44
0.0000000001
 40
0.0
 40
0.0
 40
0.0
 40
0.0
 40
0.1850227047
 40
0.3630423567
 40
0.5276753678
 40
0.6736116608
 40
0.7380998043
 40
0.7962057069
 40
0.8475274043
 40
0.8918014832
 40
0.9288529942
 40
0.9587403851
 40
0.9819932483
 40
1.0
 40
1.0
 40
1.0
 40
1.0
 10
4.6890111639
 20
2.6547125653
 30
0.0
 10
4.6871856354
 20
2.6550250716
 30
0.0
 10
4.6835937074
 20
2.6555816478
 30
0.0
 10
4.6783491833
 20
2.6562189028
 30
0.0
 10
4.6734744483
 20
2.6566290771
 30
0.0
 10
4.6697211074
 20
2.6567776607
 30
0.0
 10
4.6670327061
 20
2.656759853
 30
0.0
 10
4.665292955
 20
2.6566844452
 30
0.0
 10
4.6637598169
 20
2.6565476212
 30
0.0
 10
4.6624455718
 20
2.6563512884
 30
0.0
 10
4.6613598152
 20
2.6560980413
 30
0.0
 10
4.660508602
 20
2.6557870467
 30
0.0
 10
4.6598902688
 20
2.6554237662
 30
0.0
 10
4.6596105717
 20
2.6550995845
 30
0.0
 10
4.6595359016
 20
2.6549355303
 30
0.0
  0
SPLINE
  5
3BB
100
AcDbEntity
  8
ALL_ASSEMBLY_MEMBERS
100
AcDbSpline
 62
7
  6
CONTINUOUS
 70
0
 71
3
 72
17
 73
13
 74
0
 42
0.0000001
 43
0.0000001
 44
0.0000000001
 40
0.0
 40
0.0
 40
0.0
 40
0.0
 40
0.1247462047
 40
0.1873785099
 40
0.2499680319
 40
0.374870767
 40
0.49981216
 40
0.624774872
 40
0.7497539879
 40
0.8124071581
 40
0.875114293
 40
1.0
 40
1.0
 40
1.0
 40
1.0
 10
4.689011164
 20
2.6195031203
 30
0.0
 10
4.6868290653
 20
2.6195031203
 30
0.0
 10
4.6835374572
 20
2.6198695257
 30
0.0
 10
4.6793210055
 20
2.6210506355
 30
0.0
 10
4.675256452
 20
2.6226914455
 30
0.0
 10
4.6705503395
 20
2.6255627156
 30
0.0
 10
4.6657982057
 20
2.6301541948
 30
0.0
 10
4.662147425
 20
2.6356635111
 30
0.0
 10
4.6601779804
 20
2.6408155634
 30
0.0
 10
4.6593021406
 20
2.6451142498
 30
0.0
 10
4.6589051631
 20
2.6494798073
 30
0.0
 10
4.6591406979
 20
2.6527870368
 30
0.0
 10
4.6595359016
 20
2.6549355303
 30
0.0
  0
SPLINE
  5
3BC
100
AcDbEntity
  8
ALL_ASSEMBLY_MEMBERS
100
AcDbSpline
 62
7
  6
CONTINUOUS
 70
0
 71
3
 72
15
 73
11
 74
0
 42
0.0000001
 43
0.0000001
 44
0.0000000001
 40
0.0
 40
0.0
 40
0.0
 40
0.0
 40
0.1250007848
 40
0.2499721502
 40
0.3748651148
 40
0.4998130931
 40
0.6247789116
 40
0.7497418725
 40
0.8748473538
 40
1.0
 40
1.0
 40
1.0
 40
1.0
 10
4.6590619849
 20
2.6196867636
 30
0.0
 10
4.6572121658
 20
2.6198927014
 30
0.0
 10
4.6535414843
 20
2.6206478677
 30
0.0
 10
4.6483514538
 20
2.6227850062
 30
0.0
 10
4.6436456549
 20
2.6258462493
 30
0.0
 10
4.6395935469
 20
2.6297304123
 30
0.0
 10
4.6363236972
 20
2.6342938902
 30
0.0
 10
4.6339593255
 20
2.6393892485
 30
0.0
 10
4.6325785809
 20
2.6448349965
 30
0.0
 10
4.6323490791
 20
2.6485796521
 30
0.0
 10
4.6324061712
 20
2.6504422857
 30
0.0
  0
SPLINE
  5
3BD
100
AcDbEntity
  8
ALL_ASSEMBLY_MEMBERS
100
AcDbSpline
 62
7
  6
CONTINUOUS
 70
0
 71
3
 72
9
 73
5
 74
0
 42
0.0000001
 43
0.0000001
 44
0.0000000001
 40
0.0
 40
0.0
 40
0.0
 40
0.0
 40
0.4997351403
 40
1.0
 40
1.0
 40
1.0
 40
1.0
 10
4.4912828784
 20
2.5349524671
 30
0.0
 10
4.4926298891
 20
2.5326905293
 30
0.0
 10
4.4959398585
 20
2.528502166
 30
0.0
 10
4.5002445459
 20
2.5253422494
 30
0.0
 10
4.5025581521
 20
2.5240802162
 30
0.0
  0
SPLINE
  5
3BE
100
AcDbEntity
  8
ALL_ASSEMBLY_MEMBERS
100
AcDbSpline
 62
7
  6
CONTINUOUS
 70
0
 71
3
 72
9
 73
5
 74
0
 42
0.0000001
 43
0.0000001
 44
0.0000000001
 40
0.0
 40
0.0
 40
0.0
 40
0.0
 40
0.4999354999
 40
1.0
 40
1.0
 40
1.0
 40
1.0
 10
4.5025581521
 20
2.5240802162
 30
0.0
 10
4.5047322279
 20
2.522894302
 30
0.0
 10
4.5093865822
 20
2.5210379752
 30
0.0
 10
4.514364193
 20
2.5204189822
 30
0.0
 10
4.516841297
 20
2.5204299182
 30
0.0
  0
SPLINE
  5
3BF
100
AcDbEntity
  8
ALL_ASSEMBLY_MEMBERS
100
AcDbSpline
 62
7
  6
CONTINUOUS
 70
0
 71
3
 72
9
 73
5
 74
0
 42
0.0000001
 43
0.0000001
 44
0.0000000001
 40
0.0
 40
0.0
 40
0.0
 40
0.0
 40
0.4996383359
 40
1.0
 40
1.0
 40
1.0
 40
1.0
 10
4.4870013345
 20
2.5505760306
 30
0.0
 10
4.4869871767
 20
2.547852839
 30
0.0
 10
4.4877034492
 20
2.5423710319
 30
0.0
 10
4.4898875547
 20
2.5372956556
 30
0.0
 10
4.4912828784
 20
2.5349524671
 30
0.0
  0
SPLINE
  5
3C0
100
AcDbEntity
  8
ALL_ASSEMBLY_MEMBERS
100
AcDbSpline
 62
7
  6
CONTINUOUS
 70
0
 71
3
 72
9
 73
5
 74
0
 42
0.0000001
 43
0.0000001
 44
0.0000000001
 40
0.0
 40
0.0
 40
0.0
 40
0.0
 40
0.5001044591
 40
1.0
 40
1.0
 40
1.0
 40
1.0
 10
5.4688166642
 20
2.52408047
 30
0.0
 10
5.471129435
 20
2.525342043
 30
0.0
 10
5.4754339613
 20
2.5285017251
 30
0.0
 10
5.4787439698
 20
2.5326898192
 30
0.0
 10
5.4800914071
 20
2.5349523598
 30
0.0
  0
SPLINE
  5
3C1
100
AcDbEntity
  8
ALL_ASSEMBLY_MEMBERS
100
AcDbSpline
 62
7
  6
CONTINUOUS
 70
0
 71
3
 72
9
 73
5
 74
0
 42
0.0000001
 43
0.0000001
 44
0.0000000001
 40
0.0
 40
0.0
 40
0.0
 40
0.0
 40
0.5002896474
 40
1.0
 40
1.0
 40
1.0
 40
1.0
 10
5.4800914071
 20
2.5349523598
 30
0.0
 10
5.481486546
 20
2.5372952245
 30
0.0
 10
5.4836707739
 20
2.5423705608
 30
0.0
 10
5.4843871704
 20
2.5478524224
 30
0.0
 10
5.4843730133
 20
2.5505760262
 30
0.0
  0
SPLINE
  5
3C2
100
AcDbEntity
  8
ALL_ASSEMBLY_MEMBERS
100
AcDbSpline
 62
7
  6
CONTINUOUS
 70
0
 71
3
 72
9
 73
5
 74
0
 42
0.0000001
 43
0.0000001
 44
0.0000000001
 40
0.0
 40
0.0
 40
0.0
 40
0.0
 40
0.4999137805
 40
1.0
 40
1.0
 40
1.0
 40
1.0
 10
5.4545330532
 20
2.5204299161
 30
0.0
 10
5.4570094962
 20
2.520418963
 30
0.0
 10
5.4619872488
 20
2.5210379116
 30
0.0
 10
5.4666418585
 20
2.5228941556
 30
0.0
 10
5.4688166642
 20
2.52408047
 30
0.0
  0
SPLINE
  5
3C3
100
AcDbEntity
  8
ALL_ASSEMBLY_MEMBERS
100
AcDbSpline
 62
7
  6
CONTINUOUS
 70
0
 71
3
 72
15
 73
11
 74
0
 42
0.0000001
 43
0.0000001
 44
0.0000000001
 40
0.0
 40
0.0
 40
0.0
 40
0.0
 40
0.1250007878
 40
0.249972152
 40
0.3748651148
 40
0.499813098
 40
0.6247789206
 40
0.7497418772
 40
0.8748473539
 40
1.0
 40
1.0
 40
1.0
 40
1.0
 10
5.312312244
 20
2.6196867642
 30
0.0
 10
5.3141620628
 20
2.6198927023
 30
0.0
 10
5.3178327436
 20
2.6206478692
 30
0.0
 10
5.3230227731
 20
2.6227850079
 30
0.0
 10
5.3277285709
 20
2.6258462511
 30
0.0
 10
5.3317806779
 20
2.629730414
 30
0.0
 10
5.3350505271
 20
2.6342938913
 30
0.0
 10
5.3374148983
 20
2.6393892488
 30
0.0
 10
5.3387956425
 20
2.6448349959
 30
0.0
 10
5.3390251444
 20
2.6485796508
 30
0.0
 10
5.3389680525
 20
2.6504422841
 30
0.0
  0
SPLINE
  5
3C4
100
AcDbEntity
  8
ALL_ASSEMBLY_MEMBERS
100
AcDbSpline
 62
7
  6
CONTINUOUS
 70
0
 71
3
 72
17
 73
13
 74
0
 42
0.0000001
 43
0.0000001
 44
0.0000000001
 40
0.0
 40
0.0
 40
0.0
 40
0.0
 40
0.1247462032
 40
0.1873785077
 40
0.2499680302
 40
0.3748707675
 40
0.4998121562
 40
0.6247748647
 40
0.7497539856
 40
0.812407158
 40
0.8751142935
 40
1.0
 40
1.0
 40
1.0
 40
1.0
 10
5.2823630596
 20
2.6195031203
 30
0.0
 10
5.2845451583
 20
2.6195031203
 30
0.0
 10
5.2878367663
 20
2.6198695256
 30
0.0
 10
5.292053218
 20
2.6210506355
 30
0.0
 10
5.2961177716
 20
2.6226914455
 30
0.0
 10
5.300823884
 20
2.6255627156
 30
0.0
 10
5.3055760179
 20
2.6301541946
 30
0.0
 10
5.3092267984
 20
2.6356635109
 30
0.0
 10
5.3111962431
 20
2.6408155632
 30
0.0
 10
5.312072083
 20
2.6451142497
 30
0.0
 10
5.3124690605
 20
2.6494798073
 30
0.0
 10
5.3122335257
 20
2.6527870368
 30
0.0
 10
5.311838322
 20
2.6549355303
 30
0.0
  0
SPLINE
  5
3C5
100
AcDbEntity
  8
ALL_ASSEMBLY_MEMBERS
100
AcDbSpline
 62
7
  6
CONTINUOUS
 70
0
 71
3
 72
19
 73
15
 74
0
 42
0.0000001
 43
0.0000001
 44
0.0000000001
 40
0.0
 40
0.0
 40
0.0
 40
0.0
 40
0.1850227049
 40
0.3630423585
 40
0.5276753716
 40
0.6736116649
 40
0.7380998083
 40
0.7962057112
 40
0.8475274083
 40
0.8918014866
 40
0.9288529973
 40
0.9587403871
 40
0.9819932488
 40
1.0
 40
1.0
 40
1.0
 40
1.0
 10
5.2823630597
 20
2.6547125653
 30
0.0
 10
5.2841885882
 20
2.6550250716
 30
0.0
 10
5.2877805163
 20
2.6555816478
 30
0.0
 10
5.2930250404
 20
2.6562189028
 30
0.0
 10
5.2978997754
 20
2.6566290772
 30
0.0
 10
5.3016531164
 20
2.6567776607
 30
0.0
 10
5.3043415177
 20
2.656759853
 30
0.0
 10
5.3060812688
 20
2.6566844452
 30
0.0
 10
5.3076144068
 20
2.6565476212
 30
0.0
 10
5.308928652
 20
2.6563512884
 30
0.0
 10
5.3100144085
 20
2.6560980413
 30
0.0
 10
5.3108656217
 20
2.6557870467
 30
0.0
 10
5.3114839548
 20
2.6554237662
 30
0.0
 10
5.3117636519
 20
2.6550995845
 30
0.0
 10
5.311838322
 20
2.6549355303
 30
0.0
  0
SPLINE
  5
3C6
100
AcDbEntity
  8
ALL_ASSEMBLY_MEMBERS
100
AcDbSpline
 62
7
  6
CONTINUOUS
 70
0
 71
3
 72
18
 73
14
 74
0
 42
0.0000001
 43
0.0000001
 44
0.0000000001
 40
0.0
 40
0.0
 40
0.0
 40
0.0
 40
0.180725452
 40
0.3553689372
 40
0.5175410945
 40
0.6623218922
 40
0.7854281337
 40
0.8378089128
 40
0.8835963637
 40
0.9225461344
 40
0.9546675021
 40
0.9802248252
 40
1.0
 40
1.0
 40
1.0
 40
1.0
 10
5.193288717
 20
3.1594902687
 30
0.0
 10
5.1950567135
 20
3.1597927672
 30
0.0
 10
5.1985426775
 20
3.1603337019
 30
0.0
 10
5.2036415884
 20
3.1609617149
 30
0.0
 10
5.2084047156
 20
3.1613758276
 30
0.0
 10
5.2126700471
 20
3.1615661991
 30
0.0
 10
5.2158513757
 20
3.1615353516
 30
0.0
 10
5.2180424191
 20
3.1613757374
 30
0.0
 10
5.2193935109
 20
3.1612056021
 30
0.0
 10
5.2205322731
 20
3.1609797771
 30
0.0
 10
5.2214525508
 20
3.1607006415
 30
0.0
 10
5.2221508525
 20
3.1603732073
 30
0.0
 10
5.2225087987
 20
3.1600845014
 30
0.0
 10
5.2226297432
 20
3.1599299269
 30
0.0
  0
SPLINE
  5
3C7
100
AcDbEntity
  8
ALL_ASSEMBLY_MEMBERS
100
AcDbSpline
 62
7
  6
CONTINUOUS
 70
0
 71
3
 72
9
 73
5
 74
0
 42
0.0000001
 43
0.0000001
 44
0.0000000001
 40
0.0
 40
0.0
 40
0.0
 40
0.0
 40
0.4998482712
 40
1.0
 40
1.0
 40
1.0
 40
1.0
 10
5.4797730897
 20
3.5002951406
 30
0.0
 10
5.4784285531
 20
3.5026854292
 30
0.0
 10
5.4750544889
 20
3.5071146247
 30
0.0
 10
5.4705782756
 20
3.5104275868
 30
0.0
 10
5.468166668
 20
3.5117369919
 30
0.0
  0
SPLINE
  5
3C8
100
AcDbEntity
  8
ALL_ASSEMBLY_MEMBERS
100
AcDbSpline
 62
7
  6
CONTINUOUS
 70
0
 71
3
 72
9
 73
5
 74
0
 42
0.0000001
 43
0.0000001
 44
0.0000000001
 40
0.0
 40
0.0
 40
0.0
 40
0.0
 40
0.5001467724
 40
1.0
 40
1.0
 40
1.0
 40
1.0
 10
5.468166668
 20
3.5117369919
 30
0.0
 10
5.4659805006
 20
3.5129239462
 30
0.0
 10
5.4613021836
 20
3.514776918
 30
0.0
 10
5.456302486
 20
3.5153817107
 30
0.0
 10
5.4538163981
 20
3.5153645821
 30
0.0
  0
SPLINE
  5
3C9
100
AcDbEntity
  8
ALL_ASSEMBLY_MEMBERS
100
AcDbSpline
 62
7
  6
CONTINUOUS
 70
0
 71
3
 72
9
 73
5
 74
0
 42
0.0000001
 43
0.0000001
 44
0.0000000001
 40
0.0
 40
0.0
 40
0.0
 40
0.0
 40
0.4999354948
 40
1.0
 40
1.0
 40
1.0
 40
1.0
 10
4.4656871118
 20
2.5195347055
 30
0.0
 10
4.4684017985
 20
2.5150278802
 30
0.0
 10
4.4750531606
 20
2.506693768
 30
0.0
 10
4.4836634462
 20
2.5004023739
 30
0.0
 10
4.4882845581
 20
2.4978843168
 30
0.0
  0
SPLINE
  5
3CA
100
AcDbEntity
  8
ALL_ASSEMBLY_MEMBERS
100
AcDbSpline
 62
7
  6
CONTINUOUS
 70
0
 71
3
 72
9
 73
5
 74
0
 42
0.0000001
 43
0.0000001
 44
0.0000000001
 40
0.0
 40
0.0
 40
0.0
 40
0.0
 40
0.4999076584
 40
1.0
 40
1.0
 40
1.0
 40
1.0
 10
5.4830897913
 20
2.4978843168
 30
0.0
 10
5.4877094644
 20
2.5004014789
 30
0.0
 10
5.4963198107
 20
2.5066925155
 30
0.0
 10
5.5029714753
 20
2.5150263665
 30
0.0
 10
5.5056871118
 20
2.5195344987
 30
0.0
  0
SPLINE
  5
3CB
100
AcDbEntity
  8
ALL_ASSEMBLY_MEMBERS
100
AcDbSpline
 62
7
  6
CONTINUOUS
 70
0
 71
3
 72
9
 73
5
 74
0
 42
0.0000001
 43
0.0000001
 44
0.0000000001
 40
0.0
 40
0.0
 40
0.0
 40
0.0
 40
0.4999476057
 40
1.0
 40
1.0
 40
1.0
 40
1.0
 10
5.5056871118
 20
3.5150397047
 30
0.0
 10
5.5029753005
 20
3.5198058271
 30
0.0
 10
5.4961993537
 20
3.5286318114
 30
0.0
 10
5.4872580307
 20
3.5352557688
 30
0.0
 10
5.4824441772
 20
3.5378843168
 30
0.0
  0
LINE
  5
3CC
100
AcDbEntity
  8
ALL_ASSEMBLY_MEMBERS
100
AcDbLine
 62
7
  6
CONTINUOUS
 10
5.2823630597
 20
2.6547125656
 11
5.1932887171
 21
3.1594902681
  0
LINE
  5
3CD
100
AcDbEntity
  8
ALL_ASSEMBLY_MEMBERS
100
AcDbLine
 62
7
  6
CONTINUOUS
 10
4.7780855065
 20
3.1594902681
 11
4.6890111639
 21
2.6547125656
  0
SPLINE
  5
3CE
100
AcDbEntity
  8
ALL_ASSEMBLY_MEMBERS
100
AcDbSpline
 62
7
  6
CONTINUOUS
 70
0
 71
3
 72
11
 73
7
 74
0
 42
0.0000001
 43
0.0000001
 44
0.0000000001
 40
0.0
 40
0.0
 40
0.0
 40
0.0
 40
0.2492557415
 40
0.499118713
 40
0.7494059193
 40
1.0
 40
1.0
 40
1.0
 40
1.0
 10
5.1932887171
 20
3.1841484278
 30
0.0
 10
5.214772809
 20
3.2117943324
 30
0.0
 10
5.2579184712
 20
3.2670562767
 30
0.0
 10
5.3229538938
 20
3.3498305561
 30
0.0
 10
5.3882816077
 20
3.43261392
 30
0.0
 10
5.4319519446
 20
3.487778077
 30
0.0
 10
5.4538163999
 20
3.5153644382
 30
0.0
  0
SPLINE
  5
3CF
100
AcDbEntity
  8
ALL_ASSEMBLY_MEMBERS
100
AcDbSpline
 62
7
  6
CONTINUOUS
 70
0
 71
3
 72
11
 73
7
 74
0
 42
0.0000001
 43
0.0000001
 44
0.0000000001
 40
0.0
 40
0.0
 40
0.0
 40
0.0
 40
0.2505938331
 40
0.5008810593
 40
0.7507436885
 40
1.0
 40
1.0
 40
1.0
 40
1.0
 10
4.5175576525
 20
3.5153644372
 30
0.0
 10
4.5394219714
 20
3.4877780012
 30
0.0
 10
4.5830922613
 20
3.4326138261
 30
0.0
 10
4.6484201536
 20
3.3498306712
 30
0.0
 10
4.7134552271
 20
3.2670560416
 30
0.0
 10
4.7566014391
 20
3.2117944637
 30
0.0
 10
4.7780855065
 20
3.1841484278
 30
0.0
  0
SPLINE
  5
3D0
100
AcDbEntity
  8
ALL_ASSEMBLY_MEMBERS
100
AcDbSpline
 62
7
  6
CONTINUOUS
 70
0
 71
3
 72
11
 73
7
 74
0
 42
0.0000001
 43
0.0000001
 44
0.0000000001
 40
0.0
 40
0.0
 40
0.0
 40
0.0
 40
0.2576428179
 40
0.5091266898
 40
0.7561974965
 40
1.0
 40
1.0
 40
1.0
 40
1.0
 10
4.6454079516
 20
2.7472359352
 30
0.0
 10
4.6329269519
 20
2.7286290388
 30
0.0
 10
4.6091797705
 20
2.6912399865
 30
0.0
 10
4.5761540274
 20
2.634359817
 30
0.0
 10
4.5455169675
 20
2.5775258944
 30
0.0
 10
4.526223961
 20
2.539442365
 30
0.0
 10
4.5168412966
 20
2.5204299175
 30
0.0
  0
SPLINE
  5
3D1
100
AcDbEntity
  8
ALL_ASSEMBLY_MEMBERS
100
AcDbSpline
 62
7
  6
CONTINUOUS
 70
0
 71
3
 72
11
 73
7
 74
0
 42
0.0000001
 43
0.0000001
 44
0.0000000001
 40
0.0
 40
0.0
 40
0.0
 40
0.0
 40
0.2438032438
 40
0.4908746523
 40
0.7423588891
 40
1.0
 40
1.0
 40
1.0
 40
1.0
 10
5.4545330525
 20
2.5204299175
 30
0.0
 10
5.445151021
 20
2.5394405569
 30
0.0
 10
5.4258601781
 20
2.5775208687
 30
0.0
 10
5.3952259881
 20
2.6343497182
 30
0.0
 10
5.3622033586
 20
2.6912245508
 30
0.0
 10
5.3384593734
 20
2.728610624
 30
0.0
 10
5.3259798833
 20
2.7472158527
 30
0.0
  0
SPLINE
  5
3D2
100
AcDbEntity
  8
ALL_ASSEMBLY_MEMBERS
100
AcDbSpline
 62
7
  6
CONTINUOUS
 70
0
 71
3
 72
9
 73
5
 74
0
 42
0.0000001
 43
0.0000001
 44
0.0000000001
 40
0.0
 40
0.0
 40
0.0
 40
0.0
 40
0.4996001851
 40
1.0
 40
1.0
 40
1.0
 40
1.0
 10
5.483651729
 20
3.4854190977
 30
0.0
 10
5.48366731
 20
3.4880011125
 30
0.0
 10
5.4830208729
 20
3.4931972853
 30
0.0
 10
5.4810409431
 20
3.4980410444
 30
0.0
 10
5.4797730897
 20
3.5002951406
 30
0.0
  0
SPLINE
  5
3D3
100
AcDbEntity
  8
ALL_ASSEMBLY_MEMBERS
100
AcDbSpline
 62
7
  6
CONTINUOUS
 70
0
 71
3
 72
11
 73
7
 74
0
 42
0.0000001
 43
0.0000001
 44
0.0000000001
 40
0.0
 40
0.0
 40
0.0
 40
0.0
 40
0.2412024894
 40
0.48679402
 40
0.7386716279
 40
1.0
 40
1.0
 40
1.0
 40
1.0
 10
5.4843728555
 20
2.5505760218
 30
0.0
 10
5.4732689584
 20
2.5732740551
 30
0.0
 10
5.45030503
 20
2.6188155696
 30
0.0
 10
5.4133645238
 20
2.6868306254
 30
0.0
 10
5.3726855097
 20
2.7551526905
 30
0.0
 10
5.3427889572
 20
2.7998859498
 30
0.0
 10
5.3268085299
 20
2.8221147751
 30
0.0
  0
SPLINE
  5
3D4
100
AcDbEntity
  8
ALL_ASSEMBLY_MEMBERS
100
AcDbSpline
 62
7
  6
CONTINUOUS
 70
0
 71
3
 72
25
 73
21
 74
0
 42
0.0000001
 43
0.0000001
 44
0.0000000001
 40
0.0
 40
0.0
 40
0.0
 40
0.0
 40
0.0256904435
 40
0.0356088499
 40
0.043992797
 40
0.0514322669
 40
0.0587531225
 40
0.0668211558
 40
0.0763024843
 40
0.1009729016
 40
0.1345405222
 40
0.1775890093
 40
0.2303501436
 40
0.2929168608
 40
0.3653028737
 40
0.4474347651
 40
0.5392074321
 40
0.6405037972
 40
0.7511931154
 40
1.0
 40
1.0
 40
1.0
 40
1.0
 10
5.3223381219
 20
2.8282914062
 30
0.0
 10
5.3222316037
 20
2.8284375115
 30
0.0
 10
5.3220702312
 20
2.8286335967
 30
0.0
 10
5.3218204763
 20
2.8288193184
 30
0.0
 10
5.3216528189
 20
2.828893403
 30
0.0
 10
5.3214874927
 20
2.8289107096
 30
0.0
 10
5.3213291917
 20
2.828867045
 30
0.0
 10
5.3211831342
 20
2.8287661429
 30
0.0
 10
5.320986109
 20
2.8285410269
 30
0.0
 10
5.3207746921
 20
2.8281072392
 30
0.0
 10
5.3205678072
 20
2.827424612
 30
0.0
 10
5.3203891594
 20
2.8265303558
 30
0.0
 10
5.3202400189
 20
2.8254253938
 30
0.0
 10
5.3201215987
 20
2.8241091884
 30
0.0
 10
5.3200348513
 20
2.8225836054
 30
0.0
 10
5.3199802434
 20
2.8208508989
 30
0.0
 10
5.3199582418
 20
2.8189140314
 30
0.0
 10
5.3199691995
 20
2.8167760968
 30
0.0
 10
5.3200307995
 20
2.8135335061
 30
0.0
 10
5.3201245772
 20
2.8110048333
 30
0.0
 10
5.3202034958
 20
2.8092554866
 30
0.0
  0
SPLINE
  5
3D5
100
AcDbEntity
  8
ALL_ASSEMBLY_MEMBERS
100
AcDbSpline
 62
7
  6
CONTINUOUS
 70
0
 71
3
 72
14
 73
10
 74
0
 42
0.0000001
 43
0.0000001
 44
0.0000000001
 40
0.0
 40
0.0
 40
0.0
 40
0.0
 40
0.0857452834
 40
0.18801211
 40
0.3044548836
 40
0.4324197817
 40
0.5690198386
 40
0.7112002679
 40
1.0
 40
1.0
 40
1.0
 40
1.0
 10
5.3202034958
 20
2.8092554866
 30
0.0
 10
5.3203756421
 20
2.8054396149
 30
0.0
 10
5.3208969092
 20
2.7970791738
 30
0.0
 10
5.3220188506
 20
2.7835623846
 30
0.0
 10
5.3235337172
 20
2.7681927879
 30
0.0
 10
5.3254026439
 20
2.7513226768
 30
0.0
 10
5.3275759172
 20
2.7333336548
 30
0.0
 10
5.3308189647
 20
2.7082579245
 30
0.0
 10
5.3334879394
 20
2.6892444094
 30
0.0
 10
5.3353546362
 20
2.6765151982
 30
0.0
  0
LINE
  5
3D6
100
AcDbEntity
  8
ALL_ASSEMBLY_MEMBERS
100
AcDbLine
 62
7
  6
CONTINUOUS
 10
5.3353546362
 20
2.6765151982
 11
5.3387058157
 21
2.653584349
  0
LINE
  5
3D7
100
AcDbEntity
  8
ALL_ASSEMBLY_MEMBERS
100
AcDbLine
 62
7
  6
CONTINUOUS
 10
5.3387058157
 20
2.653584349
 11
5.311838322
 21
2.6549355303
  0
SPLINE
  5
3D8
100
AcDbEntity
  8
ALL_ASSEMBLY_MEMBERS
100
AcDbSpline
 62
7
  6
CONTINUOUS
 70
0
 71
3
 72
10
 73
6
 74
0
 42
0.0000001
 43
0.0000001
 44
0.0000000001
 40
0.0
 40
0.0
 40
0.0
 40
0.0
 40
0.2483062
 40
0.4979811985
 40
1.0
 40
1.0
 40
1.0
 40
1.0
 10
5.2226297432
 20
3.1599299269
 30
0.0
 10
5.2443090207
 20
3.1868101038
 30
0.0
 10
5.2877037781
 20
3.2407858075
 30
0.0
 10
5.3746968952
 20
3.3492936772
 30
0.0
 10
5.4400235518
 20
3.4309108817
 30
0.0
 10
5.4836517636
 20
3.4854190942
 30
0.0
  0
SPLINE
  5
3D9
100
AcDbEntity
  8
ALL_ASSEMBLY_MEMBERS
100
AcDbSpline
 62
7
  6
CONTINUOUS
 70
0
 71
3
 72
11
 73
7
 74
0
 42
0.0000001
 43
0.0000001
 44
0.0000000001
 40
0.0
 40
0.0
 40
0.0
 40
0.0
 40
0.2513648908
 40
0.5020181719
 40
0.7516933013
 40
1.0
 40
1.0
 40
1.0
 40
1.0
 10
4.4877224598
 20
3.485419093
 30
0.0
 10
4.5095674462
 20
3.4581263775
 30
0.0
 10
4.5531971062
 20
3.4036194371
 30
0.0
 10
4.6185437364
 20
3.3220183228
 30
0.0
 10
4.6836713184
 20
3.2407867106
 30
0.0
 10
4.7270651536
 20
3.186810153
 30
0.0
 10
4.7487444804
 20
3.1599299269
 30
0.0
  0
LINE
  5
3DA
100
AcDbEntity
  8
ALL_ASSEMBLY_MEMBERS
100
AcDbLine
 62
7
  6
CONTINUOUS
 10
4.6595359016
 20
2.6549355303
 11
4.6326684079
 21
2.653584349
  0
LINE
  5
3DB
100
AcDbEntity
  8
ALL_ASSEMBLY_MEMBERS
100
AcDbLine
 62
7
  6
CONTINUOUS
 10
4.6326684079
 20
2.653584349
 11
4.6360195863
 21
2.676515191
  0
SPLINE
  5
3DC
100
AcDbEntity
  8
ALL_ASSEMBLY_MEMBERS
100
AcDbSpline
 62
7
  6
CONTINUOUS
 70
0
 71
3
 72
14
 73
10
 74
0
 42
0.0000001
 43
0.0000001
 44
0.0000000001
 40
0.0
 40
0.0
 40
0.0
 40
0.0
 40
0.2900075461
 40
0.4326646965
 40
0.5695627889
 40
0.6975722618
 40
0.81373738
 40
0.9153413595
 40
1.0
 40
1.0
 40
1.0
 40
1.0
 10
4.6360195863
 20
2.676515191
 30
0.0
 10
4.6379066231
 20
2.6893832079
 30
0.0
 10
4.6406028187
 20
2.7085989965
 30
0.0
 10
4.6438736481
 20
2.7339314589
 30
0.0
 10
4.6460597171
 20
2.7520781334
 30
0.0
 10
4.6479325733
 20
2.7690650666
 30
0.0
 10
4.6494412543
 20
2.7844988097
 30
0.0
 10
4.6505464814
 20
2.7980168815
 30
0.0
 10
4.6510496604
 20
2.8063561064
 30
0.0
 10
4.65120975
 20
2.8101493209
 30
0.0
  0
SPLINE
  5
3DD
100
AcDbEntity
  8
ALL_ASSEMBLY_MEMBERS
100
AcDbSpline
 62
7
  6
CONTINUOUS
 70
0
 71
3
 72
25
 73
21
 74
0
 42
0.0000001
 43
0.0000001
 44
0.0000000001
 40
0.0
 40
0.0
 40
0.0
 40
0.0
 40
0.2490078466
 40
0.3596728707
 40
0.4609047435
 40
0.5525646729
 40
0.6345221539
 40
0.706670631
 40
0.7689808952
 40
0.8214780251
 40
0.8642566381
 40
0.8975621665
 40
0.9220359163
 40
0.9314869776
 40
0.9395991957
 40
0.9470588749
 40
0.9547262303
 40
0.963397012
 40
0.9736331816
 40
1.0
 40
1.0
 40
1.0
 40
1.0
 10
4.65120975
 20
2.8101493209
 30
0.0
 10
4.6512805157
 20
2.8118260681
 30
0.0
 10
4.6513629094
 20
2.8142490029
 30
0.0
 10
4.6514108015
 20
2.8173550716
 30
0.0
 10
4.651413394
 20
2.819401037
 30
0.0
 10
4.6513844367
 20
2.8212533176
 30
0.0
 10
4.6513242217
 20
2.8229087666
 30
0.0
 10
4.6512330475
 20
2.8243646861
 30
0.0
 10
4.6511116122
 20
2.8256192283
 30
0.0
 10
4.6509608571
 20
2.8266708863
 30
0.0
 10
4.6507818231
 20
2.8275201989
 30
0.0
 10
4.650575788
 20
2.8281663566
 30
0.0
 10
4.6503654797
 20
2.8285746065
 30
0.0
 10
4.6501706596
 20
2.8287831506
 30
0.0
 10
4.6500261008
 20
2.82887475
 30
0.0
 10
4.6498702437
 20
2.8289108927
 30
0.0
 10
4.649708299
 20
2.8288888735
 30
0.0
 10
4.6495440052
 20
2.828812884
 30
0.0
 10
4.6492994674
 20
2.8286279145
 30
0.0
 10
4.6491407997
 20
2.8284349934
 30
0.0
 10
4.6490361017
 20
2.8282914063
 30
0.0
  0
SPLINE
  5
3DE
100
AcDbEntity
  8
ALL_ASSEMBLY_MEMBERS
100
AcDbSpline
 62
7
  6
CONTINUOUS
 70
0
 71
3
 72
11
 73
7
 74
0
 42
0.0000001
 43
0.0000001
 44
0.0000000001
 40
0.0
 40
0.0
 40
0.0
 40
0.0
 40
0.2613619537
 40
0.5132421059
 40
0.7588195251
 40
1.0
 40
1.0
 40
1.0
 40
1.0
 10
4.6448531395
 20
2.8225144518
 30
0.0
 10
4.6288364539
 20
2.8002545578
 30
0.0
 10
4.5988773839
 20
2.755456898
 30
0.0
 10
4.5581219794
 20
2.6870325845
 30
0.0
 10
4.5211207838
 20
2.6189165032
 30
0.0
 10
4.4981215093
 20
2.5733075889
 30
0.0
 10
4.4870013693
 20
2.5505760237
 30
0.0
  0
SPLINE
  5
3DF
100
AcDbEntity
  8
ALL_ASSEMBLY_MEMBERS
100
AcDbSpline
 62
7
  6
CONTINUOUS
 70
0
 71
3
 72
9
 73
5
 74
0
 42
0.0000001
 43
0.0000001
 44
0.0000000001
 40
0.0
 40
0.0
 40
0.0
 40
0.0
 40
0.4999461922
 40
1.0
 40
1.0
 40
1.0
 40
1.0
 10
4.4656871118
 20
3.515039727
 30
0.0
 10
4.4643233488
 20
3.5102425275
 30
0.0
 10
4.4623716555
 20
3.5004170728
 30
0.0
 10
4.4617486517
 20
3.4904322415
 30
0.0
 10
4.4617465642
 20
3.4854438873
 30
0.0
  0
SPLINE
  5
3E0
100
AcDbEntity
  8
ALL_ASSEMBLY_MEMBERS
100
AcDbSpline
 62
7
  6
CONTINUOUS
 70
0
 71
3
 72
9
 73
5
 74
0
 42
0.0000001
 43
0.0000001
 44
0.0000000001
 40
0.0
 40
0.0
 40
0.0
 40
0.0
 40
0.5000525208
 40
1.0
 40
1.0
 40
1.0
 40
1.0
 10
4.4613607596
 20
2.5506002354
 30
0.0
 10
4.46135867
 20
2.5453584734
 30
0.0
 10
4.4620336356
 20
2.5348652527
 30
0.0
 10
4.4641763564
 20
2.5245528874
 30
0.0
 10
4.4656871118
 20
2.5195347055
 30
0.0
  0
SPLINE
  5
3E1
100
AcDbEntity
  8
ALL_ASSEMBLY_MEMBERS
100
AcDbSpline
 62
7
  6
CONTINUOUS
 70
0
 71
3
 72
9
 73
5
 74
0
 42
0.0000001
 43
0.0000001
 44
0.0000000001
 40
0.0
 40
0.0
 40
0.0
 40
0.0
 40
0.499948044
 40
1.0
 40
1.0
 40
1.0
 40
1.0
 10
4.4882845581
 20
2.4978843168
 30
0.0
 10
4.4929238259
 20
2.496620761
 30
0.0
 10
4.5024060485
 20
2.4948067696
 30
0.0
 10
4.5120320357
 20
2.4942248166
 30
0.0
 10
4.5168412966
 20
2.4942248039
 30
0.0
  0
SPLINE
  5
3E2
100
AcDbEntity
  8
ALL_ASSEMBLY_MEMBERS
100
AcDbSpline
 62
7
  6
CONTINUOUS
 70
0
 71
3
 72
9
 73
5
 74
0
 42
0.0000001
 43
0.0000001
 44
0.0000000001
 40
0.0
 40
0.0
 40
0.0
 40
0.0
 40
0.5000094625
 40
1.0
 40
1.0
 40
1.0
 40
1.0
 10
5.4545330525
 20
2.4942248039
 30
0.0
 10
5.4593419065
 20
2.4942247812
 30
0.0
 10
5.4689679274
 20
2.4948065092
 30
0.0
 10
5.4784500897
 20
2.4966207923
 30
0.0
 10
5.4830897913
 20
2.4978843168
 30
0.0
  0
SPLINE
  5
3E3
100
AcDbEntity
  8
ALL_ASSEMBLY_MEMBERS
100
AcDbSpline
 62
7
  6
CONTINUOUS
 70
0
 71
3
 72
9
 73
5
 74
0
 42
0.0000001
 43
0.0000001
 44
0.0000000001
 40
0.0
 40
0.0
 40
0.0
 40
0.0
 40
0.4999270799
 40
1.0
 40
1.0
 40
1.0
 40
1.0
 10
5.5056871118
 20
2.5195344987
 30
0.0
 10
5.5071979921
 20
2.5245524562
 30
0.0
 10
5.5093405052
 20
2.5348649565
 30
0.0
 10
5.5100155842
 20
2.545358224
 30
0.0
 10
5.5100134947
 20
2.5506002348
 30
0.0
  0
SPLINE
  5
3E4
100
AcDbEntity
  8
ALL_ASSEMBLY_MEMBERS
100
AcDbSpline
 62
7
  6
CONTINUOUS
 70
0
 71
3
 72
9
 73
5
 74
0
 42
0.0000001
 43
0.0000001
 44
0.0000000001
 40
0.0
 40
0.0
 40
0.0
 40
0.0
 40
0.5000138083
 40
1.0
 40
1.0
 40
1.0
 40
1.0
 10
5.5096276507
 20
3.4854438883
 30
0.0
 10
5.509625597
 20
3.4904318413
 30
0.0
 10
5.5090028172
 20
3.5004166952
 30
0.0
 10
5.5070508842
 20
3.5102420952
 30
0.0
 10
5.5056871118
 20
3.5150397047
 30
0.0
  0
SPLINE
  5
3E5
100
AcDbEntity
  8
ALL_ASSEMBLY_MEMBERS
100
AcDbSpline
 62
7
  6
CONTINUOUS
 70
0
 71
3
 72
9
 73
5
 74
0
 42
0.0000001
 43
0.0000001
 44
0.0000000001
 40
0.0
 40
0.0
 40
0.0
 40
0.0
 40
0.5000100981
 40
1.0
 40
1.0
 40
1.0
 40
1.0
 10
4.5175576523
 20
3.5415581818
 30
0.0
 10
4.5127367153
 20
3.5415582043
 30
0.0
 10
4.5030863615
 20
3.5409758992
 30
0.0
 10
4.4935809403
 20
3.5391531073
 30
0.0
 10
4.4889301632
 20
3.5378843168
 30
0.0
  0
SPLINE
  5
3E6
100
AcDbEntity
  8
ALL_ASSEMBLY_MEMBERS
100
AcDbSpline
 62
7
  6
CONTINUOUS
 70
0
 71
3
 72
9
 73
5
 74
0
 42
0.0000001
 43
0.0000001
 44
0.0000000001
 40
0.0
 40
0.0
 40
0.0
 40
0.0
 40
0.4999473476
 40
1.0
 40
1.0
 40
1.0
 40
1.0
 10
5.4824441772
 20
3.5378843168
 30
0.0
 10
5.47779382
 20
3.5391532654
 30
0.0
 10
5.4682881977
 20
3.5409756249
 30
0.0
 10
5.4586377945
 20
3.5415582046
 30
0.0
 10
5.4538164003
 20
3.5415582168
 30
0.0
  0
SPLINE
  5
3E7
100
AcDbEntity
  8
ALL_ASSEMBLY_MEMBERS
100
AcDbSpline
 62
7
  6
CONTINUOUS
 70
0
 71
3
 72
9
 73
5
 74
0
 42
0.0000001
 43
0.0000001
 44
0.0000000001
 40
0.0
 40
0.0
 40
0.0
 40
0.0
 40
0.5003013201
 40
1.0
 40
1.0
 40
1.0
 40
1.0
 10
4.491601111
 20
3.5002951168
 30
0.0
 10
4.4903334819
 20
3.4980414765
 30
0.0
 10
4.488353267
 20
3.4931978429
 30
0.0
 10
4.4877069012
 20
3.4880016181
 30
0.0
 10
4.4877224638
 20
3.4854190924
 30
0.0
  0
SPLINE
  5
3E8
100
AcDbEntity
  8
ALL_ASSEMBLY_MEMBERS
100
AcDbSpline
 62
7
  6
CONTINUOUS
 70
0
 71
3
 72
9
 73
5
 74
0
 42
0.0000001
 43
0.0000001
 44
0.0000000001
 40
0.0
 40
0.0
 40
0.0
 40
0.0
 40
0.4997035907
 40
1.0
 40
1.0
 40
1.0
 40
1.0
 10
4.5175576511
 20
3.5153644482
 30
0.0
 10
4.5150722904
 20
3.5153815927
 30
0.0
 10
4.5100725907
 20
3.5147768777
 30
0.0
 10
4.5053941307
 20
3.5129240843
 30
0.0
 10
4.5032072863
 20
3.5117367812
 30
0.0
  0
SPLINE
  5
3E9
100
AcDbEntity
  8
ALL_ASSEMBLY_MEMBERS
100
AcDbSpline
 62
7
  6
CONTINUOUS
 70
0
 71
3
 72
18
 73
14
 74
0
 42
0.0000001
 43
0.0000001
 44
0.0000000001
 40
0.0
 40
0.0
 40
0.0
 40
0.0
 40
0.1807254562
 40
0.355368947
 40
0.517541099
 40
0.6623218874
 40
0.7854281305
 40
0.837808913
 40
0.8835963669
 40
0.9225461383
 40
0.9546675046
 40
0.980224826
 40
1.0
 40
1.0
 40
1.0
 40
1.0
 10
4.7780855066
 20
3.1594902687
 30
0.0
 10
4.7763175101
 20
3.1597927672
 30
0.0
 10
4.7728315459
 20
3.1603337019
 30
0.0
 10
4.767732635
 20
3.1609617149
 30
0.0
 10
4.7629695079
 20
3.1613758276
 30
0.0
 10
4.7587041765
 20
3.1615661991
 30
0.0
 10
4.755522848
 20
3.1615353516
 30
0.0
 10
4.7533318045
 20
3.1613757374
 30
0.0
 10
4.7519807126
 20
3.1612056021
 30
0.0
 10
4.7508419503
 20
3.1609797771
 30
0.0
 10
4.7499216727
 20
3.1607006415
 30
0.0
 10
4.749223371
 20
3.1603732073
 30
0.0
 10
4.7488654249
 20
3.1600845014
 30
0.0
 10
4.7487444804
 20
3.1599299269
 30
0.0
  0
ENDSEC
  0
SECTION
  2
OBJECTS
  0
DICTIONARY
  5
C
100
AcDbDictionary
280
0
281
1
  3
ACAD_GROUP
350
D
  3
ACAD_MLINESTYLE
350
17
  3
ACAD_LAYOUT
350
1A
  3
ACAD_PLOTSETTINGS
350
19
  3
ACAD_PLOTSTYLENAME
350
E
  0
DICTIONARY
  5
D
102
{ACAD_REACTORS
330
C
102
}
100
AcDbDictionary
280
0
281
1
  0
ACDBDICTIONARYWDFLT
  5
E
102
{ACAD_REACTORS
330
C
102
}
100
AcDbDictionary
281
1
  3
Normal
350
F
100
AcDbDictionaryWithDefault
340
F
  0
DICTIONARY
  5
17
102
{ACAD_REACTORS
330
C
102
}
100
AcDbDictionary
280
0
281
1
  3
Standard
350
18
  0
DICTIONARY
  5
19
102
{ACAD_REACTORS
330
C
102
}
100
AcDbDictionary
281
1
  0
DICTIONARY
  5
1A
102
{ACAD_REACTORS
330
C
102
}
100
AcDbDictionary
281
1
  3
Model
350
3EA
  3
Layout1
350
3EB
  0
ACDBPLACEHOLDER
  5
F
102
{ACAD_REACTORS
330
E
102
}
  0
MLINESTYLE
  5
18
102
{ACAD_REACTORS
330
17
102
}
100
AcDbMlineStyle
  2
STANDARD
 70
0
  3

 62
256
 51
90.0
 52
90.0
 71
2
 49
0.5
 62
256
  6
BYLAYER
 49
-0.5
 62
256
  6
BYLAYER
  0
LAYOUT
  5
3EA
102
{ACAD_REACTORS
330
1A
102
}
100
AcDbPlotSettings
  1

  2
none_device
  4
ANSI_A_(11.00_x_8.50_Inches)
  6

 40
0.0
 41
0.0
 42
0.0
 43
0.0
 44
279.4
 45
215.9
 46
0.0
 47
0.0
 48
0.0
 49
0.0
140
0.0
141
0.0
142
1.0
143
1.0
 70
1024
 72
0
 73
0
 74
0
  7

 75
0
147
1.0
148
0.0
149
0.0
100
AcDbLayout
  1
Model
 70
0
 71
0
 10
0.0
 20
0.0
 11
11.0
 21
8.5
 12
0.0
 22
0.0
 32
0.0
 14
0.0
 24
0.0
 34
0.0
 15
0.0
 25
0.0
 35
0.0
146
0.0
 13
0.0
 23
0.0
 33
0.0
 16
1.0
 26
0.0
 36
0.0
 17
0.0
 27
1.0
 37
0.0
 76
0
330
22D
345
0
346
0
  0
LAYOUT
  5
3EB
102
{ACAD_REACTORS
330
1A
102
}
100
AcDbPlotSettings
  1

  2
none_device
  4
ANSI_A_(11.00_x_8.50_Inches)
  6

 40
0.0
 41
0.0
 42
0.0
 43
0.0
 44
279.4
 45
215.9
 46
0.0
 47
0.0
 48
0.0
 49
0.0
140
0.0
141
0.0
142
1.0
143
1.0
 70
0
 72
0
 73
0
 74
0
  7

 75
0
147
1.0
148
0.0
149
0.0
100
AcDbLayout
  1
Layout1
 70
0
 71
1
 10
0.0
 20
0.0
 11
11.0
 21
8.5
 12
0.0
 22
0.0
 32
0.0
 14
0.0
 24
0.0
 34
0.0
 15
0.0
 25
0.0
 35
0.0
146
0.0
 13
0.0
 23
0.0
 33
0.0
 16
1.0
 26
0.0
 36
0.0
 17
0.0
 27
1.0
 37
0.0
 76
0
330
22E
345
0
346
0
  0
ENDSEC
  0
EOF
