999
DXF file: 3-3145_TOP.dxf
999
Pro/ENGINEER 2018400 by Parametric Technology Corporation
  0
SECTION
  2
HEADER
  9
$ACADVER
  1
AC1027
  9
$DWGCODEPAGE
  3
ANSI_1252
  9
$EXTMAX
 10
11.0
 20
8.5
 30
0.0
  9
$EXTMIN
 10
0.0
 20
0.0
 30
0.0
  9
$LIMMIN
 10
0.0
 20
0.0
  9
$LIMMAX
 10
11.0
 20
8.5
  9
$VIEWCTR
 10
5.5
 20
4.25
  9
$VIEWSIZE
 40
8.5
  9
$CLAYER
  8
0
  9
$LTSCALE
 40
0.605
  9
$CELTYPE
  6
BYLAYER
  9
$DIMSCALE
 40
1.0
  9
$DIMASZ
 40
0.1
  9
$DIMEXO
 40
0.0625
  9
$DIMDLI
 40
0.418
  9
$DIMEXE
 40
0.125
  9
$DIMCEN
 40
0.099
  9
$DIMLFAC
 40
1.0
  9
$DIMBLK
  1
_FILLED
  9
$DIMALT
 70
1
  9
$DIMALTD
 70
2
  9
$DIMALTTD
 70
2
  9
$DIMALTF
 40
25.4
  9
$DIMTXT
 40
0.08
  9
$DIMTOL
 70
1
  9
$DIMLIM
 70
0
  9
$DIMTFAC
 40
1.0
  9
$DIMTP
 40
0.001
  9
$DIMTM
 40
0.001
  9
$DIMGAP
 40
0.09
  9
$DIMDSEP
 70
46
  9
$AUNITS
 70
0
  9
$PDMODE
 70
3
  9
$PDSIZE
 40
0.3125
  9
$HANDSEED
  5
44A
  9
$TILEMODE
 70
1
  9
$MEASUREMENT
 70
0
  9
$INSUNITS
 70
1
  0
ENDSEC
  0
SECTION
  2
CLASSES
  0
CLASS
  1
ACDBDICTIONARYWDFLT
  2
AcDbDictionaryWithDefault
  3
AutoCAD 2000
 90
0
 91
1
280
0
281
0
  0
CLASS
  1
ACDBPLACEHOLDER
  2
AcDbPlaceHolder
  3
AutoCAD 2000
 90
0
 91
1
280
0
281
0
  0
CLASS
  1
LAYOUT
  2
AcDbLayout
  3
AutoCAD 2000
 90
0
 91
0
280
0
281
0
  0
ENDSEC
  0
SECTION
  2
TABLES
  0
TABLE
  2
VPORT
  5
8
100
AcDbSymbolTable
 70
2
  0
VPORT
  5
1F4
100
AcDbSymbolTableRecord
100
AcDbViewportTableRecord
  2
*ACTIVE
 70
0
 10
0.0
 20
0.0
 11
1.0
 21
1.0
 12
5.5
 22
4.25
 13
0.0
 23
0.0
 14
1.0
 24
1.0
 15
0.0
 25
0.0
 16
0.0
 26
0.0
 36
1.0
 17
0.0
 27
0.0
 37
0.0
 40
8.5
 41
1.2941176471
 42
50.0
 43
0.0
 44
0.0
 50
0.0
 51
0.0
 71
0
 72
100
 73
1
 74
1
 75
0
 76
0
 77
0
 78
0
  0
ENDTAB
  0
TABLE
  2
LTYPE
  5
5
100
AcDbSymbolTable
 70
6
  0
LTYPE
  5
14
100
AcDbSymbolTableRecord
100
AcDbLinetypeTableRecord
  2
BYBLOCK
 70
0
  3

 72
65
 73
0
 40
0.0
  0
LTYPE
  5
15
100
AcDbSymbolTableRecord
100
AcDbLinetypeTableRecord
  2
BYLAYER
 70
0
  3

 72
65
 73
0
 40
0.0
  0
LTYPE
  5
16
100
AcDbSymbolTableRecord
100
AcDbLinetypeTableRecord
  2
CONTINUOUS
 70
64
  3
Solid line
 72
65
 73
0
 40
0.0
  0
LTYPE
  5
1F5
100
AcDbSymbolTableRecord
100
AcDbLinetypeTableRecord
  2
CENTER
 70
64
  3
____ _ ____ _ ____ _ ____ _ ____ _ ____ _ ____
 72
65
 73
4
 40
0.6
 49
0.375
 74
0
 49
-0.075
 74
0
 49
0.075
 74
0
 49
-0.075
 74
0
  0
LTYPE
  5
1F6
100
AcDbSymbolTableRecord
100
AcDbLinetypeTableRecord
  2
HIDDEN
 70
64
  3
- - - - - - - - - - - - - - - - - - - -
 72
65
 73
2
 40
0.2
 49
0.1
 74
0
 49
-0.1
 74
0
  0
LTYPE
  5
1F7
100
AcDbSymbolTableRecord
100
AcDbLinetypeTableRecord
  2
PHANTOM
 70
64
  3
_____ _ _ _____ _ _ _____ _ _ _____
 72
65
 73
6
 40
0.8
 49
0.45
 74
0
 49
-0.05
 74
0
 49
0.1
 74
0
 49
-0.05
 74
0
 49
0.1
 74
0
 49
-0.05
 74
0
  0
LTYPE
  5
1F8
100
AcDbSymbolTableRecord
100
AcDbLinetypeTableRecord
  2
DOT
 70
64
  3
. . . . . . . . . . . . . . . . . . . .
 72
65
 73
2
 40
0.2
 49
0.1
 74
0
 49
-0.1
 74
0
  0
LTYPE
  5
1F9
100
AcDbSymbolTableRecord
100
AcDbLinetypeTableRecord
  2
DASHED
 70
64
  3
- - - - - - - - - - - - - - - - - - - -
 72
65
 73
2
 40
0.2
 49
0.1
 74
0
 49
-0.1
 74
0
  0
ENDTAB
  0
TABLE
  2
LAYER
  5
2
100
AcDbSymbolTable
 70
36
  0
LAYER
  5
10
100
AcDbSymbolTableRecord
100
AcDbLayerTableRecord
  2
0
 70
0
 62
7
  6
CONTINUOUS
370
-3
390
F
  0
LAYER
  5
1FA
100
AcDbSymbolTableRecord
100
AcDbLayerTableRecord
  2
DEFAULT_1
 70
0
 62
7
  6
CENTER
370
-3
390
F
  0
LAYER
  5
1FB
100
AcDbSymbolTableRecord
100
AcDbLayerTableRecord
  2
DEFAULT_2
 70
0
 62
8
  6
HIDDEN
370
-3
390
F
  0
LAYER
  5
1FC
100
AcDbSymbolTableRecord
100
AcDbLayerTableRecord
  2
DEFAULT_3
 70
0
 62
7
  6
PHANTOM
370
-3
390
F
  0
LAYER
  5
1FD
100
AcDbSymbolTableRecord
100
AcDbLayerTableRecord
  2
01_ALL_DTM_PLN
 70
0
 62
7
  6
CONTINUOUS
370
-3
390
F
  0
LAYER
  5
1FE
100
AcDbSymbolTableRecord
100
AcDbLayerTableRecord
  2
01__ASM_ALL_DTM_PLN
 70
0
 62
7
  6
CONTINUOUS
370
-3
390
F
  0
LAYER
  5
1FF
100
AcDbSymbolTableRecord
100
AcDbLayerTableRecord
  2
01__ASM_DEF_DTM_PLN
 70
0
 62
7
  6
CONTINUOUS
370
-3
390
F
  0
LAYER
  5
200
100
AcDbSymbolTableRecord
100
AcDbLayerTableRecord
  2
01___PRT_ALL_DTM_PLN
 70
0
 62
7
  6
CONTINUOUS
370
-3
390
F
  0
LAYER
  5
201
100
AcDbSymbolTableRecord
100
AcDbLayerTableRecord
  2
01___PRT_DEF_DTM_PLN
 70
0
 62
7
  6
CONTINUOUS
370
-3
390
F
  0
LAYER
  5
202
100
AcDbSymbolTableRecord
100
AcDbLayerTableRecord
  2
02_ALL_AXES
 70
0
 62
7
  6
CONTINUOUS
370
-3
390
F
  0
LAYER
  5
203
100
AcDbSymbolTableRecord
100
AcDbLayerTableRecord
  2
02__ASM_ALL_AXES
 70
0
 62
7
  6
CONTINUOUS
370
-3
390
F
  0
LAYER
  5
204
100
AcDbSymbolTableRecord
100
AcDbLayerTableRecord
  2
02___PRT_ALL_AXES
 70
0
 62
7
  6
CONTINUOUS
370
-3
390
F
  0
LAYER
  5
205
100
AcDbSymbolTableRecord
100
AcDbLayerTableRecord
  2
03_ALL_CURVES
 70
0
 62
7
  6
CONTINUOUS
370
-3
390
F
  0
LAYER
  5
206
100
AcDbSymbolTableRecord
100
AcDbLayerTableRecord
  2
03__ASM_ALL_CURVES
 70
0
 62
7
  6
CONTINUOUS
370
-3
390
F
  0
LAYER
  5
207
100
AcDbSymbolTableRecord
100
AcDbLayerTableRecord
  2
03___PRT_ALL_CURVES
 70
0
 62
7
  6
CONTINUOUS
370
-3
390
F
  0
LAYER
  5
208
100
AcDbSymbolTableRecord
100
AcDbLayerTableRecord
  2
04_ALL_DTM_PNT
 70
0
 62
7
  6
CONTINUOUS
370
-3
390
F
  0
LAYER
  5
209
100
AcDbSymbolTableRecord
100
AcDbLayerTableRecord
  2
04__ASM_ALL_DTM_PNT
 70
0
 62
7
  6
CONTINUOUS
370
-3
390
F
  0
LAYER
  5
20A
100
AcDbSymbolTableRecord
100
AcDbLayerTableRecord
  2
04___PRT_ALL_DTM_PNT
 70
0
 62
7
  6
CONTINUOUS
370
-3
390
F
  0
LAYER
  5
20B
100
AcDbSymbolTableRecord
100
AcDbLayerTableRecord
  2
05_ALL_DTM_CSYS
 70
0
 62
7
  6
CONTINUOUS
370
-3
390
F
  0
LAYER
  5
20C
100
AcDbSymbolTableRecord
100
AcDbLayerTableRecord
  2
05__ASM_ALL_DTM_CSYS
 70
0
 62
7
  6
CONTINUOUS
370
-3
390
F
  0
LAYER
  5
20D
100
AcDbSymbolTableRecord
100
AcDbLayerTableRecord
  2
05__ASM_DEF_DTM_CSYS
 70
0
 62
7
  6
CONTINUOUS
370
-3
390
F
  0
LAYER
  5
20E
100
AcDbSymbolTableRecord
100
AcDbLayerTableRecord
  2
05___PRT_ALL_DTM_CSYS
 70
0
 62
7
  6
CONTINUOUS
370
-3
390
F
  0
LAYER
  5
20F
100
AcDbSymbolTableRecord
100
AcDbLayerTableRecord
  2
05___PRT_DEF_DTM_CSYS
 70
0
 62
7
  6
CONTINUOUS
370
-3
390
F
  0
LAYER
  5
210
100
AcDbSymbolTableRecord
100
AcDbLayerTableRecord
  2
06_ALL_SURFS
 70
0
 62
7
  6
CONTINUOUS
370
-3
390
F
  0
LAYER
  5
211
100
AcDbSymbolTableRecord
100
AcDbLayerTableRecord
  2
06__ASM_ALL_SURFS
 70
0
 62
7
  6
CONTINUOUS
370
-3
390
F
  0
LAYER
  5
212
100
AcDbSymbolTableRecord
100
AcDbLayerTableRecord
  2
06___PRT_ALL_SURFS
 70
0
 62
7
  6
CONTINUOUS
370
-3
390
F
  0
LAYER
  5
213
100
AcDbSymbolTableRecord
100
AcDbLayerTableRecord
  2
07__ASM_ALL_SKELETONS
 70
0
 62
7
  6
CONTINUOUS
370
-3
390
F
  0
LAYER
  5
214
100
AcDbSymbolTableRecord
100
AcDbLayerTableRecord
  2
3-985_ASSY_PLANES
 70
0
 62
7
  6
CONTINUOUS
370
-3
390
F
  0
LAYER
  5
215
100
AcDbSymbolTableRecord
100
AcDbLayerTableRecord
  2
ALL_ASSEMBLY_MEMBERS
 70
0
 62
7
  6
CONTINUOUS
370
-3
390
F
  0
LAYER
  5
216
100
AcDbSymbolTableRecord
100
AcDbLayerTableRecord
  2
ALL_FEATURES
 70
0
 62
7
  6
CONTINUOUS
370
-3
390
F
  0
LAYER
  5
217
100
AcDbSymbolTableRecord
100
AcDbLayerTableRecord
  2
AXES_FEATURES
 70
0
 62
7
  6
CONTINUOUS
370
-3
390
F
  0
LAYER
  5
218
100
AcDbSymbolTableRecord
100
AcDbLayerTableRecord
  2
CHAMFER_FEATURES
 70
0
 62
7
  6
CONTINUOUS
370
-3
390
F
  0
LAYER
  5
219
100
AcDbSymbolTableRecord
100
AcDbLayerTableRecord
  2
CURVE
 70
0
 62
7
  6
CONTINUOUS
370
-3
390
F
  0
LAYER
  5
21A
100
AcDbSymbolTableRecord
100
AcDbLayerTableRecord
  2
CUT_FEATURES
 70
0
 62
7
  6
CONTINUOUS
370
-3
390
F
  0
LAYER
  5
21B
100
AcDbSymbolTableRecord
100
AcDbLayerTableRecord
  2
DATUM_CURVES
 70
0
 62
7
  6
CONTINUOUS
370
-3
390
F
  0
LAYER
  5
21C
100
AcDbSymbolTableRecord
100
AcDbLayerTableRecord
  2
DATUM_PLANES
 70
0
 62
7
  6
CONTINUOUS
370
-3
390
F
  0
LAYER
  5
21D
100
AcDbSymbolTableRecord
100
AcDbLayerTableRecord
  2
DEFAULT_COORDINATE_SYSTEM
 70
0
 62
7
  6
CONTINUOUS
370
-3
390
F
  0
LAYER
  5
21E
100
AcDbSymbolTableRecord
100
AcDbLayerTableRecord
  2
DEFAULT_DATUM_AXES
 70
0
 62
7
  6
CONTINUOUS
370
-3
390
F
  0
LAYER
  5
21F
100
AcDbSymbolTableRecord
100
AcDbLayerTableRecord
  2
DEFAULT_DATUM_CURVES
 70
0
 62
7
  6
CONTINUOUS
370
-3
390
F
  0
LAYER
  5
220
100
AcDbSymbolTableRecord
100
AcDbLayerTableRecord
  2
DEFAULT_DATUM_PLANES
 70
0
 62
7
  6
CONTINUOUS
370
-3
390
F
  0
LAYER
  5
221
100
AcDbSymbolTableRecord
100
AcDbLayerTableRecord
  2
DEFAULT_SURFACES
 70
0
 62
7
  6
CONTINUOUS
370
-3
390
F
  0
LAYER
  5
222
100
AcDbSymbolTableRecord
100
AcDbLayerTableRecord
  2
DIMENSIONS
 70
0
 62
7
  6
CONTINUOUS
370
-3
390
F
  0
LAYER
  5
223
100
AcDbSymbolTableRecord
100
AcDbLayerTableRecord
  2
HOLE_FEATURES
 70
0
 62
7
  6
CONTINUOUS
370
-3
390
F
  0
LAYER
  5
224
100
AcDbSymbolTableRecord
100
AcDbLayerTableRecord
  2
MIXEDCOLOR
 70
0
 62
7
  6
CONTINUOUS
370
-3
390
F
  0
LAYER
  5
225
100
AcDbSymbolTableRecord
100
AcDbLayerTableRecord
  2
NONE
 70
0
 62
7
  6
CONTINUOUS
370
-3
390
F
  0
LAYER
  5
226
100
AcDbSymbolTableRecord
100
AcDbLayerTableRecord
  2
PART_REFERENCE_DIMENSIONS
 70
0
 62
7
  6
CONTINUOUS
370
-3
390
F
  0
LAYER
  5
227
100
AcDbSymbolTableRecord
100
AcDbLayerTableRecord
  2
PROTRUSION_FEATURES
 70
0
 62
7
  6
CONTINUOUS
370
-3
390
F
  0
LAYER
  5
228
100
AcDbSymbolTableRecord
100
AcDbLayerTableRecord
  2
REFERENCE_DIMENSIONS
 70
0
 62
7
  6
CONTINUOUS
370
-3
390
F
  0
LAYER
  5
229
100
AcDbSymbolTableRecord
100
AcDbLayerTableRecord
  2
SIZE_REF
 70
0
 62
7
  6
CONTINUOUS
370
-3
390
F
  0
LAYER
  5
22A
100
AcDbSymbolTableRecord
100
AcDbLayerTableRecord
  2
XSEC_DATUMS
 70
0
 62
7
  6
CONTINUOUS
370
-3
390
F
  0
ENDTAB
  0
TABLE
  2
STYLE
  5
3
100
AcDbSymbolTable
 70
1
  0
STYLE
  5
11
100
AcDbSymbolTableRecord
100
AcDbTextStyleTableRecord
  2
STANDARD
 70
0
 40
0.0
 41
0.8
 50
0.0
 71
0
 42
0.2
  3
txt
  4

  0
STYLE
  5
22B
100
AcDbSymbolTableRecord
100
AcDbTextStyleTableRecord
  2
TEXTSTYLE_1
 70
0
 40
0.0
 41
0.8
 50
0.0
 71
0
 42
0.2
  3
gdt
  4

  0
ENDTAB
  0
TABLE
  2
VIEW
  5
6
100
AcDbSymbolTable
 70
0
  0
ENDTAB
  0
TABLE
  2
UCS
  5
7
100
AcDbSymbolTable
 70
0
  0
ENDTAB
  0
TABLE
  2
APPID
  5
9
100
AcDbSymbolTable
 70
1
  0
APPID
  5
22C
100
AcDbSymbolTableRecord
100
AcDbRegAppTableRecord
  2
ACAD
 70
0
  0
ENDTAB
  0
TABLE
  2
BLOCK_RECORD
  5
1
100
AcDbSymbolTable
 70
0
  0
BLOCK_RECORD
  5
22D
100
AcDbSymbolTableRecord
100
AcDbBlockTableRecord
  2
*Model_Space
  0
BLOCK_RECORD
  5
22E
100
AcDbSymbolTableRecord
100
AcDbBlockTableRecord
  2
*Paper_Space
  0
BLOCK_RECORD
  5
22F
100
AcDbSymbolTableRecord
100
AcDbBlockTableRecord
  2
_FILLED
  0
ENDTAB
  0
TABLE
  2
DIMSTYLE
  5
A
100
AcDbSymbolTable
 70
1
100
AcDbDimStyleTable
 71
0
  0
DIMSTYLE
105
230
100
AcDbSymbolTableRecord
100
AcDbDimStyleTableRecord
  2
STANDARD
 70
0
  3

  4

 40
1.0
 41
0.1
 42
0.0625
 43
0.38
 44
0.125
 45
0.0
 46
0.0
 47
0.001
 48
0.001
140
0.08
141
0.09
142
0.0
143
25.4
144
1.0
145
0.0
146
1.0
147
0.09
 71
1.0
 72
0.0
 73
1
 74
1
 75
0
 76
0
 77
0
 78
4
 79
1
170
1
171
2
172
0
173
0
174
0
175
0
176
0
177
0
178
0
270
2
179
3
271
3
272
3
273
2
274
2
275
0
280
0
281
0
282
0
283
1
284
4
285
0
286
0
287
3
288
0
340
11
278
46
341
22F
342
22F
343
22F
344
22F
  0
ENDTAB
  0
ENDSEC
  0
SECTION
  2
BLOCKS
  0
BLOCK
  5
20
100
AcDbEntity
  8
0
100
AcDbBlockBegin
  2
*Model_Space
 70
0
 10
0.0
 20
0.0
 30
0.0
  3
*Model_Space
  1

  0
ENDBLK
  5
21
100
AcDbEntity
  8
0
100
AcDbBlockEnd
  0
BLOCK
  5
1C
100
AcDbEntity
  8
0
100
AcDbBlockBegin
  2
*Paper_Space
 70
0
 10
0.0
 20
0.0
 30
0.0
  3
*Paper_Space
  1

  0
ENDBLK
  5
1D
100
AcDbEntity
  8
0
100
AcDbBlockEnd
  0
BLOCK
  5
231
100
AcDbEntity
  8
0
100
AcDbBlockBegin
  2
_FILLED
 70
64
 10
0.0
 20
0.0
  3
_FILLED
  1

  0
SOLID
  5
232
100
AcDbEntity
  8
0
  6
BYBLOCK
 62
0
100
AcDbTrace
 10
0.0
 20
0.0
 11
-1.0
 21
0.2
 12
-1.0
 22
-0.2
 13
-1.0
 23
-0.2
  0
ENDBLK
  5
233
100
AcDbEntity
  8
0
  6
BYBLOCK
 62
0
100
AcDbBlockEnd
  0
ENDSEC
  0
SECTION
  2
ENTITIES
  0
MTEXT
  5
234
100
AcDbEntity
  8
0
100
AcDbMText
 62
2
  6
CONTINUOUS
  7
STANDARD
 71
3
 72
1
 10
2.7271545031
 20
1.5550465839
 30
0.0
 11
1.0
 21
0.0
 31
0.0
 73
2
 44
0.9
  1
SCALE  .500
 40
0.08
 41
0.704
  0
LINE
  5
235
100
AcDbEntity
  8
0
100
AcDbLine
 62
7
  6
CONTINUOUS
 10
0.0
 20
0.0
 11
0.0
 21
8.5
  0
LINE
  5
236
100
AcDbEntity
  8
0
100
AcDbLine
 62
7
  6
CONTINUOUS
 10
0.0
 20
0.0
 11
11.0
 21
0.0
  0
LINE
  5
237
100
AcDbEntity
  8
0
100
AcDbLine
 62
7
  6
CONTINUOUS
 10
0.0
 20
8.5
 11
11.0
 21
8.5
  0
LINE
  5
238
100
AcDbEntity
  8
0
100
AcDbLine
 62
7
  6
CONTINUOUS
 10
11.0
 20
0.0
 11
11.0
 21
8.5
  0
LINE
  5
239
100
AcDbEntity
  8
ALL_ASSEMBLY_MEMBERS
100
AcDbLine
 62
7
  6
CONTINUOUS
 10
1.5024371118
 20
4.7285093168
 11
1.5024371118
 21
4.9485093168
  0
LINE
  5
23A
100
AcDbEntity
  8
ALL_ASSEMBLY_MEMBERS
100
AcDbLine
 62
7
  6
CONTINUOUS
 10
1.5174371118
 20
4.7135093168
 11
1.5174371118
 21
4.9635093168
  0
LINE
  5
23B
100
AcDbEntity
  8
ALL_ASSEMBLY_MEMBERS
100
AcDbLine
 62
7
  6
CONTINUOUS
 10
2.4547778803
 20
6.3417956276
 11
2.4537543245
 21
6.3546413254
  0
LINE
  5
23C
100
AcDbEntity
  8
ALL_ASSEMBLY_MEMBERS
100
AcDbLine
 62
7
  6
CONTINUOUS
 10
2.4206871118
 20
6.2910093168
 11
2.4206871118
 21
6.3425866338
  0
LINE
  5
23D
100
AcDbEntity
  8
ALL_ASSEMBLY_MEMBERS
100
AcDbLine
 62
7
  6
CONTINUOUS
 10
2.4456871118
 20
6.3913206055
 11
2.4456871118
 21
6.4810093168
  0
LINE
  5
23E
100
AcDbEntity
  8
ALL_ASSEMBLY_MEMBERS
100
AcDbLine
 62
7
  6
CONTINUOUS
 10
2.4506871118
 20
6.2760093168
 11
2.4506871118
 21
6.3412513707
  0
LINE
  5
23F
100
AcDbEntity
  8
ALL_ASSEMBLY_MEMBERS
100
AcDbLine
 62
7
  6
CONTINUOUS
 10
2.4756870659
 20
6.3547701267
 11
2.4756871118
 21
6.4810093168
  0
LINE
  5
240
100
AcDbEntity
  8
ALL_ASSEMBLY_MEMBERS
100
AcDbLine
 62
7
  6
CONTINUOUS
 10
2.4756871423
 20
6.3425866338
 11
2.47568703
 21
6.3547701267
  0
LINE
  5
241
100
AcDbEntity
  8
ALL_ASSEMBLY_MEMBERS
100
AcDbLine
 62
7
  6
CONTINUOUS
 10
2.5819371118
 20
6.1922593168
 11
2.5819371118
 21
6.2710093168
  0
LINE
  5
242
100
AcDbEntity
  8
ALL_ASSEMBLY_MEMBERS
100
AcDbLine
 62
7
  6
CONTINUOUS
 10
2.6119371118
 20
6.1772593168
 11
2.6119371118
 21
6.2710093168
  0
LINE
  5
243
100
AcDbEntity
  8
ALL_ASSEMBLY_MEMBERS
100
AcDbLine
 62
7
  6
CONTINUOUS
 10
2.7779799754
 20
5.2991086037
 11
2.7786871118
 21
5.2841566388
  0
LINE
  5
244
100
AcDbEntity
  8
ALL_ASSEMBLY_MEMBERS
100
AcDbLine
 62
7
  6
CONTINUOUS
 10
2.6431871118
 20
6.2760093168
 11
2.6431871118
 21
6.2710093168
  0
LINE
  5
245
100
AcDbEntity
  8
ALL_ASSEMBLY_MEMBERS
100
AcDbLine
 62
7
  6
CONTINUOUS
 10
2.6761976207
 20
6.1772593168
 11
2.6761976207
 21
6.1648640394
  0
LINE
  5
246
100
AcDbEntity
  8
ALL_ASSEMBLY_MEMBERS
100
AcDbLine
 62
7
  6
CONTINUOUS
 10
2.7486871118
 20
5.2232593168
 11
2.7486871118
 21
5.2867220563
  0
LINE
  5
247
100
AcDbEntity
  8
ALL_ASSEMBLY_MEMBERS
100
AcDbLine
 62
7
  6
CONTINUOUS
 10
2.7581871118
 20
6.2760093168
 11
2.7581871118
 21
6.2710093168
  0
LINE
  5
248
100
AcDbEntity
  8
ALL_ASSEMBLY_MEMBERS
100
AcDbLine
 62
7
  6
CONTINUOUS
 10
2.7786871118
 20
5.2082593168
 11
2.7786871118
 21
5.2841566388
  0
LINE
  5
249
100
AcDbEntity
  8
ALL_ASSEMBLY_MEMBERS
100
AcDbLine
 62
7
  6
CONTINUOUS
 10
2.8164371118
 20
4.9635093168
 11
2.8164371118
 21
4.7135093168
  0
LINE
  5
24A
100
AcDbEntity
  8
ALL_ASSEMBLY_MEMBERS
100
AcDbLine
 62
7
  6
CONTINUOUS
 10
2.8464371118
 20
4.6817593168
 11
2.8464371118
 21
4.9952593168
  0
LINE
  5
24B
100
AcDbEntity
  8
ALL_ASSEMBLY_MEMBERS
100
AcDbLine
 62
7
  6
CONTINUOUS
 10
2.8464371118
 20
4.9952997758
 11
2.8464371118
 21
5.0062738926
  0
LINE
  5
24C
100
AcDbEntity
  8
ALL_ASSEMBLY_MEMBERS
100
AcDbLine
 62
7
  6
CONTINUOUS
 10
2.8614371118
 20
4.6667593168
 11
2.8614371118
 21
5.0102593168
  0
LINE
  5
24D
100
AcDbEntity
  8
ALL_ASSEMBLY_MEMBERS
100
AcDbLine
 62
7
  6
CONTINUOUS
 10
2.8619371118
 20
5.0402593168
 11
2.8619371118
 21
5.1927593168
  0
LINE
  5
24E
100
AcDbEntity
  8
ALL_ASSEMBLY_MEMBERS
100
AcDbLine
 62
7
  6
CONTINUOUS
 10
2.8195685978
 20
5.3517784848
 11
2.8195648826
 21
5.286722055
  0
LINE
  5
24F
100
AcDbEntity
  8
ALL_ASSEMBLY_MEMBERS
100
AcDbLine
 62
7
  6
CONTINUOUS
 10
2.450687112
 20
6.3412513707
 11
2.4483620602
 21
6.3544820067
  0
LINE
  5
250
100
AcDbEntity
  8
ALL_ASSEMBLY_MEMBERS
100
AcDbLine
 62
7
  6
CONTINUOUS
 10
2.8916871118
 20
5.2082593168
 11
2.8916871118
 21
5.1927593168
  0
LINE
  5
251
100
AcDbEntity
  8
ALL_ASSEMBLY_MEMBERS
100
AcDbLine
 62
7
  6
CONTINUOUS
 10
2.9175963568
 20
4.9952593168
 11
2.9175963568
 21
5.0102593168
  0
LINE
  5
252
100
AcDbEntity
  8
ALL_ASSEMBLY_MEMBERS
100
AcDbLine
 62
7
  6
CONTINUOUS
 10
3.1187778668
 20
4.9952593168
 11
3.1187778669
 21
5.0102593168
  0
LINE
  5
253
100
AcDbEntity
  8
ALL_ASSEMBLY_MEMBERS
100
AcDbLine
 62
7
  6
CONTINUOUS
 10
3.1446871118
 20
5.2082593168
 11
3.1446871118
 21
5.1927593168
  0
LINE
  5
254
100
AcDbEntity
  8
ALL_ASSEMBLY_MEMBERS
100
AcDbLine
 62
7
  6
CONTINUOUS
 10
3.3601766029
 20
6.1648640394
 11
3.216807682
 21
5.3517784848
  0
LINE
  5
255
100
AcDbEntity
  8
ALL_ASSEMBLY_MEMBERS
100
AcDbLine
 62
7
  6
CONTINUOUS
 10
3.3897208355
 20
6.1648640394
 11
3.2463519146
 21
5.3517784848
  0
LINE
  5
256
100
AcDbEntity
  8
ALL_ASSEMBLY_MEMBERS
100
AcDbLine
 62
7
  6
CONTINUOUS
 10
5.3123365836
 20
2.5492528795
 11
5.311838322
 21
2.5492089168
  0
LINE
  5
257
100
AcDbEntity
  8
ALL_ASSEMBLY_MEMBERS
100
AcDbLine
 62
7
  6
CONTINUOUS
 10
5.2823630597
 20
2.5205119245
 11
4.6890111639
 21
2.5205119245
  0
LINE
  5
258
100
AcDbEntity
  8
ALL_ASSEMBLY_MEMBERS
100
AcDbLine
 62
7
  6
CONTINUOUS
 10
5.2823630597
 20
2.520967692
 11
4.6890111639
 21
2.520967692
  0
LINE
  5
259
100
AcDbEntity
  8
ALL_ASSEMBLY_MEMBERS
100
AcDbLine
 62
7
  6
CONTINUOUS
 10
5.1932887171
 20
2.6099736202
 11
4.7780855065
 21
2.6099736202
  0
LINE
  5
25A
100
AcDbEntity
  8
ALL_ASSEMBLY_MEMBERS
100
AcDbLine
 62
7
  6
CONTINUOUS
 10
5.1932887171
 20
2.636702507
 11
4.7780855065
 21
2.636702507
  0
LINE
  5
25B
100
AcDbEntity
  8
ALL_ASSEMBLY_MEMBERS
100
AcDbLine
 62
7
  6
CONTINUOUS
 10
4.65903764
 20
2.549252879
 11
4.6595359016
 21
2.5492089168
  0
LINE
  5
25C
100
AcDbEntity
  8
ALL_ASSEMBLY_MEMBERS
100
AcDbLine
 62
7
  6
CONTINUOUS
 10
2.6466533881
 20
6.1648640394
 11
2.790022309
 21
5.3517784848
  0
LINE
  5
25D
100
AcDbEntity
  8
ALL_ASSEMBLY_MEMBERS
100
AcDbLine
 62
7
  6
CONTINUOUS
 10
2.6761976207
 20
6.1648640394
 11
2.8195665416
 21
5.3517784848
  0
LINE
  5
25E
100
AcDbEntity
  8
ALL_ASSEMBLY_MEMBERS
100
AcDbLine
 62
7
  6
CONTINUOUS
 10
3.1744371118
 20
5.0402593168
 11
3.1744371118
 21
5.1927593168
  0
LINE
  5
25F
100
AcDbEntity
  8
ALL_ASSEMBLY_MEMBERS
100
AcDbLine
 62
7
  6
CONTINUOUS
 10
3.1749371118
 20
5.0102593168
 11
3.1749371118
 21
4.6667593168
  0
LINE
  5
260
100
AcDbEntity
  8
ALL_ASSEMBLY_MEMBERS
100
AcDbLine
 62
7
  6
CONTINUOUS
 10
3.1899371118
 20
5.0062777041
 11
3.1899371118
 21
4.6817593168
  0
LINE
  5
261
100
AcDbEntity
  8
ALL_ASSEMBLY_MEMBERS
100
AcDbLine
 62
7
  6
CONTINUOUS
 10
3.2166037785
 20
4.9636950771
 11
3.2166037785
 21
4.7133235565
  0
LINE
  5
262
100
AcDbEntity
  8
ALL_ASSEMBLY_MEMBERS
100
AcDbLine
 62
7
  6
CONTINUOUS
 10
3.2299371118
 20
4.9487879572
 11
3.2299371118
 21
4.7282306763
  0
LINE
  5
263
100
AcDbEntity
  8
ALL_ASSEMBLY_MEMBERS
100
AcDbLine
 62
7
  6
CONTINUOUS
 10
3.2576871118
 20
5.2082593168
 11
3.2576871118
 21
5.2841565598
  0
LINE
  5
264
100
AcDbEntity
  8
ALL_ASSEMBLY_MEMBERS
100
AcDbLine
 62
7
  6
CONTINUOUS
 10
3.2781871118
 20
6.2760093168
 11
3.2781871118
 21
6.2710093168
  0
LINE
  5
265
100
AcDbEntity
  8
ALL_ASSEMBLY_MEMBERS
100
AcDbLine
 62
7
  6
CONTINUOUS
 10
3.2876871118
 20
5.2232593168
 11
3.2876871118
 21
5.2867221934
  0
LINE
  5
266
100
AcDbEntity
  8
ALL_ASSEMBLY_MEMBERS
100
AcDbLine
 62
7
  6
CONTINUOUS
 10
3.3601766029
 20
6.1772593168
 11
3.3601766029
 21
6.1648640394
  0
LINE
  5
267
100
AcDbEntity
  8
ALL_ASSEMBLY_MEMBERS
100
AcDbLine
 62
7
  6
CONTINUOUS
 10
3.3931871118
 20
6.2760093168
 11
3.3931871118
 21
6.2710093168
  0
LINE
  5
268
100
AcDbEntity
  8
ALL_ASSEMBLY_MEMBERS
100
AcDbLine
 62
7
  6
CONTINUOUS
 10
3.216809729
 20
5.3517784848
 11
3.2168068038
 21
5.2867221925
  0
LINE
  5
269
100
AcDbEntity
  8
ALL_ASSEMBLY_MEMBERS
100
AcDbLine
 62
7
  6
CONTINUOUS
 10
3.2583911642
 20
5.2991085252
 11
3.2576871117
 21
5.2841565598
  0
LINE
  5
26A
100
AcDbEntity
  8
ALL_ASSEMBLY_MEMBERS
100
AcDbLine
 62
7
  6
CONTINUOUS
 10
3.5856871118
 20
6.3412513903
 11
3.5880122867
 21
6.3544820093
  0
LWPOLYLINE
  5
26B
100
AcDbEntity
  8
ALL_ASSEMBLY_MEMBERS
100
AcDbPolyline
 62
7
  6
CONTINUOUS
 90
9
 70
0
 10
2.8516038667
 20
5.0176038421
 10
2.851062147
 20
5.0171098601
 10
2.8498850605
 20
5.0158447716
 10
2.8488615462
 20
5.0144530838
 10
2.8480050518
 20
5.0129533542
 10
2.847326794
 20
5.0113655519
 10
2.8468356097
 20
5.0097107819
 10
2.8465378453
 20
5.0080110029
 10
2.8464372807
 20
5.0062887403
  0
LINE
  5
26C
100
AcDbEntity
  8
ALL_ASSEMBLY_MEMBERS
100
AcDbLine
 62
7
  6
CONTINUOUS
 10
3.4244371118
 20
6.1772593168
 11
3.4244371118
 21
6.2710093168
  0
LINE
  5
26D
100
AcDbEntity
  8
ALL_ASSEMBLY_MEMBERS
100
AcDbLine
 62
7
  6
CONTINUOUS
 10
3.4544371118
 20
6.1922593168
 11
3.4544371118
 21
6.2710093168
  0
LINE
  5
26E
100
AcDbEntity
  8
ALL_ASSEMBLY_MEMBERS
100
AcDbLine
 62
7
  6
CONTINUOUS
 10
3.5606870839
 20
6.3425866338
 11
3.5606871118
 21
6.4810093168
  0
LINE
  5
26F
100
AcDbEntity
  8
ALL_ASSEMBLY_MEMBERS
100
AcDbLine
 62
7
  6
CONTINUOUS
 10
3.5856871118
 20
6.2760093168
 11
3.5856871118
 21
6.3412513903
  0
LINE
  5
270
100
AcDbEntity
  8
ALL_ASSEMBLY_MEMBERS
100
AcDbLine
 62
7
  6
CONTINUOUS
 10
3.5906871118
 20
6.3913206055
 11
3.5906871118
 21
6.4810093168
  0
LINE
  5
271
100
AcDbEntity
  8
ALL_ASSEMBLY_MEMBERS
100
AcDbLine
 62
7
  6
CONTINUOUS
 10
3.6156871118
 20
6.2910093168
 11
3.6156871118
 21
6.3425866338
  0
LINE
  5
272
100
AcDbEntity
  8
ALL_ASSEMBLY_MEMBERS
100
AcDbLine
 62
7
  6
CONTINUOUS
 10
3.5815963143
 20
6.3417956299
 11
3.582619432
 21
6.3546411513
  0
LINE
  5
273
100
AcDbEntity
  8
ALL_ASSEMBLY_MEMBERS
100
AcDbLine
 62
7
  6
CONTINUOUS
 10
4.4877224598
 20
6.1500165098
 11
4.4875621975
 21
6.1498516945
  0
LINE
  5
274
100
AcDbEntity
  8
ALL_ASSEMBLY_MEMBERS
100
AcDbLine
 62
7
  6
CONTINUOUS
 10
4.4875621975
 20
6.1498516945
 11
4.4874019104
 21
6.1496893491
  0
LINE
  5
275
100
AcDbEntity
  8
ALL_ASSEMBLY_MEMBERS
100
AcDbLine
 62
7
  6
CONTINUOUS
 10
4.4874019104
 20
6.1496893491
 11
4.4872416414
 21
6.1495294882
  0
LWPOLYLINE
  5
276
100
AcDbEntity
  8
ALL_ASSEMBLY_MEMBERS
100
AcDbPolyline
 62
7
  6
CONTINUOUS
 90
3
 70
0
 10
4.4872416414
 20
6.1495294882
 10
4.4870814362
 20
6.149372048
 10
4.4870013693
 20
6.1492942541
  0
LINE
  5
277
100
AcDbEntity
  8
ALL_ASSEMBLY_MEMBERS
100
AcDbLine
 62
7
  6
CONTINUOUS
 10
5.3389812782
 20
3.140065281
 11
5.3387058157
 21
3.1401440078
  0
LINE
  5
278
100
AcDbEntity
  8
ALL_ASSEMBLY_MEMBERS
100
AcDbLine
 62
7
  6
CONTINUOUS
 10
5.311838322
 20
2.5492089168
 11
5.2226297432
 21
2.6368360977
  0
LINE
  5
279
100
AcDbEntity
  8
ALL_ASSEMBLY_MEMBERS
100
AcDbLine
 62
7
  6
CONTINUOUS
 10
4.3482478469
 20
6.3439351011
 11
4.3482147386
 21
6.3434966016
  0
LINE
  5
27A
100
AcDbEntity
  8
ALL_ASSEMBLY_MEMBERS
100
AcDbLine
 62
7
  6
CONTINUOUS
 10
4.3481871118
 20
6.3425866482
 11
4.3481871118
 21
6.2910093168
  0
LINE
  5
27B
100
AcDbEntity
  8
ALL_ASSEMBLY_MEMBERS
100
AcDbLine
 62
7
  6
CONTINUOUS
 10
4.3731871118
 20
6.4810093168
 11
4.3731871118
 21
6.3913206055
  0
LINE
  5
27C
100
AcDbEntity
  8
ALL_ASSEMBLY_MEMBERS
100
AcDbLine
 62
7
  6
CONTINUOUS
 10
4.3781871118
 20
6.2760093168
 11
4.3781871118
 21
6.3412513171
  0
LINE
  5
27D
100
AcDbEntity
  8
ALL_ASSEMBLY_MEMBERS
100
AcDbLine
 62
7
  6
CONTINUOUS
 10
4.4031871109
 20
6.3425866338
 11
4.4031871118
 21
6.4810093168
  0
LINE
  5
27E
100
AcDbEntity
  8
ALL_ASSEMBLY_MEMBERS
100
AcDbLine
 62
7
  6
CONTINUOUS
 10
4.4356871118
 20
6.2072593168
 11
4.4356871118
 21
6.2710093168
  0
LINE
  5
27F
100
AcDbEntity
  8
ALL_ASSEMBLY_MEMBERS
100
AcDbLine
 62
7
  6
CONTINUOUS
 10
4.4656871118
 20
6.1772593168
 11
4.4656871118
 21
6.2710093168
  0
LWPOLYLINE
  5
280
100
AcDbEntity
  8
ALL_ASSEMBLY_MEMBERS
100
AcDbPolyline
 62
7
  6
CONTINUOUS
 90
3
 70
0
 10
4.3482147386
 20
6.3434966016
 10
4.3481938339
 20
6.3430356501
 10
4.3481871118
 20
6.3425866306
  0
LINE
  5
281
100
AcDbEntity
  8
ALL_ASSEMBLY_MEMBERS
100
AcDbLine
 62
7
  6
CONTINUOUS
 10
4.3822768724
 20
6.3417955474
 11
4.3812543089
 21
6.354641113
  0
LWPOLYLINE
  5
282
100
AcDbEntity
  8
ALL_ASSEMBLY_MEMBERS
100
AcDbPolyline
 62
7
  6
CONTINUOUS
 90
31
 70
0
 10
4.6300268959
 20
3.5492219824
 10
4.6490834095
 20
3.2716888719
 10
4.6494640677
 20
3.2656916495
 10
4.6498055155
 20
3.259722411
 10
4.6501069324
 20
3.2537980978
 10
4.6503680553
 20
3.2479355565
 10
4.6505890319
 20
3.2421499818
 10
4.6507696641
 20
3.2364544617
 10
4.6509098536
 20
3.2308620806
 10
4.6510098893
 20
3.2253841206
 10
4.6510703665
 20
3.220031868
 10
4.6510919219
 20
3.2148178518
 10
4.6510750579
 20
3.2097507588
 10
4.6510205777
 20
3.2048412197
 10
4.6509297692
 20
3.2001038441
 10
4.6508042133
 20
3.1955471752
 10
4.6506453082
 20
3.1911775163
 10
4.6504547165
 20
3.1870053483
 10
4.6502342736
 20
3.1830359014
 10
4.6499861046
 20
3.1792742081
 10
4.6497128898
 20
3.1757301145
 10
4.6494168344
 20
3.172405537
 10
4.649100593
 20
3.1693043469
 10
4.6487683124
 20
3.1664392606
 10
4.6484231326
 20
3.1638086703
 10
4.6480692009
 20
3.1614172646
 10
4.6477144541
 20
3.1592880395
 10
4.6473627791
 20
3.1574113158
 10
4.6470220555
 20
3.1557959234
 10
4.6467121862
 20
3.1544915253
 10
4.6464268819
 20
3.1534300608
  0
LINE
  5
283
100
AcDbEntity
  8
ALL_ASSEMBLY_MEMBERS
100
AcDbLine
 62
7
  6
CONTINUOUS
 10
4.5879735345
 20
4.2207118079
 11
4.5792846389
 21
4.3688812073
  0
LINE
  5
284
100
AcDbEntity
  8
ALL_ASSEMBLY_MEMBERS
100
AcDbLine
 62
7
  6
CONTINUOUS
 10
4.5879723902
 20
4.2207110772
 11
4.5784524049
 21
4.3832568589
  0
LINE
  5
285
100
AcDbEntity
  8
ALL_ASSEMBLY_MEMBERS
100
AcDbLine
 62
7
  6
CONTINUOUS
 10
4.5784524049
 20
4.3832568589
 11
4.5711088723
 21
4.5114569801
  0
LINE
  5
286
100
AcDbEntity
  8
ALL_ASSEMBLY_MEMBERS
100
AcDbLine
 62
7
  6
CONTINUOUS
 10
4.5792846389
 20
4.3688812073
 11
4.5711148878
 21
4.5114573165
  0
LINE
  5
287
100
AcDbEntity
  8
ALL_ASSEMBLY_MEMBERS
100
AcDbLine
 62
7
  6
CONTINUOUS
 10
4.5596121912
 20
4.7170432854
 11
4.5540059248
 21
4.819452074
  0
LINE
  5
288
100
AcDbEntity
  8
ALL_ASSEMBLY_MEMBERS
100
AcDbLine
 62
7
  6
CONTINUOUS
 10
4.5596300285
 20
4.7170444755
 11
4.5540173914
 21
4.8194521699
  0
LINE
  5
289
100
AcDbEntity
  8
ALL_ASSEMBLY_MEMBERS
100
AcDbLine
 62
7
  6
CONTINUOUS
 10
4.5410334306
 20
5.0617898247
 11
4.5367265398
 21
5.1438862677
  0
LWPOLYLINE
  5
28A
100
AcDbEntity
  8
ALL_ASSEMBLY_MEMBERS
100
AcDbPolyline
 62
7
  6
CONTINUOUS
 90
3
 70
0
 10
4.5410536473
 20
5.0617911521
 10
4.5346018992
 20
5.1846931878
 10
4.5253401657
 20
5.3648374327
  0
LINE
  5
28B
100
AcDbEntity
  8
ALL_ASSEMBLY_MEMBERS
100
AcDbLine
 62
7
  6
CONTINUOUS
 10
4.5367265398
 20
5.1438862677
 11
4.5227870709
 21
5.415150081
  0
LINE
  5
28C
100
AcDbEntity
  8
ALL_ASSEMBLY_MEMBERS
100
AcDbLine
 62
7
  6
CONTINUOUS
 10
4.5253401657
 20
5.3648374327
 11
4.5194164524
 21
5.4824443033
  0
LINE
  5
28D
100
AcDbEntity
  8
ALL_ASSEMBLY_MEMBERS
100
AcDbLine
 62
7
  6
CONTINUOUS
 10
4.5227870709
 20
5.415150081
 11
4.5193944153
 21
5.4824433073
  0
LINE
  5
28E
100
AcDbEntity
  8
ALL_ASSEMBLY_MEMBERS
100
AcDbLine
 62
7
  6
CONTINUOUS
 10
4.5047587554
 20
5.7783290129
 11
4.5021051718
 21
5.8329385223
  0
LWPOLYLINE
  5
28F
100
AcDbEntity
  8
ALL_ASSEMBLY_MEMBERS
100
AcDbPolyline
 62
7
  6
CONTINUOUS
 90
3
 70
0
 10
4.5047725265
 20
5.7783320333
 10
4.4967701568
 20
5.9436255183
 10
4.4870013693
 20
6.1492942541
  0
LWPOLYLINE
  5
290
100
AcDbEntity
  8
ALL_ASSEMBLY_MEMBERS
100
AcDbPolyline
 62
7
  6
CONTINUOUS
 90
9
 70
0
 10
4.4870012208
 20
6.1492963888
 10
4.503811538
 20
5.7977492781
 10
4.5212014408
 20
5.4463777332
 10
4.5387394653
 20
5.1050515315
 10
4.5564609977
 20
4.7737723825
 10
4.5744059907
 20
4.4525442311
 10
4.5926166722
 20
4.1413732137
 10
4.6111397638
 20
3.8402644538
 10
4.6300268959
 20
3.5492219824
  0
LINE
  5
291
100
AcDbEntity
  8
ALL_ASSEMBLY_MEMBERS
100
AcDbLine
 62
7
  6
CONTINUOUS
 10
4.5021051718
 20
5.8329385223
 11
4.4870013693
 21
6.1492942541
  0
LWPOLYLINE
  5
292
100
AcDbEntity
  8
ALL_ASSEMBLY_MEMBERS
100
AcDbPolyline
 62
7
  6
CONTINUOUS
 90
10
 70
0
 10
4.6323897976
 20
3.1401312201
 10
4.6353857412
 20
3.0747428535
 10
4.6386274351
 20
3.0037249633
 10
4.6417991259
 20
2.9339600399
 10
4.6449010273
 20
2.8654480942
 10
4.6479333545
 20
2.7981891388
 10
4.6508963543
 20
2.7321831883
 10
4.6537902882
 20
2.6674302566
 10
4.6566154198
 20
2.6039303568
 10
4.6590404347
 20
2.5491870137
  0
LINE
  5
293
100
AcDbEntity
  8
ALL_ASSEMBLY_MEMBERS
100
AcDbLine
 62
7
  6
CONTINUOUS
 10
4.5175576523
 20
6.1774851213
 11
4.5175576525
 21
6.1505262705
  0
LINE
  5
294
100
AcDbEntity
  8
ALL_ASSEMBLY_MEMBERS
100
AcDbLine
 62
7
  6
CONTINUOUS
 10
4.6056871118
 20
6.2710093168
 11
4.6056871118
 21
6.2760093168
  0
LINE
  5
295
100
AcDbEntity
  8
ALL_ASSEMBLY_MEMBERS
100
AcDbLine
 62
7
  6
CONTINUOUS
 10
4.6890111639
 20
2.520967692
 11
4.6890111639
 21
2.5205119245
  0
LINE
  5
296
100
AcDbEntity
  8
ALL_ASSEMBLY_MEMBERS
100
AcDbLine
 62
7
  6
CONTINUOUS
 10
4.3781871118
 20
6.3412513171
 11
4.3758641181
 21
6.3544817308
  0
LINE
  5
297
100
AcDbEntity
  8
ALL_ASSEMBLY_MEMBERS
100
AcDbLine
 62
7
  6
CONTINUOUS
 10
4.7644371118
 20
6.2710093168
 11
4.7644371118
 21
6.2760093168
  0
LINE
  5
298
100
AcDbEntity
  8
ALL_ASSEMBLY_MEMBERS
100
AcDbLine
 62
7
  6
CONTINUOUS
 10
4.7780855065
 20
2.636702507
 11
4.7780855065
 21
2.6099736202
  0
LWPOLYLINE
  5
299
100
AcDbEntity
  8
ALL_ASSEMBLY_MEMBERS
100
AcDbPolyline
 62
7
  6
CONTINUOUS
 90
34
 70
0
 10
5.3252703673
 20
3.1524141878
 10
5.3252621766
 20
3.1524387453
 10
5.3251388979
 20
3.152799608
 10
5.32491839
 20
3.1535312991
 10
5.3246441374
 20
3.1545624542
 10
5.3243317385
 20
3.1558873173
 10
5.3239892925
 20
3.157523262
 10
5.3236363805
 20
3.1594209657
 10
5.3232809193
 20
3.1615710843
 10
5.3229268114
 20
3.1639831525
 10
5.322581934
 20
3.1666344595
 10
5.3222502548
 20
3.1695208292
 10
5.3219347801
 20
3.1726439714
 10
5.3216397579
 20
3.1759907066
 10
5.3213679657
 20
3.179556651
 10
5.3211216625
 20
3.1833397442
 10
5.3209032395
 20
3.1873308935
 10
5.3207147789
 20
3.1915250296
 10
5.3205582621
 20
3.1959165762
 10
5.3204354829
 20
3.2004951139
 10
5.320347724
 20
3.2052545566
 10
5.3202962949
 20
3.2101866298
 10
5.3202826054
 20
3.2152765318
 10
5.3203076261
 20
3.2205133384
 10
5.3203719729
 20
3.2258881287
 10
5.320476025
 20
3.2313884022
 10
5.3206203462
 20
3.2370028421
 10
5.3208053039
 20
3.2427200879
 10
5.3210308932
 20
3.2485270565
 10
5.3212968878
 20
3.2544108484
 10
5.3216033373
 20
3.2603564196
 10
5.3219499995
 20
3.2663467662
 10
5.3223360634
 20
3.27236472
 10
5.3413885186
 20
3.5498383105
  0
LINE
  5
29A
100
AcDbEntity
  8
ALL_ASSEMBLY_MEMBERS
100
AcDbLine
 62
7
  6
CONTINUOUS
 10
5.1932887171
 20
2.6099736202
 11
5.1932887171
 21
2.636702507
  0
LINE
  5
29B
100
AcDbEntity
  8
ALL_ASSEMBLY_MEMBERS
100
AcDbLine
 62
7
  6
CONTINUOUS
 10
5.2069371118
 20
6.2710093168
 11
5.2069371118
 21
6.2760093168
  0
LINE
  5
29C
100
AcDbEntity
  8
ALL_ASSEMBLY_MEMBERS
100
AcDbLine
 62
7
  6
CONTINUOUS
 10
5.2823630597
 20
2.5205119245
 11
5.2823630597
 21
2.520967692
  0
LINE
  5
29D
100
AcDbEntity
  8
ALL_ASSEMBLY_MEMBERS
100
AcDbLine
 62
7
  6
CONTINUOUS
 10
5.5931871118
 20
6.3412513171
 11
5.5955101064
 21
6.3544817318
  0
LINE
  5
29E
100
AcDbEntity
  8
ALL_ASSEMBLY_MEMBERS
100
AcDbLine
 62
7
  6
CONTINUOUS
 10
3.1749371118
 20
4.6667593168
 11
2.8614371118
 21
4.6667593168
  0
LINE
  5
29F
100
AcDbEntity
  8
ALL_ASSEMBLY_MEMBERS
100
AcDbLine
 62
7
  6
CONTINUOUS
 10
6.7989371118
 20
4.6667593168
 11
7.1124371118
 21
4.6667593168
  0
LINE
  5
2A0
100
AcDbEntity
  8
ALL_ASSEMBLY_MEMBERS
100
AcDbLine
 62
7
  6
CONTINUOUS
 10
3.1899371118
 20
4.6817593168
 11
2.8464371118
 21
4.6817593168
  0
LINE
  5
2A1
100
AcDbEntity
  8
ALL_ASSEMBLY_MEMBERS
100
AcDbLine
 62
7
  6
CONTINUOUS
 10
6.7839371118
 20
4.6817593168
 11
7.1274371118
 21
4.6817593168
  0
LINE
  5
2A2
100
AcDbEntity
  8
ALL_ASSEMBLY_MEMBERS
100
AcDbLine
 62
7
  6
CONTINUOUS
 10
2.8164371118
 20
4.7135093168
 11
1.5174371118
 21
4.7135093168
  0
LINE
  5
2A3
100
AcDbEntity
  8
ALL_ASSEMBLY_MEMBERS
100
AcDbLine
 62
7
  6
CONTINUOUS
 10
7.1574371118
 20
4.7135093168
 11
8.4564371118
 21
4.7135093168
  0
LINE
  5
2A4
100
AcDbEntity
  8
ALL_ASSEMBLY_MEMBERS
100
AcDbLine
 62
7
  6
CONTINUOUS
 10
3.2299371118
 20
4.7285093168
 11
3.1899371118
 21
4.7285093168
  0
LINE
  5
2A5
100
AcDbEntity
  8
ALL_ASSEMBLY_MEMBERS
100
AcDbLine
 62
7
  6
CONTINUOUS
 10
1.5024371118
 20
4.7285093168
 11
2.8464371118
 21
4.7285093168
  0
LINE
  5
2A6
100
AcDbEntity
  8
ALL_ASSEMBLY_MEMBERS
100
AcDbLine
 62
7
  6
CONTINUOUS
 10
6.7439371118
 20
4.7285093168
 11
6.7839371118
 21
4.7285093168
  0
LINE
  5
2A7
100
AcDbEntity
  8
ALL_ASSEMBLY_MEMBERS
100
AcDbLine
 62
7
  6
CONTINUOUS
 10
7.1274371118
 20
4.7285093168
 11
8.4714371118
 21
4.7285093168
  0
LINE
  5
2A8
100
AcDbEntity
  8
ALL_ASSEMBLY_MEMBERS
100
AcDbLine
 62
7
  6
CONTINUOUS
 10
5.3656871118
 20
6.2710093168
 11
5.3656871118
 21
6.2760093168
  0
LINE
  5
2A9
100
AcDbEntity
  8
ALL_ASSEMBLY_MEMBERS
100
AcDbLine
 62
7
  6
CONTINUOUS
 10
5.4538164003
 20
6.1774851256
 11
5.4538163999
 21
6.1505262819
  0
LINE
  5
2AA
100
AcDbEntity
  8
ALL_ASSEMBLY_MEMBERS
100
AcDbLine
 62
7
  6
CONTINUOUS
 10
5.5056871118
 20
6.1772593168
 11
5.5056871118
 21
6.2710093168
  0
LINE
  5
2AB
100
AcDbEntity
  8
ALL_ASSEMBLY_MEMBERS
100
AcDbLine
 62
7
  6
CONTINUOUS
 10
5.5356871118
 20
6.2072593168
 11
5.5356871118
 21
6.2710093168
  0
LWPOLYLINE
  5
2AC
100
AcDbEntity
  8
ALL_ASSEMBLY_MEMBERS
100
AcDbPolyline
 62
7
  6
CONTINUOUS
 90
10
 70
0
 10
5.3123337889
 20
2.5491870137
 10
5.3147861127
 20
2.6045455607
 10
5.3176111885
 20
2.6680413847
 10
5.3205051219
 20
2.7327915978
 10
5.3234681783
 20
2.7987961871
 10
5.3265006234
 20
2.8660551386
 10
5.3296027012
 20
2.9345684376
 10
5.3327746268
 20
3.0043360717
 10
5.3360166184
 20
3.0753580297
 10
5.338984426
 20
3.1401312202
  0
LWPOLYLINE
  5
2AD
100
AcDbEntity
  8
ALL_ASSEMBLY_MEMBERS
100
AcDbPolyline
 62
7
  6
CONTINUOUS
 90
3
 70
0
 10
5.4843728555
 20
6.1492942793
 10
5.4766301508
 20
5.9859610863
 10
5.468963241
 20
5.8266395549
  0
LINE
  5
2AE
100
AcDbEntity
  8
ALL_ASSEMBLY_MEMBERS
100
AcDbLine
 62
7
  6
CONTINUOUS
 10
5.4843728555
 20
6.1492942793
 11
5.4680933083
 21
5.8087113963
  0
LINE
  5
2AF
100
AcDbEntity
  8
ALL_ASSEMBLY_MEMBERS
100
AcDbLine
 62
7
  6
CONTINUOUS
 10
5.4680933083
 20
5.8087113963
 11
5.4667429741
 21
5.780951512
  0
LINE
  5
2B0
100
AcDbEntity
  8
ALL_ASSEMBLY_MEMBERS
100
AcDbLine
 62
7
  6
CONTINUOUS
 10
5.468963241
 20
5.8266395549
 11
5.4667307513
 21
5.7809528982
  0
LINE
  5
2B1
100
AcDbEntity
  8
ALL_ASSEMBLY_MEMBERS
100
AcDbLine
 62
7
  6
CONTINUOUS
 10
5.4514083159
 20
5.4713363133
 11
5.4489524147
 21
5.4226400488
  0
LINE
  5
2B2
100
AcDbEntity
  8
ALL_ASSEMBLY_MEMBERS
100
AcDbLine
 62
7
  6
CONTINUOUS
 10
5.4514215547
 20
5.4713356151
 11
5.4489659162
 21
5.4226391435
  0
LINE
  5
2B3
100
AcDbEntity
  8
ALL_ASSEMBLY_MEMBERS
100
AcDbLine
 62
7
  6
CONTINUOUS
 10
5.4344404477
 20
5.1401832364
 11
5.4318300065
 21
5.0900815806
  0
LINE
  5
2B4
100
AcDbEntity
  8
ALL_ASSEMBLY_MEMBERS
100
AcDbLine
 62
7
  6
CONTINUOUS
 10
5.4344542129
 20
5.1401828476
 11
5.4314779162
 21
5.0833854273
  0
LWPOLYLINE
  5
2B5
100
AcDbEntity
  8
ALL_ASSEMBLY_MEMBERS
100
AcDbPolyline
 62
7
  6
CONTINUOUS
 90
4
 70
0
 10
5.4169688599
 20
4.8121917329
 10
5.4104448316
 20
4.6931755379
 10
5.4034229067
 20
4.5673053313
 10
5.4008318102
 20
4.5216982421
  0
LINE
  5
2B6
100
AcDbEntity
  8
ALL_ASSEMBLY_MEMBERS
100
AcDbLine
 62
7
  6
CONTINUOUS
 10
5.4169730831
 20
4.8121916069
 11
5.4122722366
 21
4.7263085075
  0
LINE
  5
2B7
100
AcDbEntity
  8
ALL_ASSEMBLY_MEMBERS
100
AcDbLine
 62
7
  6
CONTINUOUS
 10
5.4122722366
 20
4.7263085075
 11
5.4008461121
 21
4.5216987662
  0
LWPOLYLINE
  5
2B8
100
AcDbEntity
  8
ALL_ASSEMBLY_MEMBERS
100
AcDbPolyline
 62
7
  6
CONTINUOUS
 90
3
 70
0
 10
5.3922051209
 20
4.3711632987
 10
5.3890489688
 20
4.3166203365
 10
5.384600278
 20
4.2412048624
  0
LINE
  5
2B9
100
AcDbEntity
  8
ALL_ASSEMBLY_MEMBERS
100
AcDbLine
 62
7
  6
CONTINUOUS
 10
5.3922215537
 20
4.3711630738
 11
5.3846155664
 21
4.2412069968
  0
LWPOLYLINE
  5
2BA
100
AcDbEntity
  8
ALL_ASSEMBLY_MEMBERS
100
AcDbPolyline
 62
7
  6
CONTINUOUS
 90
9
 70
0
 10
5.3413885186
 20
3.5498383105
 10
5.3602733893
 20
3.8408800358
 10
5.3787943548
 20
4.1419879946
 10
5.397003252
 20
4.4531581041
 10
5.4149465632
 20
4.7743853049
 10
5.4326669023
 20
5.1056634504
 10
5.4502033883
 20
5.446988646
 10
5.4675921582
 20
5.7983591295
 10
5.4843731363
 20
6.149296633
  0
LINE
  5
2BB
100
AcDbEntity
  8
ALL_ASSEMBLY_MEMBERS
100
AcDbLine
 62
7
  6
CONTINUOUS
 10
5.5890973203
 20
6.3417955498
 11
5.5901197856
 21
6.3546410858
  0
LINE
  5
2BC
100
AcDbEntity
  8
ALL_ASSEMBLY_MEMBERS
100
AcDbLine
 62
7
  6
CONTINUOUS
 10
3.2299371118
 20
4.9485093168
 11
3.1899371118
 21
4.9485093168
  0
LINE
  5
2BD
100
AcDbEntity
  8
ALL_ASSEMBLY_MEMBERS
100
AcDbLine
 62
7
  6
CONTINUOUS
 10
6.7439371118
 20
4.9485093168
 11
6.7839371118
 21
4.9485093168
  0
LINE
  5
2BE
100
AcDbEntity
  8
ALL_ASSEMBLY_MEMBERS
100
AcDbLine
 62
7
  6
CONTINUOUS
 10
7.1274371118
 20
4.9485093168
 11
8.4714371118
 21
4.9485093168
  0
LINE
  5
2BF
100
AcDbEntity
  8
ALL_ASSEMBLY_MEMBERS
100
AcDbLine
 62
7
  6
CONTINUOUS
 10
1.5024371118
 20
4.9485093168
 11
2.8464371118
 21
4.9485093168
  0
LINE
  5
2C0
100
AcDbEntity
  8
ALL_ASSEMBLY_MEMBERS
100
AcDbLine
 62
7
  6
CONTINUOUS
 10
2.8164371118
 20
4.9635093168
 11
1.5174371118
 21
4.9635093168
  0
LINE
  5
2C1
100
AcDbEntity
  8
ALL_ASSEMBLY_MEMBERS
100
AcDbLine
 62
7
  6
CONTINUOUS
 10
7.1574371118
 20
4.9635093168
 11
8.4564371118
 21
4.9635093168
  0
LINE
  5
2C2
100
AcDbEntity
  8
ALL_ASSEMBLY_MEMBERS
100
AcDbLine
 62
7
  6
CONTINUOUS
 10
2.8464371118
 20
4.9952593168
 11
2.9175963568
 21
4.9952593168
  0
LINE
  5
2C3
100
AcDbEntity
  8
ALL_ASSEMBLY_MEMBERS
100
AcDbLine
 62
7
  6
CONTINUOUS
 10
3.1187778668
 20
4.9952593168
 11
3.1899371118
 21
4.9952593168
  0
LINE
  5
2C4
100
AcDbEntity
  8
ALL_ASSEMBLY_MEMBERS
100
AcDbLine
 62
7
  6
CONTINUOUS
 10
6.7839371118
 20
4.9952593168
 11
6.8550963568
 21
4.9952593168
  0
LINE
  5
2C5
100
AcDbEntity
  8
ALL_ASSEMBLY_MEMBERS
100
AcDbLine
 62
7
  6
CONTINUOUS
 10
7.0562778668
 20
4.9952593168
 11
7.1274371118
 21
4.9952593168
  0
LINE
  5
2C6
100
AcDbEntity
  8
ALL_ASSEMBLY_MEMBERS
100
AcDbLine
 62
7
  6
CONTINUOUS
 10
3.1749371118
 20
5.0102593168
 11
3.1187778675
 21
5.0102593168
  0
LINE
  5
2C7
100
AcDbEntity
  8
ALL_ASSEMBLY_MEMBERS
100
AcDbLine
 62
7
  6
CONTINUOUS
 10
2.9175963561
 20
5.0102593168
 11
2.8614371118
 21
5.0102593168
  0
LINE
  5
2C8
100
AcDbEntity
  8
ALL_ASSEMBLY_MEMBERS
100
AcDbLine
 62
7
  6
CONTINUOUS
 10
6.7989371118
 20
5.0102593168
 11
6.8550963564
 21
5.0102593168
  0
LINE
  5
2C9
100
AcDbEntity
  8
ALL_ASSEMBLY_MEMBERS
100
AcDbLine
 62
7
  6
CONTINUOUS
 10
7.0562778677
 20
5.0102593168
 11
7.1124371118
 21
5.0102593168
  0
LINE
  5
2CA
100
AcDbEntity
  8
ALL_ASSEMBLY_MEMBERS
100
AcDbLine
 62
7
  6
CONTINUOUS
 10
2.8619371118
 20
5.0402593168
 11
3.1744371118
 21
5.0402593168
  0
LINE
  5
2CB
100
AcDbEntity
  8
ALL_ASSEMBLY_MEMBERS
100
AcDbLine
 62
7
  6
CONTINUOUS
 10
6.7994371118
 20
5.0402593168
 11
7.1119371118
 21
5.0402593168
  0
LWPOLYLINE
  5
2CC
100
AcDbEntity
  8
ALL_ASSEMBLY_MEMBERS
100
AcDbPolyline
 62
7
  6
CONTINUOUS
 90
4
 70
0
 10
5.6231871118
 20
6.3425866306
 10
5.6231803897
 20
6.3430356501
 10
5.623159485
 20
6.3434966016
 10
5.6231263767
 20
6.3439351011
  0
LINE
  5
2CD
100
AcDbEntity
  8
ALL_ASSEMBLY_MEMBERS
100
AcDbLine
 62
7
  6
CONTINUOUS
 10
5.5681871122
 20
6.3425866338
 11
5.5681871118
 21
6.4810093168
  0
LINE
  5
2CE
100
AcDbEntity
  8
ALL_ASSEMBLY_MEMBERS
100
AcDbLine
 62
7
  6
CONTINUOUS
 10
5.5931871118
 20
6.2760093168
 11
5.5931871118
 21
6.3412513171
  0
LINE
  5
2CF
100
AcDbEntity
  8
ALL_ASSEMBLY_MEMBERS
100
AcDbLine
 62
7
  6
CONTINUOUS
 10
5.5981871118
 20
6.4810093168
 11
5.5981871118
 21
6.3913206055
  0
LINE
  5
2D0
100
AcDbEntity
  8
ALL_ASSEMBLY_MEMBERS
100
AcDbLine
 62
7
  6
CONTINUOUS
 10
5.6231871118
 20
6.3425866482
 11
5.6231871118
 21
6.2910093168
  0
LINE
  5
2D1
100
AcDbEntity
  8
ALL_ASSEMBLY_MEMBERS
100
AcDbLine
 62
7
  6
CONTINUOUS
 10
2.8619371118
 20
5.1927593168
 11
3.1744371118
 21
5.1927593168
  0
LINE
  5
2D2
100
AcDbEntity
  8
ALL_ASSEMBLY_MEMBERS
100
AcDbLine
 62
7
  6
CONTINUOUS
 10
6.7994371118
 20
5.1927593168
 11
7.1119371118
 21
5.1927593168
  0
LINE
  5
2D3
100
AcDbEntity
  8
ALL_ASSEMBLY_MEMBERS
100
AcDbLine
 62
7
  6
CONTINUOUS
 10
7.2101871118
 20
5.2082593168
 11
6.7011871118
 21
5.2082593168
  0
LINE
  5
2D4
100
AcDbEntity
  8
ALL_ASSEMBLY_MEMBERS
100
AcDbLine
 62
7
  6
CONTINUOUS
 10
3.2726871118
 20
5.2082593168
 11
2.7636871118
 21
5.2082593168
  0
LINE
  5
2D5
100
AcDbEntity
  8
ALL_ASSEMBLY_MEMBERS
100
AcDbLine
 62
7
  6
CONTINUOUS
 10
7.2251871118
 20
5.2232593168
 11
6.6861871118
 21
5.2232593168
  0
LINE
  5
2D6
100
AcDbEntity
  8
ALL_ASSEMBLY_MEMBERS
100
AcDbLine
 62
7
  6
CONTINUOUS
 10
3.2876871118
 20
5.2232593168
 11
2.7486871118
 21
5.2232593168
  0
LINE
  5
2D7
100
AcDbEntity
  8
ALL_ASSEMBLY_MEMBERS
100
AcDbLine
 62
7
  6
CONTINUOUS
 10
6.7570675795
 20
5.2867222082
 11
7.154309798
 21
5.2867221119
  0
LINE
  5
2D8
100
AcDbEntity
  8
ALL_ASSEMBLY_MEMBERS
100
AcDbLine
 62
7
  6
CONTINUOUS
 10
2.8195648826
 20
5.286722055
 11
3.2168068038
 21
5.2867221925
  0
LINE
  5
2D9
100
AcDbEntity
  8
ALL_ASSEMBLY_MEMBERS
100
AcDbLine
 62
7
  6
CONTINUOUS
 10
2.8195644441
 20
5.3010326114
 11
3.2168062121
 21
5.3010326247
  0
LINE
  5
2DA
100
AcDbEntity
  8
ALL_ASSEMBLY_MEMBERS
100
AcDbLine
 62
7
  6
CONTINUOUS
 10
6.7570675365
 20
5.3010326266
 11
7.1543105114
 21
5.3010326174
  0
LINE
  5
2DB
100
AcDbEntity
  8
ALL_ASSEMBLY_MEMBERS
100
AcDbLine
 62
7
  6
CONTINUOUS
 10
7.154307682
 20
5.3517784848
 11
6.7570665416
 21
5.3517784848
  0
LINE
  5
2DC
100
AcDbEntity
  8
ALL_ASSEMBLY_MEMBERS
100
AcDbLine
 62
7
  6
CONTINUOUS
 10
3.216807682
 20
5.3517784848
 11
2.8195665416
 21
5.3517784848
  0
LINE
  5
2DD
100
AcDbEntity
  8
ALL_ASSEMBLY_MEMBERS
100
AcDbLine
 62
7
  6
CONTINUOUS
 10
6.3581871118
 20
6.2910093168
 11
6.3581871118
 21
6.3425866338
  0
LINE
  5
2DE
100
AcDbEntity
  8
ALL_ASSEMBLY_MEMBERS
100
AcDbLine
 62
7
  6
CONTINUOUS
 10
4.7487444804
 20
2.6368360977
 11
4.6595359016
 21
2.5492089168
  0
LINE
  5
2DF
100
AcDbEntity
  8
ALL_ASSEMBLY_MEMBERS
100
AcDbLine
 62
7
  6
CONTINUOUS
 10
4.6323929455
 20
3.1400652803
 11
4.6326684079
 21
3.1401440078
  0
LINE
  5
2E0
100
AcDbEntity
  8
ALL_ASSEMBLY_MEMBERS
100
AcDbLine
 62
7
  6
CONTINUOUS
 10
6.3922778803
 20
6.3417956276
 11
6.3912543245
 21
6.3546413254
  0
LINE
  5
2E1
100
AcDbEntity
  8
ALL_ASSEMBLY_MEMBERS
100
AcDbLine
 62
7
  6
CONTINUOUS
 10
6.3831871118
 20
6.3913206055
 11
6.3831871118
 21
6.4810093168
  0
LINE
  5
2E2
100
AcDbEntity
  8
ALL_ASSEMBLY_MEMBERS
100
AcDbLine
 62
7
  6
CONTINUOUS
 10
6.3881871118
 20
6.2760093168
 11
6.3881871118
 21
6.3412513707
  0
LINE
  5
2E3
100
AcDbEntity
  8
ALL_ASSEMBLY_MEMBERS
100
AcDbLine
 62
7
  6
CONTINUOUS
 10
6.4131870659
 20
6.3547701267
 11
6.4131871118
 21
6.4810093168
  0
LINE
  5
2E4
100
AcDbEntity
  8
ALL_ASSEMBLY_MEMBERS
100
AcDbLine
 62
7
  6
CONTINUOUS
 10
6.4131871423
 20
6.3425866338
 11
6.41318703
 21
6.3547701267
  0
LINE
  5
2E5
100
AcDbEntity
  8
ALL_ASSEMBLY_MEMBERS
100
AcDbLine
 62
7
  6
CONTINUOUS
 10
6.5194371118
 20
6.1922593168
 11
6.5194371118
 21
6.2710093168
  0
LINE
  5
2E6
100
AcDbEntity
  8
ALL_ASSEMBLY_MEMBERS
100
AcDbLine
 62
7
  6
CONTINUOUS
 10
6.5494371118
 20
6.1772593168
 11
6.5494371118
 21
6.2710093168
  0
LINE
  5
2E7
100
AcDbEntity
  8
ALL_ASSEMBLY_MEMBERS
100
AcDbLine
 62
7
  6
CONTINUOUS
 10
6.5806871118
 20
6.2760093168
 11
6.5806871118
 21
6.2710093168
  0
LINE
  5
2E8
100
AcDbEntity
  8
ALL_ASSEMBLY_MEMBERS
100
AcDbLine
 62
7
  6
CONTINUOUS
 10
6.6136976207
 20
6.1772593168
 11
6.6136976207
 21
6.1648640394
  0
LWPOLYLINE
  5
2E9
100
AcDbEntity
  8
ALL_ASSEMBLY_MEMBERS
100
AcDbPolyline
 62
7
  6
CONTINUOUS
 90
3
 70
0
 10
4.4623534866
 20
6.1774451785
 10
4.4621273681
 20
6.1774700948
 10
4.4620871001
 20
6.1774726956
  0
LINE
  5
2EA
100
AcDbEntity
  8
ALL_ASSEMBLY_MEMBERS
100
AcDbLine
 62
7
  6
CONTINUOUS
 10
4.461746564
 20
6.1775192397
 11
4.4622140743
 21
6.1774535476
  0
LINE
  5
2EB
100
AcDbEntity
  8
ALL_ASSEMBLY_MEMBERS
100
AcDbLine
 62
7
  6
CONTINUOUS
 10
4.4620871001
 20
6.1774726956
 11
4.4622140749
 21
6.177453551
  0
LINE
  5
2EC
100
AcDbEntity
  8
ALL_ASSEMBLY_MEMBERS
100
AcDbLine
 62
7
  6
CONTINUOUS
 10
5.4843728555
 20
6.1492942793
 11
5.484212693
 21
6.1494504689
  0
LINE
  5
2ED
100
AcDbEntity
  8
ALL_ASSEMBLY_MEMBERS
100
AcDbLine
 62
7
  6
CONTINUOUS
 10
5.484212693
 20
6.1494504689
 11
5.4840524496
 21
6.1496091179
  0
LINE
  5
2EE
100
AcDbEntity
  8
ALL_ASSEMBLY_MEMBERS
100
AcDbLine
 62
7
  6
CONTINUOUS
 10
5.4840524496
 20
6.1496091179
 11
5.4838921658
 21
6.1497702105
  0
LWPOLYLINE
  5
2EF
100
AcDbEntity
  8
ALL_ASSEMBLY_MEMBERS
100
AcDbPolyline
 62
7
  6
CONTINUOUS
 90
3
 70
0
 10
5.4838921658
 20
6.1497702105
 10
5.4837318879
 20
6.1499337972
 10
5.4836517636
 20
6.1500165076
  0
LINE
  5
2F0
100
AcDbEntity
  8
ALL_ASSEMBLY_MEMBERS
100
AcDbLine
 62
7
  6
CONTINUOUS
 10
6.7154820386
 20
5.2991091539
 11
6.7161871118
 21
5.2841571801
  0
LINE
  5
2F1
100
AcDbEntity
  8
ALL_ASSEMBLY_MEMBERS
100
AcDbLine
 62
7
  6
CONTINUOUS
 10
6.6861871118
 20
5.2232593168
 11
6.6861871118
 21
5.2867221934
  0
LINE
  5
2F2
100
AcDbEntity
  8
ALL_ASSEMBLY_MEMBERS
100
AcDbLine
 62
7
  6
CONTINUOUS
 10
6.6956871118
 20
6.2760093168
 11
6.6956871118
 21
6.2710093168
  0
LINE
  5
2F3
100
AcDbEntity
  8
ALL_ASSEMBLY_MEMBERS
100
AcDbLine
 62
7
  6
CONTINUOUS
 10
6.7161871118
 20
5.2082593168
 11
6.7161871118
 21
5.2841571801
  0
LINE
  5
2F4
100
AcDbEntity
  8
ALL_ASSEMBLY_MEMBERS
100
AcDbLine
 62
7
  6
CONTINUOUS
 10
6.7439371118
 20
4.7282306763
 11
6.7439371118
 21
4.9487879572
  0
LINE
  5
2F5
100
AcDbEntity
  8
ALL_ASSEMBLY_MEMBERS
100
AcDbLine
 62
7
  6
CONTINUOUS
 10
6.757067558
 20
5.3010326266
 11
6.7570675795
 21
5.2867222082
  0
LINE
  5
2F6
100
AcDbEntity
  8
ALL_ASSEMBLY_MEMBERS
100
AcDbLine
 62
7
  6
CONTINUOUS
 10
6.7570657746
 20
5.3517784848
 11
6.7570675365
 21
5.3010326266
  0
LINE
  5
2F7
100
AcDbEntity
  8
ALL_ASSEMBLY_MEMBERS
100
AcDbLine
 62
7
  6
CONTINUOUS
 10
6.7572704451
 20
4.7133235565
 11
6.7572704451
 21
4.9636950771
  0
LINE
  5
2F8
100
AcDbEntity
  8
ALL_ASSEMBLY_MEMBERS
100
AcDbLine
 62
7
  6
CONTINUOUS
 10
6.7839371118
 20
4.6817593168
 11
6.7839371118
 21
4.9952593168
  0
LINE
  5
2F9
100
AcDbEntity
  8
ALL_ASSEMBLY_MEMBERS
100
AcDbLine
 62
7
  6
CONTINUOUS
 10
6.7839371118
 20
4.9953499407
 11
6.7839371118
 21
5.0062777041
  0
LINE
  5
2FA
100
AcDbEntity
  8
ALL_ASSEMBLY_MEMBERS
100
AcDbLine
 62
7
  6
CONTINUOUS
 10
6.7989371118
 20
4.6667593168
 11
6.7989371118
 21
5.0102593168
  0
LINE
  5
2FB
100
AcDbEntity
  8
ALL_ASSEMBLY_MEMBERS
100
AcDbLine
 62
7
  6
CONTINUOUS
 10
6.7994371118
 20
5.0402593168
 11
6.7994371118
 21
5.1927593168
  0
LINE
  5
2FC
100
AcDbEntity
  8
ALL_ASSEMBLY_MEMBERS
100
AcDbLine
 62
7
  6
CONTINUOUS
 10
6.8291871118
 20
5.2082593168
 11
6.8291871118
 21
5.1927593168
  0
LINE
  5
2FD
100
AcDbEntity
  8
ALL_ASSEMBLY_MEMBERS
100
AcDbLine
 62
7
  6
CONTINUOUS
 10
6.8550963568
 20
5.0102593168
 11
6.8550963568
 21
4.9952593168
  0
LINE
  5
2FE
100
AcDbEntity
  8
ALL_ASSEMBLY_MEMBERS
100
AcDbLine
 62
7
  6
CONTINUOUS
 10
5.4538163999
 20
6.1505262819
 11
4.5175576525
 21
6.1505262705
  0
LINE
  5
2FF
100
AcDbEntity
  8
ALL_ASSEMBLY_MEMBERS
100
AcDbLine
 62
7
  6
CONTINUOUS
 10
7.2976766029
 20
6.1648640394
 11
6.6136976207
 21
6.1648640394
  0
LINE
  5
300
100
AcDbEntity
  8
ALL_ASSEMBLY_MEMBERS
100
AcDbLine
 62
7
  6
CONTINUOUS
 10
3.3601766029
 20
6.1648640394
 11
2.6761976207
 21
6.1648640394
  0
LINE
  5
301
100
AcDbEntity
  8
ALL_ASSEMBLY_MEMBERS
100
AcDbLine
 62
7
  6
CONTINUOUS
 10
7.3769371118
 20
6.1772593168
 11
6.5344371118
 21
6.1772593168
  0
LINE
  5
302
100
AcDbEntity
  8
ALL_ASSEMBLY_MEMBERS
100
AcDbLine
 62
7
  6
CONTINUOUS
 10
5.5056871118
 20
6.1772593168
 11
5.4824441772
 21
6.1772593168
  0
LINE
  5
303
100
AcDbEntity
  8
ALL_ASSEMBLY_MEMBERS
100
AcDbLine
 62
7
  6
CONTINUOUS
 10
4.4889301632
 20
6.1772593168
 11
4.4656871118
 21
6.1772593168
  0
LINE
  5
304
100
AcDbEntity
  8
ALL_ASSEMBLY_MEMBERS
100
AcDbLine
 62
7
  6
CONTINUOUS
 10
3.4394371118
 20
6.1772593168
 11
2.5969371118
 21
6.1772593168
  0
LINE
  5
305
100
AcDbEntity
  8
ALL_ASSEMBLY_MEMBERS
100
AcDbLine
 62
7
  6
CONTINUOUS
 10
5.4538164003
 20
6.1774851256
 11
4.5175576523
 21
6.1774851213
  0
LINE
  5
306
100
AcDbEntity
  8
ALL_ASSEMBLY_MEMBERS
100
AcDbLine
 62
7
  6
CONTINUOUS
 10
7.3919371118
 20
6.1922593168
 11
6.5194371118
 21
6.1922593168
  0
LINE
  5
307
100
AcDbEntity
  8
ALL_ASSEMBLY_MEMBERS
100
AcDbLine
 62
7
  6
CONTINUOUS
 10
3.4544371118
 20
6.1922593168
 11
2.5819371118
 21
6.1922593168
  0
LINE
  5
308
100
AcDbEntity
  8
ALL_ASSEMBLY_MEMBERS
100
AcDbLine
 62
7
  6
CONTINUOUS
 10
5.5356871118
 20
6.2072593168
 11
4.4356871118
 21
6.2072593168
  0
LINE
  5
309
100
AcDbEntity
  8
ALL_ASSEMBLY_MEMBERS
100
AcDbLine
 62
7
  6
CONTINUOUS
 10
2.5819371118
 20
6.2710093168
 11
3.4544371118
 21
6.2710093168
  0
LINE
  5
30A
100
AcDbEntity
  8
ALL_ASSEMBLY_MEMBERS
100
AcDbLine
 62
7
  6
CONTINUOUS
 10
4.4356871118
 20
6.2710093168
 11
5.5356871118
 21
6.2710093168
  0
LINE
  5
30B
100
AcDbEntity
  8
ALL_ASSEMBLY_MEMBERS
100
AcDbLine
 62
7
  6
CONTINUOUS
 10
6.5194371118
 20
6.2710093168
 11
7.3919371118
 21
6.2710093168
  0
LINE
  5
30C
100
AcDbEntity
  8
ALL_ASSEMBLY_MEMBERS
100
AcDbLine
 62
7
  6
CONTINUOUS
 10
7.5381871118
 20
6.2760093168
 11
6.3731871118
 21
6.2760093168
  0
LINE
  5
30D
100
AcDbEntity
  8
ALL_ASSEMBLY_MEMBERS
100
AcDbLine
 62
7
  6
CONTINUOUS
 10
5.6081871118
 20
6.2760093168
 11
4.3631871118
 21
6.2760093168
  0
LINE
  5
30E
100
AcDbEntity
  8
ALL_ASSEMBLY_MEMBERS
100
AcDbLine
 62
7
  6
CONTINUOUS
 10
3.6006871118
 20
6.2760093168
 11
2.4356871118
 21
6.2760093168
  0
LINE
  5
30F
100
AcDbEntity
  8
ALL_ASSEMBLY_MEMBERS
100
AcDbLine
 62
7
  6
CONTINUOUS
 10
7.5531871118
 20
6.2910093168
 11
6.3581871118
 21
6.2910093168
  0
LINE
  5
310
100
AcDbEntity
  8
ALL_ASSEMBLY_MEMBERS
100
AcDbLine
 62
7
  6
CONTINUOUS
 10
5.6231871118
 20
6.2910093168
 11
4.3481871118
 21
6.2910093168
  0
LINE
  5
311
100
AcDbEntity
  8
ALL_ASSEMBLY_MEMBERS
100
AcDbLine
 62
7
  6
CONTINUOUS
 10
3.6156871118
 20
6.2910093168
 11
2.4206871118
 21
6.2910093168
  0
LINE
  5
312
100
AcDbEntity
  8
ALL_ASSEMBLY_MEMBERS
100
AcDbLine
 62
7
  6
CONTINUOUS
 10
7.4981870839
 20
6.3425866338
 11
6.4131871423
 21
6.3425866338
  0
LINE
  5
313
100
AcDbEntity
  8
ALL_ASSEMBLY_MEMBERS
100
AcDbLine
 62
7
  6
CONTINUOUS
 10
5.5681871122
 20
6.3425866338
 11
4.4031871109
 21
6.3425866338
  0
LINE
  5
314
100
AcDbEntity
  8
ALL_ASSEMBLY_MEMBERS
100
AcDbLine
 62
7
  6
CONTINUOUS
 10
3.5606870839
 20
6.3425866338
 11
2.4756871423
 21
6.3425866338
  0
LINE
  5
315
100
AcDbEntity
  8
ALL_ASSEMBLY_MEMBERS
100
AcDbLine
 62
7
  6
CONTINUOUS
 10
7.4981871118
 20
6.3547701267
 11
6.4131870659
 21
6.3547701267
  0
LINE
  5
316
100
AcDbEntity
  8
ALL_ASSEMBLY_MEMBERS
100
AcDbLine
 62
7
  6
CONTINUOUS
 10
5.5681871118
 20
6.3547701267
 11
4.4031871118
 21
6.3547701267
  0
LINE
  5
317
100
AcDbEntity
  8
ALL_ASSEMBLY_MEMBERS
100
AcDbLine
 62
7
  6
CONTINUOUS
 10
3.5606871118
 20
6.3547701267
 11
2.4756870659
 21
6.3547701267
  0
LINE
  5
318
100
AcDbEntity
  8
ALL_ASSEMBLY_MEMBERS
100
AcDbLine
 62
7
  6
CONTINUOUS
 10
7.4981871118
 20
6.3913206055
 11
6.4131871118
 21
6.3913206055
  0
LINE
  5
319
100
AcDbEntity
  8
ALL_ASSEMBLY_MEMBERS
100
AcDbLine
 62
7
  6
CONTINUOUS
 10
3.5606871118
 20
6.3913206055
 11
2.4756871118
 21
6.3913206055
  0
LINE
  5
31A
100
AcDbEntity
  8
ALL_ASSEMBLY_MEMBERS
100
AcDbLine
 62
7
  6
CONTINUOUS
 10
4.4031871118
 20
6.3913206055
 11
5.5681871118
 21
6.3913206055
  0
LINE
  5
31B
100
AcDbEntity
  8
ALL_ASSEMBLY_MEMBERS
100
AcDbLine
 62
7
  6
CONTINUOUS
 10
6.5841533881
 20
6.1648640394
 11
6.727522309
 21
5.3517784848
  0
LINE
  5
31C
100
AcDbEntity
  8
ALL_ASSEMBLY_MEMBERS
100
AcDbLine
 62
7
  6
CONTINUOUS
 10
6.6136976207
 20
6.1648640394
 11
6.7570665416
 21
5.3517784848
  0
LINE
  5
31D
100
AcDbEntity
  8
ALL_ASSEMBLY_MEMBERS
100
AcDbLine
 62
7
  6
CONTINUOUS
 10
6.388187112
 20
6.3412513707
 11
6.3858620602
 21
6.3544820067
  0
LWPOLYLINE
  5
31E
100
AcDbEntity
  8
ALL_ASSEMBLY_MEMBERS
100
AcDbPolyline
 62
7
  6
CONTINUOUS
 90
9
 70
0
 10
7.1274369429
 20
5.0062887403
 10
7.1273363783
 20
5.0080110029
 10
7.1270386139
 20
5.0097107819
 10
7.1265474296
 20
5.0113655519
 10
7.1258691718
 20
5.0129533542
 10
7.1250126775
 20
5.0144530838
 10
7.1239891631
 20
5.0158447716
 10
7.1228120766
 20
5.0171098601
 10
7.1222703569
 20
5.0176038421
  0
LINE
  5
31F
100
AcDbEntity
  8
ALL_ASSEMBLY_MEMBERS
100
AcDbLine
 62
7
  6
CONTINUOUS
 10
7.0562778668
 20
5.0102593168
 11
7.0562778668
 21
4.9952593168
  0
LINE
  5
320
100
AcDbEntity
  8
ALL_ASSEMBLY_MEMBERS
100
AcDbLine
 62
7
  6
CONTINUOUS
 10
7.0821871118
 20
5.2082593168
 11
7.0821871118
 21
5.1927593168
  0
LINE
  5
321
100
AcDbEntity
  8
ALL_ASSEMBLY_MEMBERS
100
AcDbLine
 62
7
  6
CONTINUOUS
 10
7.1119371118
 20
5.0402593168
 11
7.1119371118
 21
5.1927593168
  0
LINE
  5
322
100
AcDbEntity
  8
ALL_ASSEMBLY_MEMBERS
100
AcDbLine
 62
7
  6
CONTINUOUS
 10
7.1124371118
 20
5.0102593168
 11
7.1124371118
 21
4.6667593168
  0
LINE
  5
323
100
AcDbEntity
  8
ALL_ASSEMBLY_MEMBERS
100
AcDbLine
 62
7
  6
CONTINUOUS
 10
7.1274371118
 20
5.0062738928
 11
7.1274371118
 21
4.6817593168
  0
LINE
  5
324
100
AcDbEntity
  8
ALL_ASSEMBLY_MEMBERS
100
AcDbLine
 62
7
  6
CONTINUOUS
 10
7.1543101547
 20
5.3010326174
 11
7.154309798
 21
5.2867221119
  0
LINE
  5
325
100
AcDbEntity
  8
ALL_ASSEMBLY_MEMBERS
100
AcDbLine
 62
7
  6
CONTINUOUS
 10
7.1543051004
 20
5.3517784848
 11
7.1543105114
 21
5.3010326174
  0
LINE
  5
326
100
AcDbEntity
  8
ALL_ASSEMBLY_MEMBERS
100
AcDbLine
 62
7
  6
CONTINUOUS
 10
7.1574371118
 20
4.7135093168
 11
7.1574371118
 21
4.9635093168
  0
LINE
  5
327
100
AcDbEntity
  8
ALL_ASSEMBLY_MEMBERS
100
AcDbLine
 62
7
  6
CONTINUOUS
 10
7.1958937166
 20
5.2991091238
 11
7.1951871117
 21
5.2841571535
  0
LINE
  5
328
100
AcDbEntity
  8
ALL_ASSEMBLY_MEMBERS
100
AcDbLine
 62
7
  6
CONTINUOUS
 10
7.2976766029
 20
6.1648640394
 11
7.154307682
 21
5.3517784848
  0
LINE
  5
329
100
AcDbEntity
  8
ALL_ASSEMBLY_MEMBERS
100
AcDbLine
 62
7
  6
CONTINUOUS
 10
7.3272208355
 20
6.1648640394
 11
7.1838519146
 21
5.3517784848
  0
LINE
  5
32A
100
AcDbEntity
  8
ALL_ASSEMBLY_MEMBERS
100
AcDbLine
 62
7
  6
CONTINUOUS
 10
2.4456871118
 20
6.4810093168
 11
3.5906871118
 21
6.4810093168
  0
LINE
  5
32B
100
AcDbEntity
  8
ALL_ASSEMBLY_MEMBERS
100
AcDbLine
 62
7
  6
CONTINUOUS
 10
4.3731871118
 20
6.4810093168
 11
5.5981871118
 21
6.4810093168
  0
LINE
  5
32C
100
AcDbEntity
  8
ALL_ASSEMBLY_MEMBERS
100
AcDbLine
 62
7
  6
CONTINUOUS
 10
6.3831871118
 20
6.4810093168
 11
7.5281871118
 21
6.4810093168
  0
LINE
  5
32D
100
AcDbEntity
  8
ALL_ASSEMBLY_MEMBERS
100
AcDbLine
 62
7
  6
CONTINUOUS
 10
7.1951871118
 20
5.2082593168
 11
7.1951871118
 21
5.2841571535
  0
LINE
  5
32E
100
AcDbEntity
  8
ALL_ASSEMBLY_MEMBERS
100
AcDbLine
 62
7
  6
CONTINUOUS
 10
7.2156871118
 20
6.2760093168
 11
7.2156871118
 21
6.2710093168
  0
LINE
  5
32F
100
AcDbEntity
  8
ALL_ASSEMBLY_MEMBERS
100
AcDbLine
 62
7
  6
CONTINUOUS
 10
7.2251871118
 20
5.2232593168
 11
7.2251871118
 21
5.2867220434
  0
LINE
  5
330
100
AcDbEntity
  8
ALL_ASSEMBLY_MEMBERS
100
AcDbLine
 62
7
  6
CONTINUOUS
 10
7.2976766029
 20
6.1772593168
 11
7.2976766029
 21
6.1648640394
  0
LINE
  5
331
100
AcDbEntity
  8
ALL_ASSEMBLY_MEMBERS
100
AcDbLine
 62
7
  6
CONTINUOUS
 10
7.3306871118
 20
6.2760093168
 11
7.3306871118
 21
6.2710093168
  0
LINE
  5
332
100
AcDbEntity
  8
ALL_ASSEMBLY_MEMBERS
100
AcDbLine
 62
7
  6
CONTINUOUS
 10
7.3619371118
 20
6.1772593168
 11
7.3619371118
 21
6.2710093168
  0
LINE
  5
333
100
AcDbEntity
  8
ALL_ASSEMBLY_MEMBERS
100
AcDbLine
 62
7
  6
CONTINUOUS
 10
7.3919371118
 20
6.1922593168
 11
7.3919371118
 21
6.2710093168
  0
LINE
  5
334
100
AcDbEntity
  8
ALL_ASSEMBLY_MEMBERS
100
AcDbLine
 62
7
  6
CONTINUOUS
 10
7.5190963143
 20
6.3417956299
 11
7.520119432
 21
6.3546411513
  0
LINE
  5
335
100
AcDbEntity
  8
ALL_ASSEMBLY_MEMBERS
100
AcDbLine
 62
7
  6
CONTINUOUS
 10
7.5231871118
 20
6.3412513903
 11
7.5255122867
 21
6.3544820093
  0
LINE
  5
336
100
AcDbEntity
  8
ALL_ASSEMBLY_MEMBERS
100
AcDbLine
 62
7
  6
CONTINUOUS
 10
7.4981870839
 20
6.3425866338
 11
7.4981871118
 21
6.4810093168
  0
LINE
  5
337
100
AcDbEntity
  8
ALL_ASSEMBLY_MEMBERS
100
AcDbLine
 62
7
  6
CONTINUOUS
 10
7.5231871118
 20
6.2760093168
 11
7.5231871118
 21
6.3412513903
  0
LINE
  5
338
100
AcDbEntity
  8
ALL_ASSEMBLY_MEMBERS
100
AcDbLine
 62
7
  6
CONTINUOUS
 10
7.5281871118
 20
6.3913206055
 11
7.5281871118
 21
6.4810093168
  0
LINE
  5
339
100
AcDbEntity
  8
ALL_ASSEMBLY_MEMBERS
100
AcDbLine
 62
7
  6
CONTINUOUS
 10
7.5531871118
 20
6.2910093168
 11
7.5531871118
 21
6.3425866338
  0
LINE
  5
33A
100
AcDbEntity
  8
ALL_ASSEMBLY_MEMBERS
100
AcDbLine
 62
7
  6
CONTINUOUS
 10
8.4564371118
 20
4.9635093168
 11
8.4564371118
 21
4.7135093168
  0
LINE
  5
33B
100
AcDbEntity
  8
ALL_ASSEMBLY_MEMBERS
100
AcDbLine
 62
7
  6
CONTINUOUS
 10
8.4714371118
 20
4.9485093168
 11
8.4714371118
 21
4.7285093168
  0
ARC
  5
33C
100
AcDbEntity
  8
ALL_ASSEMBLY_MEMBERS
100
AcDbCircle
 62
7
  6
CONTINUOUS
 10
4.1043665229
 20
4.1487254206
 40
1.5939981042
100
AcDbArc
 50
320.5576747425
 51
320.7476643421
  0
ARC
  5
33D
100
AcDbEntity
  8
ALL_ASSEMBLY_MEMBERS
100
AcDbCircle
 62
7
  6
CONTINUOUS
 10
3.6511417623
 20
3.2052993902
 40
1.0004028075
100
AcDbArc
 50
3.5464766432
 51
4.0583103622
  0
ARC
  5
33E
100
AcDbEntity
  8
ALL_ASSEMBLY_MEMBERS
100
AcDbCircle
 62
7
  6
CONTINUOUS
 10
4.6632680372
 20
3.1404240571
 40
0.0306589035
100
AcDbArc
 50
118.0042911074
 51
132.4753249119
  0
ARC
  5
33F
100
AcDbEntity
  8
ALL_ASSEMBLY_MEMBERS
100
AcDbCircle
 62
7
  6
CONTINUOUS
 10
4.6890111639
 20
2.5505119245
 40
0.03
100
AcDbArc
 50
182.5312166893
 51
269.9999999769
  0
ARC
  5
340
100
AcDbEntity
  8
ALL_ASSEMBLY_MEMBERS
100
AcDbCircle
 62
7
  6
CONTINUOUS
 10
4.6623582482
 20
3.141506709
 40
0.03
100
AcDbArc
 50
116.4645460601
 51
182.6279114814
  0
ARC
  5
341
100
AcDbEntity
  8
ALL_ASSEMBLY_MEMBERS
100
AcDbCircle
 62
7
  6
CONTINUOUS
 10
2.7457059844
 20
5.3439643168
 40
0.0449999857
100
AcDbArc
 50
287.4387088441
 51
10.0000053682
  0
ARC
  5
342
100
AcDbEntity
  8
ALL_ASSEMBLY_MEMBERS
100
AcDbCircle
 62
7
  6
CONTINUOUS
 10
2.8164371118
 20
4.9935093168
 40
0.03
100
AcDbArc
 50
270.0
 51
355.0000042442
  0
ARC
  5
343
100
AcDbEntity
  8
ALL_ASSEMBLY_MEMBERS
100
AcDbCircle
 62
7
  6
CONTINUOUS
 10
2.8164371118
 20
4.6835093168
 40
0.03
100
AcDbArc
 50
5.0000000028
 51
90.0
  0
ARC
  5
344
100
AcDbEntity
  8
ALL_ASSEMBLY_MEMBERS
100
AcDbCircle
 62
7
  6
CONTINUOUS
 10
2.8319371118
 20
5.0402593168
 40
0.03
100
AcDbArc
 50
310.9605647694
 51
360.0
  0
ARC
  5
345
100
AcDbEntity
  8
ALL_ASSEMBLY_MEMBERS
100
AcDbCircle
 62
7
  6
CONTINUOUS
 10
1.5174371118
 20
4.9485093168
 40
0.015
100
AcDbArc
 50
90.0
 51
180.0
  0
ARC
  5
346
100
AcDbEntity
  8
ALL_ASSEMBLY_MEMBERS
100
AcDbCircle
 62
7
  6
CONTINUOUS
 10
1.5174371118
 20
4.7285093168
 40
0.015
100
AcDbArc
 50
180.0
 51
270.0
  0
ARC
  5
347
100
AcDbEntity
  8
ALL_ASSEMBLY_MEMBERS
100
AcDbCircle
 62
7
  6
CONTINUOUS
 10
2.8614371118
 20
4.9952593168
 40
0.015
100
AcDbArc
 50
90.0
 51
180.0
  0
ARC
  5
348
100
AcDbEntity
  8
ALL_ASSEMBLY_MEMBERS
100
AcDbCircle
 62
7
  6
CONTINUOUS
 10
2.8614371118
 20
4.6817593168
 40
0.015
100
AcDbArc
 50
180.0
 51
270.0
  0
ARC
  5
349
100
AcDbEntity
  8
ALL_ASSEMBLY_MEMBERS
100
AcDbCircle
 62
7
  6
CONTINUOUS
 10
2.7636871118
 20
5.2232593168
 40
0.015
100
AcDbArc
 50
180.0
 51
270.0
  0
ARC
  5
34A
100
AcDbEntity
  8
ALL_ASSEMBLY_MEMBERS
100
AcDbCircle
 62
7
  6
CONTINUOUS
 10
2.7636871118
 20
5.2867220563
 40
0.015
100
AcDbArc
 50
107.4387286627
 51
179.9999999841
  0
ARC
  5
34B
100
AcDbEntity
  8
ALL_ASSEMBLY_MEMBERS
100
AcDbCircle
 62
7
  6
CONTINUOUS
 10
2.7636768982
 20
5.2841487945
 40
0.0149902969
100
AcDbArc
 50
93.6657767443
 51
179.9687477231
  0
ARC
  5
34C
100
AcDbEntity
  8
ALL_ASSEMBLY_MEMBERS
100
AcDbCircle
 62
7
  6
CONTINUOUS
 10
2.4006871118
 20
6.3913206055
 40
0.045
100
AcDbArc
 50
305.685334712
 51
360.0
  0
ARC
  5
34D
100
AcDbEntity
  8
ALL_ASSEMBLY_MEMBERS
100
AcDbCircle
 62
7
  6
CONTINUOUS
 10
2.4356871118
 20
6.3425866338
 40
0.015
100
AcDbArc
 50
125.6853347126
 51
179.9999999999
  0
ARC
  5
34E
100
AcDbEntity
  8
ALL_ASSEMBLY_MEMBERS
100
AcDbCircle
 62
7
  6
CONTINUOUS
 10
2.4356871118
 20
6.2910093168
 40
0.015
100
AcDbArc
 50
180.0
 51
270.0
  0
ARC
  5
34F
100
AcDbEntity
  8
ALL_ASSEMBLY_MEMBERS
100
AcDbCircle
 62
7
  6
CONTINUOUS
 10
2.6318812718
 20
6.1622593168
 40
0.015
100
AcDbArc
 50
10.0
 51
90.0
  0
ARC
  5
350
100
AcDbEntity
  8
ALL_ASSEMBLY_MEMBERS
100
AcDbCircle
 62
7
  6
CONTINUOUS
 10
2.5969371118
 20
6.1922593168
 40
0.015
100
AcDbArc
 50
180.0
 51
270.0
  0
ARC
  5
351
100
AcDbEntity
  8
ALL_ASSEMBLY_MEMBERS
100
AcDbCircle
 62
7
  6
CONTINUOUS
 10
3.2906678965
 20
5.3439643168
 40
0.0449997832
100
AcDbArc
 50
169.9999188616
 51
252.5616429484
  0
ARC
  5
352
100
AcDbEntity
  8
ALL_ASSEMBLY_MEMBERS
100
AcDbCircle
 62
7
  6
CONTINUOUS
 10
3.2199371118
 20
4.6835093168
 40
0.03
100
AcDbArc
 50
96.3793702084
 51
175.3544125252
  0
ARC
  5
353
100
AcDbEntity
  8
ALL_ASSEMBLY_MEMBERS
100
AcDbCircle
 62
7
  6
CONTINUOUS
 10
3.2199371118
 20
4.9935093168
 40
0.03
100
AcDbArc
 50
184.6455905493
 51
263.6206297916
  0
ARC
  5
354
100
AcDbEntity
  8
ALL_ASSEMBLY_MEMBERS
100
AcDbCircle
 62
7
  6
CONTINUOUS
 10
3.2044371118
 20
5.0402593168
 40
0.03
100
AcDbArc
 50
180.0
 51
229.0382114477
  0
ARC
  5
355
100
AcDbEntity
  8
ALL_ASSEMBLY_MEMBERS
100
AcDbCircle
 62
7
  6
CONTINUOUS
 10
3.2149371118
 20
4.9487879572
 40
0.015
100
AcDbArc
 50
0.0
 51
83.6206297669
  0
ARC
  5
356
100
AcDbEntity
  8
ALL_ASSEMBLY_MEMBERS
100
AcDbCircle
 62
7
  6
CONTINUOUS
 10
3.2149371118
 20
4.7282306763
 40
0.015
100
AcDbArc
 50
276.3793702084
 51
360.0
  0
ARC
  5
357
100
AcDbEntity
  8
ALL_ASSEMBLY_MEMBERS
100
AcDbCircle
 62
7
  6
CONTINUOUS
 10
3.1749371118
 20
5.0062777041
 40
0.015
100
AcDbArc
 50
0.0
 51
49.0382113998
  0
ARC
  5
358
100
AcDbEntity
  8
ALL_ASSEMBLY_MEMBERS
100
AcDbCircle
 62
7
  6
CONTINUOUS
 10
3.1749371118
 20
4.9952593168
 40
0.015
100
AcDbArc
 50
0.0
 51
90.0
  0
ARC
  5
359
100
AcDbEntity
  8
ALL_ASSEMBLY_MEMBERS
100
AcDbCircle
 62
7
  6
CONTINUOUS
 10
3.1749371118
 20
4.6817593168
 40
0.015
100
AcDbArc
 50
270.0
 51
360.0
  0
ARC
  5
35A
100
AcDbEntity
  8
ALL_ASSEMBLY_MEMBERS
100
AcDbCircle
 62
7
  6
CONTINUOUS
 10
3.2726871118
 20
5.2232593168
 40
0.015
100
AcDbArc
 50
270.0
 51
360.0
  0
ARC
  5
35B
100
AcDbEntity
  8
ALL_ASSEMBLY_MEMBERS
100
AcDbCircle
 62
7
  6
CONTINUOUS
 10
3.2726871118
 20
5.2867220406
 40
0.015
100
AcDbArc
 50
0.0005841537
 51
72.5614635538
  0
ARC
  5
35C
100
AcDbEntity
  8
ALL_ASSEMBLY_MEMBERS
100
AcDbCircle
 62
7
  6
CONTINUOUS
 10
3.2726972675
 20
5.2841490904
 40
0.0149903579
100
AcDbArc
 50
0.0310872012
 51
86.3288293923
  0
ARC
  5
35D
100
AcDbEntity
  8
ALL_ASSEMBLY_MEMBERS
100
AcDbCircle
 62
7
  6
CONTINUOUS
 10
4.3281871118
 20
6.3913206055
 40
0.045
100
AcDbArc
 50
305.6853347127
 51
360.0
  0
ARC
  5
35E
100
AcDbEntity
  8
ALL_ASSEMBLY_MEMBERS
100
AcDbCircle
 62
7
  6
CONTINUOUS
 10
3.6356871118
 20
6.3913206055
 40
0.045
100
AcDbArc
 50
179.9999999999
 51
234.314665288
  0
ARC
  5
35F
100
AcDbEntity
  8
ALL_ASSEMBLY_MEMBERS
100
AcDbCircle
 62
7
  6
CONTINUOUS
 10
4.4656871118
 20
6.2072593168
 40
0.03
100
AcDbArc
 50
180.0
 51
270.0
  0
ARC
  5
360
100
AcDbEntity
  8
ALL_ASSEMBLY_MEMBERS
100
AcDbCircle
 62
7
  6
CONTINUOUS
 10
4.4578060166
 20
6.147779166
 40
0.0299999983
100
AcDbArc
 50
4.2769846465
 51
81.5455210797
  0
ARC
  5
361
100
AcDbEntity
  8
ALL_ASSEMBLY_MEMBERS
100
AcDbCircle
 62
7
  6
CONTINUOUS
 10
4.4570344069
 20
6.1478865057
 40
0.0299999809
100
AcDbArc
 50
2.689454568
 51
81.7083637665
  0
ARC
  5
362
100
AcDbEntity
  8
ALL_ASSEMBLY_MEMBERS
100
AcDbCircle
 62
7
  6
CONTINUOUS
 10
4.3631871118
 20
6.3425866338
 40
0.015
100
AcDbArc
 50
125.6853347127
 51
180.0
  0
ARC
  5
363
100
AcDbEntity
  8
ALL_ASSEMBLY_MEMBERS
100
AcDbCircle
 62
7
  6
CONTINUOUS
 10
4.3631871118
 20
6.2910093168
 40
0.015
100
AcDbArc
 50
180.0
 51
270.0
  0
ARC
  5
364
100
AcDbEntity
  8
ALL_ASSEMBLY_MEMBERS
100
AcDbCircle
 62
7
  6
CONTINUOUS
 10
3.6006871118
 20
6.3425866338
 40
0.015
100
AcDbArc
 50
0.0000000002
 51
54.3146652875
  0
ARC
  5
365
100
AcDbEntity
  8
ALL_ASSEMBLY_MEMBERS
100
AcDbCircle
 62
7
  6
CONTINUOUS
 10
3.6006871118
 20
6.2910093168
 40
0.015
100
AcDbArc
 50
270.0
 51
360.0
  0
ARC
  5
366
100
AcDbEntity
  8
ALL_ASSEMBLY_MEMBERS
100
AcDbCircle
 62
7
  6
CONTINUOUS
 10
3.4044929518
 20
6.1622593168
 40
0.015
100
AcDbArc
 50
89.9999999992
 51
169.9999999999
  0
ARC
  5
367
100
AcDbEntity
  8
ALL_ASSEMBLY_MEMBERS
100
AcDbCircle
 62
7
  6
CONTINUOUS
 10
3.4394371118
 20
6.1922593168
 40
0.015
100
AcDbArc
 50
270.0
 51
360.0
  0
ARC
  5
368
100
AcDbEntity
  8
ALL_ASSEMBLY_MEMBERS
100
AcDbCircle
 62
7
  6
CONTINUOUS
 10
4.3631297414
 20
6.3417859188
 40
0.0149432943
100
AcDbArc
 50
120.6586921368
 51
179.9630709904
  0
ARC
  5
369
100
AcDbEntity
  8
ALL_ASSEMBLY_MEMBERS
100
AcDbCircle
 62
7
  6
CONTINUOUS
 10
5.8670406253
 20
4.1487524145
 40
1.5940406799
100
AcDbArc
 50
219.252338194
 51
219.4423226593
  0
ARC
  5
36A
100
AcDbEntity
  8
ALL_ASSEMBLY_MEMBERS
100
AcDbCircle
 62
7
  6
CONTINUOUS
 10
6.3197494219
 20
3.205328902
 40
0.9999188907
100
AcDbArc
 50
175.9414175824
 51
176.4206772481
  0
ARC
  5
36B
100
AcDbEntity
  8
ALL_ASSEMBLY_MEMBERS
100
AcDbCircle
 62
7
  6
CONTINUOUS
 10
5.3080614455
 20
3.1403563703
 40
0.0307396734
100
AcDbArc
 50
41.4569110865
 51
61.9823425417
  0
ARC
  5
36C
100
AcDbEntity
  8
ALL_ASSEMBLY_MEMBERS
100
AcDbCircle
 62
7
  6
CONTINUOUS
 10
5.3090159754
 20
3.141506709
 40
0.03
100
AcDbArc
 50
357.3720885535
 51
63.5342989938
  0
ARC
  5
36D
100
AcDbEntity
  8
ALL_ASSEMBLY_MEMBERS
100
AcDbCircle
 62
7
  6
CONTINUOUS
 10
5.2823630597
 20
2.5505119245
 40
0.03
100
AcDbArc
 50
270.0000000231
 51
357.4687834345
  0
ARC
  5
36E
100
AcDbEntity
  8
ALL_ASSEMBLY_MEMBERS
100
AcDbCircle
 62
7
  6
CONTINUOUS
 10
6.6832059601
 20
5.3439643168
 40
0.045
100
AcDbArc
 50
287.4388007452
 51
10.0
  0
ARC
  5
36F
100
AcDbEntity
  8
ALL_ASSEMBLY_MEMBERS
100
AcDbCircle
 62
7
  6
CONTINUOUS
 10
6.7539371118
 20
4.9935093168
 40
0.03
100
AcDbArc
 50
276.3793702084
 51
355.3544125252
  0
ARC
  5
370
100
AcDbEntity
  8
ALL_ASSEMBLY_MEMBERS
100
AcDbCircle
 62
7
  6
CONTINUOUS
 10
6.7539371118
 20
4.6835093168
 40
0.03
100
AcDbArc
 50
4.6455905493
 51
83.6206297916
  0
ARC
  5
371
100
AcDbEntity
  8
ALL_ASSEMBLY_MEMBERS
100
AcDbCircle
 62
7
  6
CONTINUOUS
 10
6.7694371118
 20
5.0402593168
 40
0.03
100
AcDbArc
 50
310.9617885523
 51
360.0
  0
ARC
  5
372
100
AcDbEntity
  8
ALL_ASSEMBLY_MEMBERS
100
AcDbCircle
 62
7
  6
CONTINUOUS
 10
6.7589371118
 20
4.7282306763
 40
0.015
100
AcDbArc
 50
180.0
 51
263.6206297669
  0
ARC
  5
373
100
AcDbEntity
  8
ALL_ASSEMBLY_MEMBERS
100
AcDbCircle
 62
7
  6
CONTINUOUS
 10
6.7589371118
 20
4.9487879572
 40
0.015
100
AcDbArc
 50
96.3793702084
 51
180.0
  0
ARC
  5
374
100
AcDbEntity
  8
ALL_ASSEMBLY_MEMBERS
100
AcDbCircle
 62
7
  6
CONTINUOUS
 10
6.7989371118
 20
5.0062777041
 40
0.015
100
AcDbArc
 50
130.9617886002
 51
180.0
  0
ARC
  5
375
100
AcDbEntity
  8
ALL_ASSEMBLY_MEMBERS
100
AcDbCircle
 62
7
  6
CONTINUOUS
 10
6.7989371118
 20
4.9952593168
 40
0.015
100
AcDbArc
 50
90.0
 51
180.0
  0
ARC
  5
376
100
AcDbEntity
  8
ALL_ASSEMBLY_MEMBERS
100
AcDbCircle
 62
7
  6
CONTINUOUS
 10
6.7989371118
 20
4.6817593168
 40
0.015
100
AcDbArc
 50
180.0
 51
270.0
  0
ARC
  5
377
100
AcDbEntity
  8
ALL_ASSEMBLY_MEMBERS
100
AcDbCircle
 62
7
  6
CONTINUOUS
 10
6.7011871118
 20
5.2232593168
 40
0.015
100
AcDbArc
 50
180.0
 51
270.0
  0
ARC
  5
378
100
AcDbEntity
  8
ALL_ASSEMBLY_MEMBERS
100
AcDbCircle
 62
7
  6
CONTINUOUS
 10
6.7011871118
 20
5.2867221934
 40
0.015
100
AcDbArc
 50
107.4387176713
 51
179.9999999614
  0
ARC
  5
379
100
AcDbEntity
  8
ALL_ASSEMBLY_MEMBERS
100
AcDbCircle
 62
7
  6
CONTINUOUS
 10
6.7011769913
 20
5.2841484825
 40
0.0149903849
100
AcDbArc
 50
93.675606385
 51
179.969049181
  0
ARC
  5
37A
100
AcDbEntity
  8
ALL_ASSEMBLY_MEMBERS
100
AcDbCircle
 62
7
  6
CONTINUOUS
 10
5.6431871118
 20
6.3913206055
 40
0.045
100
AcDbArc
 50
180.0
 51
234.3146652873
  0
ARC
  5
37B
100
AcDbEntity
  8
ALL_ASSEMBLY_MEMBERS
100
AcDbCircle
 62
7
  6
CONTINUOUS
 10
6.3381871118
 20
6.3913206055
 40
0.045
100
AcDbArc
 50
305.685334712
 51
360.0
  0
ARC
  5
37C
100
AcDbEntity
  8
ALL_ASSEMBLY_MEMBERS
100
AcDbCircle
 62
7
  6
CONTINUOUS
 10
5.5143398776
 20
6.1478865145
 40
0.03000008
100
AcDbArc
 50
98.2916947013
 51
177.3103859242
  0
ARC
  5
37D
100
AcDbEntity
  8
ALL_ASSEMBLY_MEMBERS
100
AcDbCircle
 62
7
  6
CONTINUOUS
 10
5.5135681896
 20
6.1477791637
 40
0.0300000188
100
AcDbArc
 50
97.5476855499
 51
175.7229405156
  0
ARC
  5
37E
100
AcDbEntity
  8
ALL_ASSEMBLY_MEMBERS
100
AcDbCircle
 62
7
  6
CONTINUOUS
 10
5.5056871118
 20
6.2072593168
 40
0.03
100
AcDbArc
 50
270.0
 51
360.0
  0
ARC
  5
37F
100
AcDbEntity
  8
ALL_ASSEMBLY_MEMBERS
100
AcDbCircle
 62
7
  6
CONTINUOUS
 10
5.4822136881
 20
6.1778556739
 40
0.0273795
100
AcDbArc
 50
264.8858874934
 51
266.3334731216
  0
ARC
  5
380
100
AcDbEntity
  8
ALL_ASSEMBLY_MEMBERS
100
AcDbCircle
 62
7
  6
CONTINUOUS
 10
5.6081871118
 20
6.3425866338
 40
0.015
100
AcDbArc
 50
0.0
 51
54.3146652873
  0
ARC
  5
381
100
AcDbEntity
  8
ALL_ASSEMBLY_MEMBERS
100
AcDbCircle
 62
7
  6
CONTINUOUS
 10
5.6081871118
 20
6.2910093168
 40
0.015
100
AcDbArc
 50
270.0
 51
360.0
  0
ARC
  5
382
100
AcDbEntity
  8
ALL_ASSEMBLY_MEMBERS
100
AcDbCircle
 62
7
  6
CONTINUOUS
 10
6.3731871118
 20
6.3425866338
 40
0.015
100
AcDbArc
 50
125.6853347125
 51
179.9999999998
  0
ARC
  5
383
100
AcDbEntity
  8
ALL_ASSEMBLY_MEMBERS
100
AcDbCircle
 62
7
  6
CONTINUOUS
 10
6.3731871118
 20
6.2910093168
 40
0.015
100
AcDbArc
 50
180.0
 51
270.0
  0
ARC
  5
384
100
AcDbEntity
  8
ALL_ASSEMBLY_MEMBERS
100
AcDbCircle
 62
7
  6
CONTINUOUS
 10
6.5693812718
 20
6.1622593168
 40
0.015
100
AcDbArc
 50
10.0
 51
90.0
  0
ARC
  5
385
100
AcDbEntity
  8
ALL_ASSEMBLY_MEMBERS
100
AcDbCircle
 62
7
  6
CONTINUOUS
 10
6.5344371118
 20
6.1922593168
 40
0.015
100
AcDbArc
 50
180.0
 51
270.0
  0
ARC
  5
386
100
AcDbEntity
  8
ALL_ASSEMBLY_MEMBERS
100
AcDbCircle
 62
7
  6
CONTINUOUS
 10
5.6082444874
 20
6.3417859111
 40
0.014943289
100
AcDbArc
 50
0.0369489622
 51
59.3415998004
  0
ARC
  5
387
100
AcDbEntity
  8
ALL_ASSEMBLY_MEMBERS
100
AcDbCircle
 62
7
  6
CONTINUOUS
 10
7.2281682392
 20
5.3439643168
 40
0.0449999857
100
AcDbArc
 50
169.9999946318
 51
252.5612911559
  0
ARC
  5
388
100
AcDbEntity
  8
ALL_ASSEMBLY_MEMBERS
100
AcDbCircle
 62
7
  6
CONTINUOUS
 10
7.1574371118
 20
4.6835093168
 40
0.03
100
AcDbArc
 50
90.0
 51
175.0000042442
  0
ARC
  5
389
100
AcDbEntity
  8
ALL_ASSEMBLY_MEMBERS
100
AcDbCircle
 62
7
  6
CONTINUOUS
 10
7.1574371118
 20
4.9935093168
 40
0.03
100
AcDbArc
 50
185.0000000028
 51
270.0
  0
ARC
  5
38A
100
AcDbEntity
  8
ALL_ASSEMBLY_MEMBERS
100
AcDbCircle
 62
7
  6
CONTINUOUS
 10
7.1419371118
 20
5.0402593168
 40
0.03
100
AcDbArc
 50
180.0
 51
229.0394352306
  0
ARC
  5
38B
100
AcDbEntity
  8
ALL_ASSEMBLY_MEMBERS
100
AcDbCircle
 62
7
  6
CONTINUOUS
 10
8.4564371118
 20
4.9485093168
 40
0.015
100
AcDbArc
 50
0.0
 51
90.0
  0
ARC
  5
38C
100
AcDbEntity
  8
ALL_ASSEMBLY_MEMBERS
100
AcDbCircle
 62
7
  6
CONTINUOUS
 10
8.4564371118
 20
4.7285093168
 40
0.015
100
AcDbArc
 50
270.0
 51
360.0
  0
ARC
  5
38D
100
AcDbEntity
  8
ALL_ASSEMBLY_MEMBERS
100
AcDbCircle
 62
7
  6
CONTINUOUS
 10
7.1124371118
 20
4.9952593168
 40
0.015
100
AcDbArc
 50
0.0
 51
90.0
  0
ARC
  5
38E
100
AcDbEntity
  8
ALL_ASSEMBLY_MEMBERS
100
AcDbCircle
 62
7
  6
CONTINUOUS
 10
7.1124371118
 20
4.6817593168
 40
0.015
100
AcDbArc
 50
270.0
 51
360.0
  0
ARC
  5
38F
100
AcDbEntity
  8
ALL_ASSEMBLY_MEMBERS
100
AcDbCircle
 62
7
  6
CONTINUOUS
 10
7.2101871118
 20
5.2232593168
 40
0.015
100
AcDbArc
 50
270.0
 51
360.0
  0
ARC
  5
390
100
AcDbEntity
  8
ALL_ASSEMBLY_MEMBERS
100
AcDbCircle
 62
7
  6
CONTINUOUS
 10
7.2101871118
 20
5.2867220406
 40
0.015
100
AcDbArc
 50
0.0000107216
 51
72.5612700751
  0
ARC
  5
391
100
AcDbEntity
  8
ALL_ASSEMBLY_MEMBERS
100
AcDbCircle
 62
7
  6
CONTINUOUS
 10
7.2101973315
 20
5.2841483701
 40
0.0149902932
100
AcDbArc
 50
0.0310406526
 51
86.3313573947
  0
ARC
  5
392
100
AcDbEntity
  8
ALL_ASSEMBLY_MEMBERS
100
AcDbCircle
 62
7
  6
CONTINUOUS
 10
7.5731871118
 20
6.3913206055
 40
0.045
100
AcDbArc
 50
179.9999999999
 51
234.314665288
  0
ARC
  5
393
100
AcDbEntity
  8
ALL_ASSEMBLY_MEMBERS
100
AcDbCircle
 62
7
  6
CONTINUOUS
 10
7.5381871118
 20
6.3425866338
 40
0.015
100
AcDbArc
 50
0.0000000001
 51
54.3146652874
  0
ARC
  5
394
100
AcDbEntity
  8
ALL_ASSEMBLY_MEMBERS
100
AcDbCircle
 62
7
  6
CONTINUOUS
 10
7.5381871118
 20
6.2910093168
 40
0.015
100
AcDbArc
 50
270.0
 51
360.0
  0
ARC
  5
395
100
AcDbEntity
  8
ALL_ASSEMBLY_MEMBERS
100
AcDbCircle
 62
7
  6
CONTINUOUS
 10
7.3419929518
 20
6.1622593168
 40
0.015
100
AcDbArc
 50
89.9999999992
 51
169.9999999999
  0
ARC
  5
396
100
AcDbEntity
  8
ALL_ASSEMBLY_MEMBERS
100
AcDbCircle
 62
7
  6
CONTINUOUS
 10
7.3769371118
 20
6.1922593168
 40
0.015
100
AcDbArc
 50
270.0
 51
360.0
  0
SPLINE
  5
397
100
AcDbEntity
  8
ALL_ASSEMBLY_MEMBERS
100
AcDbSpline
 62
7
  6
CONTINUOUS
 70
0
 71
3
 72
15
 73
11
 74
0
 42
0.0000001
 43
0.0000001
 44
0.0000000001
 40
0.0
 40
0.0
 40
0.0
 40
0.0
 40
0.1244001421
 40
0.2488691832
 40
0.3734798137
 40
0.4982857819
 40
0.623328117
 40
0.7486296201
 40
0.8741907033
 40
1.0
 40
1.0
 40
1.0
 40
1.0
 10
5.6231871118
 20
6.3412513171
 30
0.0
 10
5.6231871118
 20
6.3419338801
 30
0.0
 10
5.6230907043
 20
6.3433013328
 30
0.0
 10
5.6226596887
 20
6.3453113056
 30
0.0
 10
5.6219506106
 20
6.3472435866
 30
0.0
 10
5.6209771029
 20
6.3490605078
 30
0.0
 10
5.6197579992
 20
6.3507272983
 30
0.0
 10
5.6183166388
 20
6.352211962
 30
0.0
 10
5.6166812248
 20
6.3534858548
 30
0.0
 10
5.6154824403
 20
6.3541782634
 30
0.0
 10
5.6148624287
 20
6.3544817308
 30
0.0
  0
LINE
  5
398
100
AcDbEntity
  8
ALL_ASSEMBLY_MEMBERS
100
AcDbLine
 62
7
  6
CONTINUOUS
 10
4.3822768724
 20
6.3417955474
 11
4.3781871118
 21
6.3412513171
  0
SPLINE
  5
399
100
AcDbEntity
  8
ALL_ASSEMBLY_MEMBERS
100
AcDbSpline
 62
7
  6
CONTINUOUS
 70
0
 71
3
 72
14
 73
10
 74
0
 42
0.0000001
 43
0.0000001
 44
0.0000000001
 40
0.0
 40
0.0
 40
0.0
 40
0.0
 40
0.1272661049
 40
0.2542955061
 40
0.3808638719
 40
0.5067606319
 40
0.6317956388
 40
0.7557939144
 40
1.0
 40
1.0
 40
1.0
 40
1.0
 10
5.5681871118
 20
6.3913206055
 30
0.0
 10
5.5686204839
 20
6.3913206057
 30
0.0
 10
5.5694866001
 20
6.3913439488
 30
0.0
 10
5.5707799412
 20
6.391447637
 30
0.0
 10
5.5720617235
 20
6.3916160218
 30
0.0
 10
5.5733274348
 20
6.391842994
 30
0.0
 10
5.5745738822
 20
6.3921209373
 30
0.0
 10
5.5761991382
 20
6.3925458582
 30
0.0
 10
5.5773972703
 20
6.3929175745
 30
0.0
 10
5.5781871118
 20
6.3931777243
 30
0.0
  0
LINE
  5
39A
100
AcDbEntity
  8
ALL_ASSEMBLY_MEMBERS
100
AcDbLine
 62
7
  6
CONTINUOUS
 10
5.596471383
 20
6.3931777243
 11
5.5981871118
 21
6.3913206055
  0
SPLINE
  5
39B
100
AcDbEntity
  8
ALL_ASSEMBLY_MEMBERS
100
AcDbSpline
 62
7
  6
CONTINUOUS
 70
0
 71
3
 72
24
 73
20
 74
0
 42
0.0000001
 43
0.0000001
 44
0.0000000001
 40
0.0
 40
0.0
 40
0.0
 40
0.0
 40
0.0842197051
 40
0.1665170987
 40
0.2465979415
 40
0.3241833471
 40
0.3990152284
 40
0.4708555742
 40
0.5394860162
 40
0.604709448
 40
0.6663560079
 40
0.7242958921
 40
0.7784616852
 40
0.8288831028
 40
0.875735408
 40
0.9193978823
 40
0.9605047509
 40
0.9803925817
 40
1.0
 40
1.0
 40
1.0
 40
1.0
 10
5.5781871118
 20
6.3931777243
 30
0.0
 10
5.578689824
 20
6.3933431499
 30
0.0
 10
5.5796915874
 20
6.3936470288
 30
0.0
 10
5.581194139
 20
6.3940279945
 30
0.0
 10
5.5826708696
 20
6.3943352738
 30
0.0
 10
5.5841125075
 20
6.3945746485
 30
0.0
 10
5.5855107686
 20
6.3947525922
 30
0.0
 10
5.5868584443
 20
6.3948750482
 30
0.0
 10
5.5881492799
 20
6.3949468868
 30
0.0
 10
5.5893778247
 20
6.3949713163
 30
0.0
 10
5.5905392779
 20
6.3949495062
 30
0.0
 10
5.5916293645
 20
6.3948804219
 30
0.0
 10
5.5926442712
 20
6.3947609122
 30
0.0
 10
5.5935806025
 20
6.3945859993
 30
0.0
 10
5.5944354318
 20
6.3943492405
 30
0.0
 10
5.5952059029
 20
6.3940433514
 30
0.0
 10
5.5957820232
 20
6.3937209227
 30
0.0
 10
5.5961924218
 20
6.3934233113
 30
0.0
 10
5.5963811919
 20
6.3932616687
 30
0.0
 10
5.596471383
 20
6.3931777243
 30
0.0
  0
SPLINE
  5
39C
100
AcDbEntity
  8
ALL_ASSEMBLY_MEMBERS
100
AcDbSpline
 62
7
  6
CONTINUOUS
 70
0
 71
3
 72
11
 73
7
 74
0
 42
0.0000001
 43
0.0000001
 44
0.0000000001
 40
0.0
 40
0.0
 40
0.0
 40
0.0
 40
0.2499995733
 40
0.4999992391
 40
0.7499991561
 40
1.0
 40
1.0
 40
1.0
 40
1.0
 10
4.4031871109
 20
6.3425866338
 30
0.0
 10
4.4014429291
 20
6.3425866314
 30
0.0
 10
4.3979544828
 20
6.3425551418
 30
0.0
 10
4.3927235952
 20
6.3424120514
 30
0.0
 10
4.3874963774
 20
6.3421687622
 30
0.0
 10
4.3840155647
 20
6.3419339318
 30
0.0
 10
4.3822768724
 20
6.3417955474
 30
0.0
  0
SPLINE
  5
39D
100
AcDbEntity
  8
ALL_ASSEMBLY_MEMBERS
100
AcDbSpline
 62
7
  6
CONTINUOUS
 70
0
 71
3
 72
11
 73
7
 74
0
 42
0.0000001
 43
0.0000001
 44
0.0000000001
 40
0.0
 40
0.0
 40
0.0
 40
0.0
 40
0.2500005385
 40
0.5000002497
 40
0.7500001062
 40
1.0
 40
1.0
 40
1.0
 40
1.0
 10
5.5890973203
 20
6.3417955498
 30
0.0
 10
5.5873586327
 20
6.3419339346
 30
0.0
 10
5.5838778286
 20
6.3421687624
 30
0.0
 10
5.5786506207
 20
6.3424120538
 30
0.0
 10
5.5734197385
 20
6.3425551401
 30
0.0
 10
5.5699312937
 20
6.3425866334
 30
0.0
 10
5.5681871122
 20
6.3425866338
 30
0.0
  0
SPLINE
  5
39E
100
AcDbEntity
  8
ALL_ASSEMBLY_MEMBERS
100
AcDbSpline
 62
7
  6
CONTINUOUS
 70
0
 71
3
 72
15
 73
11
 74
0
 42
0.0000001
 43
0.0000001
 44
0.0000000001
 40
0.0
 40
0.0
 40
0.0
 40
0.0
 40
0.1244001436
 40
0.2488691859
 40
0.3734798171
 40
0.4982857853
 40
0.6233281201
 40
0.7486296223
 40
0.8741907044
 40
1.0
 40
1.0
 40
1.0
 40
1.0
 10
4.3481871118
 20
6.3412513171
 30
0.0
 10
4.3481871118
 20
6.3419338802
 30
0.0
 10
4.3482835194
 20
6.3433013331
 30
0.0
 10
4.3487145351
 20
6.3453113063
 30
0.0
 10
4.3494236134
 20
6.3472435876
 30
0.0
 10
4.3503971214
 20
6.3490605089
 30
0.0
 10
4.3516162255
 20
6.3507272996
 30
0.0
 10
4.3530575863
 20
6.3522119633
 30
0.0
 10
4.3546930008
 20
6.3534858561
 30
0.0
 10
4.3558917855
 20
6.3541782645
 30
0.0
 10
4.3565117973
 20
6.3544817318
 30
0.0
  0
LINE
  5
39F
100
AcDbEntity
  8
ALL_ASSEMBLY_MEMBERS
100
AcDbLine
 62
7
  6
CONTINUOUS
 10
4.3731871118
 20
6.3913206055
 11
4.3749028406
 21
6.3931777243
  0
SPLINE
  5
3A0
100
AcDbEntity
  8
ALL_ASSEMBLY_MEMBERS
100
AcDbSpline
 62
7
  6
CONTINUOUS
 70
0
 71
3
 72
14
 73
10
 74
0
 42
0.0000001
 43
0.0000001
 44
0.0000000001
 40
0.0
 40
0.0
 40
0.0
 40
0.0
 40
0.2442061213
 40
0.3682044209
 40
0.4932394538
 40
0.619136231
 40
0.7457046591
 40
0.8727341705
 40
1.0
 40
1.0
 40
1.0
 40
1.0
 10
4.3931871118
 20
6.3931777243
 30
0.0
 10
4.3939769534
 20
6.3929175744
 30
0.0
 10
4.3951750857
 20
6.3925458581
 30
0.0
 10
4.396800342
 20
6.3921209371
 30
0.0
 10
4.3980467897
 20
6.3918429939
 30
0.0
 10
4.3993125013
 20
6.3916160216
 30
0.0
 10
4.4005942842
 20
6.3914476369
 30
0.0
 10
4.401887625
 20
6.3913439488
 30
0.0
 10
4.4027537406
 20
6.3913206058
 30
0.0
 10
4.4031871118
 20
6.3913206055
 30
0.0
  0
SPLINE
  5
3A1
100
AcDbEntity
  8
ALL_ASSEMBLY_MEMBERS
100
AcDbSpline
 62
7
  6
CONTINUOUS
 70
0
 71
3
 72
24
 73
20
 74
0
 42
0.0000001
 43
0.0000001
 44
0.0000000001
 40
0.0
 40
0.0
 40
0.0
 40
0.0
 40
0.0196074173
 40
0.0394952492
 40
0.0806021475
 40
0.124264702
 40
0.1711170767
 40
0.2215385434
 40
0.2757043772
 40
0.3336442954
 40
0.3952908767
 40
0.460514319
 40
0.5291447632
 40
0.6009850974
 40
0.675816934
 40
0.7534022392
 40
0.8334829624
 40
0.9157802917
 40
1.0
 40
1.0
 40
1.0
 40
1.0
 10
4.3749028406
 20
6.3931777243
 30
0.0
 10
4.3749930317
 20
6.3932616687
 30
0.0
 10
4.3751818017
 20
6.3934233113
 30
0.0
 10
4.3755922005
 20
6.3937209228
 30
0.0
 10
4.3761683216
 20
6.3940433515
 30
0.0
 10
4.3769387936
 20
6.3943492416
 30
0.0
 10
4.3777936243
 20
6.3945859999
 30
0.0
 10
4.3787299567
 20
6.3947609128
 30
0.0
 10
4.3797448641
 20
6.3948804224
 30
0.0
 10
4.3808349513
 20
6.3949495067
 30
0.0
 10
4.3819964049
 20
6.3949713163
 30
0.0
 10
4.38322495
 20
6.3949468863
 30
0.0
 10
4.3845157855
 20
6.3948750477
 30
0.0
 10
4.3858634609
 20
6.3947525916
 30
0.0
 10
4.387261721
 20
6.3945746479
 30
0.0
 10
4.3887033571
 20
6.3943352726
 30
0.0
 10
4.3901800861
 20
6.3940279945
 30
0.0
 10
4.3916826365
 20
6.3936470285
 30
0.0
 10
4.3926843996
 20
6.3933431499
 30
0.0
 10
4.3931871118
 20
6.3931777243
 30
0.0
  0
SPLINE
  5
3A2
100
AcDbEntity
  8
ALL_ASSEMBLY_MEMBERS
100
AcDbSpline
 62
7
  6
CONTINUOUS
 70
0
 71
3
 72
36
 73
32
 74
0
 42
0.0000001
 43
0.0000001
 44
0.0000000001
 40
0.0
 40
0.0
 40
0.0
 40
0.0
 40
0.0021124984
 40
0.004317222
 40
0.0067621259
 40
0.0095571284
 40
0.0127759587
 40
0.0164662012
 40
0.02065874
 40
0.0253735822
 40
0.0306232828
 40
0.0364159983
 40
0.0427568711
 40
0.0496482654
 40
0.0650835319
 40
0.082714445
 40
0.1025168641
 40
0.1244555421
 40
0.1484867448
 40
0.1745584779
 40
0.2026127354
 40
0.2325849922
 40
0.2979979885
 40
0.3701781272
 40
0.4484328825
 40
0.5320068113
 40
0.6200906886
 40
0.7118307916
 40
0.8063399198
 40
0.9027040963
 40
1.0
 40
1.0
 40
1.0
 40
1.0
 10
5.6231871118
 20
6.3412513171
 30
0.0
 10
5.6231871116
 20
6.3412300093
 30
0.0
 10
5.6231808552
 20
6.3411861995
 30
0.0
 10
5.6231522761
 20
6.3411234286
 30
0.0
 10
5.6231055051
 20
6.3410639681
 30
0.0
 10
5.623041112
 20
6.341007463
 30
0.0
 10
5.6229591921
 20
6.3409534784
 30
0.0
 10
5.6228596988
 20
6.3409017747
 30
0.0
 10
5.6227425788
 20
6.3408522312
 30
0.0
 10
5.6226078193
 20
6.3408047886
 30
0.0
 10
5.6224554438
 20
6.3407594156
 30
0.0
 10
5.622285503
 20
6.3407160966
 30
0.0
 10
5.6220980701
 20
6.3406748148
 30
0.0
 10
5.6218140494
 20
6.3406204024
 30
0.0
 10
5.6214156376
 20
6.3405587263
 30
0.0
 10
5.6208861385
 20
6.3404949273
 30
0.0
 10
5.6202898571
 20
6.3404388256
 30
0.0
 10
5.6196281778
 20
6.3403903508
 30
0.0
 10
5.6189026494
 20
6.3403494581
 30
0.0
 10
5.6181149975
 20
6.3403161011
 30
0.0
 10
5.6172671135
 20
6.3402902338
 30
0.0
 10
5.6160222732
 20
6.3402649751
 30
0.0
 10
5.6143320729
 20
6.3402537245
 30
0.0
 10
5.6121549166
 20
6.3402698016
 30
0.0
 10
5.6097949646
 20
6.340315421
 30
0.0
 10
5.6072752968
 20
6.3403909457
 30
0.0
 10
5.6046205937
 20
6.3404969653
 30
0.0
 10
5.6018568826
 20
6.3406342512
 30
0.0
 10
5.5990112879
 20
6.3408038481
 30
0.0
 10
5.5961117035
 20
6.341006919
 30
0.0
 10
5.5941647349
 20
6.3411655257
 30
0.0
 10
5.5931871118
 20
6.3412513171
 30
0.0
  0
LINE
  5
3A3
100
AcDbEntity
  8
ALL_ASSEMBLY_MEMBERS
100
AcDbLine
 62
7
  6
CONTINUOUS
 10
5.5931871118
 20
6.3412513171
 11
5.5890973203
 21
6.3417955498
  0
SPLINE
  5
3A4
100
AcDbEntity
  8
ALL_ASSEMBLY_MEMBERS
100
AcDbSpline
 62
7
  6
CONTINUOUS
 70
0
 71
3
 72
36
 73
32
 74
0
 42
0.0000001
 43
0.0000001
 44
0.0000000001
 40
0.0
 40
0.0
 40
0.0
 40
0.0
 40
0.0972950105
 40
0.1936580387
 40
0.2881668733
 40
0.3799070306
 40
0.4679909516
 40
0.5515649499
 40
0.6298198448
 40
0.7020001769
 40
0.7674133699
 40
0.7973856995
 40
0.8254400994
 40
0.8515119389
 40
0.8755432547
 40
0.8974820808
 40
0.9172845928
 40
0.9349156648
 40
0.9503510271
 40
0.957242504
 40
0.9635834174
 40
0.9693762044
 40
0.974626011
 40
0.9793409323
 40
0.9835335224
 40
0.9872238542
 40
0.9904427757
 40
0.9932378396
 40
0.9956827772
 40
0.9978875099
 40
1.0
 40
1.0
 40
1.0
 40
1.0
 10
4.3781871118
 20
6.3412513171
 30
0.0
 10
4.3772094977
 20
6.341165526
 30
0.0
 10
4.3752625496
 20
6.3410069215
 30
0.0
 10
4.3723629888
 20
6.3408038515
 30
0.0
 10
4.3695174082
 20
6.340634255
 30
0.0
 10
4.3667536991
 20
6.3404969684
 30
0.0
 10
4.3640989944
 20
6.3403909483
 30
0.0
 10
4.3615793241
 20
6.3403154224
 30
0.0
 10
4.3592193681
 20
6.3402698025
 30
0.0
 10
4.3570422064
 20
6.3402537245
 30
0.0
 10
4.3553520015
 20
6.3402649744
 30
0.0
 10
4.354107157
 20
6.3402902326
 30
0.0
 10
4.3532592698
 20
6.3403160996
 30
0.0
 10
4.3524716142
 20
6.3403494562
 30
0.0
 10
4.3517460821
 20
6.3403903484
 30
0.0
 10
4.3510843991
 20
6.3404388228
 30
0.0
 10
4.3504881137
 20
6.3404949243
 30
0.0
 10
4.3499586111
 20
6.3405587229
 30
0.0
 10
4.3495601958
 20
6.3406203987
 30
0.0
 10
4.3492761728
 20
6.3406748107
 30
0.0
 10
4.3490887379
 20
6.3407160929
 30
0.0
 10
4.3489187949
 20
6.3407594121
 30
0.0
 10
4.3487664167
 20
6.3408047847
 30
0.0
 10
4.3486316544
 20
6.3408522268
 30
0.0
 10
4.348514532
 20
6.3409017705
 30
0.0
 10
4.3484150365
 20
6.340953475
 30
0.0
 10
4.3483331144
 20
6.3410074607
 30
0.0
 10
4.3482687203
 20
6.3410639675
 30
0.0
 10
4.3482219484
 20
6.3411234287
 30
0.0
 10
4.3481933686
 20
6.3411861996
 30
0.0
 10
4.348187112
 20
6.3412300094
 30
0.0
 10
4.3481871118
 20
6.3412513171
 30
0.0
  0
LINE
  5
3A5
100
AcDbEntity
  8
ALL_ASSEMBLY_MEMBERS
100
AcDbLine
 62
7
  6
CONTINUOUS
 10
4.3555094399
 20
6.3546410856
 11
4.3544371118
 21
6.3547701267
  0
LINE
  5
3A6
100
AcDbEntity
  8
ALL_ASSEMBLY_MEMBERS
100
AcDbLine
 62
7
  6
CONTINUOUS
 10
4.3812543547
 20
6.3546411123
 11
4.375864119
 21
6.3544817314
  0
SPLINE
  5
3A7
100
AcDbEntity
  8
ALL_ASSEMBLY_MEMBERS
100
AcDbSpline
 62
7
  6
CONTINUOUS
 70
0
 71
3
 72
25
 73
21
 74
0
 42
0.0000001
 43
0.0000001
 44
0.0000000001
 40
0.0
 40
0.0
 40
0.0
 40
0.0
 40
0.180363805
 40
0.3517158894
 40
0.4327861146
 40
0.5101475453
 40
0.5833463539
 40
0.6519578347
 40
0.7155934258
 40
0.773908102
 40
0.8266065958
 40
0.8734504903
 40
0.8946205001
 40
0.9142667753
 40
0.9323791308
 40
0.9489523958
 40
0.9639880528
 40
0.9774945856
 40
0.9894891827
 40
1.0
 40
1.0
 40
1.0
 40
1.0
 10
4.375864119
 20
6.3544817314
 30
0.0
 10
4.3747003728
 20
6.3543950913
 30
0.0
 10
4.3724298495
 20
6.3542414561
 30
0.0
 10
4.369633381
 20
6.35409513
 30
0.0
 10
4.3675012461
 20
6.3540120776
 30
0.0
 10
4.3660032017
 20
6.3539680485
 30
0.0
 10
4.3645853681
 20
6.3539413019
 30
0.0
 10
4.3632561158
 20
6.3539319444
 30
0.0
 10
4.3620231507
 20
6.3539399876
 30
0.0
 10
4.360893386
 20
6.3539653441
 30
0.0
 10
4.3598728557
 20
6.3540078563
 30
0.0
 10
4.3590933933
 20
6.3540588481
 30
0.0
 10
4.3585284506
 20
6.3541093142
 30
0.0
 10
4.358149333
 20
6.3541500151
 30
0.0
 10
4.3578006334
 20
6.3541947743
 30
0.0
 10
4.3574826094
 20
6.3542435227
 30
0.0
 10
4.3571954451
 20
6.3542961592
 30
0.0
 10
4.3569392369
 20
6.3543525812
 30
0.0
 10
4.356714039
 20
6.3544126853
 30
0.0
 10
4.356575545
 20
6.3544580517
 30
0.0
 10
4.3565117948
 20
6.3544817307
 30
0.0
  0
LINE
  5
3A8
100
AcDbEntity
  8
ALL_ASSEMBLY_MEMBERS
100
AcDbLine
 62
7
  6
CONTINUOUS
 10
4.3565117948
 20
6.3544817307
 11
4.3555094795
 21
6.3546411106
  0
SPLINE
  5
3A9
100
AcDbEntity
  8
ALL_ASSEMBLY_MEMBERS
100
AcDbSpline
 62
7
  6
CONTINUOUS
 70
0
 71
3
 72
23
 73
19
 74
0
 42
0.0000001
 43
0.0000001
 44
0.0000000001
 40
0.0
 40
0.0
 40
0.0
 40
0.0
 40
0.0608501499
 40
0.1218403971
 40
0.182997516
 40
0.2443504818
 40
0.3059216157
 40
0.367730585
 40
0.4297924165
 40
0.4921178232
 40
0.5547129242
 40
0.6175792266
 40
0.6807136929
 40
0.7441086922
 40
0.8077527557
 40
0.8716290247
 40
0.9357202031
 40
1.0
 40
1.0
 40
1.0
 40
1.0
 10
4.3555094795
 20
6.3546411106
 30
0.0
 10
4.356283877
 20
6.3551308896
 30
0.0
 10
4.357801003
 20
6.3561656367
 30
0.0
 10
4.3599667976
 20
6.3578726651
 30
0.0
 10
4.3620162477
 20
6.3597292299
 30
0.0
 10
4.3639405362
 20
6.3617273112
 30
0.0
 10
4.3657315619
 20
6.3638584903
 30
0.0
 10
4.3673817452
 20
6.3661137029
 30
0.0
 10
4.3688841143
 20
6.3684833958
 30
0.0
 10
4.3702323259
 20
6.3709575224
 30
0.0
 10
4.3714206899
 20
6.3735256014
 30
0.0
 10
4.3724441975
 20
6.3761767558
 30
0.0
 10
4.3732985348
 20
6.37889976
 30
0.0
 10
4.3739801128
 20
6.3816830951
 30
0.0
 10
4.3744860509
 20
6.3845149662
 30
0.0
 10
4.3748142515
 20
6.3873834551
 30
0.0
 10
4.3749633077
 20
6.3902762618
 30
0.0
 10
4.3749428745
 20
6.3922106255
 30
0.0
 10
4.3749028406
 20
6.3931777243
 30
0.0
  0
LINE
  5
3AA
100
AcDbEntity
  8
ALL_ASSEMBLY_MEMBERS
100
AcDbLine
 62
7
  6
CONTINUOUS
 10
4.4031871118
 20
6.3547701267
 11
4.3812543431
 21
6.3546410956
  0
SPLINE
  5
3AB
100
AcDbEntity
  8
ALL_ASSEMBLY_MEMBERS
100
AcDbSpline
 62
7
  6
CONTINUOUS
 70
0
 71
3
 72
23
 73
19
 74
0
 42
0.0000001
 43
0.0000001
 44
0.0000000001
 40
0.0
 40
0.0
 40
0.0
 40
0.0
 40
0.0454152735
 40
0.0938893082
 40
0.1453242749
 40
0.1995957263
 40
0.2565512814
 40
0.3160175834
 40
0.3778021304
 40
0.4416962619
 40
0.5074772887
 40
0.5749105179
 40
0.6437511603
 40
0.7137458824
 40
0.7846351278
 40
0.8561526661
 40
0.9280324248
 40
1.0
 40
1.0
 40
1.0
 40
1.0
 10
4.3812543431
 20
6.3546410956
 30
0.0
 10
4.3816043027
 20
6.3551477445
 30
0.0
 10
4.3822966472
 20
6.3562168943
 30
0.0
 10
4.3832835381
 20
6.357923087
 30
0.0
 10
4.3842491178
 20
6.3597778903
 30
0.0
 10
4.3851892911
 20
6.3617734807
 30
0.0
 10
4.3861001044
 20
6.3639015599
 30
0.0
 10
4.3869777042
 20
6.3661531873
 30
0.0
 10
4.3878183728
 20
6.3685189044
 30
0.0
 10
4.3886185461
 20
6.3709887492
 30
0.0
 10
4.3893748299
 20
6.3735523107
 30
0.0
 10
4.3900840171
 20
6.3761987732
 30
0.0
 10
4.3907430991
 20
6.3789169629
 30
0.0
 10
4.3913492845
 20
6.3816954035
 30
0.0
 10
4.3918999969
 20
6.3845223449
 30
0.0
 10
4.3923929168
 20
6.3873858693
 30
0.0
 10
4.3928259373
 20
6.3902738289
 30
0.0
 10
4.3930736362
 20
6.3922085715
 30
0.0
 10
4.3931871118
 20
6.3931777243
 30
0.0
  0
LINE
  5
3AC
100
AcDbEntity
  8
ALL_ASSEMBLY_MEMBERS
100
AcDbLine
 62
7
  6
CONTINUOUS
 10
5.5901198489
 20
6.3546410856
 11
5.5681871118
 21
6.3547701267
  0
LINE
  5
3AD
100
AcDbEntity
  8
ALL_ASSEMBLY_MEMBERS
100
AcDbLine
 62
7
  6
CONTINUOUS
 10
5.6158647363
 20
6.3546411123
 11
5.6148624277
 21
6.3544817314
  0
SPLINE
  5
3AE
100
AcDbEntity
  8
ALL_ASSEMBLY_MEMBERS
100
AcDbSpline
 62
7
  6
CONTINUOUS
 70
0
 71
3
 72
25
 73
21
 74
0
 42
0.0000001
 43
0.0000001
 44
0.0000000001
 40
0.0
 40
0.0
 40
0.0
 40
0.0
 40
0.0105107739
 40
0.0225052384
 40
0.0360116216
 40
0.0510471754
 40
0.0676203383
 40
0.0857326565
 40
0.1053789031
 40
0.1265488426
 40
0.1733926294
 40
0.2260910495
 40
0.2844056429
 40
0.3480411585
 40
0.4166525625
 40
0.4898513194
 40
0.5672127371
 40
0.648282946
 40
0.8196351829
 40
1.0
 40
1.0
 40
1.0
 40
1.0
 10
5.6148624277
 20
6.3544817314
 30
0.0
 10
5.6147986776
 20
6.3544580529
 30
0.0
 10
5.614660185
 20
6.354412686
 30
0.0
 10
5.6144349893
 20
6.3543525817
 30
0.0
 10
5.6141787836
 20
6.3542961602
 30
0.0
 10
5.6138916216
 20
6.3542435237
 30
0.0
 10
5.6135735993
 20
6.354194775
 30
0.0
 10
5.6132249008
 20
6.3541500163
 30
0.0
 10
5.6128457841
 20
6.3541093153
 30
0.0
 10
5.6122808428
 20
6.354058849
 30
0.0
 10
5.6115013822
 20
6.354007857
 30
0.0
 10
5.6104808537
 20
6.3539653446
 30
0.0
 10
5.6093510907
 20
6.353939988
 30
0.0
 10
5.6081181272
 20
6.3539319444
 30
0.0
 10
5.6067888764
 20
6.3539413015
 30
0.0
 10
5.6053710438
 20
6.353968048
 30
0.0
 10
5.603873
 20
6.354012077
 30
0.0
 10
5.6017408646
 20
6.3540951288
 30
0.0
 10
5.598944389
 20
6.3542414562
 30
0.0
 10
5.5966738582
 20
6.3543950893
 30
0.0
 10
5.5955101057
 20
6.3544817307
 30
0.0
  0
LINE
  5
3AF
100
AcDbEntity
  8
ALL_ASSEMBLY_MEMBERS
100
AcDbLine
 62
7
  6
CONTINUOUS
 10
5.5955101057
 20
6.3544817307
 11
5.5901198316
 21
6.3546411106
  0
SPLINE
  5
3B0
100
AcDbEntity
  8
ALL_ASSEMBLY_MEMBERS
100
AcDbSpline
 62
7
  6
CONTINUOUS
 70
0
 71
3
 72
23
 73
19
 74
0
 42
0.0000001
 43
0.0000001
 44
0.0000000001
 40
0.0
 40
0.0
 40
0.0
 40
0.0
 40
0.0454153792
 40
0.0938894875
 40
0.1453245018
 40
0.1995959794
 40
0.2565515437
 40
0.3160178415
 40
0.3778023744
 40
0.4416964842
 40
0.5074774842
 40
0.5749106838
 40
0.6437512953
 40
0.7137459865
 40
0.7846352022
 40
0.8561527129
 40
0.9280324467
 40
1.0
 40
1.0
 40
1.0
 40
1.0
 10
5.5901198316
 20
6.3546411106
 30
0.0
 10
5.5897698696
 20
6.3551477593
 30
0.0
 10
5.5890775211
 20
6.3562169085
 30
0.0
 10
5.5880906258
 20
6.3579231011
 30
0.0
 10
5.5871250435
 20
6.3597779041
 30
0.0
 10
5.5861848694
 20
6.3617734941
 30
0.0
 10
5.585274057
 20
6.3639015727
 30
0.0
 10
5.5843964593
 20
6.3661531996
 30
0.0
 10
5.5835557942
 20
6.368518916
 30
0.0
 10
5.5827556255
 20
6.3709887598
 30
0.0
 10
5.5819993471
 20
6.3735523204
 30
0.0
 10
5.581290166
 20
6.3761987818
 30
0.0
 10
5.5806310906
 20
6.3789169703
 30
0.0
 10
5.5800249121
 20
6.3816954097
 30
0.0
 10
5.5794742068
 20
6.3845223497
 30
0.0
 10
5.5789812939
 20
6.3873858726
 30
0.0
 10
5.5785482801
 20
6.3902738306
 30
0.0
 10
5.5783005854
 20
6.3922085721
 30
0.0
 10
5.5781871118
 20
6.3931777243
 30
0.0
  0
LINE
  5
3B1
100
AcDbEntity
  8
ALL_ASSEMBLY_MEMBERS
100
AcDbLine
 62
7
  6
CONTINUOUS
 10
5.6169371118
 20
6.3547701267
 11
5.6158647628
 21
6.3546410956
  0
SPLINE
  5
3B2
100
AcDbEntity
  8
ALL_ASSEMBLY_MEMBERS
100
AcDbSpline
 62
7
  6
CONTINUOUS
 70
0
 71
3
 72
23
 73
19
 74
0
 42
0.0000001
 43
0.0000001
 44
0.0000000001
 40
0.0
 40
0.0
 40
0.0
 40
0.0
 40
0.0608502167
 40
0.1218405133
 40
0.1829976657
 40
0.244350651
 40
0.3059217925
 40
0.3677307592
 40
0.4297925802
 40
0.4921179704
 40
0.554713051
 40
0.6175793307
 40
0.6807137738
 40
0.7441087509
 40
0.8077527945
 40
0.8716290466
 40
0.935720212
 40
1.0
 40
1.0
 40
1.0
 40
1.0
 10
5.6158647628
 20
6.3546410956
 30
0.0
 10
5.6150903633
 20
6.3551308745
 30
0.0
 10
5.6135732336
 20
6.3561656216
 30
0.0
 10
5.6114074338
 20
6.3578726503
 30
0.0
 10
5.6093579794
 20
6.3597292155
 30
0.0
 10
5.6074336872
 20
6.3617272973
 30
0.0
 10
5.6056426585
 20
6.363858477
 30
0.0
 10
5.603992473
 20
6.3661136903
 30
0.0
 10
5.6024901022
 20
6.3684833841
 30
0.0
 10
5.6011418896
 20
6.3709575116
 30
0.0
 10
5.5999535252
 20
6.3735255916
 30
0.0
 10
5.5989300177
 20
6.3761767472
 30
0.0
 10
5.5980756809
 20
6.3788997526
 30
0.0
 10
5.5973941039
 20
6.381683089
 30
0.0
 10
5.5968881671
 20
6.3845149616
 30
0.0
 10
5.5965599682
 20
6.387383452
 30
0.0
 10
5.5964109138
 20
6.3902762602
 30
0.0
 10
5.5964313484
 20
6.392210625
 30
0.0
 10
5.596471383
 20
6.3931777243
 30
0.0
  0
LINE
  5
3B3
100
AcDbEntity
  8
ALL_ASSEMBLY_MEMBERS
100
AcDbLine
 62
7
  6
CONTINUOUS
 10
2.4547778803
 20
6.3417956276
 11
2.4506871118
 21
6.3412513707
  0
SPLINE
  5
3B4
100
AcDbEntity
  8
ALL_ASSEMBLY_MEMBERS
100
AcDbSpline
 62
7
  6
CONTINUOUS
 70
0
 71
3
 72
10
 73
6
 74
0
 42
0.0000001
 43
0.0000001
 44
0.0000000001
 40
0.0
 40
0.0
 40
0.0
 40
0.0
 40
0.4999893998
 40
0.7499947714
 40
1.0
 40
1.0
 40
1.0
 40
1.0
 10
2.4756871423
 20
6.3425866338
 30
0.0
 10
2.4721990836
 20
6.3425865962
 30
0.0
 10
2.4669661682
 20
6.3424931356
 30
0.0
 10
2.4599971523
 20
6.3421688208
 30
0.0
 10
2.4565164845
 20
6.3419340115
 30
0.0
 10
2.4547778803
 20
6.3417956276
 30
0.0
  0
SPLINE
  5
3B5
100
AcDbEntity
  8
ALL_ASSEMBLY_MEMBERS
100
AcDbSpline
 62
7
  6
CONTINUOUS
 70
0
 71
3
 72
10
 73
6
 74
0
 42
0.0000001
 43
0.0000001
 44
0.0000000001
 40
0.0
 40
0.0
 40
0.0
 40
0.0
 40
0.2500052253
 40
0.5000104362
 40
1.0
 40
1.0
 40
1.0
 40
1.0
 10
3.5815963143
 20
6.3417956299
 30
0.0
 10
3.5798577165
 20
6.3419340677
 30
0.0
 10
3.5763770357
 20
6.342168583
 30
0.0
 10
3.5694080688
 20
6.3424936918
 30
0.0
 10
3.5641751395
 20
6.3425868157
 30
0.0
 10
3.5606870839
 20
6.3425866338
 30
0.0
  0
LINE
  5
3B6
100
AcDbEntity
  8
ALL_ASSEMBLY_MEMBERS
100
AcDbLine
 62
7
  6
CONTINUOUS
 10
3.5856871118
 20
6.3412513903
 11
3.5815963143
 21
6.3417956299
  0
LINE
  5
3B7
100
AcDbEntity
  8
ALL_ASSEMBLY_MEMBERS
100
AcDbLine
 62
7
  6
CONTINUOUS
 10
3.5906871118
 20
6.3913206055
 11
3.588971383
 21
6.3931777243
  0
SPLINE
  5
3B8
100
AcDbEntity
  8
ALL_ASSEMBLY_MEMBERS
100
AcDbSpline
 62
7
  6
CONTINUOUS
 70
0
 71
3
 72
18
 73
14
 74
0
 42
0.0000001
 43
0.0000001
 44
0.0000000001
 40
0.0
 40
0.0
 40
0.0
 40
0.0
 40
0.0394282502
 40
0.0805867359
 40
0.1710273296
 40
0.2214519099
 40
0.275626842
 40
0.3952010831
 40
0.5290530044
 40
0.6009010086
 40
0.6757443604
 40
0.8334732383
 40
1.0
 40
1.0
 40
1.0
 40
1.0
 10
3.588971383
 20
6.3931777243
 30
0.0
 10
3.588789679
 20
6.393346052
 30
0.0
 10
3.5883887755
 20
6.3936593481
 30
0.0
 10
3.587449153
 20
6.3941871704
 30
0.0
 10
3.5863486623
 20
6.3945371572
 30
0.0
 10
3.5851440746
 20
6.3947608956
 30
0.0
 10
3.5837443214
 20
6.3949256762
 30
0.0
 10
3.5818103672
 20
6.3949931964
 30
0.0
 10
3.5797669747
 20
6.3949121299
 30
0.0
 10
3.5780114981
 20
6.3947526854
 30
0.0
 10
3.5761138426
 20
6.394512791
 30
0.0
 10
3.5736467433
 20
6.394050423
 30
0.0
 10
3.5716812902
 20
6.3935032977
 30
0.0
 10
3.5706871118
 20
6.3931777243
 30
0.0
  0
SPLINE
  5
3B9
100
AcDbEntity
  8
ALL_ASSEMBLY_MEMBERS
100
AcDbSpline
 62
7
  6
CONTINUOUS
 70
0
 71
3
 72
11
 73
7
 74
0
 42
0.0000001
 43
0.0000001
 44
0.0000000001
 40
0.0
 40
0.0
 40
0.0
 40
0.0
 40
0.2442001749
 40
0.4932609604
 40
0.745726808
 40
1.0
 40
1.0
 40
1.0
 40
1.0
 10
3.5706871118
 20
6.3931777243
 30
0.0
 10
3.5698975216
 20
6.3929174095
 30
0.0
 10
3.5682929742
 20
6.392419549
 30
0.0
 10
3.5658247598
 20
6.3918152208
 30
0.0
 10
3.5632793623
 20
6.3914145058
 30
0.0
 10
3.5615528003
 20
6.3913206068
 30
0.0
 10
3.5606871118
 20
6.3913206055
 30
0.0
  0
SPLINE
  5
3BA
100
AcDbEntity
  8
ALL_ASSEMBLY_MEMBERS
100
AcDbSpline
 62
7
  6
CONTINUOUS
 70
0
 71
3
 72
11
 73
7
 74
0
 42
0.0000001
 43
0.0000001
 44
0.0000000001
 40
0.0
 40
0.0
 40
0.0
 40
0.0
 40
0.2543443786
 40
0.5068283465
 40
0.7558227935
 40
1.0
 40
1.0
 40
1.0
 40
1.0
 10
2.4756871118
 20
6.3913206055
 30
0.0
 10
2.47482118
 20
6.3913206041
 30
0.0
 10
2.4730943256
 20
6.3914145855
 30
0.0
 10
2.4705487838
 20
6.3918149949
 30
0.0
 10
2.4680809599
 20
6.3924199383
 30
0.0
 10
2.4664766719
 20
6.3929175652
 30
0.0
 10
2.4656871118
 20
6.3931777243
 30
0.0
  0
SPLINE
  5
3BB
100
AcDbEntity
  8
ALL_ASSEMBLY_MEMBERS
100
AcDbSpline
 62
7
  6
CONTINUOUS
 70
0
 71
3
 72
18
 73
14
 74
0
 42
0.0000001
 43
0.0000001
 44
0.0000000001
 40
0.0
 40
0.0
 40
0.0
 40
0.0
 40
0.1665208611
 40
0.3242394129
 40
0.399083709
 40
0.4709325578
 40
0.6047879037
 40
0.7243624938
 40
0.7785370188
 40
0.8289629178
 40
0.9194108047
 40
0.9605723033
 40
1.0
 40
1.0
 40
1.0
 40
1.0
 10
2.4656871118
 20
6.3931777243
 30
0.0
 10
2.4646929876
 20
6.3935033414
 30
0.0
 10
2.4627276564
 20
6.3940505561
 30
0.0
 10
2.4602606035
 20
6.3945126383
 30
0.0
 10
2.4583630144
 20
6.3947525908
 30
0.0
 10
2.4566075206
 20
6.3949121995
 30
0.0
 10
2.4545640906
 20
6.3949932057
 30
0.0
 10
2.4526301278
 20
6.3949255999
 30
0.0
 10
2.4512303524
 20
6.3947609785
 30
0.0
 10
2.4500256894
 20
6.3945373222
 30
0.0
 10
2.4489251998
 20
6.3941870967
 30
0.0
 10
2.4479855116
 20
6.393659289
 30
0.0
 10
2.4475845577
 20
6.3933460324
 30
0.0
 10
2.4474028406
 20
6.3931777243
 30
0.0
  0
LINE
  5
3BC
100
AcDbEntity
  8
ALL_ASSEMBLY_MEMBERS
100
AcDbLine
 62
7
  6
CONTINUOUS
 10
2.4474028406
 20
6.3931777243
 11
2.4456871118
 21
6.3913206055
  0
SPLINE
  5
3BD
100
AcDbEntity
  8
ALL_ASSEMBLY_MEMBERS
100
AcDbSpline
 62
7
  6
CONTINUOUS
 70
0
 71
3
 72
14
 73
10
 74
0
 42
0.0000001
 43
0.0000001
 44
0.0000000001
 40
0.0
 40
0.0
 40
0.0
 40
0.0
 40
0.0673922175
 40
0.1417796439
 40
0.2308444566
 40
0.3391157762
 40
0.4690687572
 40
0.6220778214
 40
1.0
 40
1.0
 40
1.0
 40
1.0
 10
3.6156871118
 20
6.3412513707
 30
0.0
 10
3.6156871041
 20
6.3412218445
 30
0.0
 10
3.615674012
 20
6.3411591172
 30
0.0
 10
3.6156167239
 20
6.3410736666
 30
0.0
 10
3.6155259985
 20
6.3409952043
 30
0.0
 10
3.6154022835
 20
6.3409217485
 30
0.0
 10
3.6152451798
 20
6.3408524815
 30
0.0
 10
3.614970969
 20
6.3407587632
 30
0.0
 10
3.6147440036
 20
6.3407053587
 30
0.0
 10
3.6145817655
 20
6.3406722731
 30
0.0
  0
SPLINE
  5
3BE
100
AcDbEntity
  8
ALL_ASSEMBLY_MEMBERS
100
AcDbSpline
 62
7
  6
CONTINUOUS
 70
0
 71
3
 72
17
 73
13
 74
0
 42
0.0000001
 43
0.0000001
 44
0.0000000001
 40
0.0
 40
0.0
 40
0.0
 40
0.0
 40
0.0262344029
 40
0.0587204717
 40
0.0973090574
 40
0.1418142301
 40
0.2473930179
 40
0.3727298495
 40
0.5145023814
 40
0.6690199358
 40
0.832421495
 40
1.0
 40
1.0
 40
1.0
 40
1.0
 10
3.6145817655
 20
6.3406722731
 30
0.0
 10
3.6143337661
 20
6.3406216981
 30
0.0
 10
3.6137733198
 20
6.3405351775
 30
0.0
 10
3.6128392777
 20
6.3404390788
 30
0.0
 10
3.6117265774
 20
6.3403633024
 30
0.0
 10
3.6099078967
 20
6.3402844853
 30
0.0
 10
3.6072504933
 20
6.3402458738
 30
0.0
 10
3.6036548362
 20
6.3402784901
 30
0.0
 10
3.5995884026
 20
6.3403904647
 30
0.0
 10
3.5951574092
 20
6.3405833992
 30
0.0
 10
3.5904816336
 20
6.340863922
 30
0.0
 10
3.5872977253
 20
6.3411105329
 30
0.0
 10
3.5856871118
 20
6.3412513903
 30
0.0
  0
SPLINE
  5
3BF
100
AcDbEntity
  8
ALL_ASSEMBLY_MEMBERS
100
AcDbSpline
 62
7
  6
CONTINUOUS
 70
0
 71
3
 72
28
 73
24
 74
0
 42
0.0000001
 43
0.0000001
 44
0.0000000001
 40
0.0
 40
0.0
 40
0.0
 40
0.0
 40
0.1936250342
 40
0.3800289708
 40
0.4681152862
 40
0.551683318
 40
0.6299410525
 40
0.7021359008
 40
0.7675326843
 40
0.8255294514
 40
0.8756067398
 40
0.8975287724
 40
0.9173187973
 40
0.9349448066
 40
0.9503804367
 40
0.9636093103
 40
0.9746446384
 40
0.9835479871
 40
0.9904543633
 40
0.993252528
 40
0.995697788
 40
0.9978978579
 40
1.0
 40
1.0
 40
1.0
 40
1.0
 10
2.4506871118
 20
6.3412513707
 30
0.0
 10
2.4487416151
 20
6.3410811788
 30
0.0
 10
2.4449190709
 20
6.3407929887
 30
0.0
 10
2.4402043667
 20
6.3405345109
 30
0.0
 10
2.4365957526
 20
6.3403908417
 30
0.0
 10
2.4340761889
 20
6.3403155375
 30
0.0
 10
2.4317162209
 20
6.3402698236
 30
0.0
 10
2.4295391382
 20
6.3402537126
 30
0.0
 10
2.4275663674
 20
6.3402669438
 30
0.0
 10
2.4258171407
 20
6.3403095182
 30
0.0
 10
2.4245072458
 20
6.3403713857
 30
0.0
 10
2.4235838528
 20
6.3404387822
 30
0.0
 10
2.4229879271
 20
6.3404947244
 30
0.0
 10
2.4224586009
 20
6.3405583935
 30
0.0
 10
2.4219970848
 20
6.3406298845
 30
0.0
 10
2.4216044587
 20
6.3407092826
 30
0.0
 10
2.4212811043
 20
6.3407966443
 30
0.0
 10
2.4210272662
 20
6.3408918397
 30
0.0
 10
2.4208617418
 20
6.3409837064
 30
0.0
 10
2.4207690984
 20
6.3410646789
 30
0.0
 10
2.4207221924
 20
6.341124007
 30
0.0
 10
2.4206934466
 20
6.3411865324
 30
0.0
 10
2.4206871155
 20
6.3412301879
 30
0.0
 10
2.4206871118
 20
6.3412513903
 30
0.0
  0
SPLINE
  5
3C0
100
AcDbEntity
  8
ALL_ASSEMBLY_MEMBERS
100
AcDbSpline
 62
7
  6
CONTINUOUS
 70
0
 71
3
 72
13
 73
9
 74
0
 42
0.0000001
 43
0.0000001
 44
0.0000000001
 40
0.0
 40
0.0
 40
0.0
 40
0.0
 40
0.2494051373
 40
0.3746020835
 40
0.4996762745
 40
0.6247943153
 40
0.750120367
 40
1.0
 40
1.0
 40
1.0
 40
1.0
 10
2.4206871118
 20
6.3417956299
 30
0.0
 10
2.4206871118
 20
6.3430792356
 30
0.0
 10
2.4209422056
 20
6.3450187529
 30
0.0
 10
2.4217600973
 20
6.3474620435
 30
0.0
 10
2.4226090345
 20
6.3492039811
 30
0.0
 10
2.4236757746
 20
6.3508225102
 30
0.0
 10
2.4253633042
 20
6.352773932
 30
0.0
 10
2.4269037621
 20
6.3539844359
 30
0.0
 10
2.4280094943
 20
6.3546411513
 30
0.0
  0
SPLINE
  5
3C1
100
AcDbEntity
  8
ALL_ASSEMBLY_MEMBERS
100
AcDbSpline
 62
7
  6
CONTINUOUS
 70
0
 71
3
 72
13
 73
9
 74
0
 42
0.0000001
 43
0.0000001
 44
0.0000000001
 40
0.0
 40
0.0
 40
0.0
 40
0.0
 40
0.2484144004
 40
0.3733334005
 40
0.4982704134
 40
0.623444822
 40
0.7490605868
 40
1.0
 40
1.0
 40
1.0
 40
1.0
 10
2.4206871118
 20
6.3412513903
 30
0.0
 10
2.4206871118
 20
6.3426127986
 30
0.0
 10
2.4209825294
 20
6.3446730709
 30
0.0
 10
2.4219226653
 20
6.3472433293
 30
0.0
 10
2.4228969946
 20
6.3490612116
 30
0.0
 10
2.4241167818
 20
6.3507290185
 30
0.0
 10
2.4260386761
 20
6.3527039931
 30
0.0
 10
2.4277776788
 20
6.3538775429
 30
0.0
 10
2.4290129614
 20
6.3544820093
 30
0.0
  0
SPLINE
  5
3C2
100
AcDbEntity
  8
ALL_ASSEMBLY_MEMBERS
100
AcDbSpline
 62
7
  6
CONTINUOUS
 70
0
 71
3
 72
13
 73
9
 74
0
 42
0.0000001
 43
0.0000001
 44
0.0000000001
 40
0.0
 40
0.0
 40
0.0
 40
0.0
 40
0.2484144177
 40
0.3733334601
 40
0.4982704898
 40
0.6234448948
 40
0.7490606432
 40
1.0
 40
1.0
 40
1.0
 40
1.0
 10
3.6156871118
 20
6.3412513707
 30
0.0
 10
3.6156871118
 20
6.3426127797
 30
0.0
 10
3.6153916939
 20
6.3446730529
 30
0.0
 10
3.6144515594
 20
6.3472433133
 30
0.0
 10
3.613477231
 20
6.3490611974
 30
0.0
 10
3.6122574452
 20
6.3507290063
 30
0.0
 10
3.6103355536
 20
6.3527039843
 30
0.0
 10
3.608596553
 20
6.3538775378
 30
0.0
 10
3.6073612714
 20
6.3544820067
 30
0.0
  0
SPLINE
  5
3C3
100
AcDbEntity
  8
ALL_ASSEMBLY_MEMBERS
100
AcDbSpline
 62
7
  6
CONTINUOUS
 70
0
 71
3
 72
13
 73
9
 74
0
 42
0.0000001
 43
0.0000001
 44
0.0000000001
 40
0.0
 40
0.0
 40
0.0
 40
0.0
 40
0.2494044893
 40
0.3746012448
 40
0.4996753473
 40
0.6247934403
 40
0.7501197086
 40
1.0
 40
1.0
 40
1.0
 40
1.0
 10
3.6156871118
 20
6.3417956276
 30
0.0
 10
3.6156871118
 20
6.3430792613
 30
0.0
 10
3.6154320039
 20
6.3450188222
 30
0.0
 10
3.6146140699
 20
6.3474621602
 30
0.0
 10
3.6137650893
 20
6.3492041283
 30
0.0
 10
3.6126982958
 20
6.3508226802
 30
0.0
 10
3.611010683
 20
6.3527741201
 30
0.0
 10
3.6094701548
 20
6.353984621
 30
0.0
 10
3.6083643757
 20
6.3546413254
 30
0.0
  0
LINE
  5
3C4
100
AcDbEntity
  8
ALL_ASSEMBLY_MEMBERS
100
AcDbLine
 62
7
  6
CONTINUOUS
 10
3.6094371113
 20
6.3547701271
 11
3.6083647749
 21
6.3546411028
  0
LINE
  5
3C5
100
AcDbEntity
  8
ALL_ASSEMBLY_MEMBERS
100
AcDbLine
 62
7
  6
CONTINUOUS
 10
3.6083644309
 20
6.3546413204
 11
3.6073613069
 21
6.3544819908
  0
SPLINE
  5
3C6
100
AcDbEntity
  8
ALL_ASSEMBLY_MEMBERS
100
AcDbSpline
 62
7
  6
CONTINUOUS
 70
0
 71
3
 72
17
 73
13
 74
0
 42
0.0000001
 43
0.0000001
 44
0.0000000001
 40
0.0
 40
0.0
 40
0.0
 40
0.0
 40
0.0224864533
 40
0.0510226307
 40
0.0857105758
 40
0.1265469512
 40
0.2261106381
 40
0.3480894389
 40
0.4899019378
 40
0.6482777469
 40
0.819658507
 40
1.0
 40
1.0
 40
1.0
 40
1.0
 10
3.6073613069
 20
6.3544819908
 30
0.0
 10
3.6072249865
 20
6.3544312161
 30
0.0
 10
3.6069065934
 20
6.3543408521
 30
0.0
 10
3.606362212
 20
6.3542342441
 30
0.0
 10
3.6056949715
 20
6.3541426179
 30
0.0
 10
3.6045672461
 20
6.3540347136
 30
0.0
 10
3.6028710673
 20
6.3539525246
 30
0.0
 10
3.6005203821
 20
6.3539235369
 30
0.0
 10
3.5977893006
 20
6.3539627138
 30
0.0
 10
3.5947403124
 20
6.3540689181
 30
0.0
 10
3.5914447486
 20
6.3542413506
 30
0.0
 10
3.5891745071
 20
6.3543952761
 30
0.0
 10
3.5880110771
 20
6.3544820905
 30
0.0
  0
LINE
  5
3C7
100
AcDbEntity
  8
ALL_ASSEMBLY_MEMBERS
100
AcDbLine
 62
7
  6
CONTINUOUS
 10
3.5880110771
 20
6.3544820905
 11
3.5826197163
 21
6.354641333
  0
SPLINE
  5
3C8
100
AcDbEntity
  8
ALL_ASSEMBLY_MEMBERS
100
AcDbSpline
 62
7
  6
CONTINUOUS
 70
0
 71
3
 72
15
 73
11
 74
0
 42
0.0000001
 43
0.0000001
 44
0.0000000001
 40
0.0
 40
0.0
 40
0.0
 40
0.0
 40
0.1283310865
 40
0.2559173847
 40
0.3824404098
 40
0.5078991086
 40
0.6322826256
 40
0.7556498147
 40
0.8782110091
 40
1.0
 40
1.0
 40
1.0
 40
1.0
 10
3.588971383
 20
6.3931777243
 30
0.0
 10
3.5888915076
 20
6.3912480237
 30
0.0
 10
3.5889699632
 20
6.3873856776
 30
0.0
 10
3.5898023389
 20
6.381675949
 30
0.0
 10
3.5913392728
 20
6.3761577698
 30
0.0
 10
3.5935542177
 20
6.3709273323
 30
0.0
 10
3.5964083566
 20
6.366070924
 30
0.0
 10
3.5998570209
 20
6.3616712341
 30
0.0
 10
3.6038404214
 20
6.3578061328
 30
0.0
 10
3.6068153687
 20
6.3556210725
 30
0.0
 10
3.6083644309
 20
6.3546413204
 30
0.0
  0
LINE
  5
3C9
100
AcDbEntity
  8
ALL_ASSEMBLY_MEMBERS
100
AcDbLine
 62
7
  6
CONTINUOUS
 10
3.5826198434
 20
6.354641149
 11
3.5606871118
 21
6.3547701273
  0
SPLINE
  5
3CA
100
AcDbEntity
  8
ALL_ASSEMBLY_MEMBERS
100
AcDbSpline
 62
7
  6
CONTINUOUS
 70
0
 71
3
 72
15
 73
11
 74
0
 42
0.0000001
 43
0.0000001
 44
0.0000000001
 40
0.0
 40
0.0
 40
0.0
 40
0.0
 40
0.1438027487
 40
0.286285823
 40
0.4251163424
 40
0.5583276302
 40
0.6840099507
 40
0.8004213212
 40
0.9061585508
 40
1.0
 40
1.0
 40
1.0
 40
1.0
 10
3.5706871118
 20
6.3931777243
 30
0.0
 10
3.5709138273
 20
6.391241431
 30
0.0
 10
3.5714483264
 20
6.3873958398
 30
0.0
 10
3.5724862373
 20
6.3817250366
 30
0.0
 10
3.5737442286
 20
6.3762459198
 30
0.0
 10
3.5752003451
 20
6.371052034
 30
0.0
 10
3.576829078
 20
6.3662290815
 30
0.0
 10
3.5786038013
 20
6.3618565261
 30
0.0
 10
3.5804942368
 20
6.3580081818
 30
0.0
 10
3.5818968107
 20
6.3556879139
 30
0.0
 10
3.5826198434
 20
6.354641149
 30
0.0
  0
LINE
  5
3CB
100
AcDbEntity
  8
ALL_ASSEMBLY_MEMBERS
100
AcDbLine
 62
7
  6
CONTINUOUS
 10
2.4756870659
 20
6.3547701271
 11
2.4537545252
 21
6.3546411028
  0
LINE
  5
3CC
100
AcDbEntity
  8
ALL_ASSEMBLY_MEMBERS
100
AcDbLine
 62
7
  6
CONTINUOUS
 10
2.4537546755
 20
6.3546413204
 11
2.4483620715
 21
6.3544819908
  0
SPLINE
  5
3CD
100
AcDbEntity
  8
ALL_ASSEMBLY_MEMBERS
100
AcDbSpline
 62
7
  6
CONTINUOUS
 70
0
 71
3
 72
18
 73
14
 74
0
 42
0.0000001
 43
0.0000001
 44
0.0000000001
 40
0.0
 40
0.0
 40
0.0
 40
0.0
 40
0.1803503112
 40
0.351784526
 40
0.5102159678
 40
0.6520420055
 40
0.7739725877
 40
0.8266631894
 40
0.8734958379
 40
0.9143105483
 40
0.948984959
 40
0.9775136339
 40
1.0
 40
1.0
 40
1.0
 40
1.0
 10
2.4483620715
 20
6.3544819908
 30
0.0
 10
2.4471986292
 20
6.3543951417
 30
0.0
 10
2.4449280597
 20
6.3542412803
 30
0.0
 10
2.4416318605
 20
6.3540688618
 30
0.0
 10
2.4385821639
 20
6.3539626056
 30
0.0
 10
2.4358511223
 20
6.3539236988
 30
0.0
 10
2.4338037767
 20
6.3539484296
 30
0.0
 10
2.4323723346
 20
6.3540078923
 30
0.0
 10
2.4314663154
 20
6.3540671381
 30
0.0
 10
2.4306784982
 20
6.3541426929
 30
0.0
 10
2.4300115589
 20
6.3542342968
 30
0.0
 10
2.429467348
 20
6.3543409733
 30
0.0
 10
2.4291490263
 20
6.3544313456
 30
0.0
 10
2.4290127011
 20
6.3544820905
 30
0.0
  0
LINE
  5
3CE
100
AcDbEntity
  8
ALL_ASSEMBLY_MEMBERS
100
AcDbLine
 62
7
  6
CONTINUOUS
 10
2.4290127011
 20
6.3544820905
 11
2.4280098361
 21
6.354641333
  0
SPLINE
  5
3CF
100
AcDbEntity
  8
ALL_ASSEMBLY_MEMBERS
100
AcDbSpline
 62
7
  6
CONTINUOUS
 70
0
 71
3
 72
15
 73
11
 74
0
 42
0.0000001
 43
0.0000001
 44
0.0000000001
 40
0.0
 40
0.0
 40
0.0
 40
0.0
 40
0.1438023548
 40
0.2862850109
 40
0.4251151271
 40
0.5583260935
 40
0.6840082641
 40
0.8004197473
 40
0.9061574639
 40
1.0
 40
1.0
 40
1.0
 40
1.0
 10
2.4656871118
 20
6.3931777243
 30
0.0
 10
2.4654604197
 20
6.3912414445
 30
0.0
 10
2.4649259638
 20
6.3873958798
 30
0.0
 10
2.4638881193
 20
6.3817251135
 30
0.0
 10
2.4626301981
 20
6.3762460282
 30
0.0
 10
2.4611741424
 20
6.3710521682
 30
0.0
 10
2.4595454554
 20
6.3662292347
 30
0.0
 10
2.4577707572
 20
6.3618566901
 30
0.0
 10
2.4558803211
 20
6.3580083463
 30
0.0
 10
2.4544777263
 20
6.3556880822
 30
0.0
 10
2.4537546755
 20
6.3546413204
 30
0.0
  0
LINE
  5
3D0
100
AcDbEntity
  8
ALL_ASSEMBLY_MEMBERS
100
AcDbLine
 62
7
  6
CONTINUOUS
 10
2.4280095453
 20
6.354641149
 11
2.4269371127
 21
6.3547701273
  0
SPLINE
  5
3D1
100
AcDbEntity
  8
ALL_ASSEMBLY_MEMBERS
100
AcDbSpline
 62
7
  6
CONTINUOUS
 70
0
 71
3
 72
15
 73
11
 74
0
 42
0.0000001
 43
0.0000001
 44
0.0000000001
 40
0.0
 40
0.0
 40
0.0
 40
0.0
 40
0.1283309876
 40
0.2559171335
 40
0.3824399557
 40
0.507898461
 40
0.6322818499
 40
0.7556490463
 40
0.8782104717
 40
1.0
 40
1.0
 40
1.0
 40
1.0
 10
2.4474028406
 20
6.3931777243
 30
0.0
 10
2.4474827242
 20
6.3912480111
 30
0.0
 10
2.4474042796
 20
6.3873856393
 30
0.0
 10
2.4465719082
 20
6.381675873
 30
0.0
 10
2.4450349672
 20
6.3761576595
 30
0.0
 10
2.4428200002
 20
6.3709271932
 30
0.0
 10
2.4399658239
 20
6.3660707628
 30
0.0
 10
2.4365171063
 20
6.3616710586
 30
0.0
 10
2.4325336362
 20
6.3578059518
 30
0.0
 10
2.4295586359
 20
6.3556208968
 30
0.0
 10
2.4280095453
 20
6.354641149
 30
0.0
  0
LINE
  5
3D2
100
AcDbEntity
  8
ALL_ASSEMBLY_MEMBERS
100
AcDbLine
 62
7
  6
CONTINUOUS
 10
7.5281871118
 20
6.3913206055
 11
7.526471383
 21
6.3931777243
  0
SPLINE
  5
3D3
100
AcDbEntity
  8
ALL_ASSEMBLY_MEMBERS
100
AcDbSpline
 62
7
  6
CONTINUOUS
 70
0
 71
3
 72
18
 73
14
 74
0
 42
0.0000001
 43
0.0000001
 44
0.0000000001
 40
0.0
 40
0.0
 40
0.0
 40
0.0
 40
0.0394282502
 40
0.0805867359
 40
0.1710273296
 40
0.2214519099
 40
0.275626842
 40
0.3952010831
 40
0.5290530044
 40
0.6009010086
 40
0.6757443604
 40
0.8334732383
 40
1.0
 40
1.0
 40
1.0
 40
1.0
 10
7.526471383
 20
6.3931777243
 30
0.0
 10
7.526289679
 20
6.393346052
 30
0.0
 10
7.5258887755
 20
6.3936593481
 30
0.0
 10
7.524949153
 20
6.3941871704
 30
0.0
 10
7.5238486623
 20
6.3945371572
 30
0.0
 10
7.5226440746
 20
6.3947608956
 30
0.0
 10
7.5212443214
 20
6.3949256762
 30
0.0
 10
7.5193103672
 20
6.3949931964
 30
0.0
 10
7.5172669747
 20
6.3949121299
 30
0.0
 10
7.5155114981
 20
6.3947526854
 30
0.0
 10
7.5136138426
 20
6.394512791
 30
0.0
 10
7.5111467433
 20
6.394050423
 30
0.0
 10
7.5091812902
 20
6.3935032977
 30
0.0
 10
7.5081871118
 20
6.3931777243
 30
0.0
  0
SPLINE
  5
3D4
100
AcDbEntity
  8
ALL_ASSEMBLY_MEMBERS
100
AcDbSpline
 62
7
  6
CONTINUOUS
 70
0
 71
3
 72
11
 73
7
 74
0
 42
0.0000001
 43
0.0000001
 44
0.0000000001
 40
0.0
 40
0.0
 40
0.0
 40
0.0
 40
0.2442001749
 40
0.4932609604
 40
0.745726808
 40
1.0
 40
1.0
 40
1.0
 40
1.0
 10
7.5081871118
 20
6.3931777243
 30
0.0
 10
7.5073975216
 20
6.3929174095
 30
0.0
 10
7.5057929742
 20
6.392419549
 30
0.0
 10
7.5033247598
 20
6.3918152208
 30
0.0
 10
7.5007793623
 20
6.3914145058
 30
0.0
 10
7.4990528003
 20
6.3913206068
 30
0.0
 10
7.4981871118
 20
6.3913206055
 30
0.0
  0
SPLINE
  5
3D5
100
AcDbEntity
  8
ALL_ASSEMBLY_MEMBERS
100
AcDbSpline
 62
7
  6
CONTINUOUS
 70
0
 71
3
 72
11
 73
7
 74
0
 42
0.0000001
 43
0.0000001
 44
0.0000000001
 40
0.0
 40
0.0
 40
0.0
 40
0.0
 40
0.2543443786
 40
0.5068283465
 40
0.7558227935
 40
1.0
 40
1.0
 40
1.0
 40
1.0
 10
6.4131871118
 20
6.3913206055
 30
0.0
 10
6.41232118
 20
6.3913206041
 30
0.0
 10
6.4105943256
 20
6.3914145855
 30
0.0
 10
6.4080487838
 20
6.3918149949
 30
0.0
 10
6.4055809599
 20
6.3924199383
 30
0.0
 10
6.4039766719
 20
6.3929175652
 30
0.0
 10
6.4031871118
 20
6.3931777243
 30
0.0
  0
SPLINE
  5
3D6
100
AcDbEntity
  8
ALL_ASSEMBLY_MEMBERS
100
AcDbSpline
 62
7
  6
CONTINUOUS
 70
0
 71
3
 72
18
 73
14
 74
0
 42
0.0000001
 43
0.0000001
 44
0.0000000001
 40
0.0
 40
0.0
 40
0.0
 40
0.0
 40
0.1665208611
 40
0.3242394129
 40
0.399083709
 40
0.4709325578
 40
0.6047879037
 40
0.7243624938
 40
0.7785370188
 40
0.8289629178
 40
0.9194108047
 40
0.9605723033
 40
1.0
 40
1.0
 40
1.0
 40
1.0
 10
6.4031871118
 20
6.3931777243
 30
0.0
 10
6.4021929876
 20
6.3935033414
 30
0.0
 10
6.4002276564
 20
6.3940505561
 30
0.0
 10
6.3977606035
 20
6.3945126383
 30
0.0
 10
6.3958630144
 20
6.3947525908
 30
0.0
 10
6.3941075206
 20
6.3949121995
 30
0.0
 10
6.3920640906
 20
6.3949932057
 30
0.0
 10
6.3901301278
 20
6.3949255999
 30
0.0
 10
6.3887303524
 20
6.3947609785
 30
0.0
 10
6.3875256894
 20
6.3945373222
 30
0.0
 10
6.3864251998
 20
6.3941870967
 30
0.0
 10
6.3854855116
 20
6.393659289
 30
0.0
 10
6.3850845577
 20
6.3933460324
 30
0.0
 10
6.3849028406
 20
6.3931777243
 30
0.0
  0
LINE
  5
3D7
100
AcDbEntity
  8
ALL_ASSEMBLY_MEMBERS
100
AcDbLine
 62
7
  6
CONTINUOUS
 10
6.3849028406
 20
6.3931777243
 11
6.3831871118
 21
6.3913206055
  0
SPLINE
  5
3D8
100
AcDbEntity
  8
ALL_ASSEMBLY_MEMBERS
100
AcDbSpline
 62
7
  6
CONTINUOUS
 70
0
 71
3
 72
13
 73
9
 74
0
 42
0.0000001
 43
0.0000001
 44
0.0000000001
 40
0.0
 40
0.0
 40
0.0
 40
0.0
 40
0.2494051373
 40
0.3746020835
 40
0.4996762745
 40
0.6247943153
 40
0.750120367
 40
1.0
 40
1.0
 40
1.0
 40
1.0
 10
6.3581871118
 20
6.3417956299
 30
0.0
 10
6.3581871118
 20
6.3430792356
 30
0.0
 10
6.3584422056
 20
6.3450187529
 30
0.0
 10
6.3592600973
 20
6.3474620435
 30
0.0
 10
6.3601090345
 20
6.3492039811
 30
0.0
 10
6.3611757746
 20
6.3508225102
 30
0.0
 10
6.3628633042
 20
6.352773932
 30
0.0
 10
6.3644037621
 20
6.3539844359
 30
0.0
 10
6.3655094943
 20
6.3546411513
 30
0.0
  0
SPLINE
  5
3D9
100
AcDbEntity
  8
ALL_ASSEMBLY_MEMBERS
100
AcDbSpline
 62
7
  6
CONTINUOUS
 70
0
 71
3
 72
14
 73
10
 74
0
 42
0.0000001
 43
0.0000001
 44
0.0000000001
 40
0.0
 40
0.0
 40
0.0
 40
0.0
 40
0.0673922175
 40
0.1417796439
 40
0.2308444566
 40
0.3391157762
 40
0.4690687572
 40
0.6220778214
 40
1.0
 40
1.0
 40
1.0
 40
1.0
 10
7.5531871118
 20
6.3412513707
 30
0.0
 10
7.5531871041
 20
6.3412218445
 30
0.0
 10
7.553174012
 20
6.3411591172
 30
0.0
 10
7.5531167239
 20
6.3410736666
 30
0.0
 10
7.5530259985
 20
6.3409952043
 30
0.0
 10
7.5529022835
 20
6.3409217485
 30
0.0
 10
7.5527451798
 20
6.3408524815
 30
0.0
 10
7.552470969
 20
6.3407587632
 30
0.0
 10
7.5522440036
 20
6.3407053587
 30
0.0
 10
7.5520817655
 20
6.3406722731
 30
0.0
  0
SPLINE
  5
3DA
100
AcDbEntity
  8
ALL_ASSEMBLY_MEMBERS
100
AcDbSpline
 62
7
  6
CONTINUOUS
 70
0
 71
3
 72
17
 73
13
 74
0
 42
0.0000001
 43
0.0000001
 44
0.0000000001
 40
0.0
 40
0.0
 40
0.0
 40
0.0
 40
0.0262344029
 40
0.0587204717
 40
0.0973090574
 40
0.1418142301
 40
0.2473930179
 40
0.3727298495
 40
0.5145023814
 40
0.6690199358
 40
0.832421495
 40
1.0
 40
1.0
 40
1.0
 40
1.0
 10
7.5520817655
 20
6.3406722731
 30
0.0
 10
7.5518337661
 20
6.3406216981
 30
0.0
 10
7.5512733198
 20
6.3405351775
 30
0.0
 10
7.5503392777
 20
6.3404390788
 30
0.0
 10
7.5492265774
 20
6.3403633024
 30
0.0
 10
7.5474078967
 20
6.3402844853
 30
0.0
 10
7.5447504933
 20
6.3402458738
 30
0.0
 10
7.5411548362
 20
6.3402784901
 30
0.0
 10
7.5370884026
 20
6.3403904647
 30
0.0
 10
7.5326574092
 20
6.3405833992
 30
0.0
 10
7.5279816336
 20
6.340863922
 30
0.0
 10
7.5247977253
 20
6.3411105329
 30
0.0
 10
7.5231871118
 20
6.3412513903
 30
0.0
  0
SPLINE
  5
3DB
100
AcDbEntity
  8
ALL_ASSEMBLY_MEMBERS
100
AcDbSpline
 62
7
  6
CONTINUOUS
 70
0
 71
3
 72
28
 73
24
 74
0
 42
0.0000001
 43
0.0000001
 44
0.0000000001
 40
0.0
 40
0.0
 40
0.0
 40
0.0
 40
0.1936250342
 40
0.3800289708
 40
0.4681152862
 40
0.551683318
 40
0.6299410525
 40
0.7021359008
 40
0.7675326843
 40
0.8255294514
 40
0.8756067398
 40
0.8975287724
 40
0.9173187973
 40
0.9349448066
 40
0.9503804367
 40
0.9636093103
 40
0.9746446384
 40
0.9835479871
 40
0.9904543633
 40
0.993252528
 40
0.995697788
 40
0.9978978579
 40
1.0
 40
1.0
 40
1.0
 40
1.0
 10
6.3881871118
 20
6.3412513707
 30
0.0
 10
6.3862416151
 20
6.3410811788
 30
0.0
 10
6.3824190709
 20
6.3407929887
 30
0.0
 10
6.3777043667
 20
6.3405345109
 30
0.0
 10
6.3740957526
 20
6.3403908417
 30
0.0
 10
6.3715761889
 20
6.3403155375
 30
0.0
 10
6.3692162209
 20
6.3402698236
 30
0.0
 10
6.3670391382
 20
6.3402537126
 30
0.0
 10
6.3650663674
 20
6.3402669438
 30
0.0
 10
6.3633171407
 20
6.3403095182
 30
0.0
 10
6.3620072458
 20
6.3403713857
 30
0.0
 10
6.3610838528
 20
6.3404387822
 30
0.0
 10
6.3604879271
 20
6.3404947244
 30
0.0
 10
6.3599586009
 20
6.3405583935
 30
0.0
 10
6.3594970848
 20
6.3406298845
 30
0.0
 10
6.3591044587
 20
6.3407092826
 30
0.0
 10
6.3587811043
 20
6.3407966443
 30
0.0
 10
6.3585272662
 20
6.3408918397
 30
0.0
 10
6.3583617418
 20
6.3409837064
 30
0.0
 10
6.3582690984
 20
6.3410646789
 30
0.0
 10
6.3582221924
 20
6.341124007
 30
0.0
 10
6.3581934466
 20
6.3411865324
 30
0.0
 10
6.3581871155
 20
6.3412301879
 30
0.0
 10
6.3581871118
 20
6.3412513903
 30
0.0
  0
LINE
  5
3DC
100
AcDbEntity
  8
ALL_ASSEMBLY_MEMBERS
100
AcDbLine
 62
7
  6
CONTINUOUS
 10
6.4131870659
 20
6.3547701271
 11
6.3912545252
 21
6.3546411028
  0
LINE
  5
3DD
100
AcDbEntity
  8
ALL_ASSEMBLY_MEMBERS
100
AcDbLine
 62
7
  6
CONTINUOUS
 10
6.3912546755
 20
6.3546413204
 11
6.3858620715
 21
6.3544819908
  0
SPLINE
  5
3DE
100
AcDbEntity
  8
ALL_ASSEMBLY_MEMBERS
100
AcDbSpline
 62
7
  6
CONTINUOUS
 70
0
 71
3
 72
18
 73
14
 74
0
 42
0.0000001
 43
0.0000001
 44
0.0000000001
 40
0.0
 40
0.0
 40
0.0
 40
0.0
 40
0.1803503112
 40
0.351784526
 40
0.5102159678
 40
0.6520420055
 40
0.7739725877
 40
0.8266631894
 40
0.8734958379
 40
0.9143105483
 40
0.948984959
 40
0.9775136339
 40
1.0
 40
1.0
 40
1.0
 40
1.0
 10
6.3858620715
 20
6.3544819908
 30
0.0
 10
6.3846986292
 20
6.3543951417
 30
0.0
 10
6.3824280597
 20
6.3542412803
 30
0.0
 10
6.3791318605
 20
6.3540688618
 30
0.0
 10
6.3760821639
 20
6.3539626056
 30
0.0
 10
6.3733511223
 20
6.3539236988
 30
0.0
 10
6.3713037767
 20
6.3539484296
 30
0.0
 10
6.3698723346
 20
6.3540078923
 30
0.0
 10
6.3689663154
 20
6.3540671381
 30
0.0
 10
6.3681784982
 20
6.3541426929
 30
0.0
 10
6.3675115589
 20
6.3542342968
 30
0.0
 10
6.366967348
 20
6.3543409733
 30
0.0
 10
6.3666490263
 20
6.3544313456
 30
0.0
 10
6.3665127011
 20
6.3544820905
 30
0.0
  0
LINE
  5
3DF
100
AcDbEntity
  8
ALL_ASSEMBLY_MEMBERS
100
AcDbLine
 62
7
  6
CONTINUOUS
 10
6.3665127011
 20
6.3544820905
 11
6.3655098361
 21
6.354641333
  0
SPLINE
  5
3E0
100
AcDbEntity
  8
ALL_ASSEMBLY_MEMBERS
100
AcDbSpline
 62
7
  6
CONTINUOUS
 70
0
 71
3
 72
15
 73
11
 74
0
 42
0.0000001
 43
0.0000001
 44
0.0000000001
 40
0.0
 40
0.0
 40
0.0
 40
0.0
 40
0.1438023548
 40
0.2862850109
 40
0.4251151271
 40
0.5583260935
 40
0.6840082641
 40
0.8004197473
 40
0.9061574639
 40
1.0
 40
1.0
 40
1.0
 40
1.0
 10
6.4031871118
 20
6.3931777243
 30
0.0
 10
6.4029604197
 20
6.3912414445
 30
0.0
 10
6.4024259638
 20
6.3873958798
 30
0.0
 10
6.4013881193
 20
6.3817251135
 30
0.0
 10
6.4001301981
 20
6.3762460282
 30
0.0
 10
6.3986741424
 20
6.3710521682
 30
0.0
 10
6.3970454554
 20
6.3662292347
 30
0.0
 10
6.3952707572
 20
6.3618566901
 30
0.0
 10
6.3933803211
 20
6.3580083463
 30
0.0
 10
6.3919777263
 20
6.3556880822
 30
0.0
 10
6.3912546755
 20
6.3546413204
 30
0.0
  0
LINE
  5
3E1
100
AcDbEntity
  8
ALL_ASSEMBLY_MEMBERS
100
AcDbLine
 62
7
  6
CONTINUOUS
 10
6.3655095453
 20
6.354641149
 11
6.3644371127
 21
6.3547701273
  0
SPLINE
  5
3E2
100
AcDbEntity
  8
ALL_ASSEMBLY_MEMBERS
100
AcDbSpline
 62
7
  6
CONTINUOUS
 70
0
 71
3
 72
15
 73
11
 74
0
 42
0.0000001
 43
0.0000001
 44
0.0000000001
 40
0.0
 40
0.0
 40
0.0
 40
0.0
 40
0.1283309876
 40
0.2559171335
 40
0.3824399557
 40
0.507898461
 40
0.6322818499
 40
0.7556490463
 40
0.8782104717
 40
1.0
 40
1.0
 40
1.0
 40
1.0
 10
6.3849028406
 20
6.3931777243
 30
0.0
 10
6.3849827242
 20
6.3912480111
 30
0.0
 10
6.3849042796
 20
6.3873856393
 30
0.0
 10
6.3840719082
 20
6.381675873
 30
0.0
 10
6.3825349672
 20
6.3761576595
 30
0.0
 10
6.3803200002
 20
6.3709271932
 30
0.0
 10
6.3774658239
 20
6.3660707628
 30
0.0
 10
6.3740171063
 20
6.3616710586
 30
0.0
 10
6.3700336362
 20
6.3578059518
 30
0.0
 10
6.3670586359
 20
6.3556208968
 30
0.0
 10
6.3655095453
 20
6.354641149
 30
0.0
  0
SPLINE
  5
3E3
100
AcDbEntity
  8
ALL_ASSEMBLY_MEMBERS
100
AcDbSpline
 62
7
  6
CONTINUOUS
 70
0
 71
3
 72
13
 73
9
 74
0
 42
0.0000001
 43
0.0000001
 44
0.0000000001
 40
0.0
 40
0.0
 40
0.0
 40
0.0
 40
0.2484144004
 40
0.3733334005
 40
0.4982704134
 40
0.623444822
 40
0.7490605868
 40
1.0
 40
1.0
 40
1.0
 40
1.0
 10
6.3581871118
 20
6.3412513903
 30
0.0
 10
6.3581871118
 20
6.3426127986
 30
0.0
 10
6.3584825294
 20
6.3446730709
 30
0.0
 10
6.3594226653
 20
6.3472433293
 30
0.0
 10
6.3603969946
 20
6.3490612116
 30
0.0
 10
6.3616167818
 20
6.3507290185
 30
0.0
 10
6.3635386761
 20
6.3527039931
 30
0.0
 10
6.3652776788
 20
6.3538775429
 30
0.0
 10
6.3665129614
 20
6.3544820093
 30
0.0
  0
SPLINE
  5
3E4
100
AcDbEntity
  8
ALL_ASSEMBLY_MEMBERS
100
AcDbSpline
 62
7
  6
CONTINUOUS
 70
0
 71
3
 72
13
 73
9
 74
0
 42
0.0000001
 43
0.0000001
 44
0.0000000001
 40
0.0
 40
0.0
 40
0.0
 40
0.0
 40
0.2484144177
 40
0.3733334601
 40
0.4982704898
 40
0.6234448948
 40
0.7490606432
 40
1.0
 40
1.0
 40
1.0
 40
1.0
 10
7.5531871118
 20
6.3412513707
 30
0.0
 10
7.5531871118
 20
6.3426127797
 30
0.0
 10
7.5528916939
 20
6.3446730529
 30
0.0
 10
7.5519515594
 20
6.3472433133
 30
0.0
 10
7.550977231
 20
6.3490611974
 30
0.0
 10
7.5497574452
 20
6.3507290063
 30
0.0
 10
7.5478355536
 20
6.3527039843
 30
0.0
 10
7.546096553
 20
6.3538775378
 30
0.0
 10
7.5448612714
 20
6.3544820067
 30
0.0
  0
SPLINE
  5
3E5
100
AcDbEntity
  8
ALL_ASSEMBLY_MEMBERS
100
AcDbSpline
 62
7
  6
CONTINUOUS
 70
0
 71
3
 72
13
 73
9
 74
0
 42
0.0000001
 43
0.0000001
 44
0.0000000001
 40
0.0
 40
0.0
 40
0.0
 40
0.0
 40
0.2494044893
 40
0.3746012448
 40
0.4996753473
 40
0.6247934403
 40
0.7501197086
 40
1.0
 40
1.0
 40
1.0
 40
1.0
 10
7.5531871118
 20
6.3417956276
 30
0.0
 10
7.5531871118
 20
6.3430792613
 30
0.0
 10
7.5529320039
 20
6.3450188222
 30
0.0
 10
7.5521140699
 20
6.3474621602
 30
0.0
 10
7.5512650893
 20
6.3492041283
 30
0.0
 10
7.5501982958
 20
6.3508226802
 30
0.0
 10
7.548510683
 20
6.3527741201
 30
0.0
 10
7.5469701548
 20
6.353984621
 30
0.0
 10
7.5458643757
 20
6.3546413254
 30
0.0
  0
LINE
  5
3E6
100
AcDbEntity
  8
ALL_ASSEMBLY_MEMBERS
100
AcDbLine
 62
7
  6
CONTINUOUS
 10
6.3922778803
 20
6.3417956276
 11
6.3881871118
 21
6.3412513707
  0
SPLINE
  5
3E7
100
AcDbEntity
  8
ALL_ASSEMBLY_MEMBERS
100
AcDbSpline
 62
7
  6
CONTINUOUS
 70
0
 71
3
 72
10
 73
6
 74
0
 42
0.0000001
 43
0.0000001
 44
0.0000000001
 40
0.0
 40
0.0
 40
0.0
 40
0.0
 40
0.4999893998
 40
0.7499947714
 40
1.0
 40
1.0
 40
1.0
 40
1.0
 10
6.4131871423
 20
6.3425866338
 30
0.0
 10
6.4096990836
 20
6.3425865962
 30
0.0
 10
6.4044661682
 20
6.3424931356
 30
0.0
 10
6.3974971523
 20
6.3421688208
 30
0.0
 10
6.3940164845
 20
6.3419340115
 30
0.0
 10
6.3922778803
 20
6.3417956276
 30
0.0
  0
SPLINE
  5
3E8
100
AcDbEntity
  8
ALL_ASSEMBLY_MEMBERS
100
AcDbSpline
 62
7
  6
CONTINUOUS
 70
0
 71
3
 72
15
 73
11
 74
0
 42
0.0000001
 43
0.0000001
 44
0.0000000001
 40
0.0
 40
0.0
 40
0.0
 40
0.0
 40
0.1438027487
 40
0.286285823
 40
0.4251163424
 40
0.5583276302
 40
0.6840099507
 40
0.8004213212
 40
0.9061585508
 40
1.0
 40
1.0
 40
1.0
 40
1.0
 10
7.5081871118
 20
6.3931777243
 30
0.0
 10
7.5084138273
 20
6.391241431
 30
0.0
 10
7.5089483264
 20
6.3873958398
 30
0.0
 10
7.5099862373
 20
6.3817250366
 30
0.0
 10
7.5112442286
 20
6.3762459198
 30
0.0
 10
7.5127003451
 20
6.371052034
 30
0.0
 10
7.514329078
 20
6.3662290815
 30
0.0
 10
7.5161038013
 20
6.3618565261
 30
0.0
 10
7.5179942368
 20
6.3580081818
 30
0.0
 10
7.5193968107
 20
6.3556879139
 30
0.0
 10
7.5201198434
 20
6.354641149
 30
0.0
  0
SPLINE
  5
3E9
100
AcDbEntity
  8
ALL_ASSEMBLY_MEMBERS
100
AcDbSpline
 62
7
  6
CONTINUOUS
 70
0
 71
3
 72
10
 73
6
 74
0
 42
0.0000001
 43
0.0000001
 44
0.0000000001
 40
0.0
 40
0.0
 40
0.0
 40
0.0
 40
0.2500052253
 40
0.5000104362
 40
1.0
 40
1.0
 40
1.0
 40
1.0
 10
7.5190963143
 20
6.3417956299
 30
0.0
 10
7.5173577165
 20
6.3419340677
 30
0.0
 10
7.5138770357
 20
6.342168583
 30
0.0
 10
7.5069080688
 20
6.3424936918
 30
0.0
 10
7.5016751395
 20
6.3425868157
 30
0.0
 10
7.4981870839
 20
6.3425866338
 30
0.0
  0
LINE
  5
3EA
100
AcDbEntity
  8
ALL_ASSEMBLY_MEMBERS
100
AcDbLine
 62
7
  6
CONTINUOUS
 10
7.5469371113
 20
6.3547701271
 11
7.5458647749
 21
6.3546411028
  0
LINE
  5
3EB
100
AcDbEntity
  8
ALL_ASSEMBLY_MEMBERS
100
AcDbLine
 62
7
  6
CONTINUOUS
 10
7.5231871118
 20
6.3412513903
 11
7.5190963143
 21
6.3417956299
  0
LINE
  5
3EC
100
AcDbEntity
  8
ALL_ASSEMBLY_MEMBERS
100
AcDbLine
 62
7
  6
CONTINUOUS
 10
7.5458644309
 20
6.3546413204
 11
7.5448613069
 21
6.3544819908
  0
SPLINE
  5
3ED
100
AcDbEntity
  8
ALL_ASSEMBLY_MEMBERS
100
AcDbSpline
 62
7
  6
CONTINUOUS
 70
0
 71
3
 72
17
 73
13
 74
0
 42
0.0000001
 43
0.0000001
 44
0.0000000001
 40
0.0
 40
0.0
 40
0.0
 40
0.0
 40
0.0224864533
 40
0.0510226307
 40
0.0857105758
 40
0.1265469512
 40
0.2261106381
 40
0.3480894389
 40
0.4899019378
 40
0.6482777469
 40
0.819658507
 40
1.0
 40
1.0
 40
1.0
 40
1.0
 10
7.5448613069
 20
6.3544819908
 30
0.0
 10
7.5447249865
 20
6.3544312161
 30
0.0
 10
7.5444065934
 20
6.3543408521
 30
0.0
 10
7.543862212
 20
6.3542342441
 30
0.0
 10
7.5431949715
 20
6.3541426179
 30
0.0
 10
7.5420672461
 20
6.3540347136
 30
0.0
 10
7.5403710673
 20
6.3539525246
 30
0.0
 10
7.5380203821
 20
6.3539235369
 30
0.0
 10
7.5352893006
 20
6.3539627138
 30
0.0
 10
7.5322403124
 20
6.3540689181
 30
0.0
 10
7.5289447486
 20
6.3542413506
 30
0.0
 10
7.5266745071
 20
6.3543952761
 30
0.0
 10
7.5255110771
 20
6.3544820905
 30
0.0
  0
LINE
  5
3EE
100
AcDbEntity
  8
ALL_ASSEMBLY_MEMBERS
100
AcDbLine
 62
7
  6
CONTINUOUS
 10
7.5255110771
 20
6.3544820905
 11
7.5201197163
 21
6.354641333
  0
SPLINE
  5
3EF
100
AcDbEntity
  8
ALL_ASSEMBLY_MEMBERS
100
AcDbSpline
 62
7
  6
CONTINUOUS
 70
0
 71
3
 72
15
 73
11
 74
0
 42
0.0000001
 43
0.0000001
 44
0.0000000001
 40
0.0
 40
0.0
 40
0.0
 40
0.0
 40
0.1283310865
 40
0.2559173847
 40
0.3824404098
 40
0.5078991086
 40
0.6322826256
 40
0.7556498147
 40
0.8782110091
 40
1.0
 40
1.0
 40
1.0
 40
1.0
 10
7.526471383
 20
6.3931777243
 30
0.0
 10
7.5263915076
 20
6.3912480237
 30
0.0
 10
7.5264699632
 20
6.3873856776
 30
0.0
 10
7.5273023389
 20
6.381675949
 30
0.0
 10
7.5288392728
 20
6.3761577698
 30
0.0
 10
7.5310542177
 20
6.3709273323
 30
0.0
 10
7.5339083566
 20
6.366070924
 30
0.0
 10
7.5373570209
 20
6.3616712341
 30
0.0
 10
7.5413404214
 20
6.3578061328
 30
0.0
 10
7.5443153687
 20
6.3556210725
 30
0.0
 10
7.5458644309
 20
6.3546413204
 30
0.0
  0
LINE
  5
3F0
100
AcDbEntity
  8
ALL_ASSEMBLY_MEMBERS
100
AcDbLine
 62
7
  6
CONTINUOUS
 10
7.5201198434
 20
6.354641149
 11
7.4981871118
 21
6.3547701273
  0
SPLINE
  5
3F1
100
AcDbEntity
  8
ALL_ASSEMBLY_MEMBERS
100
AcDbSpline
 62
7
  6
CONTINUOUS
 70
0
 71
3
 72
27
 73
23
 74
0
 42
0.0000001
 43
0.0000001
 44
0.0000000001
 40
0.0
 40
0.0
 40
0.0
 40
0.0
 40
0.0620482818
 40
0.1242155776
 40
0.1865236534
 40
0.2489797844
 40
0.311579331
 40
0.3743057393
 40
0.4057064694
 40
0.4371268832
 40
0.4685613485
 40
0.500001444
 40
0.5314404626
 40
0.562873558
 40
0.5942944939
 40
0.6256951581
 40
0.6884196777
 40
0.7510186766
 40
0.8134745487
 40
0.875782191
 40
0.9379496832
 40
1.0
 40
1.0
 40
1.0
 40
1.0
 10
6.8550963568
 20
5.0102593168
 30
0.0
 10
6.8592706051
 20
5.0102593205
 30
0.0
 10
6.8676277089
 20
5.0105345735
 30
0.0
 10
6.8801411179
 20
5.0114927416
 30
0.0
 10
6.8926521419
 20
5.012772929
 30
0.0
 10
6.9051779583
 20
5.0141805952
 30
0.0
 10
6.917737987
 20
5.0155369396
 30
0.0
 10
6.9282405809
 20
5.0164798529
 30
0.0
 10
6.9366678611
 20
5.0170488979
 30
0.0
 10
6.9430013279
 20
5.0173647953
 30
0.0
 10
6.949342376
 20
5.0175589916
 30
0.0
 10
6.9556873318
 20
5.0176269584
 30
0.0
 10
6.9620322395
 20
5.0175607006
 30
0.0
 10
6.9683730901
 20
5.0173641237
 30
0.0
 10
6.9747064935
 20
5.0170485474
 30
0.0
 10
6.9831337592
 20
5.016480593
 30
0.0
 10
6.9936361018
 20
5.0155366681
 30
0.0
 10
7.0061959795
 20
5.0141806964
 30
0.0
 10
7.0187217062
 20
5.0127729536
 30
0.0
 10
7.0312327014
 20
5.0114928173
 30
0.0
 10
7.0437462284
 20
5.0105346163
 30
0.0
 10
7.0521034816
 20
5.0102593252
 30
0.0
 10
7.0562778668
 20
5.0102593168
 30
0.0
  0
SPLINE
  5
3F2
100
AcDbEntity
  8
ALL_ASSEMBLY_MEMBERS
100
AcDbSpline
 62
7
  6
CONTINUOUS
 70
0
 71
3
 72
34
 73
30
 74
0
 42
0.0000001
 43
0.0000001
 44
0.0000000001
 40
0.0
 40
0.0
 40
0.0
 40
0.0
 40
0.0819692944
 40
0.163860186
 40
0.2464226253
 40
0.3296161494
 40
0.4128524591
 40
0.4952430617
 40
0.5756817598
 40
0.6529431349
 40
0.7257154201
 40
0.7926333073
 40
0.8523317726
 40
0.8790442673
 40
0.9034489964
 40
0.9254023286
 40
0.9447597162
 40
0.9613752572
 40
0.9751175929
 40
0.9808873007
 40
0.9859125187
 40
0.9901855942
 40
0.9936988601
 40
0.9964446351
 40
0.9984152243
 40
0.9991074161
 40
0.9996029197
 40
0.9999007696
 40
1.0
 40
1.0
 40
1.0
 40
1.0
 10
6.7989371118
 20
5.0102593168
 30
0.0
 10
6.798590052
 20
5.0102593206
 30
0.0
 10
6.7978949266
 20
5.0103276924
 30
0.0
 10
6.7968849344
 20
5.0106036323
 30
0.0
 10
6.7959174688
 20
5.0110147222
 30
0.0
 10
6.7949969765
 20
5.011532107
 30
0.0
 10
6.7941271082
 20
5.0121284311
 30
0.0
 10
6.7933126981
 20
5.0127794182
 30
0.0
 10
6.7925582269
 20
5.0134614755
 30
0.0
 10
6.7918683857
 20
5.0141521614
 30
0.0
 10
6.7912475834
 20
5.0148295279
 30
0.0
 10
6.7906999312
 20
5.0154722063
 30
0.0
 10
6.7902940002
 20
5.0159789519
 30
0.0
 10
6.7900077444
 20
5.0163507179
 30
0.0
 10
6.7898217158
 20
5.0165979317
 30
0.0
 10
6.7896566653
 20
5.0168219371
 30
0.0
 10
6.7895129313
 20
5.0170206706
 30
0.0
 10
6.7893908309
 20
5.0171921349
 30
0.0
 10
6.7893027356
 20
5.0173171887
 30
0.0
 10
6.7892432345
 20
5.0174023485
 30
0.0
 10
6.789206821
 20
5.0174547459
 30
0.0
 10
6.7891759747
 20
5.0174993322
 30
0.0
 10
6.7891506825
 20
5.0175361538
 30
0.0
 10
6.7891310392
 20
5.0175646891
 30
0.0
 10
6.7891180586
 20
5.0175840645
 30
0.0
 10
6.7891106632
 20
5.0175945192
 30
0.0
 10
6.7891069445
 20
5.0176007311
 30
0.0
 10
6.7891051641
 20
5.0176020836
 30
0.0
 10
6.7891038724
 20
5.0176053178
 30
0.0
 10
6.7891037785
 20
5.0176049083
 30
0.0
  0
SPLINE
  5
3F3
100
AcDbEntity
  8
ALL_ASSEMBLY_MEMBERS
100
AcDbSpline
 62
7
  6
CONTINUOUS
 70
0
 71
3
 72
36
 73
32
 74
0
 42
0.0000001
 43
0.0000001
 44
0.0000000001
 40
0.0
 40
0.0
 40
0.0
 40
0.0
 40
0.000099469
 40
0.0003946009
 40
0.0008860261
 40
0.0015743048
 40
0.0024599894
 40
0.0035436303
 40
0.0063058141
 40
0.0098531535
 40
0.0141719621
 40
0.0192485114
 40
0.0250691048
 40
0.0388878088
 40
0.0555193261
 40
0.0748556407
 40
0.0967895463
 40
0.1212058995
 40
0.1479423047
 40
0.176821859
 40
0.2076701827
 40
0.2745882348
 40
0.347352722
 40
0.4245929321
 40
0.5049995834
 40
0.5873582221
 40
0.6705516066
 40
0.7537054504
 40
0.8362252291
 40
0.9180720999
 40
1.0
 40
1.0
 40
1.0
 40
1.0
 10
7.1222703292
 20
5.0176040921
 30
0.0
 10
7.1222699297
 20
5.0176042252
 30
0.0
 10
7.1222692411
 20
5.0176017833
 30
0.0
 10
7.1222667841
 20
5.0175997741
 30
0.0
 10
7.1222633653
 20
5.0175940616
 30
0.0
 10
7.122258302
 20
5.017587146
 30
0.0
 10
7.122251929
 20
5.0175777898
 30
0.0
 10
7.1222405486
 20
5.0175613439
 30
0.0
 10
7.1222228575
 20
5.0175354957
 30
0.0
 10
7.1221974153
 20
5.017498392
 30
0.0
 10
7.1221663777
 20
5.0174532288
 30
0.0
 10
7.1221297696
 20
5.0174002214
 30
0.0
 10
7.1220700687
 20
5.0173142807
 30
0.0
 10
7.1219818241
 20
5.0171886034
 30
0.0
 10
7.1218594301
 20
5.0170169897
 30
0.0
 10
7.1217154797
 20
5.0168185581
 30
0.0
 10
7.1215502311
 20
5.0165948704
 30
0.0
 10
7.1213641015
 20
5.0163476701
 30
0.0
 10
7.1211573631
 20
5.0160791989
 30
0.0
 10
7.1209304291
 20
5.0157919401
 30
0.0
 10
7.1205922459
 20
5.0153758277
 30
0.0
 10
7.1201237671
 20
5.0148262786
 30
0.0
 10
7.1195029639
 20
5.0141491525
 30
0.0
 10
7.1188132
 20
5.0134588277
 30
0.0
 10
7.1180589005
 20
5.0127772058
 30
0.0
 10
7.1172448078
 20
5.0121266347
 30
0.0
 10
7.116375204
 20
5.0115308865
 30
0.0
 10
7.1154551702
 20
5.0110139
 30
0.0
 10
7.114488166
 20
5.0106032158
 30
0.0
 10
7.1134786849
 20
5.0103277411
 30
0.0
 10
7.1127839772
 20
5.0102593184
 30
0.0
 10
7.1124371118
 20
5.0102593168
 30
0.0
  0
SPLINE
  5
3F4
100
AcDbEntity
  8
ALL_ASSEMBLY_MEMBERS
100
AcDbSpline
 62
7
  6
CONTINUOUS
 70
0
 71
3
 72
27
 73
23
 74
0
 42
0.0000001
 43
0.0000001
 44
0.0000000001
 40
0.0
 40
0.0
 40
0.0
 40
0.0
 40
0.0624937668
 40
0.1249888811
 40
0.1874851058
 40
0.2499807877
 40
0.3124764599
 40
0.3749772404
 40
0.4062289389
 40
0.4374836622
 40
0.4687433394
 40
0.5000011869
 40
0.5312561083
 40
0.5625127395
 40
0.5937699811
 40
0.6250214692
 40
0.6875195202
 40
0.7500151776
 40
0.8125108809
 40
0.8750062805
 40
0.9375025577
 40
1.0
 40
1.0
 40
1.0
 40
1.0
 10
6.8550963568
 20
4.9952593168
 30
0.0
 10
6.8593173115
 20
4.9952593267
 30
0.0
 10
6.8677610616
 20
4.9956052436
 30
0.0
 10
6.8803629241
 20
4.996896255
 30
0.0
 10
6.892897894
 20
4.9987094592
 30
0.0
 10
6.9053883295
 20
5.0007953324
 30
0.0
 10
6.9178768815
 20
5.0028930473
 30
0.0
 10
6.9283227817
 20
5.0044111544
 30
0.0
 10
6.9367148611
 20
5.0053472168
 30
0.0
 10
6.9430270564
 20
5.0058737612
 30
0.0
 10
6.9493533513
 20
5.0061995572
 30
0.0
 10
6.9556871548
 20
5.0063150269
 30
0.0
 10
6.9620209005
 20
5.0062028646
 30
0.0
 10
6.9683467246
 20
5.0058722789
 30
0.0
 10
6.9746589158
 20
5.0053469211
 30
0.0
 10
6.983051138
 20
5.0044121247
 30
0.0
 10
6.993496634
 20
5.0028925709
 30
0.0
 10
7.0059851146
 20
5.0007956257
 30
0.0
 10
7.0184754634
 20
4.9987095482
 30
0.0
 10
7.0310104587
 20
4.9968963498
 30
0.0
 10
7.0436125869
 20
4.9956052713
 30
0.0
 10
7.0520566638
 20
4.995259339
 30
0.0
 10
7.0562778668
 20
4.9952593168
 30
0.0
  0
SPLINE
  5
3F5
100
AcDbEntity
  8
ALL_ASSEMBLY_MEMBERS
100
AcDbSpline
 62
7
  6
CONTINUOUS
 70
0
 71
3
 72
15
 73
11
 74
0
 42
0.0000001
 43
0.0000001
 44
0.0000000001
 40
0.0
 40
0.0
 40
0.0
 40
0.0
 40
0.1241067233
 40
0.2484487913
 40
0.373070997
 40
0.4979889676
 40
0.6231918662
 40
0.7486412443
 40
0.8742721395
 40
1.0
 40
1.0
 40
1.0
 40
1.0
 10
3.1187778668
 20
5.0102593168
 30
0.0
 10
3.1146033503
 20
5.010259323
 30
0.0
 10
3.1062458012
 20
5.0105346406
 30
0.0
 10
3.0937318235
 20
5.0114928966
 30
0.0
 10
3.0812203691
 20
5.012773088
 30
0.0
 10
3.0686942768
 20
5.0141809086
 30
0.0
 10
3.0561341769
 20
5.0155367968
 30
0.0
 10
3.0435269338
 20
5.0166701461
 30
0.0
 10
3.0308726352
 20
5.0174270695
 30
0.0
 10
3.0224168534
 20
5.0176049005
 30
0.0
 10
3.0181878075
 20
5.0176049083
 30
0.0
  0
SPLINE
  5
3F6
100
AcDbEntity
  8
ALL_ASSEMBLY_MEMBERS
100
AcDbSpline
 62
7
  6
CONTINUOUS
 70
0
 71
3
 72
28
 73
24
 74
0
 42
0.0000001
 43
0.0000001
 44
0.0000000001
 40
0.0
 40
0.0
 40
0.0
 40
0.0
 40
0.0003940084
 40
0.0015727937
 40
0.0035318116
 40
0.0062665222
 40
0.0140448842
 40
0.0248624101
 40
0.0386283985
 40
0.0552387274
 40
0.0745880778
 40
0.096544236
 40
0.1476678899
 40
0.2073696822
 40
0.2742930609
 40
0.3470726478
 40
0.4243407544
 40
0.50479208
 40
0.6703250537
 40
0.7535198013
 40
0.8361160662
 40
0.9180267
 40
1.0
 40
1.0
 40
1.0
 40
1.0
 10
3.1847704451
 20
5.0176049083
 30
0.0
 10
3.1847697333
 20
5.0176033998
 30
0.0
 10
3.1847654313
 20
5.0175982132
 30
0.0
 10
3.184757524
 20
5.0175855662
 30
0.0
 10
3.1847431673
 20
5.0175652313
 30
0.0
 10
3.1847134336
 20
5.0175216181
 30
0.0
 10
3.1846619679
 20
5.017447398
 30
0.0
 10
3.1845838315
 20
5.0173348649
 30
0.0
 10
3.1844835098
 20
5.0171922075
 30
0.0
 10
3.1843613397
 20
5.0170207662
 30
0.0
 10
3.1842176058
 20
5.0168221196
 30
0.0
 10
3.1839855257
 20
5.0165070612
 30
0.0
 10
3.1836449647
 20
5.0160597629
 30
0.0
 10
3.1831744411
 20
5.0154723794
 30
0.0
 10
3.1826268031
 20
5.0148297077
 30
0.0
 10
3.1820060348
 20
5.0141523642
 30
0.0
 10
3.1813161338
 20
5.0134615927
 30
0.0
 10
3.180300749
 20
5.0125437875
 30
0.0
 10
3.1791815725
 20
5.0117029949
 30
0.0
 10
3.1779568389
 20
5.0110150216
 30
0.0
 10
3.1769895025
 20
5.0106032616
 30
0.0
 10
3.1759793246
 20
5.0103273292
 30
0.0
 10
3.1752841513
 20
5.0102593239
 30
0.0
 10
3.1749371118
 20
5.0102593168
 30
0.0
  0
SPLINE
  5
3F7
100
AcDbEntity
  8
ALL_ASSEMBLY_MEMBERS
100
AcDbSpline
 62
7
  6
CONTINUOUS
 70
0
 71
3
 72
30
 73
26
 74
0
 42
0.0000001
 43
0.0000001
 44
0.0000000001
 40
0.0
 40
0.0
 40
0.0
 40
0.0
 40
0.0819795214
 40
0.1638757372
 40
0.2464540814
 40
0.3296544214
 40
0.4951956059
 40
0.5756501088
 40
0.6529242332
 40
0.7257099787
 40
0.7926407559
 40
0.8523534193
 40
0.8790673564
 40
0.903472954
 40
0.9254295479
 40
0.9447952427
 40
0.9614268048
 40
0.975180536
 40
0.9859528583
 40
0.9902080586
 40
0.993703471
 40
0.9964347309
 40
0.9983974715
 40
0.9995873287
 40
1.0
 40
1.0
 40
1.0
 40
1.0
 10
2.8614371118
 20
5.0102593168
 30
0.0
 10
2.8610900687
 20
5.0102593182
 30
0.0
 10
2.860395036
 20
5.0103279622
 30
0.0
 10
2.8593849895
 20
5.0106034492
 30
0.0
 10
2.8584176357
 20
5.0110147806
 30
0.0
 10
2.8571930844
 20
5.0117028603
 30
0.0
 10
2.8560738144
 20
5.0125434738
 30
0.0
 10
2.8550584388
 20
5.0134612723
 30
0.0
 10
2.854368516
 20
5.0141520218
 30
0.0
 10
2.8537477147
 20
5.0148293674
 30
0.0
 10
2.8532000375
 20
5.0154720662
 30
0.0
 10
2.8527941134
 20
5.0159788262
 30
0.0
 10
2.8525078231
 20
5.0163505517
 30
0.0
 10
2.8523217877
 20
5.0165977229
 30
0.0
 10
2.8521567235
 20
5.0168217244
 30
0.0
 10
2.8520129618
 20
5.0170205287
 30
0.0
 10
2.8518908391
 20
5.017192122
 30
0.0
 10
2.8517905997
 20
5.0173346251
 30
0.0
 10
2.8517207433
 20
5.017434465
 30
0.0
 10
2.851676068
 20
5.0174988838
 30
0.0
 10
2.8516506768
 20
5.0175353219
 30
0.0
 10
2.851631383
 20
5.017564006
 30
0.0
 10
2.8516164669
 20
5.017584257
 30
0.0
 10
2.8516094925
 20
5.017597281
 30
0.0
 10
2.8516041351
 20
5.0176023561
 30
0.0
 10
2.8516038928
 20
5.0176040862
 30
0.0
  0
SPLINE
  5
3F8
100
AcDbEntity
  8
ALL_ASSEMBLY_MEMBERS
100
AcDbSpline
 62
7
  6
CONTINUOUS
 70
0
 71
3
 72
15
 73
11
 74
0
 42
0.0000001
 43
0.0000001
 44
0.0000000001
 40
0.0
 40
0.0
 40
0.0
 40
0.0
 40
0.1257280474
 40
0.2513585365
 40
0.3768074798
 40
0.5020100827
 40
0.6269279729
 40
0.7515499464
 40
0.8758921682
 40
1.0
 40
1.0
 40
1.0
 40
1.0
 10
3.0181878075
 20
5.0176049083
 30
0.0
 10
3.013958697
 20
5.0176049236
 30
0.0
 10
3.0055028045
 20
5.0174271378
 30
0.0
 10
2.9928483518
 20
5.0166702273
 30
0.0
 10
2.9802409703
 20
5.0155368948
 30
0.0
 10
2.967680724
 20
5.0141809916
 30
0.0
 10
2.9551544789
 20
5.0127731578
 30
0.0
 10
2.9426428582
 20
5.0114929419
 30
0.0
 10
2.9301286754
 20
5.0105346409
 30
0.0
 10
2.9217709681
 20
5.0102593235
 30
0.0
 10
2.9175963568
 20
5.0102593168
 30
0.0
  0
SPLINE
  5
3F9
100
AcDbEntity
  8
ALL_ASSEMBLY_MEMBERS
100
AcDbSpline
 62
7
  6
CONTINUOUS
 70
0
 71
3
 72
17
 73
13
 74
0
 42
0.0000001
 43
0.0000001
 44
0.0000000001
 40
0.0
 40
0.0
 40
0.0
 40
0.0
 40
0.0625017019
 40
0.1250049613
 40
0.1875063249
 40
0.2500073448
 40
0.3750033531
 40
0.5000018738
 40
0.6250003349
 40
0.7499978764
 40
0.8749977327
 40
1.0
 40
1.0
 40
1.0
 40
1.0
 10
3.0181877664
 20
5.0062777041
 30
0.0
 10
3.0160770054
 20
5.0062777141
 30
0.0
 10
3.0118550692
 20
5.0062031955
 30
0.0
 10
3.0055301695
 20
5.0058747551
 30
0.0
 10
2.9992189591
 20
5.0053469262
 30
0.0
 10
2.9908271757
 20
5.004412551
 30
0.0
 10
2.980381385
 20
5.0028931297
 30
0.0
 10
2.9678923259
 20
5.0007962083
 30
0.0
 10
2.9554011953
 20
4.9987099266
 30
0.0
 10
2.9428654112
 20
4.9968965489
 30
0.0
 10
2.9302624762
 20
4.9956053176
 30
0.0
 10
2.9218178404
 20
4.9952593394
 30
0.0
 10
2.9175963568
 20
4.9952593168
 30
0.0
  0
SPLINE
  5
3FA
100
AcDbEntity
  8
ALL_ASSEMBLY_MEMBERS
100
AcDbSpline
 62
7
  6
CONTINUOUS
 70
0
 71
3
 72
17
 73
13
 74
0
 42
0.0000001
 43
0.0000001
 44
0.0000000001
 40
0.0
 40
0.0
 40
0.0
 40
0.0
 40
0.1250003945
 40
0.2499994447
 40
0.3749976222
 40
0.4999964354
 40
0.6249953845
 40
0.7499920599
 40
0.8124934477
 40
0.8749952105
 40
0.9374983711
 40
1.0
 40
1.0
 40
1.0
 40
1.0
 10
3.1187778668
 20
4.9952593168
 30
0.0
 10
3.114556501
 20
4.9952593363
 30
0.0
 10
3.1061120651
 20
4.9956053085
 30
0.0
 10
3.0935093588
 20
4.9968964848
 30
0.0
 10
3.0809737272
 20
4.9987098181
 30
0.0
 10
3.0684827087
 20
5.0007960677
 30
0.0
 10
3.0559937649
 20
5.0028929846
 30
0.0
 10
3.0455480633
 20
5.0044124078
 30
0.0
 10
3.0371563453
 20
5.0053468286
 30
0.0
 10
3.0308451935
 20
5.0058746351
 30
0.0
 10
3.0245203746
 20
5.0062032064
 30
0.0
 10
3.0202984977
 20
5.0062776961
 30
0.0
 10
3.0181877664
 20
5.0062777041
 30
0.0
  0
SPLINE
  5
3FB
100
AcDbEntity
  8
ALL_ASSEMBLY_MEMBERS
100
AcDbSpline
 62
7
  6
CONTINUOUS
 70
0
 71
3
 72
14
 73
10
 74
0
 42
0.0000001
 43
0.0000001
 44
0.0000000001
 40
0.0
 40
0.0
 40
0.0
 40
0.0
 40
0.1249985155
 40
0.2499970564
 40
0.4999936669
 40
0.6249920643
 40
0.7499922921
 40
0.8749976234
 40
1.0
 40
1.0
 40
1.0
 40
1.0
 10
6.7161871118
 20
5.2841571801
 30
0.0
 10
6.717892371
 20
5.2842376278
 30
0.0
 10
6.7213009053
 20
5.2844418806
 30
0.0
 10
6.7281089475
 20
5.2849738144
 30
0.0
 10
6.7349089001
 20
5.2856002978
 30
0.0
 10
6.7417161681
 20
5.2861420398
 30
0.0
 10
6.7468278131
 20
5.2864663321
 30
0.0
 10
6.7519457427
 20
5.2866739429
 30
0.0
 10
6.755360371
 20
5.2867221574
 30
0.0
 10
6.7570675795
 20
5.2867222082
 30
0.0
  0
SPLINE
  5
3FC
100
AcDbEntity
  8
ALL_ASSEMBLY_MEMBERS
100
AcDbSpline
 62
7
  6
CONTINUOUS
 70
0
 71
3
 72
30
 73
26
 74
0
 42
0.0000001
 43
0.0000001
 44
0.0000000001
 40
0.0
 40
0.0
 40
0.0
 40
0.0
 40
0.0006304462
 40
0.0016719485
 40
0.0032526196
 40
0.0054047096
 40
0.0081389962
 40
0.0114594995
 40
0.019862659
 40
0.0306126849
 40
0.0436979135
 40
0.0590863847
 40
0.076735109
 40
0.0966003546
 40
0.1186380383
 40
0.1690353108
 40
0.2274260107
 40
0.2932532787
 40
0.3658991665
 40
0.4446354522
 40
0.5287182656
 40
0.6173609622
 40
0.7097513501
 40
0.8050370056
 40
1.0
 40
1.0
 40
1.0
 40
1.0
 10
6.6861871118
 20
5.2841565799
 30
0.0
 10
6.686187116
 20
5.2841502708
 30
0.0
 10
6.6861984062
 20
5.2841350098
 30
0.0
 10
6.686228125
 20
5.2841219319
 30
0.0
 10
6.6862739766
 20
5.2841078643
 30
0.0
 10
6.6863375245
 20
5.2840954339
 30
0.0
 10
6.6864188006
 20
5.2840834763
 30
0.0
 10
6.6865626331
 20
5.2840675958
 30
0.0
 10
6.686786984
 20
5.2840510981
 30
0.0
 10
6.6871092263
 20
5.2840352802
 30
0.0
 10
6.6875015433
 20
5.2840221167
 30
0.0
 10
6.6879629826
 20
5.2840112922
 30
0.0
 10
6.6884923261
 20
5.2840025609
 30
0.0
 10
6.6890882401
 20
5.2839956167
 30
0.0
 10
6.6900118886
 20
5.2839880183
 30
0.0
 10
6.6913210927
 20
5.2839818578
 30
0.0
 10
6.6930685217
 20
5.283978122
 30
0.0
 10
6.6950386034
 20
5.2839769578
 30
0.0
 10
6.6972122901
 20
5.2839778943
 30
0.0
 10
6.6995686631
 20
5.2839818176
 30
0.0
 10
6.7020851144
 20
5.2839891735
 30
0.0
 10
6.7047381882
 20
5.2840018093
 30
0.0
 10
6.7075033322
 20
5.2840220621
 30
0.0
 10
6.7113323141
 20
5.28406241
 30
0.0
 10
6.7142365896
 20
5.2841114196
 30
0.0
 10
6.7161871118
 20
5.2841571801
 30
0.0
  0
SPLINE
  5
3FD
100
AcDbEntity
  8
ALL_ASSEMBLY_MEMBERS
100
AcDbSpline
 62
7
  6
CONTINUOUS
 70
0
 71
3
 72
30
 73
26
 74
0
 42
0.0000001
 43
0.0000001
 44
0.0000000001
 40
0.0
 40
0.0
 40
0.0
 40
0.0
 40
0.1948858162
 40
0.290079413
 40
0.3823980278
 40
0.4710061398
 40
0.5550848455
 40
0.6338441319
 40
0.7065070118
 40
0.7723567965
 40
0.8307866143
 40
0.8812121766
 40
0.903272532
 40
0.9231646857
 40
0.940839177
 40
0.956246891
 40
0.9693425818
 40
0.9801034465
 40
0.9885180125
 40
0.9918439373
 40
0.9945831972
 40
0.9967396242
 40
0.9983238211
 40
0.999367902
 40
1.0
 40
1.0
 40
1.0
 40
1.0
 10
7.1951871118
 20
5.2841571535
 30
0.0
 10
7.1971368624
 20
5.2841112748
 30
0.0
 10
7.2000394475
 20
5.2840621203
 30
0.0
 10
7.2038660241
 20
5.2840217054
 30
0.0
 10
7.2066291894
 20
5.2840016616
 30
0.0
 10
7.2092811638
 20
5.2839892711
 30
0.0
 10
7.2117974627
 20
5.2839818812
 30
0.0
 10
7.2141541999
 20
5.2839782425
 30
0.0
 10
7.2163285161
 20
5.2839772992
 30
0.0
 10
7.2182993885
 20
5.2839783025
 30
0.0
 10
7.2200477205
 20
5.2839820313
 30
0.0
 10
7.2213578303
 20
5.2839878042
 30
0.0
 10
7.2222822611
 20
5.2839952559
 30
0.0
 10
7.2228789309
 20
5.2840021569
 30
0.0
 10
7.2234089954
 20
5.2840108808
 30
0.0
 10
7.2238709906
 20
5.2840217125
 30
0.0
 10
7.2242637143
 20
5.2840348781
 30
0.0
 10
7.2245862838
 20
5.2840507237
 30
0.0
 10
7.2248109099
 20
5.2840672629
 30
0.0
 10
7.2249549573
 20
5.2840831873
 30
0.0
 10
7.2250363777
 20
5.2840951796
 30
0.0
 10
7.2251000493
 20
5.2841076469
 30
0.0
 10
7.2251459993
 20
5.2841217534
 30
0.0
 10
7.225175785
 20
5.2841348687
 30
0.0
 10
7.2251871057
 20
5.2841501654
 30
0.0
 10
7.2251871118
 20
5.284156491
 30
0.0
  0
SPLINE
  5
3FE
100
AcDbEntity
  8
ALL_ASSEMBLY_MEMBERS
100
AcDbSpline
 62
7
  6
CONTINUOUS
 70
0
 71
3
 72
27
 73
23
 74
0
 42
0.0000001
 43
0.0000001
 44
0.0000000001
 40
0.0
 40
0.0
 40
0.0
 40
0.0
 40
0.1950374686
 40
0.3833619823
 40
0.4725613357
 40
0.5572038882
 40
0.6363483282
 40
0.7091073946
 40
0.7747222167
 40
0.8324958909
 40
0.8819229514
 40
0.9033717595
 40
0.9225886098
 40
0.9395626885
 40
0.9542911839
 40
0.966781307
 40
0.9770604782
 40
0.9852109585
 40
0.9914096164
 40
0.9960414872
 40
0.998032713
 40
1.0
 40
1.0
 40
1.0
 40
1.0
 10
6.6136976207
 20
6.1648640394
 30
0.0
 10
6.6117645868
 20
6.1650216961
 30
0.0
 10
6.6079628031
 20
6.1653048058
 30
0.0
 10
6.6032713802
 20
6.1655785995
 30
0.0
 10
6.5996734642
 20
6.1657377507
 30
0.0
 10
6.5971591677
 20
6.1658231285
 30
0.0
 10
6.5948074771
 20
6.1658756321
 30
0.0
 10
6.5926444787
 20
6.1658942327
 30
0.0
 10
6.5906939302
 20
6.1658791999
 30
0.0
 10
6.588976014
 20
6.1658304872
 30
0.0
 10
6.5876983882
 20
6.1657604189
 30
0.0
 10
6.5868056158
 20
6.165685079
 30
0.0
 10
6.5862356994
 20
6.1656235011
 30
0.0
 10
6.5857339906
 20
6.1655544877
 30
0.0
 10
6.5853010561
 20
6.165478334
 30
0.0
 10
6.5849373067
 20
6.1653953235
 30
0.0
 10
6.5846427942
 20
6.1653059082
 30
0.0
 10
6.5844166468
 20
6.1652098234
 30
0.0
 10
6.5842565556
 20
6.1651080722
 30
0.0
 10
6.5841718237
 20
6.1650068194
 30
0.0
 10
6.5841485594
 20
6.1649233214
 30
0.0
 10
6.5841499997
 20
6.1648833065
 30
0.0
 10
6.5841533881
 20
6.1648640394
 30
0.0
  0
SPLINE
  5
3FF
100
AcDbEntity
  8
ALL_ASSEMBLY_MEMBERS
100
AcDbSpline
 62
7
  6
CONTINUOUS
 70
0
 71
3
 72
26
 73
22
 74
0
 42
0.0000001
 43
0.0000001
 44
0.0000000001
 40
0.0
 40
0.0
 40
0.0
 40
0.0
 40
0.1904266306
 40
0.3754514495
 40
0.463420024
 40
0.5468799109
 40
0.6247083221
 40
0.6958866661
 40
0.7595398881
 40
0.7883586128
 40
0.8150870947
 40
0.8621936272
 40
0.9010102223
 40
0.9174894448
 40
0.932198466
 40
0.9453478833
 40
0.9572171165
 40
0.9681715616
 40
0.9786503596
 40
0.9891164784
 40
1.0
 40
1.0
 40
1.0
 40
1.0
 10
6.757066535
 20
5.3517785218
 30
0.0
 10
6.7551372827
 20
5.3522397149
 30
0.0
 10
6.7513144641
 20
5.3530710514
 30
0.0
 10
6.746556107
 20
5.353895523
 30
0.0
 10
6.7428747511
 20
5.3543831267
 30
0.0
 10
6.7402913783
 20
5.3546475317
 30
0.0
 10
6.7378747793
 20
5.3548107359
 30
0.0
 10
6.7356596727
 20
5.3548698676
 30
0.0
 10
6.7339544094
 20
5.3548295625
 30
0.0
 10
6.7327157895
 20
5.3547390274
 30
0.0
 10
6.7316527681
 20
5.3546212192
 30
0.0
 10
6.7304950174
 20
5.3544207701
 30
0.0
 10
6.7294674806
 20
5.3541187794
 30
0.0
 10
6.7288010956
 20
5.3538199161
 30
0.0
 10
6.7284014841
 20
5.353586211
 30
0.0
 10
6.7280737068
 20
5.3533311978
 30
0.0
 10
6.7278176787
 20
5.3530548784
 30
0.0
 10
6.7276339799
 20
5.3527577251
 30
0.0
 10
6.7275228387
 20
5.3524417057
 30
0.0
 10
6.7274835678
 20
5.352110004
 30
0.0
 10
6.727503231
 20
5.3518868804
 30
0.0
 10
6.7275228835
 20
5.3517752267
 30
0.0
  0
SPLINE
  5
400
100
AcDbEntity
  8
ALL_ASSEMBLY_MEMBERS
100
AcDbSpline
 62
7
  6
CONTINUOUS
 70
0
 71
3
 72
27
 73
23
 74
0
 42
0.0000001
 43
0.0000001
 44
0.0000000001
 40
0.0
 40
0.0
 40
0.0
 40
0.0
 40
0.0019670645
 40
0.003958246
 40
0.00859045
 40
0.0147894679
 40
0.0229397605
 40
0.0332177464
 40
0.0457056253
 40
0.0604312977
 40
0.0774024884
 40
0.0966168868
 40
0.1180628742
 40
0.1674792631
 40
0.2252468376
 40
0.2908563888
 40
0.3636129932
 40
0.4427618668
 40
0.5274095316
 40
0.6166188984
 40
0.8049637462
 40
1.0
 40
1.0
 40
1.0
 40
1.0
 10
7.3272208355
 20
6.1648640394
 30
0.0
 10
7.3272242241
 20
6.1648833042
 30
0.0
 10
7.3272256626
 20
6.1649233169
 30
0.0
 10
7.3272023892
 20
6.1650068131
 30
0.0
 10
7.3271176477
 20
6.1651080644
 30
0.0
 10
7.326957557
 20
6.165209824
 30
0.0
 10
7.3267314238
 20
6.1653059169
 30
0.0
 10
7.3264369493
 20
6.1653953334
 30
0.0
 10
7.3260732615
 20
6.1654783351
 30
0.0
 10
7.3256404049
 20
6.1655544741
 30
0.0
 10
7.325138776
 20
6.165623472
 30
0.0
 10
7.32456894
 20
6.1656850356
 30
0.0
 10
7.3236763266
 20
6.1657603694
 30
0.0
 10
7.3223988987
 20
6.1658304794
 30
0.0
 10
7.3206812015
 20
6.1658791804
 30
0.0
 10
7.3187307915
 20
6.1658942349
 30
0.0
 10
7.3165678263
 20
6.1658756484
 30
0.0
 10
7.314216066
 20
6.1658231448
 30
0.0
 10
7.3117015744
 20
6.1657378009
 30
0.0
 10
7.3081033076
 20
6.1655786207
 30
0.0
 10
7.3034115983
 20
6.1653047951
 30
0.0
 10
7.2996096222
 20
6.1650217187
 30
0.0
 10
7.2976766029
 20
6.1648640394
 30
0.0
  0
SPLINE
  5
401
100
AcDbEntity
  8
ALL_ASSEMBLY_MEMBERS
100
AcDbSpline
 62
7
  6
CONTINUOUS
 70
0
 71
3
 72
27
 73
23
 74
0
 42
0.0000001
 43
0.0000001
 44
0.0000000001
 40
0.0
 40
0.0
 40
0.0
 40
0.0
 40
0.0108537313
 40
0.0212993571
 40
0.0317652954
 40
0.0427116754
 40
0.0545738082
 40
0.0677147655
 40
0.0824159129
 40
0.0988911157
 40
0.1172961786
 40
0.1377207915
 40
0.1848154633
 40
0.2115450748
 40
0.2403556221
 40
0.3039999366
 40
0.3751781884
 40
0.4530075486
 40
0.5364795849
 40
0.6244571989
 40
0.8095356121
 40
1.0
 40
1.0
 40
1.0
 40
1.0
 10
7.183852063
 20
5.3517793261
 30
0.0
 10
7.1838717143
 20
5.3518906568
 30
0.0
 10
7.18389133
 20
5.3521132533
 30
0.0
 10
7.1838519202
 20
5.3524442573
 30
0.0
 10
7.1837406469
 20
5.352759747
 30
0.0
 10
7.1835568528
 20
5.3530564632
 30
0.0
 10
7.1833008505
 20
5.353332419
 30
0.0
 10
7.182973251
 20
5.3535872098
 30
0.0
 10
7.1825737927
 20
5.353820686
 30
0.0
 10
7.1821018592
 20
5.3540323675
 30
0.0
 10
7.1815571148
 20
5.3542215294
 30
0.0
 10
7.1806922474
 20
5.3544540139
 30
0.0
 10
7.179722797
 20
5.3546212026
 30
0.0
 10
7.178660189
 20
5.3547387968
 30
0.0
 10
7.1774217844
 20
5.3548294271
 30
0.0
 10
7.1757168449
 20
5.3548697109
 30
0.0
 10
7.1735019647
 20
5.3548109039
 30
0.0
 10
7.1710853795
 20
5.3546480308
 30
0.0
 10
7.1685019248
 20
5.3543839412
 30
0.0
 10
7.1648200064
 20
5.3538966665
 30
0.0
 10
7.1600608457
 20
5.3530725211
 30
0.0
 10
7.1562375829
 20
5.3522401598
 30
0.0
 10
7.1543078955
 20
5.3517796957
 30
0.0
  0
SPLINE
  5
402
100
AcDbEntity
  8
ALL_ASSEMBLY_MEMBERS
100
AcDbSpline
 62
7
  6
CONTINUOUS
 70
0
 71
3
 72
12
 73
8
 74
0
 42
0.0000001
 43
0.0000001
 44
0.0000000001
 40
0.0
 40
0.0
 40
0.0
 40
0.0
 40
0.1250018308
 40
0.2500033477
 40
0.5000001781
 40
0.7500053737
 40
1.0
 40
1.0
 40
1.0
 40
1.0
 10
7.154309798
 20
5.2867221119
 30
0.0
 10
7.1560168381
 20
5.2867219414
 30
0.0
 10
7.159431085
 20
5.2866744185
 30
0.0
 10
7.1662542478
 20
5.2863973819
 30
0.0
 10
7.1747672268
 20
5.2857577928
 30
0.0
 10
7.1849651731
 20
5.2848158988
 30
0.0
 10
7.1917769599
 20
5.2843182932
 30
0.0
 10
7.1951871118
 20
5.2841571535
 30
0.0
  0
SPLINE
  5
403
100
AcDbEntity
  8
ALL_ASSEMBLY_MEMBERS
100
AcDbSpline
 62
7
  6
CONTINUOUS
 70
0
 71
3
 72
12
 73
8
 74
0
 42
0.0000001
 43
0.0000001
 44
0.0000000001
 40
0.0
 40
0.0
 40
0.0
 40
0.0
 40
0.2510016681
 40
0.5014375956
 40
0.626342519
 40
0.7510477973
 40
1.0
 40
1.0
 40
1.0
 40
1.0
 10
7.1543105114
 20
5.3010327629
 30
0.0
 10
7.1577939112
 20
5.3010324237
 30
0.0
 10
7.1647534915
 20
5.3009036239
 30
0.0
 10
7.1734351726
 20
5.3004554895
 30
0.0
 10
7.1803605988
 20
5.300011395
 30
0.0
 10
7.1872640744
 20
5.2995496384
 30
0.0
 10
7.1924413468
 20
5.2992414093
 30
0.0
 10
7.1958937707
 20
5.299109122
 30
0.0
  0
SPLINE
  5
404
100
AcDbEntity
  8
ALL_ASSEMBLY_MEMBERS
100
AcDbSpline
 62
7
  6
CONTINUOUS
 70
0
 71
3
 72
27
 73
23
 74
0
 42
0.0000001
 43
0.0000001
 44
0.0000000001
 40
0.0
 40
0.0
 40
0.0
 40
0.0
 40
0.1841902293
 40
0.3666350457
 40
0.5390974264
 40
0.6192316318
 40
0.693893673
 40
0.7620683597
 40
0.8229413666
 40
0.8757383857
 40
0.9198293267
 40
0.9384380064
 40
0.9546634043
 40
0.9684452975
 40
0.9797587056
 40
0.9885872565
 40
0.9920645934
 40
0.9949145748
 40
0.9971351535
 40
0.9987242817
 40
0.999679912
 40
1.0
 40
1.0
 40
1.0
 40
1.0
 10
7.2111566075
 20
5.2991084701
 30
0.0
 10
7.2113951798
 20
5.2991751471
 30
0.0
 10
7.2118601069
 20
5.299343926
 30
0.0
 10
7.212515253
 20
5.2996558407
 30
0.0
 10
7.2130255791
 20
5.2999427148
 30
0.0
 10
7.2134016103
 20
5.3001714508
 30
0.0
 10
7.2136550276
 20
5.3003317957
 30
0.0
 10
7.2138846261
 20
5.300481279
 30
0.0
 10
7.214087971
 20
5.3006171584
 30
0.0
 10
7.2142631216
 20
5.3007369082
 30
0.0
 10
7.2143905474
 20
5.3008257365
 30
0.0
 10
7.2144773085
 20
5.3008868868
 30
0.0
 10
7.2145306639
 20
5.3009246763
 30
0.0
 10
7.2145759918
 20
5.3009568289
 30
0.0
 10
7.2146131728
 20
5.3009832603
 30
0.0
 10
7.2146390762
 20
5.3010016672
 30
0.0
 10
7.2146556383
 20
5.3010135165
 30
0.0
 10
7.2146650725
 20
5.3010201536
 30
0.0
 10
7.2146721643
 20
5.3010254622
 30
0.0
 10
7.2146778226
 20
5.3010289575
 30
0.0
 10
7.2146801704
 20
5.301031612
 30
0.0
 10
7.214682377
 20
5.3010321884
 30
0.0
 10
7.2146823886
 20
5.3010326187
 30
0.0
  0
SPLINE
  5
405
100
AcDbEntity
  8
ALL_ASSEMBLY_MEMBERS
100
AcDbSpline
 62
7
  6
CONTINUOUS
 70
0
 71
3
 72
20
 73
16
 74
0
 42
0.0000001
 43
0.0000001
 44
0.0000000001
 40
0.0
 40
0.0
 40
0.0
 40
0.0
 40
0.1840803172
 40
0.3585897843
 40
0.5192395107
 40
0.6626486854
 40
0.7268674171
 40
0.7855798033
 40
0.8384044838
 40
0.8849402036
 40
0.9247743929
 40
0.9574964711
 40
0.9826853277
 40
0.9923409732
 40
1.0
 40
1.0
 40
1.0
 40
1.0
 10
7.1958937707
 20
5.299109122
 30
0.0
 10
7.1968300967
 20
5.2990732633
 30
0.0
 10
7.1986548749
 20
5.2990242915
 30
0.0
 10
7.2012977285
 20
5.2989895554
 30
0.0
 10
7.2037337342
 20
5.2989763686
 30
0.0
 10
7.205608355
 20
5.2989739187
 30
0.0
 10
7.2069640907
 20
5.2989749806
 30
0.0
 10
7.2078587253
 20
5.2989776958
 30
0.0
 10
7.2086633432
 20
5.2989825667
 30
0.0
 10
7.209371826
 20
5.298990852
 30
0.0
 10
7.2099779271
 20
5.2990042809
 30
0.0
 10
7.2104750369
 20
5.2990245259
 30
0.0
 10
7.2108182863
 20
5.2990500639
 30
0.0
 10
7.2110326057
 20
5.2990800191
 30
0.0
 10
7.2111190543
 20
5.2990979971
 30
0.0
 10
7.2111566075
 20
5.2991084701
 30
0.0
  0
SPLINE
  5
406
100
AcDbEntity
  8
ALL_ASSEMBLY_MEMBERS
100
AcDbSpline
 62
7
  6
CONTINUOUS
 70
0
 71
3
 72
19
 73
15
 74
0
 42
0.0000001
 43
0.0000001
 44
0.0000000001
 40
0.0
 40
0.0
 40
0.0
 40
0.0
 40
0.007663745
 40
0.0173263013
 40
0.0425256946
 40
0.0752388668
 40
0.115046363
 40
0.1615448409
 40
0.2143291087
 40
0.3372148625
 40
0.4806063861
 40
0.641272153
 40
0.8158845566
 40
1.0
 40
1.0
 40
1.0
 40
1.0
 10
6.7002159546
 20
5.2991085466
 30
0.0
 10
6.7002535531
 20
5.2990981214
 30
0.0
 10
6.7003400967
 20
5.2990802399
 30
0.0
 10
6.7005545911
 20
5.2990504561
 30
0.0
 10
6.7008979486
 20
5.2990250434
 30
0.0
 10
6.701395013
 20
5.2990046833
 30
0.0
 10
6.7020008489
 20
5.2989912254
 30
0.0
 10
6.702708922
 20
5.2989827869
 30
0.0
 10
6.7038399928
 20
5.2989754483
 30
0.0
 10
6.705464379
 20
5.2989731776
 30
0.0
 10
6.7076379998
 20
5.2989762347
 30
0.0
 10
6.7100749452
 20
5.2989898358
 30
0.0
 10
6.712719044
 20
5.299024579
 30
0.0
 10
6.714544849
 20
5.2990733689
 30
0.0
 10
6.7154815215
 20
5.2991091352
 30
0.0
  0
SPLINE
  5
407
100
AcDbEntity
  8
ALL_ASSEMBLY_MEMBERS
100
AcDbSpline
 62
7
  6
CONTINUOUS
 70
0
 71
3
 72
28
 73
24
 74
0
 42
0.0000001
 43
0.0000001
 44
0.0000000001
 40
0.0
 40
0.0
 40
0.0
 40
0.0
 40
0.000310734
 40
0.0012582386
 40
0.0028415614
 40
0.0050596636
 40
0.0079114973
 40
0.0113960119
 40
0.0202576185
 40
0.0316144279
 40
0.0454199229
 40
0.0616272211
 40
0.0801898782
 40
0.1241983289
 40
0.1770162602
 40
0.2379940242
 40
0.3062765447
 40
0.3808540477
 40
0.4608563356
 40
0.5454444554
 40
0.6336055588
 40
0.8161554145
 40
1.0
 40
1.0
 40
1.0
 40
1.0
 10
6.69669185
 20
5.3010329235
 30
0.0
 10
6.6966918386
 20
5.3010333411
 30
0.0
 10
6.6966941267
 20
5.3010308022
 30
0.0
 10
6.6966963642
 20
5.3010301231
 30
0.0
 10
6.6967020624
 20
5.3010255356
 30
0.0
 10
6.696709112
 20
5.3010207152
 30
0.0
 10
6.6967185436
 20
5.3010138618
 30
0.0
 10
6.696735102
 20
5.3010020195
 30
0.0
 10
6.6967610117
 20
5.3009833831
 30
0.0
 10
6.6967981837
 20
5.3009567622
 30
0.0
 10
6.6968434752
 20
5.3009244678
 30
0.0
 10
6.6968967596
 20
5.3008867144
 30
0.0
 10
6.6969833866
 20
5.3008257776
 30
0.0
 10
6.6971108303
 20
5.3007373219
 30
0.0
 10
6.6972862184
 20
5.3006179473
 30
0.0
 10
6.697489779
 20
5.3004819804
 30
0.0
 10
6.6977192155
 20
5.3003321067
 30
0.0
 10
6.6979721027
 20
5.3001713963
 30
0.0
 10
6.6982467031
 20
5.3000040605
 30
0.0
 10
6.6985412492
 20
5.2998345348
 30
0.0
 10
6.6989618069
 20
5.2996079086
 30
0.0
 10
6.6995135349
 20
5.2993440646
 30
0.0
 10
6.6999778313
 20
5.2991747874
 30
0.0
 10
6.7002159546
 20
5.2991085466
 30
0.0
  0
SPLINE
  5
408
100
AcDbEntity
  8
ALL_ASSEMBLY_MEMBERS
100
AcDbSpline
 62
7
  6
CONTINUOUS
 70
0
 71
3
 72
13
 73
9
 74
0
 42
0.0000001
 43
0.0000001
 44
0.0000000001
 40
0.0
 40
0.0
 40
0.0
 40
0.0
 40
0.2489497955
 40
0.3736483076
 40
0.4985522775
 40
0.6236735043
 40
0.7489909889
 40
1.0
 40
1.0
 40
1.0
 40
1.0
 10
6.7154815215
 20
5.2991091352
 30
0.0
 10
6.7189341707
 20
5.2992410636
 30
0.0
 10
6.7241116364
 20
5.2995503307
 30
0.0
 10
6.731015493
 20
5.3000113991
 30
0.0
 10
6.7362056974
 20
5.3003436238
 30
0.0
 10
6.7414070042
 20
5.3006354492
 30
0.0
 10
6.7483602837
 20
5.3009345007
 30
0.0
 10
6.7535837879
 20
5.3010328765
 30
0.0
 10
6.7570675365
 20
5.3010329572
 30
0.0
  0
SPLINE
  5
409
100
AcDbEntity
  8
ALL_ASSEMBLY_MEMBERS
100
AcDbSpline
 62
7
  6
CONTINUOUS
 70
0
 71
3
 72
14
 73
10
 74
0
 42
0.0000001
 43
0.0000001
 44
0.0000000001
 40
0.0
 40
0.0
 40
0.0
 40
0.0
 40
0.125000862
 40
0.2500013044
 40
0.3750019094
 40
0.5000029358
 40
0.625004285
 40
0.7500052986
 40
1.0
 40
1.0
 40
1.0
 40
1.0
 10
3.2168068038
 20
5.2867221925
 30
0.0
 10
3.21851397
 20
5.2867223451
 30
0.0
 10
3.221928489
 20
5.2866747031
 30
0.0
 10
3.2270462107
 20
5.2864657956
 30
0.0
 10
3.23215787
 20
5.2861431653
 30
0.0
 10
3.237263228
 20
5.2857353746
 30
0.0
 10
3.2423651053
 20
5.2852868272
 30
0.0
 10
3.2491675919
 20
5.2846930745
 30
0.0
 10
3.2542766533
 20
5.2843171344
 30
0.0
 10
3.2576871118
 20
5.2841565598
 30
0.0
  0
SPLINE
  5
40A
100
AcDbEntity
  8
ALL_ASSEMBLY_MEMBERS
100
AcDbSpline
 62
7
  6
CONTINUOUS
 70
0
 71
3
 72
30
 73
26
 74
0
 42
0.0000001
 43
0.0000001
 44
0.0000000001
 40
0.0
 40
0.0
 40
0.0
 40
0.0
 40
0.0006329207
 40
0.0016759382
 40
0.0032575754
 40
0.0054103258
 40
0.0081450783
 40
0.011465912
 40
0.0198694527
 40
0.0306196289
 40
0.0437048708
 40
0.0590932654
 40
0.0767418628
 40
0.0966069547
 40
0.1186444714
 40
0.1690413959
 40
0.2274317149
 40
0.2932585044
 40
0.3659038372
 40
0.4446395376
 40
0.5287217576
 40
0.6173638308
 40
0.7097535204
 40
0.8050384367
 40
1.0
 40
1.0
 40
1.0
 40
1.0
 10
2.7486871118
 20
5.2841569707
 30
0.0
 10
2.7486871162
 20
5.2841506368
 30
0.0
 10
2.748698377
 20
5.2841353154
 30
0.0
 10
2.7487281143
 20
5.2841221275
 30
0.0
 10
2.7487739675
 20
5.2841079689
 30
0.0
 10
2.7488375193
 20
5.2840954355
 30
0.0
 10
2.7489187956
 20
5.2840833776
 30
0.0
 10
2.7490626253
 20
5.2840673514
 30
0.0
 10
2.7492869752
 20
5.284050691
 30
0.0
 10
2.7496092182
 20
5.2840347194
 30
0.0
 10
2.7500015358
 20
5.2840214538
 30
0.0
 10
2.7504629755
 20
5.2840105801
 30
0.0
 10
2.7509923193
 20
5.28400185
 30
0.0
 10
2.7515882337
 20
5.2839949559
 30
0.0
 10
2.7525118833
 20
5.2839874927
 30
0.0
 10
2.7538210893
 20
5.2839816245
 30
0.0
 10
2.7555685196
 20
5.2839782941
 30
0.0
 10
2.7575386014
 20
5.2839774813
 30
0.0
 10
2.7597122873
 20
5.2839786114
 30
0.0
 10
2.7620686598
 20
5.2839825288
 30
0.0
 10
2.7645851118
 20
5.2839895995
 30
0.0
 10
2.7672381875
 20
5.2840017881
 30
0.0
 10
2.7700033339
 20
5.2840216205
 30
0.0
 10
2.7738323178
 20
5.2840616813
 30
0.0
 10
2.7767365928
 20
5.2841107558
 30
0.0
 10
2.7786871118
 20
5.2841566388
 30
0.0
  0
SPLINE
  5
40B
100
AcDbEntity
  8
ALL_ASSEMBLY_MEMBERS
100
AcDbSpline
 62
7
  6
CONTINUOUS
 70
0
 71
3
 72
30
 73
26
 74
0
 42
0.0000001
 43
0.0000001
 44
0.0000000001
 40
0.0
 40
0.0
 40
0.0
 40
0.0
 40
0.1948858485
 40
0.290079483
 40
0.3823979371
 40
0.4710057885
 40
0.5550842635
 40
0.6338433624
 40
0.7065060878
 40
0.7723557808
 40
0.8307855416
 40
0.8812110775
 40
0.903271455
 40
0.9231636581
 40
0.9408382287
 40
0.956246052
 40
0.9693418867
 40
0.9801029538
 40
0.988517791
 40
0.9918438753
 40
0.9945833048
 40
0.9967398985
 40
0.998324227
 40
0.9993683122
 40
1.0
 40
1.0
 40
1.0
 40
1.0
 10
3.2576871118
 20
5.2841565598
 30
0.0
 10
3.2596368681
 20
5.2841108486
 30
0.0
 10
3.262539464
 20
5.2840621197
 30
0.0
 10
3.2663660476
 20
5.2840222212
 30
0.0
 10
3.2691292129
 20
5.2840024344
 30
0.0
 10
3.2717811828
 20
5.2839901076
 30
0.0
 10
3.274297476
 20
5.2839824918
 30
0.0
 10
3.2766542084
 20
5.2839784423
 30
0.0
 10
3.2788285216
 20
5.2839770544
 30
0.0
 10
3.2807993927
 20
5.2839777111
 30
0.0
 10
3.2825477247
 20
5.2839812689
 30
0.0
 10
3.2838578347
 20
5.2839871491
 30
0.0
 10
3.284782265
 20
5.2839948211
 30
0.0
 10
3.2853789345
 20
5.2840019136
 30
0.0
 10
3.2859089983
 20
5.284010845
 30
0.0
 10
3.2863709925
 20
5.2840218819
 30
0.0
 10
3.2867637149
 20
5.2840352309
 30
0.0
 10
3.2870862831
 20
5.2840512303
 30
0.0
 10
3.2873109079
 20
5.2840678767
 30
0.0
 10
3.287454954
 20
5.2840838664
 30
0.0
 10
3.2875363747
 20
5.2840958934
 30
0.0
 10
3.2876000454
 20
5.2841083841
 30
0.0
 10
3.2876459968
 20
5.2841225033
 30
0.0
 10
3.287675775
 20
5.2841356163
 30
0.0
 10
3.2876871051
 20
5.284150902
 30
0.0
 10
3.2876871118
 20
5.2841572235
 30
0.0
  0
SPLINE
  5
40C
100
AcDbEntity
  8
ALL_ASSEMBLY_MEMBERS
100
AcDbSpline
 62
7
  6
CONTINUOUS
 70
0
 71
3
 72
27
 73
23
 74
0
 42
0.0000001
 43
0.0000001
 44
0.0000000001
 40
0.0
 40
0.0
 40
0.0
 40
0.0
 40
0.0019670645
 40
0.003958246
 40
0.00859045
 40
0.0147894679
 40
0.0229397605
 40
0.0332177464
 40
0.0457056253
 40
0.0604312977
 40
0.0774024884
 40
0.0966168868
 40
0.1180628742
 40
0.1674792631
 40
0.2252468376
 40
0.2908563888
 40
0.3636129932
 40
0.4427618668
 40
0.5274095316
 40
0.6166188984
 40
0.8049637462
 40
1.0
 40
1.0
 40
1.0
 40
1.0
 10
3.3897208355
 20
6.1648640394
 30
0.0
 10
3.3897242241
 20
6.1648833042
 30
0.0
 10
3.3897256626
 20
6.1649233169
 30
0.0
 10
3.3897023892
 20
6.1650068131
 30
0.0
 10
3.3896176477
 20
6.1651080644
 30
0.0
 10
3.389457557
 20
6.165209824
 30
0.0
 10
3.3892314238
 20
6.1653059169
 30
0.0
 10
3.3889369493
 20
6.1653953334
 30
0.0
 10
3.3885732615
 20
6.1654783351
 30
0.0
 10
3.3881404049
 20
6.1655544741
 30
0.0
 10
3.387638776
 20
6.165623472
 30
0.0
 10
3.38706894
 20
6.1656850356
 30
0.0
 10
3.3861763266
 20
6.1657603694
 30
0.0
 10
3.3848988987
 20
6.1658304794
 30
0.0
 10
3.3831812015
 20
6.1658791804
 30
0.0
 10
3.3812307915
 20
6.1658942349
 30
0.0
 10
3.3790678263
 20
6.1658756484
 30
0.0
 10
3.376716066
 20
6.1658231448
 30
0.0
 10
3.3742015744
 20
6.1657378009
 30
0.0
 10
3.3706033076
 20
6.1655786207
 30
0.0
 10
3.3659115983
 20
6.1653047951
 30
0.0
 10
3.3621096222
 20
6.1650217187
 30
0.0
 10
3.3601766029
 20
6.1648640394
 30
0.0
  0
SPLINE
  5
40D
100
AcDbEntity
  8
ALL_ASSEMBLY_MEMBERS
100
AcDbSpline
 62
7
  6
CONTINUOUS
 70
0
 71
3
 72
27
 73
23
 74
0
 42
0.0000001
 43
0.0000001
 44
0.0000000001
 40
0.0
 40
0.0
 40
0.0
 40
0.0
 40
0.01088082
 40
0.0213256961
 40
0.0317776028
 40
0.0427101054
 40
0.0545663057
 40
0.0677071557
 40
0.0824104123
 40
0.0988875946
 40
0.1172943691
 40
0.137721045
 40
0.1848179938
 40
0.2115485569
 40
0.2403608368
 40
0.3040060101
 40
0.3751849964
 40
0.4530142526
 40
0.5364857345
 40
0.6244662613
 40
0.8095468709
 40
1.0
 40
1.0
 40
1.0
 40
1.0
 10
3.2463519847
 20
5.3517788824
 30
0.0
 10
3.246371674
 20
5.3518904977
 30
0.0
 10
3.2463914104
 20
5.3521133653
 30
0.0
 10
3.2463520205
 20
5.3524445331
 30
0.0
 10
3.2462405778
 20
5.3527596806
 30
0.0
 10
3.2460565645
 20
5.3530558573
 30
0.0
 10
3.2458004909
 20
5.3533314608
 30
0.0
 10
3.2454728658
 20
5.3535861657
 30
0.0
 10
3.2450733903
 20
5.3538197238
 30
0.0
 10
3.2446014347
 20
5.3540315568
 30
0.0
 10
3.2440566348
 20
5.3542208194
 30
0.0
 10
3.2431916875
 20
5.3544533902
 30
0.0
 10
3.2422221646
 20
5.354620703
 30
0.0
 10
3.2411594807
 20
5.3547384789
 30
0.0
 10
3.2399210024
 20
5.3548292985
 30
0.0
 10
3.2382159637
 20
5.3548698619
 30
0.0
 10
3.236000971
 20
5.3548111378
 30
0.0
 10
3.2335842933
 20
5.3546481079
 30
0.0
 10
3.2310007575
 20
5.3543835175
 30
0.0
 10
3.2273187182
 20
5.3538957002
 30
0.0
 10
3.2225594472
 20
5.3530712032
 30
0.0
 10
3.2187366985
 20
5.3522361873
 30
0.0
 10
3.2168071329
 20
5.3517753703
 30
0.0
  0
SPLINE
  5
40E
100
AcDbEntity
  8
ALL_ASSEMBLY_MEMBERS
100
AcDbSpline
 62
7
  6
CONTINUOUS
 70
0
 71
3
 72
27
 73
23
 74
0
 42
0.0000001
 43
0.0000001
 44
0.0000000001
 40
0.0
 40
0.0
 40
0.0
 40
0.0
 40
0.1950374686
 40
0.3833619823
 40
0.4725613357
 40
0.5572038882
 40
0.6363483282
 40
0.7091073946
 40
0.7747222167
 40
0.8324958909
 40
0.8819229514
 40
0.9033717595
 40
0.9225886098
 40
0.9395626885
 40
0.9542911839
 40
0.966781307
 40
0.9770604782
 40
0.9852109585
 40
0.9914096164
 40
0.9960414872
 40
0.998032713
 40
1.0
 40
1.0
 40
1.0
 40
1.0
 10
2.6761976207
 20
6.1648640394
 30
0.0
 10
2.6742645868
 20
6.1650216961
 30
0.0
 10
2.6704628031
 20
6.1653048058
 30
0.0
 10
2.6657713802
 20
6.1655785995
 30
0.0
 10
2.6621734642
 20
6.1657377507
 30
0.0
 10
2.6596591677
 20
6.1658231285
 30
0.0
 10
2.6573074771
 20
6.1658756321
 30
0.0
 10
2.6551444787
 20
6.1658942327
 30
0.0
 10
2.6531939302
 20
6.1658791999
 30
0.0
 10
2.651476014
 20
6.1658304872
 30
0.0
 10
2.6501983882
 20
6.1657604189
 30
0.0
 10
2.6493056158
 20
6.165685079
 30
0.0
 10
2.6487356994
 20
6.1656235011
 30
0.0
 10
2.6482339906
 20
6.1655544877
 30
0.0
 10
2.6478010561
 20
6.165478334
 30
0.0
 10
2.6474373067
 20
6.1653953235
 30
0.0
 10
2.6471427942
 20
6.1653059082
 30
0.0
 10
2.6469166468
 20
6.1652098234
 30
0.0
 10
2.6467565556
 20
6.1651080722
 30
0.0
 10
2.6466718237
 20
6.1650068194
 30
0.0
 10
2.6466485594
 20
6.1649233214
 30
0.0
 10
2.6466499997
 20
6.1648833065
 30
0.0
 10
2.6466533881
 20
6.1648640394
 30
0.0
  0
SPLINE
  5
40F
100
AcDbEntity
  8
ALL_ASSEMBLY_MEMBERS
100
AcDbSpline
 62
7
  6
CONTINUOUS
 70
0
 71
3
 72
26
 73
22
 74
0
 42
0.0000001
 43
0.0000001
 44
0.0000000001
 40
0.0
 40
0.0
 40
0.0
 40
0.0
 40
0.1904372854
 40
0.375476996
 40
0.463452649
 40
0.5469181878
 40
0.6247522745
 40
0.695937368
 40
0.7595983869
 40
0.7884216694
 40
0.815155116
 40
0.8622679589
 40
0.9010883834
 40
0.9175679245
 40
0.9322759759
 40
0.9454231852
 40
0.9572881244
 40
0.9682339912
 40
0.9786978461
 40
0.9891425185
 40
1.0
 40
1.0
 40
1.0
 40
1.0
 10
2.8195662968
 20
5.3517798732
 30
0.0
 10
2.8176367897
 20
5.3522395373
 30
0.0
 10
2.8138145298
 20
5.3530724354
 30
0.0
 10
2.809056244
 20
5.3538964845
 30
0.0
 10
2.8053749732
 20
5.3543837655
 30
0.0
 10
2.8027916683
 20
5.3546479306
 30
0.0
 10
2.8003751262
 20
5.3548108234
 30
0.0
 10
2.7981600483
 20
5.3548697296
 30
0.0
 10
2.7964547782
 20
5.354829402
 30
0.0
 10
2.7952161074
 20
5.3547389812
 30
0.0
 10
2.7941530161
 20
5.3546213822
 30
0.0
 10
2.7929951839
 20
5.3544212728
 30
0.0
 10
2.7919675396
 20
5.3541196736
 30
0.0
 10
2.7913011017
 20
5.3538210421
 30
0.0
 10
2.7909014772
 20
5.3535875227
 30
0.0
 10
2.7905736669
 20
5.353332762
 30
0.0
 10
2.7903175345
 20
5.3530568248
 30
0.0
 10
2.7901336224
 20
5.3527601996
 30
0.0
 10
2.7900222285
 20
5.3524448023
 30
0.0
 10
2.7899827648
 20
5.3521138033
 30
0.0
 10
2.7900024039
 20
5.3518911855
 30
0.0
 10
2.790022073
 20
5.3517798228
 30
0.0
  0
SPLINE
  5
410
100
AcDbEntity
  8
ALL_ASSEMBLY_MEMBERS
100
AcDbSpline
 62
7
  6
CONTINUOUS
 70
0
 71
3
 72
15
 73
11
 74
0
 42
0.0000001
 43
0.0000001
 44
0.0000000001
 40
0.0
 40
0.0
 40
0.0
 40
0.0
 40
0.1255426616
 40
0.2510054774
 40
0.376319517
 40
0.5014366017
 40
0.6263438984
 40
0.7510430891
 40
0.8755739594
 40
1.0
 40
1.0
 40
1.0
 40
1.0
 10
3.216806212
 20
5.3010329215
 30
0.0
 10
3.2185485983
 20
5.3010330679
 30
0.0
 10
3.2220323505
 20
5.3010010178
 30
0.0
 10
3.2272535369
 20
5.3008591714
 30
0.0
 10
3.2324659146
 20
5.3006358906
 30
0.0
 10
3.2376671318
 20
5.3003446312
 30
0.0
 10
3.2428571194
 20
5.300010288
 30
0.0
 10
3.2480383012
 20
5.2996662582
 30
0.0
 10
3.2532142629
 20
5.2993447305
 30
0.0
 10
3.2566655172
 20
5.2991744062
 30
0.0
 10
3.258391149
 20
5.2991085257
 30
0.0
  0
SPLINE
  5
411
100
AcDbEntity
  8
ALL_ASSEMBLY_MEMBERS
100
AcDbSpline
 62
7
  6
CONTINUOUS
 70
0
 71
3
 72
27
 73
23
 74
0
 42
0.0000001
 43
0.0000001
 44
0.0000000001
 40
0.0
 40
0.0
 40
0.0
 40
0.0
 40
0.1843437117
 40
0.3662975273
 40
0.5391046201
 40
0.6192632297
 40
0.6938863056
 40
0.7620345167
 40
0.8228984448
 40
0.8756930852
 40
0.9197817353
 40
0.9383910236
 40
0.9546195231
 40
0.9684069098
 40
0.979727094
 40
0.9885633172
 40
0.9920446947
 40
0.9948987765
 40
0.9971234551
 40
0.9987166209
 40
0.9996761646
 40
1.0
 40
1.0
 40
1.0
 40
1.0
 10
3.2736570407
 20
5.2991091774
 30
0.0
 10
3.273895942
 20
5.2991753446
 30
0.0
 10
3.2743610813
 20
5.2993423166
 30
0.0
 10
3.2750150202
 20
5.2996567461
 30
0.0
 10
3.275525098
 20
5.2999434504
 30
0.0
 10
3.2759021082
 20
5.3001713455
 30
0.0
 10
3.2761557016
 20
5.3003312565
 30
0.0
 10
3.2763849128
 20
5.3004811041
 30
0.0
 10
3.2765877805
 20
5.3006175558
 30
0.0
 10
3.276762827
 20
5.3007373819
 30
0.0
 10
3.2768904482
 20
5.3008258898
 30
0.0
 10
3.2769773747
 20
5.3008867887
 30
0.0
 10
3.2770308209
 20
5.3009244593
 30
0.0
 10
3.2770761746
 20
5.300956601
 30
0.0
 10
3.2771133347
 20
5.3009831005
 30
0.0
 10
3.2771391901
 20
5.3010016099
 30
0.0
 10
3.2771557096
 20
5.3010135542
 30
0.0
 10
3.2771651081
 20
5.3010202616
 30
0.0
 10
3.2771721887
 20
5.3010256266
 30
0.0
 10
3.277177791
 20
5.3010291941
 30
0.0
 10
3.2771801859
 20
5.3010318643
 30
0.0
 10
3.2771823267
 20
5.3010324946
 30
0.0
 10
3.2771823564
 20
5.3010329291
 30
0.0
  0
SPLINE
  5
412
100
AcDbEntity
  8
ALL_ASSEMBLY_MEMBERS
100
AcDbSpline
 62
7
  6
CONTINUOUS
 70
0
 71
3
 72
19
 73
15
 74
0
 42
0.0000001
 43
0.0000001
 44
0.0000000001
 40
0.0
 40
0.0
 40
0.0
 40
0.0
 40
0.1840762754
 40
0.3585505646
 40
0.5191809085
 40
0.662610321
 40
0.7855464036
 40
0.8383492641
 40
0.8848538214
 40
0.9246676265
 40
0.9573977304
 40
0.9826244612
 40
0.9923083017
 40
1.0
 40
1.0
 40
1.0
 40
1.0
 10
3.258391149
 20
5.2991085257
 30
0.0
 10
3.2593276461
 20
5.2990727939
 30
0.0
 10
3.2611526072
 20
5.2990244176
 30
0.0
 10
3.2637956967
 20
5.2989904703
 30
0.0
 10
3.2662320108
 20
5.2989771073
 30
0.0
 10
3.2684059517
 20
5.2989733031
 30
0.0
 10
3.2700309223
 20
5.2989749071
 30
0.0
 10
3.271162405
 20
5.2989819225
 30
0.0
 10
3.271870652
 20
5.2989905777
 30
0.0
 10
3.2724766418
 20
5.2990044572
 30
0.0
 10
3.2729739671
 20
5.2990250786
 30
0.0
 10
3.2733176417
 20
5.2990508312
 30
0.0
 10
3.2735325085
 20
5.2990808088
 30
0.0
 10
3.2736192945
 20
5.2990987489
 30
0.0
 10
3.2736570407
 20
5.2991091774
 30
0.0
  0
SPLINE
  5
413
100
AcDbEntity
  8
ALL_ASSEMBLY_MEMBERS
100
AcDbSpline
 62
7
  6
CONTINUOUS
 70
0
 71
3
 72
27
 73
23
 74
0
 42
0.0000001
 43
0.0000001
 44
0.0000000001
 40
0.0
 40
0.0
 40
0.0
 40
0.0
 40
0.0003219667
 40
0.0012736099
 40
0.0028550162
 40
0.0050662243
 40
0.0079072675
 40
0.0113781774
 40
0.0202072994
 40
0.0315339818
 40
0.0453309912
 40
0.0615677729
 40
0.0801867529
 40
0.1242878544
 40
0.1770479331
 40
0.2378481826
 40
0.3060048576
 40
0.3807197973
 40
0.4608976929
 40
0.6333253486
 40
0.8155047997
 40
1.0
 40
1.0
 40
1.0
 40
1.0
 10
2.7591918395
 20
5.301032646
 30
0.0
 10
2.7591918752
 20
5.3010322144
 30
0.0
 10
2.7591939925
 20
5.3010315966
 30
0.0
 10
2.7591964044
 20
5.301028974
 30
0.0
 10
2.7592019907
 20
5.3010254702
 30
0.0
 10
2.7592090748
 20
5.3010201883
 30
0.0
 10
2.7592184779
 20
5.301013569
 30
0.0
 10
2.759235037
 20
5.3010017397
 30
0.0
 10
2.759260965
 20
5.3009833425
 30
0.0
 10
2.759298215
 20
5.3009569257
 30
0.0
 10
2.759343646
 20
5.3009248087
 30
0.0
 10
2.759397127
 20
5.3008870905
 30
0.0
 10
2.7594840304
 20
5.3008260343
 30
0.0
 10
2.7596114141
 20
5.3007371367
 30
0.0
 10
2.7597861917
 20
5.3006170112
 30
0.0
 10
2.7599893171
 20
5.3004810288
 30
0.0
 10
2.7602190092
 20
5.3003316873
 30
0.0
 10
2.7604729199
 20
5.3001718218
 30
0.0
 10
2.7608492804
 20
5.299943329
 30
0.0
 10
2.7613586668
 20
5.2996552976
 30
0.0
 10
2.762014051
 20
5.2993433801
 30
0.0
 10
2.762479463
 20
5.2991755515
 30
0.0
 10
2.762718523
 20
5.2991089277
 30
0.0
  0
SPLINE
  5
414
100
AcDbEntity
  8
ALL_ASSEMBLY_MEMBERS
100
AcDbSpline
 62
7
  6
CONTINUOUS
 70
0
 71
3
 72
13
 73
9
 74
0
 42
0.0000001
 43
0.0000001
 44
0.0000000001
 40
0.0
 40
0.0
 40
0.0
 40
0.0
 40
0.1244162991
 40
0.2489462008
 40
0.4985512778
 40
0.7489830474
 40
0.8744528739
 40
1.0
 40
1.0
 40
1.0
 40
1.0
 10
2.7779804624
 20
5.2991086214
 30
0.0
 10
2.7797058968
 20
5.2991748442
 30
0.0
 10
2.7831569021
 20
5.2993449811
 30
0.0
 10
2.7900628668
 20
5.299772174
 30
0.0
 10
2.798710348
 20
5.300368136
 30
0.0
 10
2.8073811235
 20
5.3008126669
 30
0.0
 10
2.8143382375
 20
5.3010008557
 30
0.0
 10
2.8178220452
 20
5.3010325742
 30
0.0
 10
2.8195644441
 20
5.3010326442
 30
0.0
  0
SPLINE
  5
415
100
AcDbEntity
  8
ALL_ASSEMBLY_MEMBERS
100
AcDbSpline
 62
7
  6
CONTINUOUS
 70
0
 71
3
 72
19
 73
15
 74
0
 42
0.0000001
 43
0.0000001
 44
0.0000000001
 40
0.0
 40
0.0
 40
0.0
 40
0.0
 40
0.0076802525
 40
0.0173467898
 40
0.0425285662
 40
0.0752117178
 40
0.114995426
 40
0.1614852946
 40
0.2142816126
 40
0.3372091612
 40
0.4806017639
 40
0.6412448851
 40
0.8158590534
 40
1.0
 40
1.0
 40
1.0
 40
1.0
 10
2.762718523
 20
5.2991089277
 30
0.0
 10
2.7627561882
 20
5.2990984619
 30
0.0
 10
2.7628427886
 20
5.2990804533
 30
0.0
 10
2.7630572068
 20
5.2990503697
 30
0.0
 10
2.7634002346
 20
5.2990245631
 30
0.0
 10
2.7638968122
 20
5.2990039441
 30
0.0
 10
2.7645021908
 20
5.2989904665
 30
0.0
 10
2.765209999
 20
5.2989821977
 30
0.0
 10
2.7663410419
 20
5.2989753494
 30
0.0
 10
2.7679653328
 20
5.2989738108
 30
0.0
 10
2.7701385528
 20
5.2989770849
 30
0.0
 10
2.772574838
 20
5.2989897571
 30
0.0
 10
2.7752183613
 20
5.2990237521
 30
0.0
 10
2.7770438834
 20
5.2990726823
 30
0.0
 10
2.7779804624
 20
5.2991086214
 30
0.0
  0
SPLINE
  5
416
100
AcDbEntity
  8
ALL_ASSEMBLY_MEMBERS
100
AcDbSpline
 62
7
  6
CONTINUOUS
 70
0
 71
3
 72
12
 73
8
 74
0
 42
0.0000001
 43
0.0000001
 44
0.0000000001
 40
0.0
 40
0.0
 40
0.0
 40
0.0
 40
0.2499917663
 40
0.4999927026
 40
0.7499878986
 40
0.874995368
 40
1.0
 40
1.0
 40
1.0
 40
1.0
 10
2.7786871118
 20
5.2841566388
 30
0.0
 10
2.7820972597
 20
5.2843178701
 30
0.0
 10
2.7889089451
 20
5.2848166231
 30
0.0
 10
2.7991069879
 20
5.2857572361
 30
0.0
 10
2.8076200262
 20
5.2863975368
 30
0.0
 10
2.8144433867
 20
5.2866739022
 30
0.0
 10
2.8178577845
 20
5.2867219817
 30
0.0
 10
2.8195648826
 20
5.286722055
 30
0.0
  0
LINE
  5
417
100
AcDbEntity
  8
ALL_ASSEMBLY_MEMBERS
100
AcDbLine
 62
7
  6
CONTINUOUS
 10
5.4667429741
 20
5.780951512
 11
5.4514215547
 21
5.4713356151
  0
LINE
  5
418
100
AcDbEntity
  8
ALL_ASSEMBLY_MEMBERS
100
AcDbLine
 62
7
  6
CONTINUOUS
 10
5.4489659162
 20
5.4226391435
 11
5.4344542129
 21
5.1401828476
  0
LINE
  5
419
100
AcDbEntity
  8
ALL_ASSEMBLY_MEMBERS
100
AcDbLine
 62
7
  6
CONTINUOUS
 10
5.4314779162
 20
5.0833854273
 11
5.4169730831
 21
4.8121916069
  0
LINE
  5
41A
100
AcDbEntity
  8
ALL_ASSEMBLY_MEMBERS
100
AcDbLine
 62
7
  6
CONTINUOUS
 10
5.4008461121
 20
4.5216987662
 11
5.3922215537
 21
4.3711630738
  0
SPLINE
  5
41B
100
AcDbEntity
  8
ALL_ASSEMBLY_MEMBERS
100
AcDbSpline
 62
7
  6
CONTINUOUS
 70
0
 71
3
 72
9
 73
5
 74
0
 42
0.0000001
 43
0.0000001
 44
0.0000000001
 40
0.0
 40
0.0
 40
0.0
 40
0.0
 40
0.5000061578
 40
1.0
 40
1.0
 40
1.0
 40
1.0
 10
5.3846155664
 20
4.2412069968
 30
0.0
 10
5.3751015827
 20
4.0802995616
 30
0.0
 10
5.3553505196
 20
3.7585308705
 30
0.0
 10
5.3337472227
 20
3.436879759
 30
0.0
 10
5.3223381219
 20
3.2760995639
 30
0.0
  0
SPLINE
  5
41C
100
AcDbEntity
  8
ALL_ASSEMBLY_MEMBERS
100
AcDbSpline
 62
7
  6
CONTINUOUS
 70
0
 71
3
 72
14
 73
10
 74
0
 42
0.0000001
 43
0.0000001
 44
0.0000000001
 40
0.0
 40
0.0
 40
0.0
 40
0.0
 40
0.28447682
 40
0.422608611
 40
0.5555096164
 40
0.6813302634
 40
0.7983590175
 40
0.9050406083
 40
1.0
 40
1.0
 40
1.0
 40
1.0
 10
5.3217810493
 20
3.2677541799
 30
0.0
 10
5.3211522273
 20
3.2577020665
 30
0.0
 10
5.3204396105
 20
3.2427534771
 30
0.0
 10
5.3199929822
 20
3.2230902823
 30
0.0
 10
5.3199268221
 20
3.2090391459
 30
0.0
 10
5.3201305274
 20
3.1957364721
 30
0.0
 10
5.3206029828
 20
3.1833691987
 30
0.0
 10
5.3213373443
 20
3.1721093479
 30
0.0
 10
5.3220362524
 20
3.165002567
 30
0.0
 10
5.3224408042
 20
3.1616650051
 30
0.0
  0
SPLINE
  5
41D
100
AcDbEntity
  8
ALL_ASSEMBLY_MEMBERS
100
AcDbSpline
 62
7
  6
CONTINUOUS
 70
0
 71
3
 72
22
 73
18
 74
0
 42
0.0000001
 43
0.0000001
 44
0.0000000001
 40
0.0
 40
0.0
 40
0.0
 40
0.0
 40
0.23130417
 40
0.4280293682
 40
0.5130012178
 40
0.5889090892
 40
0.6557752755
 40
0.7137124416
 40
0.7629932955
 40
0.8042187242
 40
0.8385051556
 40
0.8678235538
 40
0.8816165304
 40
0.8954127243
 40
0.9247345228
 40
0.9589588998
 40
1.0
 40
1.0
 40
1.0
 40
1.0
 10
5.3224408042
 20
3.1616650051
 30
0.0
 10
5.3227598914
 20
3.1590325277
 30
0.0
 10
5.3234377628
 20
3.1541710265
 30
0.0
 10
5.3245405203
 20
3.1483898655
 30
0.0
 10
5.3255339304
 20
3.1444112373
 30
0.0
 10
5.3262799334
 20
3.1419080018
 30
0.0
 10
5.3270602009
 20
3.1397416972
 30
0.0
 10
5.3278722198
 20
3.1379160912
 30
0.0
 10
5.3287145263
 20
3.1364331273
 30
0.0
 10
5.3295883749
 20
3.1352925269
 30
0.0
 10
5.3304990974
 20
3.1344920742
 30
0.0
 10
5.3313227503
 20
3.1341147519
 30
0.0
 10
5.3319724809
 20
3.1340222849
 30
0.0
 10
5.3326279511
 20
3.1340546599
 30
0.0
 10
5.3334826264
 20
3.1343523959
 30
0.0
 10
5.3344638428
 20
3.1350593104
 30
0.0
 10
5.3350556424
 20
3.1356932685
 30
0.0
 10
5.3353546362
 20
3.1360565602
 30
0.0
  0
SPLINE
  5
41E
100
AcDbEntity
  8
ALL_ASSEMBLY_MEMBERS
100
AcDbSpline
 62
7
  6
CONTINUOUS
 70
0
 71
3
 72
8
 73
4
 74
0
 42
0.0000001
 43
0.0000001
 44
0.0000000001
 40
0.0
 40
0.0
 40
0.0
 40
0.0
 40
1.0
 40
1.0
 40
1.0
 40
1.0
 10
5.3387058157
 20
3.1401440078
 30
0.0
 10
5.3296094582
 20
2.9431720835
 30
0.0
 10
5.3206384771
 20
2.7461942968
 30
0.0
 10
5.311838322
 20
2.5492089168
 30
0.0
  0
SPLINE
  5
41F
100
AcDbEntity
  8
ALL_ASSEMBLY_MEMBERS
100
AcDbSpline
 62
7
  6
CONTINUOUS
 70
0
 71
3
 72
10
 73
6
 74
0
 42
0.0000001
 43
0.0000001
 44
0.0000000001
 40
0.0
 40
0.0
 40
0.0
 40
0.0
 40
0.2500170112
 40
0.5000198303
 40
1.0
 40
1.0
 40
1.0
 40
1.0
 10
5.2226297432
 20
2.6368360977
 30
0.0
 10
5.2442337652
 20
2.9296321162
 30
0.0
 10
5.287524266
 20
3.5152013619
 30
0.0
 10
5.3744270073
 20
4.6862693136
 30
0.0
 10
5.4399103764
 20
5.5645274825
 30
0.0
 10
5.4836517636
 20
6.1500165076
 30
0.0
  0
SPLINE
  5
420
100
AcDbEntity
  8
ALL_ASSEMBLY_MEMBERS
100
AcDbSpline
 62
7
  6
CONTINUOUS
 70
0
 71
3
 72
10
 73
6
 74
0
 42
0.0000001
 43
0.0000001
 44
0.0000000001
 40
0.0
 40
0.0
 40
0.0
 40
0.0
 40
0.4999801805
 40
0.7499830045
 40
1.0
 40
1.0
 40
1.0
 40
1.0
 10
4.4877224598
 20
6.1500165098
 30
0.0
 10
4.5314638072
 20
5.5645274686
 30
0.0
 10
4.5969466103
 20
4.6862692388
 30
0.0
 10
4.6838506461
 20
3.5152013823
 30
0.0
 10
4.7271404341
 20
2.9296320961
 30
0.0
 10
4.7487444804
 20
2.6368360977
 30
0.0
  0
SPLINE
  5
421
100
AcDbEntity
  8
ALL_ASSEMBLY_MEMBERS
100
AcDbSpline
 62
7
  6
CONTINUOUS
 70
0
 71
3
 72
8
 73
4
 74
0
 42
0.0000001
 43
0.0000001
 44
0.0000000001
 40
0.0
 40
0.0
 40
0.0
 40
0.0
 40
1.0
 40
1.0
 40
1.0
 40
1.0
 10
4.6595359016
 20
2.5492089168
 30
0.0
 10
4.6507357463
 20
2.7461942968
 30
0.0
 10
4.6417647655
 20
2.9431720835
 30
0.0
 10
4.6326684079
 20
3.1401440078
 30
0.0
  0
SPLINE
  5
422
100
AcDbEntity
  8
ALL_ASSEMBLY_MEMBERS
100
AcDbSpline
 62
7
  6
CONTINUOUS
 70
0
 71
3
 72
22
 73
18
 74
0
 42
0.0000001
 43
0.0000001
 44
0.0000000001
 40
0.0
 40
0.0
 40
0.0
 40
0.0
 40
0.0403552323
 40
0.0739120302
 40
0.1026420816
 40
0.1162015193
 40
0.1298109474
 40
0.1589338184
 40
0.1932199053
 40
0.2345861309
 40
0.2841029502
 40
0.342313431
 40
0.4094770428
 40
0.4857083948
 40
0.5710004354
 40
0.7682859321
 40
1.0
 40
1.0
 40
1.0
 40
1.0
 10
4.6360195863
 20
3.1360565615
 30
0.0
 10
4.6363229517
 20
3.1356879257
 30
0.0
 10
4.6369232549
 20
3.1350458716
 30
0.0
 10
4.6379208851
 20
3.1343344334
 30
0.0
 10
4.6387905646
 20
3.1340441502
 30
0.0
 10
4.6394556188
 20
3.1340246054
 30
0.0
 10
4.6401165627
 20
3.1341344364
 30
0.0
 10
4.6409523051
 20
3.1345428674
 30
0.0
 10
4.64187358
 20
3.1353877549
 30
0.0
 10
4.6427576671
 20
3.13658333
 30
0.0
 10
4.6436091728
 20
3.1381321126
 30
0.0
 10
4.6444297935
 20
3.1400338725
 30
0.0
 10
4.6452172596
 20
3.1422867733
 30
0.0
 10
4.6459686026
 20
3.1448868903
 30
0.0
 10
4.6469670818
 20
3.1490136782
 30
0.0
 10
4.6480716675
 20
3.1550010032
 30
0.0
 10
4.6487463223
 20
3.1600326221
 30
0.0
 10
4.6490628616
 20
3.1627555213
 30
0.0
  0
SPLINE
  5
423
100
AcDbEntity
  8
ALL_ASSEMBLY_MEMBERS
100
AcDbSpline
 62
7
  6
CONTINUOUS
 70
0
 71
3
 72
13
 73
9
 74
0
 42
0.0000001
 43
0.0000001
 44
0.0000000001
 40
0.0
 40
0.0
 40
0.0
 40
0.0
 40
0.0959101785
 40
0.203151991
 40
0.3204060024
 40
0.4461694137
 40
0.7164880559
 40
1.0
 40
1.0
 40
1.0
 40
1.0
 10
4.6490628616
 20
3.1627555213
 30
0.0
 10
4.6494487965
 20
3.1660753671
 30
0.0
 10
4.6501150879
 20
3.1731251016
 30
0.0
 10
4.6508144913
 20
3.1842697503
 30
0.0
 10
4.6512606973
 20
3.1964683972
 30
0.0
 10
4.6515160361
 20
3.2143560851
 30
0.0
 10
4.6511517121
 20
3.2380406509
 30
0.0
 10
4.6502398856
 20
3.2573218009
 30
0.0
 10
4.6496287476
 20
3.267182484
 30
0.0
  0
SPLINE
  5
424
100
AcDbEntity
  8
ALL_ASSEMBLY_MEMBERS
100
AcDbSpline
 62
7
  6
CONTINUOUS
 70
0
 71
3
 72
9
 73
5
 74
0
 42
0.0000001
 43
0.0000001
 44
0.0000000001
 40
0.0
 40
0.0
 40
0.0
 40
0.0
 40
0.4999939629
 40
1.0
 40
1.0
 40
1.0
 40
1.0
 10
4.6490361017
 20
3.2760995638
 30
0.0
 10
4.63786922
 20
3.4334664643
 30
0.0
 10
4.6166997732
 20
3.7482872144
 30
0.0
 10
4.5973150311
 20
4.063221529
 30
0.0
 10
4.5879723902
 20
4.2207110772
 30
0.0
  0
LINE
  5
425
100
AcDbEntity
  8
ALL_ASSEMBLY_MEMBERS
100
AcDbLine
 62
7
  6
CONTINUOUS
 10
4.5711088723
 20
4.5114569801
 11
4.5596121912
 21
4.7170432854
  0
LINE
  5
426
100
AcDbEntity
  8
ALL_ASSEMBLY_MEMBERS
100
AcDbLine
 62
7
  6
CONTINUOUS
 10
4.5540059248
 20
4.819452074
 11
4.5410334306
 21
5.0617898247
  0
LINE
  5
427
100
AcDbEntity
  8
ALL_ASSEMBLY_MEMBERS
100
AcDbLine
 62
7
  6
CONTINUOUS
 10
4.5193944153
 20
5.4824433073
 11
4.5047587554
 21
5.7783290129
  0
SPLINE
  5
428
100
AcDbEntity
  8
ALL_ASSEMBLY_MEMBERS
100
AcDbSpline
 62
7
  6
CONTINUOUS
 70
0
 71
3
 72
17
 73
13
 74
0
 42
0.0000001
 43
0.0000001
 44
0.0000000001
 40
0.0
 40
0.0
 40
0.0
 40
0.0
 40
0.0403097472
 40
0.0818422035
 40
0.1717200975
 40
0.2216110561
 40
0.2752442088
 40
0.3941433512
 40
0.5284488038
 40
0.6763724379
 40
0.8350577917
 40
1.0
 40
1.0
 40
1.0
 40
1.0
 10
5.4824441771
 20
6.1772593168
 30
0.0
 10
5.4820091523
 20
6.1772593168
 30
0.0
 10
5.4811237322
 20
6.1771727337
 30
0.0
 10
5.4793358083
 20
6.1766535883
 30
0.0
 10
5.4776302439
 20
6.1756219558
 30
0.0
 10
5.4760873041
 20
6.1742129678
 30
0.0
 10
5.4745075307
 20
6.172398869
 30
0.0
 10
5.4727251841
 20
6.1695861597
 30
0.0
 10
5.470974979
 20
6.1656140617
 30
0.0
 10
5.4695880759
 20
6.1610517276
 30
0.0
 10
5.4686193198
 20
6.1560481344
 30
0.0
 10
5.4682679443
 20
6.1525678248
 30
0.0
 10
5.4681669431
 20
6.1507906279
 30
0.0
  0
SPLINE
  5
429
100
AcDbEntity
  8
ALL_ASSEMBLY_MEMBERS
100
AcDbSpline
 62
7
  6
CONTINUOUS
 70
0
 71
3
 72
11
 73
7
 74
0
 42
0.0000001
 43
0.0000001
 44
0.0000000001
 40
0.0
 40
0.0
 40
0.0
 40
0.0
 40
0.2452380762
 40
0.4931759477
 40
0.7444178782
 40
1.0
 40
1.0
 40
1.0
 40
1.0
 10
5.5056871118
 20
6.1772593168
 30
0.0
 10
5.5043686758
 20
6.1772593168
 30
0.0
 10
5.501712033
 20
6.177021909
 30
0.0
 10
5.4978271519
 20
6.1759849622
 30
0.0
 10
5.4941246952
 20
6.1742789109
 30
0.0
 10
5.4918607988
 20
6.1727378684
 30
0.0
 10
5.4907883
 20
6.1718789435
 30
0.0
  0
SPLINE
  5
42A
100
AcDbEntity
  8
ALL_ASSEMBLY_MEMBERS
100
AcDbSpline
 62
7
  6
CONTINUOUS
 70
0
 71
3
 72
11
 73
7
 74
0
 42
0.0000001
 43
0.0000001
 44
0.0000000001
 40
0.0
 40
0.0
 40
0.0
 40
0.0
 40
0.2404810902
 40
0.4882022584
 40
0.7424173872
 40
1.0
 40
1.0
 40
1.0
 40
1.0
 10
5.4907883
 20
6.1718789435
 30
0.0
 10
5.4892507378
 20
6.1706475663
 30
0.0
 10
5.4864037911
 20
6.1677874487
 30
0.0
 10
5.4830746051
 20
6.1626504028
 30
0.0
 10
5.4807724907
 20
6.1568302468
 30
0.0
 10
5.4799767021
 20
6.1526852683
 30
0.0
 10
5.4797730888
 20
6.1505851609
 30
0.0
  0
LINE
  5
42B
100
AcDbEntity
  8
ALL_ASSEMBLY_MEMBERS
100
AcDbLine
 62
7
  6
CONTINUOUS
 10
4.5175576523
 20
6.1774851213
 11
4.4889301632
 21
6.1772593168
  0
LINE
  5
42C
100
AcDbEntity
  8
ALL_ASSEMBLY_MEMBERS
100
AcDbLine
 62
7
  6
CONTINUOUS
 10
5.4824441772
 20
6.1772593168
 11
5.4538164003
 21
6.1774851256
  0
LINE
  5
42D
100
AcDbEntity
  8
ALL_ASSEMBLY_MEMBERS
100
AcDbLine
 62
7
  6
CONTINUOUS
 10
4.6488092435
 20
3.2757127904
 11
4.6490361025
 21
3.2760995528
  0
LINE
  5
42E
100
AcDbEntity
  8
ALL_ASSEMBLY_MEMBERS
100
AcDbLine
 62
7
  6
CONTINUOUS
 10
5.3225649798
 20
3.2757127908
 11
5.3223381212
 21
3.2760995527
  0
SPLINE
  5
42F
100
AcDbEntity
  8
ALL_ASSEMBLY_MEMBERS
100
AcDbSpline
 62
7
  6
CONTINUOUS
 70
0
 71
3
 72
11
 73
7
 74
0
 42
0.0000001
 43
0.0000001
 44
0.0000000001
 40
0.0
 40
0.0
 40
0.0
 40
0.0
 40
0.2452421693
 40
0.4931810334
 40
0.7444215056
 40
1.0
 40
1.0
 40
1.0
 40
1.0
 10
4.4656871122
 20
6.1772593168
 30
0.0
 10
4.4670053791
 20
6.1772593168
 30
0.0
 10
4.4696616627
 20
6.1770219878
 30
0.0
 10
4.4735460396
 20
6.1759853574
 30
0.0
 10
4.4772480494
 20
6.1742798141
 30
0.0
 10
4.4795117289
 20
6.1727392131
 30
0.0
 10
4.4805841395
 20
6.1718805282
 30
0.0
  0
SPLINE
  5
430
100
AcDbEntity
  8
ALL_ASSEMBLY_MEMBERS
100
AcDbSpline
 62
7
  6
CONTINUOUS
 70
0
 71
3
 72
11
 73
7
 74
0
 42
0.0000001
 43
0.0000001
 44
0.0000000001
 40
0.0
 40
0.0
 40
0.0
 40
0.0
 40
0.2404796543
 40
0.4882000068
 40
0.7424158275
 40
1.0
 40
1.0
 40
1.0
 40
1.0
 10
4.4805841395
 20
6.1718805282
 30
0.0
 10
4.4821219638
 20
6.1706491841
 30
0.0
 10
4.4849694132
 20
6.1677890116
 30
0.0
 10
4.4882991695
 20
6.1626516127
 30
0.0
 10
4.4906016394
 20
6.1568309064
 30
0.0
 10
4.4913975052
 20
6.1526854897
 30
0.0
 10
4.4916011091
 20
6.150585158
 30
0.0
  0
SPLINE
  5
431
100
AcDbEntity
  8
ALL_ASSEMBLY_MEMBERS
100
AcDbSpline
 62
7
  6
CONTINUOUS
 70
0
 71
3
 72
17
 73
13
 74
0
 42
0.0000001
 43
0.0000001
 44
0.0000000001
 40
0.0
 40
0.0
 40
0.0
 40
0.0
 40
0.0403123748
 40
0.0818467631
 40
0.171726731
 40
0.2216180497
 40
0.2752512363
 40
0.3941496243
 40
0.5284535955
 40
0.6763754727
 40
0.8350591254
 40
1.0
 40
1.0
 40
1.0
 40
1.0
 10
4.4889301632
 20
6.1772593168
 30
0.0
 10
4.4893652188
 20
6.1772593168
 30
0.0
 10
4.490250693
 20
6.1771727353
 30
0.0
 10
4.4920387028
 20
6.1766535935
 30
0.0
 10
4.4937443366
 20
6.175621961
 30
0.0
 10
4.4952873187
 20
6.1742129618
 30
0.0
 10
4.4968671039
 20
6.1723988606
 30
0.0
 10
4.4986494354
 20
6.1695861458
 30
0.0
 10
4.5003995743
 20
6.1656140386
 30
0.0
 10
4.5017863826
 20
6.1610517042
 30
0.0
 10
4.5027550379
 20
6.1560481158
 30
0.0
 10
4.5031063317
 20
6.1525678112
 30
0.0
 10
4.5032072869
 20
6.1507906163
 30
0.0
  0
SPLINE
  5
432
100
AcDbEntity
  8
ALL_ASSEMBLY_MEMBERS
100
AcDbSpline
 62
7
  6
CONTINUOUS
 70
0
 71
3
 72
10
 73
6
 74
0
 42
0.0000001
 43
0.0000001
 44
0.0000000001
 40
0.0
 40
0.0
 40
0.0
 40
0.0
 40
0.5693857866
 40
0.8043172315
 40
1.0
 40
1.0
 40
1.0
 40
1.0
 10
4.5032072863
 20
6.1507906255
 30
0.0
 10
4.5010038413
 20
6.1508409042
 30
0.0
 10
4.4978893224
 20
6.1508693913
 30
0.0
 10
4.4940197314
 20
6.1507570992
 30
0.0
 10
4.4923555266
 20
6.1506530147
 30
0.0
 10
4.491601111
 20
6.1505851419
 30
0.0
  0
SPLINE
  5
433
100
AcDbEntity
  8
ALL_ASSEMBLY_MEMBERS
100
AcDbSpline
 62
7
  6
CONTINUOUS
 70
0
 71
3
 72
16
 73
12
 74
0
 42
0.0000001
 43
0.0000001
 44
0.0000000001
 40
0.0
 40
0.0
 40
0.0
 40
0.0
 40
0.4175752561
 40
0.5840444761
 40
0.7208823131
 40
0.8277845778
 40
0.9055222807
 40
0.9345971569
 40
0.9584799381
 40
0.9792554861
 40
1.0
 40
1.0
 40
1.0
 40
1.0
 10
4.491601111
 20
6.1505851419
 30
0.0
 10
4.4910396093
 20
6.1505345784
 30
0.0
 10
4.4902516737
 20
6.1504929931
 30
0.0
 10
4.4892792031
 20
6.1504583427
 30
0.0
 10
4.4887258014
 20
6.1504297208
 30
0.0
 10
4.4882942884
 20
6.1503855398
 30
0.0
 10
4.4880102048
 20
6.1503217296
 30
0.0
 10
4.4878508015
 20
6.1502439127
 30
0.0
 10
4.4877726899
 20
6.1501799812
 30
0.0
 10
4.4877266083
 20
6.1501019758
 30
0.0
 10
4.4877206268
 20
6.1500444507
 30
0.0
 10
4.4877224638
 20
6.1500165035
 30
0.0
  0
SPLINE
  5
434
100
AcDbEntity
  8
ALL_ASSEMBLY_MEMBERS
100
AcDbSpline
 62
7
  6
CONTINUOUS
 70
0
 71
3
 72
11
 73
7
 74
0
 42
0.0000001
 43
0.0000001
 44
0.0000000001
 40
0.0
 40
0.0
 40
0.0
 40
0.0
 40
0.2599829727
 40
0.5159859399
 40
0.7639493022
 40
1.0
 40
1.0
 40
1.0
 40
1.0
 10
4.5175576511
 20
6.1505262884
 30
0.0
 10
4.5163168509
 20
6.1506170262
 30
0.0
 10
4.5138501694
 20
6.1507452834
 30
0.0
 10
4.5101941651
 20
6.1507962867
 30
0.0
 10
4.5066531426
 20
6.1507686501
 30
0.0
 10
4.5043365812
 20
6.1507648552
 30
0.0
 10
4.5032072863
 20
6.1507906255
 30
0.0
  0
SPLINE
  5
435
100
AcDbEntity
  8
ALL_ASSEMBLY_MEMBERS
100
AcDbSpline
 62
7
  6
CONTINUOUS
 70
0
 71
3
 72
17
 73
13
 74
0
 42
0.0000001
 43
0.0000001
 44
0.0000000001
 40
0.0
 40
0.0
 40
0.0
 40
0.0
 40
0.17380523
 40
0.3428771608
 40
0.5015485823
 40
0.645319623
 40
0.7701404893
 40
0.8725941828
 40
0.9144727969
 40
0.9497657725
 40
0.9783039402
 40
1.0
 40
1.0
 40
1.0
 40
1.0
 10
4.7780855065
 20
2.636702506
 30
0.0
 10
4.7763850769
 20
2.6365790445
 30
0.0
 10
4.773028508
 20
2.6363624737
 30
0.0
 10
4.7681141783
 20
2.6361249056
 30
0.0
 10
4.7634908045
 20
2.6359852192
 30
0.0
 10
4.7592994105
 20
2.6359452014
 30
0.0
 10
4.7556598863
 20
2.6360065346
 30
0.0
 10
4.7530220101
 20
2.6361428575
 30
0.0
 10
4.7512681733
 20
2.6363149088
 30
0.0
 10
4.7502405257
 20
2.6364573594
 30
0.0
 10
4.749417225
 20
2.6366197999
 30
0.0
 10
4.7489421835
 20
2.6367573129
 30
0.0
 10
4.7487444804
 20
2.6368360977
 30
0.0
  0
SPLINE
  5
436
100
AcDbEntity
  8
ALL_ASSEMBLY_MEMBERS
100
AcDbSpline
 62
7
  6
CONTINUOUS
 70
0
 71
3
 72
11
 73
7
 74
0
 42
0.0000001
 43
0.0000001
 44
0.0000000001
 40
0.0
 40
0.0
 40
0.0
 40
0.0
 40
0.2488212339
 40
0.4995694865
 40
0.7505598771
 40
1.0
 40
1.0
 40
1.0
 40
1.0
 10
4.7780855066
 20
2.6099736203
 30
0.0
 10
4.7745154844
 20
2.6100813242
 30
0.0
 10
4.7673258607
 20
2.6116226863
 30
0.0
 10
4.758054625
 20
2.6175247158
 30
0.0
 10
4.7513556869
 20
2.6262479103
 30
0.0
 10
4.7491753948
 20
2.6332815923
 30
0.0
 10
4.7487444804
 20
2.6368360977
 30
0.0
  0
SPLINE
  5
437
100
AcDbEntity
  8
ALL_ASSEMBLY_MEMBERS
100
AcDbSpline
 62
7
  6
CONTINUOUS
 70
0
 71
3
 72
11
 73
7
 74
0
 42
0.0000001
 43
0.0000001
 44
0.0000000001
 40
0.0
 40
0.0
 40
0.0
 40
0.0
 40
0.2483429593
 40
0.4985167907
 40
0.7495219519
 40
1.0
 40
1.0
 40
1.0
 40
1.0
 10
4.6890111639
 20
2.5209676919
 30
0.0
 10
4.6860760596
 20
2.5210562876
 30
0.0
 10
4.6801761004
 20
2.5221235249
 30
0.0
 10
4.6721749806
 20
2.526207869
 30
0.0
 10
4.6656459777
 20
2.5324129515
 30
0.0
 10
4.6626428214
 20
2.5376400461
 30
0.0
 10
4.6615573932
 20
2.5403956647
 30
0.0
  0
SPLINE
  5
438
100
AcDbEntity
  8
ALL_ASSEMBLY_MEMBERS
100
AcDbSpline
 62
7
  6
CONTINUOUS
 70
0
 71
3
 72
9
 73
5
 74
0
 42
0.0000001
 43
0.0000001
 44
0.0000000001
 40
0.0
 40
0.0
 40
0.0
 40
0.0
 40
0.2514184047
 40
1.0
 40
1.0
 40
1.0
 40
1.0
 10
4.6615573932
 20
2.5403956647
 30
0.0
 10
4.6612790859
 20
2.5411022141
 30
0.0
 10
4.6602782571
 20
2.5439530278
 30
0.0
 10
4.6597034066
 20
2.5469541086
 30
0.0
 10
4.6595359016
 20
2.5492089168
 30
0.0
  0
SPLINE
  5
439
100
AcDbEntity
  8
ALL_ASSEMBLY_MEMBERS
100
AcDbSpline
 62
7
  6
CONTINUOUS
 70
0
 71
3
 72
12
 73
8
 74
0
 42
0.0000001
 43
0.0000001
 44
0.0000000001
 40
0.0
 40
0.0
 40
0.0
 40
0.0
 40
0.2513332223
 40
0.5019028405
 40
0.627053795
 40
0.7519963261
 40
1.0
 40
1.0
 40
1.0
 40
1.0
 10
4.6425649189
 20
3.16303709
 30
0.0
 10
4.6409783944
 20
3.1615853397
 30
0.0
 10
4.6381031555
 20
3.1583462999
 30
0.0
 10
4.6354450394
 20
3.1536378235
 30
0.0
 10
4.6339533356
 20
3.1496139006
 30
0.0
 10
4.6329081984
 20
3.1454763073
 30
0.0
 10
4.6326233578
 20
3.1422655381
 30
0.0
 10
4.6326684079
 20
3.1401440078
 30
0.0
  0
SPLINE
  5
43A
100
AcDbEntity
  8
ALL_ASSEMBLY_MEMBERS
100
AcDbSpline
 62
7
  6
CONTINUOUS
 70
0
 71
3
 72
14
 73
10
 74
0
 42
0.0000001
 43
0.0000001
 44
0.0000000001
 40
0.0
 40
0.0
 40
0.0
 40
0.0
 40
0.1257057139
 40
0.2513310607
 40
0.3768555311
 40
0.5022369827
 40
0.6274613804
 40
0.7524521127
 40
1.0
 40
1.0
 40
1.0
 40
1.0
 10
4.6479208398
 20
3.1606792276
 30
0.0
 10
4.6469794344
 20
3.159955126
 30
0.0
 10
4.6451787209
 20
3.1583975595
 30
0.0
 10
4.6427698413
 20
3.1557651544
 30
0.0
 10
4.6406834715
 20
3.152873756
 30
0.0
 10
4.6389464496
 20
3.1497645418
 30
0.0
 10
4.6375889137
 20
3.1464759154
 30
0.0
 10
4.6363193532
 20
3.1419403896
 30
0.0
 10
4.635966533
 20
3.1383948017
 30
0.0
 10
4.6360195881
 20
3.1360565605
 30
0.0
  0
SPLINE
  5
43B
100
AcDbEntity
  8
ALL_ASSEMBLY_MEMBERS
100
AcDbSpline
 62
7
  6
CONTINUOUS
 70
0
 71
3
 72
14
 73
10
 74
0
 42
0.0000001
 43
0.0000001
 44
0.0000000001
 40
0.0
 40
0.0
 40
0.0
 40
0.0
 40
0.1257057613
 40
0.251331139
 40
0.3768556235
 40
0.5022370711
 40
0.6274614407
 40
0.7524521303
 40
1.0
 40
1.0
 40
1.0
 40
1.0
 10
5.3234537733
 20
3.1606789263
 30
0.0
 10
5.3243951511
 20
3.1599548219
 30
0.0
 10
5.3261958104
 20
3.1583972549
 30
0.0
 10
5.3286046143
 20
3.1557648633
 30
0.0
 10
5.3306909158
 20
3.1528734917
 30
0.0
 10
5.3324278789
 20
3.1497643157
 30
0.0
 10
5.3337853681
 20
3.1464757378
 30
0.0
 10
5.3350548836
 20
3.1419402851
 30
0.0
 10
5.3354076895
 20
3.1383947599
 30
0.0
 10
5.3353546355
 20
3.1360565593
 30
0.0
  0
SPLINE
  5
43C
100
AcDbEntity
  8
ALL_ASSEMBLY_MEMBERS
100
AcDbSpline
 62
7
  6
CONTINUOUS
 70
0
 71
3
 72
12
 73
8
 74
0
 42
0.0000001
 43
0.0000001
 44
0.0000000001
 40
0.0
 40
0.0
 40
0.0
 40
0.0
 40
0.2512864342
 40
0.3767866709
 40
0.5021045671
 40
0.7519075252
 40
1.0
 40
1.0
 40
1.0
 40
1.0
 10
5.3310994114
 20
3.1607077744
 30
0.0
 10
5.3323430864
 20
3.1593013609
 30
0.0
 10
5.3340194259
 20
3.1570136482
 30
0.0
 10
5.3357972063
 20
3.153705979
 30
0.0
 10
5.3372597432
 20
3.1502580261
 30
0.0
 10
5.3384664834
 20
3.1457320479
 30
0.0
 10
5.3387451668
 20
3.1419971526
 30
0.0
 10
5.3387058157
 20
3.1401440078
 30
0.0
  0
SPLINE
  5
43D
100
AcDbEntity
  8
ALL_ASSEMBLY_MEMBERS
100
AcDbSpline
 62
7
  6
CONTINUOUS
 70
0
 71
3
 72
11
 73
7
 74
0
 42
0.0000001
 43
0.0000001
 44
0.0000000001
 40
0.0
 40
0.0
 40
0.0
 40
0.0
 40
0.2483429597
 40
0.4985167945
 40
0.7495219561
 40
1.0
 40
1.0
 40
1.0
 40
1.0
 10
5.2823630597
 20
2.5209676919
 30
0.0
 10
5.2852981671
 20
2.5210562877
 30
0.0
 10
5.2911981326
 20
2.522123527
 30
0.0
 10
5.2991992591
 20
2.5262078793
 30
0.0
 10
5.3057282643
 20
2.5324129734
 30
0.0
 10
5.3087314182
 20
2.5376400769
 30
0.0
 10
5.3098168442
 20
2.5403956996
 30
0.0
  0
SPLINE
  5
43E
100
AcDbEntity
  8
ALL_ASSEMBLY_MEMBERS
100
AcDbSpline
 62
7
  6
CONTINUOUS
 70
0
 71
3
 72
9
 73
5
 74
0
 42
0.0000001
 43
0.0000001
 44
0.0000000001
 40
0.0
 40
0.0
 40
0.0
 40
0.0
 40
0.2514183997
 40
1.0
 40
1.0
 40
1.0
 40
1.0
 10
5.3098168442
 20
2.5403956996
 30
0.0
 10
5.3100951494
 20
2.5411022465
 30
0.0
 10
5.311095971
 20
2.5439530494
 30
0.0
 10
5.3116708177
 20
2.5469541179
 30
0.0
 10
5.311838322
 20
2.5492089168
 30
0.0
  0
SPLINE
  5
43F
100
AcDbEntity
  8
ALL_ASSEMBLY_MEMBERS
100
AcDbSpline
 62
7
  6
CONTINUOUS
 70
0
 71
3
 72
11
 73
7
 74
0
 42
0.0000001
 43
0.0000001
 44
0.0000000001
 40
0.0
 40
0.0
 40
0.0
 40
0.0
 40
0.2488212265
 40
0.4995694907
 40
0.7505598723
 40
1.0
 40
1.0
 40
1.0
 40
1.0
 10
5.193288717
 20
2.6099736203
 30
0.0
 10
5.1968587391
 20
2.6100813242
 30
0.0
 10
5.2040483629
 20
2.6116226863
 30
0.0
 10
5.2133195985
 20
2.6175247157
 30
0.0
 10
5.2200185367
 20
2.6262479103
 30
0.0
 10
5.2221988288
 20
2.6332815922
 30
0.0
 10
5.2226297432
 20
2.6368360977
 30
0.0
  0
SPLINE
  5
440
100
AcDbEntity
  8
ALL_ASSEMBLY_MEMBERS
100
AcDbSpline
 62
7
  6
CONTINUOUS
 70
0
 71
3
 72
10
 73
6
 74
0
 42
0.0000001
 43
0.0000001
 44
0.0000000001
 40
0.0
 40
0.0
 40
0.0
 40
0.0
 40
0.1956230887
 40
0.4304977605
 40
1.0
 40
1.0
 40
1.0
 40
1.0
 10
5.4797730897
 20
6.1505851678
 30
0.0
 10
5.4790188724
 20
6.1506528463
 30
0.0
 10
5.477355094
 20
6.150756933
 30
0.0
 10
5.4734854289
 20
6.1508697969
 30
0.0
 10
5.4703706158
 20
6.1508406761
 30
0.0
 10
5.468166668
 20
6.1507906241
 30
0.0
  0
SPLINE
  5
441
100
AcDbEntity
  8
ALL_ASSEMBLY_MEMBERS
100
AcDbSpline
 62
7
  6
CONTINUOUS
 70
0
 71
3
 72
11
 73
7
 74
0
 42
0.0000001
 43
0.0000001
 44
0.0000000001
 40
0.0
 40
0.0
 40
0.0
 40
0.0
 40
0.235990652
 40
0.4838620091
 40
0.7399463915
 40
1.0
 40
1.0
 40
1.0
 40
1.0
 10
5.468166668
 20
6.1507906241
 30
0.0
 10
5.4670376687
 20
6.1507648556
 30
0.0
 10
5.4647218522
 20
6.1507687807
 30
0.0
 10
5.4611811876
 20
6.1507966357
 30
0.0
 10
5.4575249477
 20
6.1507445762
 30
0.0
 10
5.4550575261
 20
6.1506170088
 30
0.0
 10
5.4538163981
 20
6.1505262436
 30
0.0
  0
SPLINE
  5
442
100
AcDbEntity
  8
ALL_ASSEMBLY_MEMBERS
100
AcDbSpline
 62
7
  6
CONTINUOUS
 70
0
 71
3
 72
17
 73
13
 74
0
 42
0.0000001
 43
0.0000001
 44
0.0000000001
 40
0.0
 40
0.0
 40
0.0
 40
0.0
 40
0.1738052425
 40
0.3428771912
 40
0.5015486234
 40
0.6453196666
 40
0.7701405374
 40
0.8725942312
 40
0.914472837
 40
0.9497657984
 40
0.9783039499
 40
1.0
 40
1.0
 40
1.0
 40
1.0
 10
5.1932887171
 20
2.636702506
 30
0.0
 10
5.1949891467
 20
2.636579044
 30
0.0
 10
5.198345716
 20
2.6363624773
 30
0.0
 10
5.2032600462
 20
2.6361249178
 30
0.0
 10
5.2078834199
 20
2.6359852309
 30
0.0
 10
5.2120748138
 20
2.6359452095
 30
0.0
 10
5.2157143379
 20
2.6360065424
 30
0.0
 10
5.2183522139
 20
2.6361428653
 30
0.0
 10
5.2201060506
 20
2.636314914
 30
0.0
 10
5.2211336981
 20
2.6364573624
 30
0.0
 10
5.2219569987
 20
2.6366198008
 30
0.0
 10
5.2224320401
 20
2.636757313
 30
0.0
 10
5.2226297432
 20
2.6368360977
 30
0.0
  0
SPLINE
  5
443
100
AcDbEntity
  8
ALL_ASSEMBLY_MEMBERS
100
AcDbSpline
 62
7
  6
CONTINUOUS
 70
0
 71
3
 72
16
 73
12
 74
0
 42
0.0000001
 43
0.0000001
 44
0.0000000001
 40
0.0
 40
0.0
 40
0.0
 40
0.0
 40
0.0227880384
 40
0.0452967134
 40
0.0995922822
 40
0.1773670266
 40
0.283379549
 40
0.4189256874
 40
0.5839752108
 40
0.7779875326
 40
1.0
 40
1.0
 40
1.0
 40
1.0
 10
5.483651729
 20
6.1500165483
 30
0.0
 10
5.4836534041
 20
6.1500420007
 30
0.0
 10
5.4836490066
 20
6.1500937665
 30
0.0
 10
5.4835973113
 20
6.1501954897
 30
0.0
 10
5.4834451762
 20
6.1502942321
 30
0.0
 10
5.4831880899
 20
6.1503644987
 30
0.0
 10
5.4828330875
 20
6.1504140131
 30
0.0
 10
5.4823790348
 20
6.1504447365
 30
0.0
 10
5.4818258177
 20
6.1504677841
 30
0.0
 10
5.4811758857
 20
6.1504923195
 30
0.0
 10
5.4807107833
 20
6.150516272
 30
0.0
 10
5.4804627883
 20
6.1505322156
 30
0.0
  0
LINE
  5
444
100
AcDbEntity
  8
ALL_ASSEMBLY_MEMBERS
100
AcDbLine
 62
7
  6
CONTINUOUS
 10
5.2823630597
 20
2.520967692
 11
5.1932887171
 21
2.6099736202
  0
LINE
  5
445
100
AcDbEntity
  8
ALL_ASSEMBLY_MEMBERS
100
AcDbLine
 62
7
  6
CONTINUOUS
 10
4.7780855065
 20
2.6099736202
 11
4.6890111639
 21
2.520967692
  0
SPLINE
  5
446
100
AcDbEntity
  8
ALL_ASSEMBLY_MEMBERS
100
AcDbSpline
 62
7
  6
CONTINUOUS
 70
0
 71
3
 72
11
 73
7
 74
0
 42
0.0000001
 43
0.0000001
 44
0.0000000001
 40
0.0
 40
0.0
 40
0.0
 40
0.0
 40
0.2499999059
 40
0.4999998893
 40
0.7499999241
 40
1.0
 40
1.0
 40
1.0
 40
1.0
 10
5.1932887171
 20
2.636702507
 30
0.0
 10
5.2147395084
 20
2.929540217
 30
0.0
 10
5.2578402143
 20
3.5152011476
 30
0.0
 10
5.3228990627
 20
4.3936625024
 30
0.0
 10
5.3882417682
 20
5.272102983
 30
0.0
 10
5.4319410468
 20
5.8577197809
 30
0.0
 10
5.4538163999
 20
6.1505262819
 30
0.0
  0
SPLINE
  5
447
100
AcDbEntity
  8
ALL_ASSEMBLY_MEMBERS
100
AcDbSpline
 62
7
  6
CONTINUOUS
 70
0
 71
3
 72
11
 73
7
 74
0
 42
0.0000001
 43
0.0000001
 44
0.0000000001
 40
0.0
 40
0.0
 40
0.0
 40
0.0
 40
0.2500000759
 40
0.5000001127
 40
0.7500000953
 40
1.0
 40
1.0
 40
1.0
 40
1.0
 10
4.5175576525
 20
6.1505262705
 30
0.0
 10
4.5394328547
 20
5.8577197581
 30
0.0
 10
4.5831320479
 20
5.2721029513
 30
0.0
 10
4.6484750729
 20
4.3936624928
 30
0.0
 10
4.7135332996
 20
3.5152010919
 30
0.0
 10
4.7566347897
 20
2.9295402212
 30
0.0
 10
4.7780855065
 20
2.636702507
 30
0.0
  0
ENDSEC
  0
SECTION
  2
OBJECTS
  0
DICTIONARY
  5
C
100
AcDbDictionary
280
0
281
1
  3
ACAD_GROUP
350
D
  3
ACAD_MLINESTYLE
350
17
  3
ACAD_LAYOUT
350
1A
  3
ACAD_PLOTSETTINGS
350
19
  3
ACAD_PLOTSTYLENAME
350
E
  0
DICTIONARY
  5
D
102
{ACAD_REACTORS
330
C
102
}
100
AcDbDictionary
280
0
281
1
  0
ACDBDICTIONARYWDFLT
  5
E
102
{ACAD_REACTORS
330
C
102
}
100
AcDbDictionary
281
1
  3
Normal
350
F
100
AcDbDictionaryWithDefault
340
F
  0
DICTIONARY
  5
17
102
{ACAD_REACTORS
330
C
102
}
100
AcDbDictionary
280
0
281
1
  3
Standard
350
18
  0
DICTIONARY
  5
19
102
{ACAD_REACTORS
330
C
102
}
100
AcDbDictionary
281
1
  0
DICTIONARY
  5
1A
102
{ACAD_REACTORS
330
C
102
}
100
AcDbDictionary
281
1
  3
Model
350
448
  3
Layout1
350
449
  0
ACDBPLACEHOLDER
  5
F
102
{ACAD_REACTORS
330
E
102
}
  0
MLINESTYLE
  5
18
102
{ACAD_REACTORS
330
17
102
}
100
AcDbMlineStyle
  2
STANDARD
 70
0
  3

 62
256
 51
90.0
 52
90.0
 71
2
 49
0.5
 62
256
  6
BYLAYER
 49
-0.5
 62
256
  6
BYLAYER
  0
LAYOUT
  5
448
102
{ACAD_REACTORS
330
1A
102
}
100
AcDbPlotSettings
  1

  2
none_device
  4
ANSI_A_(11.00_x_8.50_Inches)
  6

 40
0.0
 41
0.0
 42
0.0
 43
0.0
 44
279.4
 45
215.9
 46
0.0
 47
0.0
 48
0.0
 49
0.0
140
0.0
141
0.0
142
1.0
143
1.0
 70
1024
 72
0
 73
0
 74
0
  7

 75
0
147
1.0
148
0.0
149
0.0
100
AcDbLayout
  1
Model
 70
0
 71
0
 10
0.0
 20
0.0
 11
11.0
 21
8.5
 12
0.0
 22
0.0
 32
0.0
 14
0.0
 24
0.0
 34
0.0
 15
0.0
 25
0.0
 35
0.0
146
0.0
 13
0.0
 23
0.0
 33
0.0
 16
1.0
 26
0.0
 36
0.0
 17
0.0
 27
1.0
 37
0.0
 76
0
330
22D
345
0
346
0
  0
LAYOUT
  5
449
102
{ACAD_REACTORS
330
1A
102
}
100
AcDbPlotSettings
  1

  2
none_device
  4
ANSI_A_(11.00_x_8.50_Inches)
  6

 40
0.0
 41
0.0
 42
0.0
 43
0.0
 44
279.4
 45
215.9
 46
0.0
 47
0.0
 48
0.0
 49
0.0
140
0.0
141
0.0
142
1.0
143
1.0
 70
0
 72
0
 73
0
 74
0
  7

 75
0
147
1.0
148
0.0
149
0.0
100
AcDbLayout
  1
Layout1
 70
0
 71
1
 10
0.0
 20
0.0
 11
11.0
 21
8.5
 12
0.0
 22
0.0
 32
0.0
 14
0.0
 24
0.0
 34
0.0
 15
0.0
 25
0.0
 35
0.0
146
0.0
 13
0.0
 23
0.0
 33
0.0
 16
1.0
 26
0.0
 36
0.0
 17
0.0
 27
1.0
 37
0.0
 76
0
330
22E
345
0
346
0
  0
ENDSEC
  0
EOF
