999
DXF file: E:\BT Custom\CADOUTPUT\_TOP.dxf
999
Pro/ENGINEER 2018400 by Parametric Technology Corporation
  0
SECTION
  2
HEADER
  9
$ACADVER
  1
AC1018
  9
$DWGCODEPAGE
  3
ANSI_1252
  9
$EXTMAX
 10
22.0
 20
17.0
 30
0.0
  9
$EXTMIN
 10
0.0
 20
0.0
 30
0.0
  9
$LIMMIN
 10
0.0
 20
0.0
  9
$LIMMAX
 10
22.0
 20
17.0
  9
$VIEWCTR
 10
11.0
 20
8.5
  9
$VIEWSIZE
 40
17.0
  9
$CLAYER
  8
0
  9
$LTSCALE
 40
1.21
  9
$CELTYPE
  6
BYLAYER
  9
$DIMSCALE
 40
1.0
  9
$DIMASZ
 40
0.1
  9
$DIMEXO
 40
0.0625
  9
$DIMDLI
 40
0.836
  9
$DIMEXE
 40
0.125
  9
$DIMCEN
 40
0.198
  9
$DIMLFAC
 40
1.0
  9
$DIMBLK
  1
_FILLED
  9
$DIMALT
 70
1
  9
$DIMALTD
 70
2
  9
$DIMALTTD
 70
2
  9
$DIMALTF
 40
25.4
  9
$DIMTXT
 40
0.08
  9
$DIMTOL
 70
1
  9
$DIMLIM
 70
0
  9
$DIMTFAC
 40
1.0
  9
$DIMTP
 40
0.001
  9
$DIMTM
 40
0.001
  9
$DIMGAP
 40
0.09
  9
$DIMDSEP
 70
46
  9
$AUNITS
 70
0
  9
$PDMODE
 70
3
  9
$PDSIZE
 40
0.06
  9
$HANDSEED
  5
3D8
  9
$TILEMODE
 70
1
  9
$MEASUREMENT
 70
0
  9
$INSUNITS
 70
1
  0
ENDSEC
  0
SECTION
  2
CLASSES
  0
CLASS
  1
ACDBDICTIONARYWDFLT
  2
AcDbDictionaryWithDefault
  3
AutoCAD 2000
 90
0
 91
1
280
0
281
0
  0
CLASS
  1
ACDBPLACEHOLDER
  2
AcDbPlaceHolder
  3
AutoCAD 2000
 90
0
 91
1
280
0
281
0
  0
CLASS
  1
LAYOUT
  2
AcDbLayout
  3
AutoCAD 2000
 90
0
 91
0
280
0
281
0
  0
ENDSEC
  0
SECTION
  2
TABLES
  0
TABLE
  2
VPORT
  5
8
100
AcDbSymbolTable
 70
2
  0
VPORT
  5
1F4
100
AcDbSymbolTableRecord
100
AcDbViewportTableRecord
  2
*ACTIVE
 70
0
 10
0.0
 20
0.0
 11
1.0
 21
1.0
 12
11.0
 22
8.5
 13
0.0
 23
0.0
 14
1.0
 24
1.0
 15
0.0
 25
0.0
 16
0.0
 26
0.0
 36
1.0
 17
0.0
 27
0.0
 37
0.0
 40
17.0
 41
1.2941176471
 42
50.0
 43
0.0
 44
0.0
 50
0.0
 51
0.0
 71
0
 72
100
 73
1
 74
1
 75
0
 76
0
 77
0
 78
0
  0
ENDTAB
  0
TABLE
  2
LTYPE
  5
5
100
AcDbSymbolTable
 70
6
  0
LTYPE
  5
14
100
AcDbSymbolTableRecord
100
AcDbLinetypeTableRecord
  2
BYBLOCK
 70
0
  3

 72
65
 73
0
 40
0.0
  0
LTYPE
  5
15
100
AcDbSymbolTableRecord
100
AcDbLinetypeTableRecord
  2
BYLAYER
 70
0
  3

 72
65
 73
0
 40
0.0
  0
LTYPE
  5
16
100
AcDbSymbolTableRecord
100
AcDbLinetypeTableRecord
  2
CONTINUOUS
 70
64
  3
Solid line
 72
65
 73
0
 40
0.0
  0
LTYPE
  5
1F5
100
AcDbSymbolTableRecord
100
AcDbLinetypeTableRecord
  2
CENTER
 70
64
  3
____ _ ____ _ ____ _ ____ _ ____ _ ____ _ ____
 72
65
 73
4
 40
0.6
 49
0.375
 74
0
 49
-0.075
 74
0
 49
0.075
 74
0
 49
-0.075
 74
0
  0
LTYPE
  5
1F6
100
AcDbSymbolTableRecord
100
AcDbLinetypeTableRecord
  2
HIDDEN
 70
64
  3
- - - - - - - - - - - - - - - - - - - -
 72
65
 73
2
 40
0.2
 49
0.1
 74
0
 49
-0.1
 74
0
  0
LTYPE
  5
1F7
100
AcDbSymbolTableRecord
100
AcDbLinetypeTableRecord
  2
PHANTOM
 70
64
  3
_____ _ _ _____ _ _ _____ _ _ _____
 72
65
 73
6
 40
0.8
 49
0.45
 74
0
 49
-0.05
 74
0
 49
0.1
 74
0
 49
-0.05
 74
0
 49
0.1
 74
0
 49
-0.05
 74
0
  0
LTYPE
  5
1F8
100
AcDbSymbolTableRecord
100
AcDbLinetypeTableRecord
  2
DOT
 70
64
  3
. . . . . . . . . . . . . . . . . . . .
 72
65
 73
2
 40
0.2
 49
0.1
 74
0
 49
-0.1
 74
0
  0
LTYPE
  5
1F9
100
AcDbSymbolTableRecord
100
AcDbLinetypeTableRecord
  2
DASHED
 70
64
  3
- - - - - - - - - - - - - - - - - - - -
 72
65
 73
2
 40
0.2
 49
0.1
 74
0
 49
-0.1
 74
0
  0
ENDTAB
  0
TABLE
  2
LAYER
  5
2
100
AcDbSymbolTable
 70
36
  0
LAYER
  5
10
100
AcDbSymbolTableRecord
100
AcDbLayerTableRecord
  2
0
 70
0
 62
7
  6
CONTINUOUS
370
-3
390
F
  0
LAYER
  5
1FA
100
AcDbSymbolTableRecord
100
AcDbLayerTableRecord
  2
DEFAULT_1
 70
0
 62
7
  6
CENTER
370
-3
390
F
  0
LAYER
  5
1FB
100
AcDbSymbolTableRecord
100
AcDbLayerTableRecord
  2
DEFAULT_2
 70
0
 62
8
  6
HIDDEN
370
-3
390
F
  0
LAYER
  5
1FC
100
AcDbSymbolTableRecord
100
AcDbLayerTableRecord
  2
DEFAULT_3
 70
0
 62
7
  6
PHANTOM
370
-3
390
F
  0
LAYER
  5
1FD
100
AcDbSymbolTableRecord
100
AcDbLayerTableRecord
  2
ALL_FEATURES
 70
0
 62
7
  6
CONTINUOUS
370
-3
390
F
  0
LAYER
  5
1FE
100
AcDbSymbolTableRecord
100
AcDbLayerTableRecord
  2
AXES_FEATURES
 70
0
 62
7
  6
CONTINUOUS
370
-3
390
F
  0
LAYER
  5
1FF
100
AcDbSymbolTableRecord
100
AcDbLayerTableRecord
  2
DIMENSIONS
 70
0
 62
7
  6
CONTINUOUS
370
-3
390
F
  0
ENDTAB
  0
TABLE
  2
STYLE
  5
3
100
AcDbSymbolTable
 70
1
  0
STYLE
  5
11
100
AcDbSymbolTableRecord
100
AcDbTextStyleTableRecord
  2
STANDARD
 70
0
 40
0.0
 41
0.8
 50
0.0
 71
0
 42
0.2
  3
txt
  4

  0
STYLE
  5
200
100
AcDbSymbolTableRecord
100
AcDbTextStyleTableRecord
  2
TEXTSTYLE_1
 70
0
 40
0.0
 41
0.8
 50
0.0
 71
0
 42
0.2
  3
gdt
  4

  0
ENDTAB
  0
TABLE
  2
VIEW
  5
6
100
AcDbSymbolTable
 70
0
  0
ENDTAB
  0
TABLE
  2
UCS
  5
7
100
AcDbSymbolTable
 70
0
  0
ENDTAB
  0
TABLE
  2
APPID
  5
9
100
AcDbSymbolTable
 70
1
  0
APPID
  5
201
100
AcDbSymbolTableRecord
100
AcDbRegAppTableRecord
  2
ACAD
 70
0
  0
ENDTAB
  0
TABLE
  2
BLOCK_RECORD
  5
1
100
AcDbSymbolTable
 70
0
  0
BLOCK_RECORD
  5
202
100
AcDbSymbolTableRecord
100
AcDbBlockTableRecord
  2
*Model_Space
  0
BLOCK_RECORD
  5
203
100
AcDbSymbolTableRecord
100
AcDbBlockTableRecord
  2
*Paper_Space
  0
BLOCK_RECORD
  5
204
100
AcDbSymbolTableRecord
100
AcDbBlockTableRecord
  2
_FILLED
  0
ENDTAB
  0
TABLE
  2
DIMSTYLE
  5
A
100
AcDbSymbolTable
 70
1
100
AcDbDimStyleTable
 71
0
  0
DIMSTYLE
105
205
100
AcDbSymbolTableRecord
100
AcDbDimStyleTableRecord
  2
STANDARD
 70
0
  3

  4

 40
1.0
 41
0.1
 42
0.0625
 43
0.38
 44
0.125
 45
0.0
 46
0.0
 47
0.001
 48
0.001
140
0.08
141
0.09
142
0.0
143
25.4
144
1.0
145
0.0
146
1.0
147
0.09
 71
1.0
 72
0.0
 73
1
 74
1
 75
0
 76
0
 77
0
 78
4
 79
1
170
1
171
2
172
0
173
0
174
0
175
0
176
0
177
0
178
0
270
2
179
3
271
3
272
3
273
2
274
2
275
0
280
0
281
0
282
0
283
1
284
4
285
0
286
0
287
3
288
0
340
11
278
46
341
204
342
204
343
204
344
204
  0
ENDTAB
  0
ENDSEC
  0
SECTION
  2
BLOCKS
  0
BLOCK
  5
20
100
AcDbEntity
  8
0
100
AcDbBlockBegin
  2
*Model_Space
 70
0
 10
0.0
 20
0.0
 30
0.0
  3
*Model_Space
  1

  0
ENDBLK
  5
21
100
AcDbEntity
  8
0
100
AcDbBlockEnd
  0
BLOCK
  5
1C
100
AcDbEntity
  8
0
100
AcDbBlockBegin
  2
*Paper_Space
 70
0
 10
0.0
 20
0.0
 30
0.0
  3
*Paper_Space
  1

  0
ENDBLK
  5
1D
100
AcDbEntity
  8
0
100
AcDbBlockEnd
  0
BLOCK
  5
206
100
AcDbEntity
  8
0
100
AcDbBlockBegin
  2
_FILLED
 70
64
 10
0.0
 20
0.0
  3
_FILLED
  1

  0
SOLID
  5
207
100
AcDbEntity
  8
0
  6
BYBLOCK
 62
0
100
AcDbTrace
 10
0.0
 20
0.0
 11
-1.0
 21
0.2
 12
-1.0
 22
-0.2
 13
-1.0
 23
-0.2
  0
ENDBLK
  5
208
100
AcDbEntity
  8
0
  6
BYBLOCK
 62
0
100
AcDbBlockEnd
  0
ENDSEC
  0
SECTION
  2
ENTITIES
  0
LINE
  5
209
100
AcDbEntity
  8
0
100
AcDbLine
 62
7
  6
CONTINUOUS
 10
4.0158183383
 20
11.5683648047
 11
4.0158183383
 21
12.0083648047
  0
LINE
  5
20A
100
AcDbEntity
  8
0
100
AcDbLine
 62
9
  6
CONTINUOUS
 10
4.0458183383
 20
12.0383648047
 11
4.0458183383
 21
11.5383648047
  0
LINE
  5
20B
100
AcDbEntity
  8
0
100
AcDbLine
 62
9
  6
CONTINUOUS
 10
6.5084467167
 20
11.3085827674
 11
6.3042508908
 21
11.1043858225
  0
LINE
  5
20C
100
AcDbEntity
  8
0
100
AcDbLine
 62
9
  6
CONTINUOUS
 10
7.7312973206
 20
12.5314322522
 11
7.5271069982
 21
12.3272403088
  0
LINE
  5
20D
100
AcDbEntity
  8
0
100
AcDbLine
 62
9
  6
CONTINUOUS
 10
7.5861898403
 20
12.268147571
 11
7.7903857857
 21
12.472343787
  0
LINE
  5
20E
100
AcDbEntity
  8
0
100
AcDbLine
 62
9
  6
CONTINUOUS
 10
6.363339356
 20
11.0452973573
 11
6.5675327021
 21
11.2494888233
  0
LINE
  5
20F
100
AcDbEntity
  8
0
100
AcDbLine
 62
7
  6
CONTINUOUS
 10
11.7656871462
 20
1.5503494043
 11
10.3289495304
 21
1.5503494043
  0
LINE
  5
210
100
AcDbEntity
  8
0
100
AcDbLine
 62
9
  6
CONTINUOUS
 10
10.3289495304
 20
1.5512989197
 11
11.7656871462
 21
1.5512989197
  0
LINE
  5
211
100
AcDbEntity
  8
0
100
AcDbLine
 62
9
  6
CONTINUOUS
 10
10.2664495304
 20
1.6128494043
 11
10.2673990566
 21
1.6128494043
  0
LINE
  5
212
100
AcDbEntity
  8
0
100
AcDbLine
 62
9
  6
CONTINUOUS
 10
11.8272376195
 20
1.6128494043
 11
11.8281871462
 21
1.6128494043
  0
LINE
  5
213
100
AcDbEntity
  8
0
100
AcDbLine
 62
9
  6
CONTINUOUS
 10
11.5402301789
 20
1.776755887
 11
10.5544064977
 21
1.776755887
  0
LINE
  5
214
100
AcDbEntity
  8
0
100
AcDbLine
 62
9
  6
CONTINUOUS
 10
10.4928560131
 20
1.8383063716
 11
11.6017806634
 21
1.8383063716
  0
LINE
  5
215
100
AcDbEntity
  8
0
100
AcDbLine
 62
7
  6
CONTINUOUS
 10
5.8523183383
 20
10.6533648048
 11
5.8523183383
 21
11.5383648047
  0
LINE
  5
216
100
AcDbEntity
  8
0
100
AcDbLine
 62
7
  6
CONTINUOUS
 10
5.8523183383
 20
12.0383648047
 11
5.8523183383
 21
12.9233648047
  0
LINE
  5
217
100
AcDbEntity
  8
0
100
AcDbLine
 62
9
  6
CONTINUOUS
 10
5.8823183383
 20
12.9233648047
 11
5.8823183383
 21
12.0383648047
  0
LINE
  5
218
100
AcDbEntity
  8
0
100
AcDbLine
 62
9
  6
CONTINUOUS
 10
5.8823183383
 20
11.5383648047
 11
5.8823183383
 21
10.6533648047
  0
LINE
  5
219
100
AcDbEntity
  8
0
100
AcDbLine
 62
9
  6
CONTINUOUS
 10
5.9123183383
 20
12.9833648047
 11
5.9123183383
 21
12.9533648047
  0
LINE
  5
21A
100
AcDbEntity
  8
0
100
AcDbLine
 62
9
  6
CONTINUOUS
 10
5.9123183383
 20
10.6233648047
 11
5.9123183383
 21
10.5933648047
  0
LINE
  5
21B
100
AcDbEntity
  8
0
100
AcDbLine
 62
7
  6
CONTINUOUS
 10
6.1748183383
 20
10.9758648048
 11
6.1748183383
 21
11.5383648047
  0
LINE
  5
21C
100
AcDbEntity
  8
0
100
AcDbLine
 62
7
  6
CONTINUOUS
 10
6.1748183383
 20
12.0383648047
 11
6.1748183383
 21
12.6008648047
  0
LINE
  5
21D
100
AcDbEntity
  8
0
100
AcDbLine
 62
9
  6
CONTINUOUS
 10
6.2048183383
 20
12.6008648047
 11
6.2048183383
 21
12.0383648047
  0
LINE
  5
21E
100
AcDbEntity
  8
0
100
AcDbLine
 62
9
  6
CONTINUOUS
 10
6.2048183383
 20
11.5383648047
 11
6.2048183383
 21
10.9758648047
  0
LINE
  5
21F
100
AcDbEntity
  8
0
100
AcDbLine
 62
9
  6
CONTINUOUS
 10
6.2348183383
 20
12.6608648047
 11
6.2348183383
 21
12.6308648047
  0
LINE
  5
220
100
AcDbEntity
  8
0
100
AcDbLine
 62
9
  6
CONTINUOUS
 10
6.2348183383
 20
10.9458648047
 11
6.2348183383
 21
10.9158648047
  0
LINE
  5
221
100
AcDbEntity
  8
0
100
AcDbLine
 62
9
  6
CONTINUOUS
 10
6.2747066582
 20
11.1043858225
 11
6.2747066582
 21
11.5383648047
  0
LINE
  5
222
100
AcDbEntity
  8
0
100
AcDbLine
 62
9
  6
CONTINUOUS
 10
6.2747066582
 20
12.0383648047
 11
6.2747066582
 21
12.472343787
  0
LINE
  5
223
100
AcDbEntity
  8
0
100
AcDbLine
 62
9
  6
CONTINUOUS
 10
6.3042508908
 20
12.472343787
 11
6.3042508908
 21
12.0383648047
  0
LINE
  5
224
100
AcDbEntity
  8
0
100
AcDbLine
 62
9
  6
CONTINUOUS
 10
6.3042508908
 20
11.5383648047
 11
6.3042508908
 21
11.1043858225
  0
LINE
  5
225
100
AcDbEntity
  8
0
100
AcDbLine
 62
9
  6
CONTINUOUS
 10
6.3633393509
 20
12.5609764848
 11
6.3633393509
 21
12.5314322522
  0
LINE
  5
226
100
AcDbEntity
  8
0
100
AcDbLine
 62
9
  6
CONTINUOUS
 10
6.363339356
 20
11.0452973573
 11
6.363339356
 21
11.0157531247
  0
LINE
  5
227
100
AcDbEntity
  8
0
100
AcDbLine
 62
7
  6
CONTINUOUS
 10
6.5083183383
 20
11.3093648048
 11
6.5083183383
 21
11.5383648047
  0
LINE
  5
228
100
AcDbEntity
  8
0
100
AcDbLine
 62
7
  6
CONTINUOUS
 10
6.5083183383
 20
12.0383648047
 11
6.5083183383
 21
12.2673648047
  0
LINE
  5
229
100
AcDbEntity
  8
0
100
AcDbLine
 62
9
  6
CONTINUOUS
 10
6.5383183383
 20
12.2673648047
 11
6.5383183383
 21
12.0383648047
  0
LINE
  5
22A
100
AcDbEntity
  8
0
100
AcDbLine
 62
9
  6
CONTINUOUS
 10
6.5383183383
 20
11.5383648047
 11
6.5383183383
 21
11.3093648047
  0
LINE
  5
22B
100
AcDbEntity
  8
0
100
AcDbLine
 62
9
  6
CONTINUOUS
 10
6.5683183383
 20
12.3273648047
 11
6.5683183383
 21
12.2973648047
  0
LINE
  5
22C
100
AcDbEntity
  8
0
100
AcDbLine
 62
9
  6
CONTINUOUS
 10
6.5683183383
 20
11.2793648047
 11
6.5683183383
 21
11.2493648047
  0
LINE
  5
22D
100
AcDbEntity
  8
0
100
AcDbLine
 62
9
  6
CONTINUOUS
 10
6.6438183383
 20
11.5383648047
 11
6.6438183383
 21
12.0383648047
  0
LINE
  5
22E
100
AcDbEntity
  8
0
100
AcDbLine
 62
7
  6
CONTINUOUS
 10
6.7038183383
 20
11.4748648047
 11
6.7038183383
 21
12.1018648047
  0
LINE
  5
22F
100
AcDbEntity
  8
0
100
AcDbLine
 62
9
  6
CONTINUOUS
 10
6.7338183383
 20
12.1318648047
 11
6.7338183383
 21
11.4448648047
  0
LINE
  5
230
100
AcDbEntity
  8
0
100
AcDbLine
 62
9
  6
CONTINUOUS
 10
11.8281871462
 20
2.9657441857
 11
11.8272376195
 21
2.9657441857
  0
LINE
  5
231
100
AcDbEntity
  8
0
100
AcDbLine
 62
9
  6
CONTINUOUS
 10
10.2673990566
 20
2.9657441857
 11
10.2664495304
 21
2.9657441857
  0
LINE
  5
232
100
AcDbEntity
  8
0
100
AcDbLine
 62
9
  6
CONTINUOUS
 10
7.3608183383
 20
11.4448648047
 11
7.3608183383
 21
12.1318648047
  0
LINE
  5
233
100
AcDbEntity
  8
0
100
AcDbLine
 62
7
  6
CONTINUOUS
 10
7.3908183383
 20
12.1018648047
 11
7.3908183383
 21
11.4748648047
  0
LINE
  5
234
100
AcDbEntity
  8
0
100
AcDbLine
 62
7
  6
CONTINUOUS
 10
7.4440912436
 20
11.538543871
 11
7.4440912436
 21
11.5683648047
  0
LINE
  5
235
100
AcDbEntity
  8
0
100
AcDbLine
 62
7
  6
CONTINUOUS
 10
7.4440912436
 20
12.0083648047
 11
7.4440912436
 21
12.0381857385
  0
LINE
  5
236
100
AcDbEntity
  8
0
100
AcDbLine
 62
9
  6
CONTINUOUS
 10
7.4441516716
 20
11.5683648047
 11
7.4441516716
 21
12.0083648046
  0
LINE
  5
237
100
AcDbEntity
  8
0
100
AcDbLine
 62
9
  6
CONTINUOUS
 10
10.3499800513
 20
3.401741881
 11
10.3509295668
 21
3.401741881
  0
LINE
  5
238
100
AcDbEntity
  8
0
100
AcDbLine
 62
9
  6
CONTINUOUS
 10
11.7437071098
 20
3.4017418813
 11
11.7446566252
 21
3.4017418813
  0
LINE
  5
239
100
AcDbEntity
  8
0
100
AcDbLine
 62
9
  6
CONTINUOUS
 10
11.5402301789
 20
1.776755887
 11
11.7656871462
 21
1.5512989197
  0
LINE
  5
23A
100
AcDbEntity
  8
0
100
AcDbLine
 62
9
  6
CONTINUOUS
 10
11.8272376308
 20
1.6128494043
 11
11.6017806634
 21
1.8383063716
  0
LINE
  5
23B
100
AcDbEntity
  8
0
100
AcDbLine
 62
7
  6
CONTINUOUS
 10
7.4708183383
 20
12.0086434452
 11
7.4708183383
 21
11.5680861643
  0
LINE
  5
23C
100
AcDbEntity
  8
0
100
AcDbLine
 62
9
  6
CONTINUOUS
 10
7.5263183383
 20
11.2493648047
 11
7.5263183383
 21
11.2793648047
  0
LINE
  5
23D
100
AcDbEntity
  8
0
100
AcDbLine
 62
9
  6
CONTINUOUS
 10
7.5263183383
 20
12.2973648047
 11
7.5263183383
 21
12.3273648047
  0
LINE
  5
23E
100
AcDbEntity
  8
0
100
AcDbLine
 62
9
  6
CONTINUOUS
 10
7.5563183383
 20
11.3093648047
 11
7.5563183383
 21
12.2673648047
  0
LINE
  5
23F
100
AcDbEntity
  8
0
100
AcDbLine
 62
7
  6
CONTINUOUS
 10
7.5863183383
 20
12.2673648047
 11
7.5863183383
 21
11.3093648048
  0
LINE
  5
240
100
AcDbEntity
  8
0
100
AcDbLine
 62
9
  6
CONTINUOUS
 10
7.7312973257
 20
11.0157531247
 11
7.7312973257
 21
11.0452973573
  0
LINE
  5
241
100
AcDbEntity
  8
0
100
AcDbLine
 62
9
  6
CONTINUOUS
 10
7.7312973206
 20
12.5314322522
 11
7.7312973206
 21
12.5609764848
  0
LINE
  5
242
100
AcDbEntity
  8
0
100
AcDbLine
 62
9
  6
CONTINUOUS
 10
7.7903857857
 20
11.1043858224
 11
7.7903857857
 21
12.472343787
  0
LINE
  5
243
100
AcDbEntity
  8
0
100
AcDbLine
 62
9
  6
CONTINUOUS
 10
7.8199300183
 20
12.472343787
 11
7.8199300183
 21
11.1043858224
  0
LINE
  5
244
100
AcDbEntity
  8
0
100
AcDbLine
 62
9
  6
CONTINUOUS
 10
7.8598183383
 20
10.9158648047
 11
7.8598183383
 21
10.9458648047
  0
LINE
  5
245
100
AcDbEntity
  8
0
100
AcDbLine
 62
9
  6
CONTINUOUS
 10
7.8598183383
 20
12.6308648047
 11
7.8598183383
 21
12.6608648047
  0
LINE
  5
246
100
AcDbEntity
  8
0
100
AcDbLine
 62
9
  6
CONTINUOUS
 10
7.8898183383
 20
10.9758648047
 11
7.8898183383
 21
12.6008648047
  0
LINE
  5
247
100
AcDbEntity
  8
0
100
AcDbLine
 62
7
  6
CONTINUOUS
 10
7.9198183383
 20
12.6008648047
 11
7.9198183383
 21
10.9758648048
  0
LINE
  5
248
100
AcDbEntity
  8
0
100
AcDbLine
 62
9
  6
CONTINUOUS
 10
12.1026244802
 20
12.9052214312
 11
11.5402301789
 21
12.3428271299
  0
LINE
  5
249
100
AcDbEntity
  8
0
100
AcDbLine
 62
9
  6
CONTINUOUS
 10
10.260390762
 20
11.062987713
 11
9.9304617118
 21
10.7330586627
  0
LINE
  5
24A
100
AcDbEntity
  8
0
100
AcDbLine
 62
9
  6
CONTINUOUS
 10
9.9920121963
 20
10.6715081782
 11
10.3137548191
 21
10.993250801
  0
LINE
  5
24B
100
AcDbEntity
  8
0
100
AcDbLine
 62
9
  6
CONTINUOUS
 10
11.6017806634
 20
12.2812766453
 11
12.1641749648
 21
12.8436709467
  0
LINE
  5
24C
100
AcDbEntity
  8
0
100
AcDbLine
 62
9
  6
CONTINUOUS
 10
8.1823183383
 20
10.5933648047
 11
8.1823183383
 21
10.6233648047
  0
LINE
  5
24D
100
AcDbEntity
  8
0
100
AcDbLine
 62
9
  6
CONTINUOUS
 10
8.1823183383
 20
12.9533648047
 11
8.1823183383
 21
12.9833648047
  0
LINE
  5
24E
100
AcDbEntity
  8
0
100
AcDbLine
 62
9
  6
CONTINUOUS
 10
8.2123183383
 20
10.6533648047
 11
8.2123183383
 21
12.9233648047
  0
LINE
  5
24F
100
AcDbEntity
  8
0
100
AcDbLine
 62
7
  6
CONTINUOUS
 10
8.2423183383
 20
12.9233648047
 11
8.2423183383
 21
10.6533648048
  0
LINE
  5
250
100
AcDbEntity
  8
0
100
AcDbLine
 62
7
  6
CONTINUOUS
 10
9.4223183419
 20
10.2408934342
 11
9.4223183419
 21
13.3358361753
  0
LINE
  5
251
100
AcDbEntity
  8
0
100
AcDbLine
 62
9
  6
CONTINUOUS
 10
9.4998469677
 20
13.4133648011
 11
9.4998469677
 21
10.1633648084
  0
LINE
  5
252
100
AcDbEntity
  8
0
100
AcDbLine
 62
7
  6
CONTINUOUS
 10
9.7723183383
 20
10.575864803
 11
9.7723183383
 21
13.0008648047
  0
LINE
  5
253
100
AcDbEntity
  8
0
100
AcDbLine
 62
9
  6
CONTINUOUS
 10
9.8048183383
 20
13.0008648047
 11
9.8048183383
 21
10.5758648047
  0
LINE
  5
254
100
AcDbEntity
  8
0
100
AcDbLine
 62
9
  6
CONTINUOUS
 10
9.8348183383
 20
13.0633648047
 11
9.8348183383
 21
13.0308648047
  0
LINE
  5
255
100
AcDbEntity
  8
0
100
AcDbLine
 62
9
  6
CONTINUOUS
 10
9.8348183383
 20
10.5458648047
 11
9.8348183383
 21
10.5133648047
  0
LINE
  5
256
100
AcDbEntity
  8
0
100
AcDbLine
 62
9
  6
CONTINUOUS
 10
9.8984554598
 20
10.7330586628
 11
9.8984554598
 21
12.8436709467
  0
LWPOLYLINE
  5
257
100
AcDbEntity
  8
0
100
AcDbPolyline
 62
7
  6
CONTINUOUS
 90
10
 70
0
 10
11.7916003242
 20
3.0134125043
 10
11.7915333135
 20
3.0135214532
 10
11.7870797934
 20
3.0225105544
 10
11.7793818635
 20
3.0448700701
 10
11.7706068423
 20
3.0807436891
 10
11.7620084785
 20
3.1298270757
 10
11.7544841178
 20
3.1911692157
 10
11.7487615429
 20
3.2628159155
 10
11.7454011269
 20
3.3419219471
 10
11.7446566252
 20
3.4017418813
  0
LINE
  5
258
100
AcDbEntity
  8
0
100
AcDbLine
 62
9
  6
CONTINUOUS
 10
9.9304617118
 20
12.8436709467
 11
9.9304617118
 21
10.7330586627
  0
LINE
  5
259
100
AcDbEntity
  8
0
100
AcDbLine
 62
9
  6
CONTINUOUS
 10
9.9920121963
 20
12.9372276832
 11
9.9920121963
 21
12.9052214312
  0
LINE
  5
25A
100
AcDbEntity
  8
0
100
AcDbLine
 62
9
  6
CONTINUOUS
 10
9.9920121943
 20
10.6715081782
 11
9.9920121943
 21
10.6395019262
  0
LINE
  5
25B
100
AcDbEntity
  8
0
100
AcDbLine
 62
7
  6
CONTINUOUS
 10
10.2664495304
 20
1.6128494043
 11
10.2664495304
 21
2.9657441857
  0
LINE
  5
25C
100
AcDbEntity
  8
0
100
AcDbLine
 62
9
  6
CONTINUOUS
 10
10.2673990674
 20
2.9657659142
 11
10.2673990458
 21
1.6128494043
  0
LINE
  5
25D
100
AcDbEntity
  8
0
100
AcDbLine
 62
9
  6
CONTINUOUS
 10
10.3289495304
 20
1.5512989197
 11
10.3289495304
 21
1.5503494043
  0
LINE
  5
25E
100
AcDbEntity
  8
0
100
AcDbLine
 62
7
  6
CONTINUOUS
 10
10.3499800513
 20
3.401741881
 11
10.3499800513
 21
10.6321343207
  0
LINE
  5
25F
100
AcDbEntity
  8
0
100
AcDbLine
 62
9
  6
CONTINUOUS
 10
10.3509295668
 20
10.632134321
 11
10.3509295668
 21
3.401741881
  0
LINE
  5
260
100
AcDbEntity
  8
0
100
AcDbLine
 62
9
  6
CONTINUOUS
 10
10.4928560131
 20
1.8383063716
 11
10.4928560131
 21
12.2812766453
  0
LWPOLYLINE
  5
261
100
AcDbEntity
  8
0
100
AcDbPolyline
 62
7
  6
CONTINUOUS
 90
9
 70
0
 10
10.3499800514
 20
3.401741881
 10
10.3491921867
 20
3.3402154236
 10
10.3457891915
 20
3.2614090027
 10
10.3400449276
 20
3.1901021231
 10
10.3325169235
 20
3.1290781809
 10
10.323929815
 20
3.0802638127
 10
10.3151762286
 20
3.0445994771
 10
10.3075064543
 20
3.022392167
 10
10.3055102844
 20
3.017952314
  0
LINE
  5
262
100
AcDbEntity
  8
0
100
AcDbLine
 62
9
  6
CONTINUOUS
 10
10.5544064977
 20
12.3428271299
 11
10.5544064977
 21
1.776755887
  0
LINE
  5
263
100
AcDbEntity
  8
0
100
AcDbLine
 62
7
  6
CONTINUOUS
 10
10.6598183383
 20
11.4638648047
 11
10.6598183383
 21
12.1128648047
  0
LINE
  5
264
100
AcDbEntity
  8
0
100
AcDbLine
 62
9
  6
CONTINUOUS
 10
10.6898183383
 20
12.1128648047
 11
10.6898183383
 21
11.4638648047
  0
LINE
  5
265
100
AcDbEntity
  8
0
100
AcDbLine
 62
9
  6
CONTINUOUS
 10
10.7228183383
 20
12.1758648047
 11
10.7228183383
 21
12.1458648047
  0
LINE
  5
266
100
AcDbEntity
  8
0
100
AcDbLine
 62
9
  6
CONTINUOUS
 10
10.7228183383
 20
11.4308648047
 11
10.7228183383
 21
11.4008648047
  0
LINE
  5
267
100
AcDbEntity
  8
0
100
AcDbLine
 62
9
  6
CONTINUOUS
 10
15.7312973206
 20
12.5314322522
 11
15.5271039745
 21
12.3272407861
  0
LINE
  5
268
100
AcDbEntity
  8
0
100
AcDbLine
 62
9
  6
CONTINUOUS
 10
14.5084468363
 20
11.3085820385
 11
14.3042508908
 21
11.1043858225
  0
LINE
  5
269
100
AcDbEntity
  8
0
100
AcDbLine
 62
9
  6
CONTINUOUS
 10
15.5861899599
 20
12.2681468421
 11
15.7903857857
 21
12.472343787
  0
LINE
  5
26A
100
AcDbEntity
  8
0
100
AcDbLine
 62
9
  6
CONTINUOUS
 10
14.363339356
 20
11.0452973573
 11
14.5675296783
 21
11.2494893006
  0
LINE
  5
26B
100
AcDbEntity
  8
0
100
AcDbLine
 62
9
  6
CONTINUOUS
 10
11.3718183383
 20
11.4008648047
 11
11.3718183383
 21
11.4308648047
  0
LINE
  5
26C
100
AcDbEntity
  8
0
100
AcDbLine
 62
9
  6
CONTINUOUS
 10
11.3718183383
 20
12.1458648047
 11
11.3718183383
 21
12.1758648047
  0
LINE
  5
26D
100
AcDbEntity
  8
0
100
AcDbLine
 62
9
  6
CONTINUOUS
 10
11.4048183383
 20
11.4638648047
 11
11.4048183383
 21
12.1128648047
  0
LINE
  5
26E
100
AcDbEntity
  8
0
100
AcDbLine
 62
7
  6
CONTINUOUS
 10
11.4348183383
 20
12.1128648047
 11
11.4348183383
 21
11.4638648047
  0
LINE
  5
26F
100
AcDbEntity
  8
0
100
AcDbLine
 62
9
  6
CONTINUOUS
 10
11.5402301789
 20
1.776755887
 11
11.5402301789
 21
12.3428271299
  0
LINE
  5
270
100
AcDbEntity
  8
0
100
AcDbLine
 62
9
  6
CONTINUOUS
 10
11.6017806634
 20
12.2812766453
 11
11.6017806634
 21
1.8383063716
  0
LWPOLYLINE
  5
271
100
AcDbEntity
  8
0
100
AcDbPolyline
 62
7
  6
CONTINUOUS
 90
9
 70
0
 10
11.7446566252
 20
10.632134321
 10
11.7454401748
 20
10.6934922076
 10
11.7488050709
 20
10.7717758987
 10
11.7544640861
 20
10.842508848
 10
11.7618834251
 20
10.9031990516
 10
11.7703844692
 20
10.9520589988
 10
11.7791354463
 20
10.9881581304
 10
11.7869260944
 20
11.0109969005
 10
11.7889768242
 20
11.0156120897
  0
LINE
  5
272
100
AcDbEntity
  8
0
100
AcDbLine
 62
9
  6
CONTINUOUS
 10
6.3042508908
 20
12.472343787
 11
6.5084423776
 21
12.2681505725
  0
LINE
  5
273
100
AcDbEntity
  8
0
100
AcDbLine
 62
9
  6
CONTINUOUS
 10
7.5271017959
 20
11.2494934163
 11
7.7312973205
 21
11.0452973573
  0
LINE
  5
274
100
AcDbEntity
  8
0
100
AcDbLine
 62
9
  6
CONTINUOUS
 10
7.7903857857
 20
11.1043858224
 11
7.586193837
 21
11.3085761107
  0
LINE
  5
275
100
AcDbEntity
  8
0
100
AcDbLine
 62
9
  6
CONTINUOUS
 10
6.5675366477
 20
12.3272364833
 11
6.363339356
 21
12.5314322522
  0
LINE
  5
276
100
AcDbEntity
  8
0
100
AcDbLine
 62
9
  6
CONTINUOUS
 10
11.7437071098
 20
3.401741881
 11
11.7437071098
 21
10.632134321
  0
LINE
  5
277
100
AcDbEntity
  8
0
100
AcDbLine
 62
7
  6
CONTINUOUS
 10
11.7446566252
 20
10.632134321
 11
11.7446566252
 21
3.4017418813
  0
LINE
  5
278
100
AcDbEntity
  8
0
100
AcDbLine
 62
9
  6
CONTINUOUS
 10
11.7656871462
 20
1.5503494043
 11
11.7656871462
 21
1.5512989197
  0
LINE
  5
279
100
AcDbEntity
  8
0
100
AcDbLine
 62
9
  6
CONTINUOUS
 10
11.8272376308
 20
1.6128494043
 11
11.8272376083
 21
2.9658263959
  0
LINE
  5
27A
100
AcDbEntity
  8
0
100
AcDbLine
 62
7
  6
CONTINUOUS
 10
11.8281871462
 20
2.9657441857
 11
11.8281871462
 21
1.6128494043
  0
LINE
  5
27B
100
AcDbEntity
  8
0
100
AcDbLine
 62
9
  6
CONTINUOUS
 10
12.1026244802
 20
10.6395019262
 11
12.1026244802
 21
10.6715081782
  0
LINE
  5
27C
100
AcDbEntity
  8
0
100
AcDbLine
 62
9
  6
CONTINUOUS
 10
12.1026244823
 20
12.9052214312
 11
12.1026244823
 21
12.9372276832
  0
LINE
  5
27D
100
AcDbEntity
  8
0
100
AcDbLine
 62
9
  6
CONTINUOUS
 10
12.1641749648
 20
10.7330586628
 11
12.1641749648
 21
12.8436709467
  0
LINE
  5
27E
100
AcDbEntity
  8
0
100
AcDbLine
 62
9
  6
CONTINUOUS
 10
12.1961812168
 20
12.8436709467
 11
12.1961812168
 21
10.7330586628
  0
LINE
  5
27F
100
AcDbEntity
  8
0
100
AcDbLine
 62
9
  6
CONTINUOUS
 10
12.2598183383
 20
10.5133648047
 11
12.2598183383
 21
10.5458648047
  0
LINE
  5
280
100
AcDbEntity
  8
0
100
AcDbLine
 62
9
  6
CONTINUOUS
 10
12.2598183383
 20
13.0308648047
 11
12.2598183383
 21
13.0633648047
  0
LINE
  5
281
100
AcDbEntity
  8
0
100
AcDbLine
 62
9
  6
CONTINUOUS
 10
12.2898183383
 20
10.5758648047
 11
12.2898183383
 21
13.0008648047
  0
LINE
  5
282
100
AcDbEntity
  8
0
100
AcDbLine
 62
7
  6
CONTINUOUS
 10
12.3223183383
 20
13.0008648065
 11
12.3223183383
 21
10.5758648047
  0
LWPOLYLINE
  5
283
100
AcDbEntity
  8
0
100
AcDbPolyline
 62
7
  6
CONTINUOUS
 90
10
 70
0
 10
10.3030309213
 20
11.0204705155
 10
10.3031347786
 20
11.0203064549
 10
10.3077620628
 20
11.0108746677
 10
10.3155801853
 20
10.9878826518
 10
10.3243524871
 20
10.9515716611
 10
10.3328642524
 20
10.9024441207
 10
10.3402796388
 20
10.8414391169
 10
10.3459169424
 20
10.7703713311
 10
10.3492395839
 20
10.6917919065
 10
10.3499800514
 20
10.6321343207
  0
LINE
  5
284
100
AcDbEntity
  8
0
100
AcDbLine
 62
9
  6
CONTINUOUS
 10
12.5947897089
 20
10.1633648084
 11
12.5947897089
 21
13.4133648011
  0
LINE
  5
285
100
AcDbEntity
  8
0
100
AcDbLine
 62
7
  6
CONTINUOUS
 10
12.6723183347
 20
13.3358361753
 11
12.6723183347
 21
10.2408934342
  0
LINE
  5
286
100
AcDbEntity
  8
0
100
AcDbLine
 62
7
  6
CONTINUOUS
 10
13.8523183383
 20
10.6533648048
 11
13.8523183383
 21
12.9233648047
  0
LINE
  5
287
100
AcDbEntity
  8
0
100
AcDbLine
 62
9
  6
CONTINUOUS
 10
13.8823183383
 20
12.9233648047
 11
13.8823183383
 21
10.6533648047
  0
LINE
  5
288
100
AcDbEntity
  8
0
100
AcDbLine
 62
9
  6
CONTINUOUS
 10
13.9123183383
 20
12.9833648047
 11
13.9123183383
 21
12.9533648047
  0
LINE
  5
289
100
AcDbEntity
  8
0
100
AcDbLine
 62
9
  6
CONTINUOUS
 10
13.9123183383
 20
10.6233648047
 11
13.9123183383
 21
10.5933648047
  0
LINE
  5
28A
100
AcDbEntity
  8
0
100
AcDbLine
 62
7
  6
CONTINUOUS
 10
14.1748183383
 20
10.9758648048
 11
14.1748183383
 21
12.6008648047
  0
LINE
  5
28B
100
AcDbEntity
  8
0
100
AcDbLine
 62
7
  6
CONTINUOUS
 10
12.5947897089
 20
10.1633648084
 11
11.7446566252
 21
10.1633648084
  0
LINE
  5
28C
100
AcDbEntity
  8
0
100
AcDbLine
 62
7
  6
CONTINUOUS
 10
10.3499800513
 20
10.1633648084
 11
9.4998469677
 21
10.1633648084
  0
LINE
  5
28D
100
AcDbEntity
  8
0
100
AcDbLine
 62
9
  6
CONTINUOUS
 10
9.4223183419
 20
10.2408934341
 11
10.3499800513
 21
10.2408934341
  0
LINE
  5
28E
100
AcDbEntity
  8
0
100
AcDbLine
 62
9
  6
CONTINUOUS
 10
11.7446566252
 20
10.2408934341
 11
12.6723183347
 21
10.2408934341
  0
LINE
  5
28F
100
AcDbEntity
  8
0
100
AcDbLine
 62
7
  6
CONTINUOUS
 10
12.25981834
 20
10.5133648047
 11
11.7446566252
 21
10.5133648047
  0
LINE
  5
290
100
AcDbEntity
  8
0
100
AcDbLine
 62
7
  6
CONTINUOUS
 10
10.3499800513
 20
10.5133648047
 11
9.8348183383
 21
10.5133648047
  0
LINE
  5
291
100
AcDbEntity
  8
0
100
AcDbLine
 62
9
  6
CONTINUOUS
 10
9.8348183383
 20
10.5458648047
 11
10.3499800513
 21
10.5458648047
  0
LINE
  5
292
100
AcDbEntity
  8
0
100
AcDbLine
 62
9
  6
CONTINUOUS
 10
11.7446566252
 20
10.5458648047
 11
12.2598183383
 21
10.5458648047
  0
LINE
  5
293
100
AcDbEntity
  8
0
100
AcDbLine
 62
9
  6
CONTINUOUS
 10
9.7723183383
 20
10.5758648047
 11
9.8048183383
 21
10.5758648047
  0
LINE
  5
294
100
AcDbEntity
  8
0
100
AcDbLine
 62
9
  6
CONTINUOUS
 10
12.2898183383
 20
10.5758648047
 11
12.3223183383
 21
10.5758648047
  0
LINE
  5
295
100
AcDbEntity
  8
0
100
AcDbLine
 62
7
  6
CONTINUOUS
 10
16.1823183383
 20
10.5933648047
 11
13.9123183383
 21
10.5933648047
  0
LINE
  5
296
100
AcDbEntity
  8
0
100
AcDbLine
 62
7
  6
CONTINUOUS
 10
8.1823183383
 20
10.5933648047
 11
5.9123183383
 21
10.5933648047
  0
LINE
  5
297
100
AcDbEntity
  8
0
100
AcDbLine
 62
9
  6
CONTINUOUS
 10
5.9123183383
 20
10.6233648047
 11
8.1823183383
 21
10.6233648047
  0
LINE
  5
298
100
AcDbEntity
  8
0
100
AcDbLine
 62
9
  6
CONTINUOUS
 10
13.9123183383
 20
10.6233648047
 11
16.1823183383
 21
10.6233648047
  0
LINE
  5
299
100
AcDbEntity
  8
0
100
AcDbLine
 62
9
  6
CONTINUOUS
 10
9.9304617118
 20
12.8436709467
 11
10.4928560131
 21
12.2812766453
  0
LINE
  5
29A
100
AcDbEntity
  8
0
100
AcDbLine
 62
9
  6
CONTINUOUS
 10
11.7808749792
 20
10.9932576793
 11
12.1026244802
 21
10.6715081782
  0
LINE
  5
29B
100
AcDbEntity
  8
0
100
AcDbLine
 62
9
  6
CONTINUOUS
 10
12.1641749648
 20
10.7330586628
 11
11.8342459146
 21
11.062987713
  0
LINE
  5
29C
100
AcDbEntity
  8
0
100
AcDbLine
 62
9
  6
CONTINUOUS
 10
10.5544064977
 20
12.3428271299
 11
9.9920121963
 21
12.9052214312
  0
LINE
  5
29D
100
AcDbEntity
  8
0
100
AcDbLine
 62
9
  6
CONTINUOUS
 10
14.2048183383
 20
12.6008648047
 11
14.2048183383
 21
10.9758648047
  0
LINE
  5
29E
100
AcDbEntity
  8
0
100
AcDbLine
 62
9
  6
CONTINUOUS
 10
14.2348183383
 20
12.6608648047
 11
14.2348183383
 21
12.6308648047
  0
LINE
  5
29F
100
AcDbEntity
  8
0
100
AcDbLine
 62
9
  6
CONTINUOUS
 10
14.2348183383
 20
10.9458648047
 11
14.2348183383
 21
10.9158648047
  0
LINE
  5
2A0
100
AcDbEntity
  8
0
100
AcDbLine
 62
9
  6
CONTINUOUS
 10
14.2747066582
 20
11.1043858225
 11
14.2747066582
 21
12.472343787
  0
LINE
  5
2A1
100
AcDbEntity
  8
0
100
AcDbLine
 62
9
  6
CONTINUOUS
 10
14.3042508908
 20
12.472343787
 11
14.3042508908
 21
11.1043858225
  0
LINE
  5
2A2
100
AcDbEntity
  8
0
100
AcDbLine
 62
9
  6
CONTINUOUS
 10
14.3633393512
 20
12.5609764848
 11
14.3633393512
 21
12.5314322522
  0
LINE
  5
2A3
100
AcDbEntity
  8
0
100
AcDbLine
 62
9
  6
CONTINUOUS
 10
14.363339356
 20
11.0452973573
 11
14.363339356
 21
11.0157531247
  0
LINE
  5
2A4
100
AcDbEntity
  8
0
100
AcDbLine
 62
7
  6
CONTINUOUS
 10
14.5083183383
 20
11.3093648048
 11
14.5083183383
 21
12.2673648047
  0
LINE
  5
2A5
100
AcDbEntity
  8
0
100
AcDbLine
 62
9
  6
CONTINUOUS
 10
14.5383183383
 20
12.2673648047
 11
14.5383183383
 21
11.3093648047
  0
LINE
  5
2A6
100
AcDbEntity
  8
0
100
AcDbLine
 62
9
  6
CONTINUOUS
 10
14.5683183383
 20
12.3273648047
 11
14.5683183383
 21
12.2973648047
  0
LINE
  5
2A7
100
AcDbEntity
  8
0
100
AcDbLine
 62
9
  6
CONTINUOUS
 10
14.5683183383
 20
11.2793648047
 11
14.5683183383
 21
11.2493648047
  0
LINE
  5
2A8
100
AcDbEntity
  8
0
100
AcDbLine
 62
7
  6
CONTINUOUS
 10
14.6238183383
 20
11.5680861643
 11
14.6238183383
 21
12.0086434452
  0
LINE
  5
2A9
100
AcDbEntity
  8
0
100
AcDbLine
 62
9
  6
CONTINUOUS
 10
14.6504850049
 20
12.0083648047
 11
14.6504850049
 21
11.5683648048
  0
LINE
  5
2AA
100
AcDbEntity
  8
0
100
AcDbLine
 62
7
  6
CONTINUOUS
 10
14.6505454329
 20
12.0381857385
 11
14.6505454329
 21
12.0083648047
  0
LINE
  5
2AB
100
AcDbEntity
  8
0
100
AcDbLine
 62
7
  6
CONTINUOUS
 10
14.6505454329
 20
11.5683648048
 11
14.6505454329
 21
11.538543871
  0
LINE
  5
2AC
100
AcDbEntity
  8
0
100
AcDbLine
 62
7
  6
CONTINUOUS
 10
14.7038183383
 20
11.4748648047
 11
14.7038183383
 21
12.1018648047
  0
LINE
  5
2AD
100
AcDbEntity
  8
0
100
AcDbLine
 62
9
  6
CONTINUOUS
 10
14.7338183383
 20
12.1318648047
 11
14.7338183383
 21
11.4448648047
  0
LINE
  5
2AE
100
AcDbEntity
  8
0
100
AcDbLine
 62
9
  6
CONTINUOUS
 10
10.4928560131
 20
1.8383063716
 11
10.2673990458
 21
1.6128494043
  0
LINE
  5
2AF
100
AcDbEntity
  8
0
100
AcDbLine
 62
9
  6
CONTINUOUS
 10
10.3289495304
 20
1.5512989197
 11
10.5544064977
 21
1.776755887
  0
LINE
  5
2B0
100
AcDbEntity
  8
0
100
AcDbLine
 62
9
  6
CONTINUOUS
 10
11.7446566252
 20
10.632134321
 11
11.7437071098
 21
10.632134321
  0
LINE
  5
2B1
100
AcDbEntity
  8
0
100
AcDbLine
 62
9
  6
CONTINUOUS
 10
10.3509295668
 20
10.6321343207
 11
10.3499800513
 21
10.6321343207
  0
LINE
  5
2B2
100
AcDbEntity
  8
0
100
AcDbLine
 62
9
  6
CONTINUOUS
 10
12.1026244802
 20
10.6395019262
 11
11.7446564997
 21
10.6395019262
  0
LINE
  5
2B3
100
AcDbEntity
  8
0
100
AcDbLine
 62
9
  6
CONTINUOUS
 10
10.3499800513
 20
10.6395019262
 11
9.9920121963
 21
10.6395019262
  0
LINE
  5
2B4
100
AcDbEntity
  8
0
100
AcDbLine
 62
9
  6
CONTINUOUS
 10
5.8523183383
 20
10.6533648047
 11
5.8823183383
 21
10.6533648047
  0
LINE
  5
2B5
100
AcDbEntity
  8
0
100
AcDbLine
 62
9
  6
CONTINUOUS
 10
8.2123183383
 20
10.6533648047
 11
8.2423183383
 21
10.6533648047
  0
LINE
  5
2B6
100
AcDbEntity
  8
0
100
AcDbLine
 62
9
  6
CONTINUOUS
 10
13.8523183383
 20
10.6533648047
 11
13.8823183383
 21
10.6533648047
  0
LINE
  5
2B7
100
AcDbEntity
  8
0
100
AcDbLine
 62
9
  6
CONTINUOUS
 10
16.2123183383
 20
10.6533648047
 11
16.2423183383
 21
10.6533648047
  0
LINE
  5
2B8
100
AcDbEntity
  8
0
100
AcDbLine
 62
9
  6
CONTINUOUS
 10
9.9920121963
 20
10.6715081782
 11
10.3494913447
 21
10.6715081782
  0
LINE
  5
2B9
100
AcDbEntity
  8
0
100
AcDbLine
 62
9
  6
CONTINUOUS
 10
11.7451594354
 20
10.6715081782
 11
12.1026244802
 21
10.6715081782
  0
LINE
  5
2BA
100
AcDbEntity
  8
0
100
AcDbLine
 62
9
  6
CONTINUOUS
 10
9.8984554598
 20
10.7330586628
 11
9.9304617118
 21
10.7330586628
  0
LINE
  5
2BB
100
AcDbEntity
  8
0
100
AcDbLine
 62
9
  6
CONTINUOUS
 10
12.1641749648
 20
10.7330586632
 11
12.1961812168
 21
10.7330586632
  0
LINE
  5
2BC
100
AcDbEntity
  8
0
100
AcDbLine
 62
7
  6
CONTINUOUS
 10
15.8598183382
 20
10.9158648047
 11
14.2348183383
 21
10.9158648047
  0
LINE
  5
2BD
100
AcDbEntity
  8
0
100
AcDbLine
 62
7
  6
CONTINUOUS
 10
7.8598183382
 20
10.9158648047
 11
6.2348183383
 21
10.9158648047
  0
LINE
  5
2BE
100
AcDbEntity
  8
0
100
AcDbLine
 62
9
  6
CONTINUOUS
 10
6.2348183383
 20
10.9458648047
 11
7.8598183383
 21
10.9458648047
  0
LINE
  5
2BF
100
AcDbEntity
  8
0
100
AcDbLine
 62
9
  6
CONTINUOUS
 10
14.2348183383
 20
10.9458648047
 11
15.8598183383
 21
10.9458648047
  0
LINE
  5
2C0
100
AcDbEntity
  8
0
100
AcDbLine
 62
9
  6
CONTINUOUS
 10
6.1748183383
 20
10.9758648047
 11
6.2048183383
 21
10.9758648047
  0
LINE
  5
2C1
100
AcDbEntity
  8
0
100
AcDbLine
 62
9
  6
CONTINUOUS
 10
7.8898183383
 20
10.9758648047
 11
7.9198183383
 21
10.9758648047
  0
LINE
  5
2C2
100
AcDbEntity
  8
0
100
AcDbLine
 62
9
  6
CONTINUOUS
 10
14.1748183383
 20
10.9758648047
 11
14.2048183383
 21
10.9758648047
  0
LINE
  5
2C3
100
AcDbEntity
  8
0
100
AcDbLine
 62
9
  6
CONTINUOUS
 10
15.8898183383
 20
10.9758648047
 11
15.9198183383
 21
10.9758648047
  0
LINE
  5
2C4
100
AcDbEntity
  8
0
100
AcDbLine
 62
9
  6
CONTINUOUS
 10
15.7312973205
 20
11.0157531247
 11
14.363339356
 21
11.0157531247
  0
LINE
  5
2C5
100
AcDbEntity
  8
0
100
AcDbLine
 62
9
  6
CONTINUOUS
 10
7.7312973205
 20
11.0157531247
 11
6.363339356
 21
11.0157531247
  0
LINE
  5
2C6
100
AcDbEntity
  8
0
100
AcDbLine
 62
9
  6
CONTINUOUS
 10
6.363339356
 20
11.0452973573
 11
7.7312973205
 21
11.0452973573
  0
LINE
  5
2C7
100
AcDbEntity
  8
0
100
AcDbLine
 62
9
  6
CONTINUOUS
 10
14.363339356
 20
11.0452973573
 11
15.7312973205
 21
11.0452973573
  0
LINE
  5
2C8
100
AcDbEntity
  8
0
100
AcDbLine
 62
9
  6
CONTINUOUS
 10
6.2747066582
 20
11.1043858174
 11
6.3042508908
 21
11.1043858174
  0
LINE
  5
2C9
100
AcDbEntity
  8
0
100
AcDbLine
 62
9
  6
CONTINUOUS
 10
7.7903857857
 20
11.1043858224
 11
7.8199300183
 21
11.1043858224
  0
LINE
  5
2CA
100
AcDbEntity
  8
0
100
AcDbLine
 62
9
  6
CONTINUOUS
 10
14.2747066582
 20
11.1043858177
 11
14.3042508908
 21
11.1043858177
  0
LINE
  5
2CB
100
AcDbEntity
  8
0
100
AcDbLine
 62
9
  6
CONTINUOUS
 10
15.7903857857
 20
11.1043858224
 11
15.8199300183
 21
11.1043858224
  0
LINE
  5
2CC
100
AcDbEntity
  8
0
100
AcDbLine
 62
9
  6
CONTINUOUS
 10
15.3608183383
 20
11.4448648047
 11
15.3608183383
 21
12.1318648047
  0
LINE
  5
2CD
100
AcDbEntity
  8
0
100
AcDbLine
 62
7
  6
CONTINUOUS
 10
15.3908183383
 20
12.1018648047
 11
15.3908183383
 21
11.4748648047
  0
LINE
  5
2CE
100
AcDbEntity
  8
0
100
AcDbLine
 62
7
  6
CONTINUOUS
 10
15.5263183382
 20
11.2493648047
 11
14.5683183383
 21
11.2493648047
  0
LINE
  5
2CF
100
AcDbEntity
  8
0
100
AcDbLine
 62
7
  6
CONTINUOUS
 10
7.5263183382
 20
11.2493648047
 11
6.5683183383
 21
11.2493648047
  0
LINE
  5
2D0
100
AcDbEntity
  8
0
100
AcDbLine
 62
9
  6
CONTINUOUS
 10
6.5683183383
 20
11.2793648047
 11
7.5263183383
 21
11.2793648047
  0
LINE
  5
2D1
100
AcDbEntity
  8
0
100
AcDbLine
 62
9
  6
CONTINUOUS
 10
14.5683183383
 20
11.2793648047
 11
15.5263183383
 21
11.2793648047
  0
LINE
  5
2D2
100
AcDbEntity
  8
0
100
AcDbLine
 62
9
  6
CONTINUOUS
 10
6.5083183383
 20
11.3093648047
 11
6.5383183383
 21
11.3093648047
  0
LINE
  5
2D3
100
AcDbEntity
  8
0
100
AcDbLine
 62
9
  6
CONTINUOUS
 10
7.5563183383
 20
11.3093648047
 11
7.5863183383
 21
11.3093648047
  0
LINE
  5
2D4
100
AcDbEntity
  8
0
100
AcDbLine
 62
9
  6
CONTINUOUS
 10
14.5083183383
 20
11.3093648047
 11
14.5383183383
 21
11.3093648047
  0
LINE
  5
2D5
100
AcDbEntity
  8
0
100
AcDbLine
 62
9
  6
CONTINUOUS
 10
15.5563183383
 20
11.3093648047
 11
15.5863183383
 21
11.3093648047
  0
LINE
  5
2D6
100
AcDbEntity
  8
0
100
AcDbLine
 62
7
  6
CONTINUOUS
 10
11.3718183383
 20
11.4008648047
 11
10.7228183383
 21
11.4008648047
  0
LINE
  5
2D7
100
AcDbEntity
  8
0
100
AcDbLine
 62
9
  6
CONTINUOUS
 10
10.7228183383
 20
11.4308648047
 11
11.3718183383
 21
11.4308648047
  0
LINE
  5
2D8
100
AcDbEntity
  8
0
100
AcDbLine
 62
7
  6
CONTINUOUS
 10
15.3608183383
 20
11.4448648047
 11
14.7338183383
 21
11.4448648047
  0
LINE
  5
2D9
100
AcDbEntity
  8
0
100
AcDbLine
 62
7
  6
CONTINUOUS
 10
7.3608183383
 20
11.4448648047
 11
6.7338183383
 21
11.4448648047
  0
LINE
  5
2DA
100
AcDbEntity
  8
0
100
AcDbLine
 62
9
  6
CONTINUOUS
 10
10.6598183383
 20
11.4638648047
 11
10.6898183383
 21
11.4638648047
  0
LINE
  5
2DB
100
AcDbEntity
  8
0
100
AcDbLine
 62
9
  6
CONTINUOUS
 10
11.4048183383
 20
11.4638648047
 11
11.4348183383
 21
11.4638648047
  0
LINE
  5
2DC
100
AcDbEntity
  8
0
100
AcDbLine
 62
9
  6
CONTINUOUS
 10
6.7038183383
 20
11.4748648047
 11
7.3908183383
 21
11.4748648047
  0
LINE
  5
2DD
100
AcDbEntity
  8
0
100
AcDbLine
 62
9
  6
CONTINUOUS
 10
14.7038183383
 20
11.4748648047
 11
15.3908183383
 21
11.4748648047
  0
LINE
  5
2DE
100
AcDbEntity
  8
0
100
AcDbLine
 62
7
  6
CONTINUOUS
 10
18.0488183383
 20
11.5383648047
 11
15.4508183383
 21
11.5383648047
  0
LINE
  5
2DF
100
AcDbEntity
  8
0
100
AcDbLine
 62
7
  6
CONTINUOUS
 10
6.6438183383
 20
11.5383648047
 11
4.0458183383
 21
11.5383648047
  0
LINE
  5
2E0
100
AcDbEntity
  8
0
100
AcDbLine
 62
9
  6
CONTINUOUS
 10
4.0158183383
 20
11.5683648047
 11
6.7038183383
 21
11.5683648047
  0
LINE
  5
2E1
100
AcDbEntity
  8
0
100
AcDbLine
 62
9
  6
CONTINUOUS
 10
7.3908183383
 20
11.5683648047
 11
7.4441516716
 21
11.5683648047
  0
LINE
  5
2E2
100
AcDbEntity
  8
0
100
AcDbLine
 62
9
  6
CONTINUOUS
 10
14.6504850049
 20
11.5683648047
 11
14.7038183383
 21
11.5683648047
  0
LINE
  5
2E3
100
AcDbEntity
  8
0
100
AcDbLine
 62
9
  6
CONTINUOUS
 10
15.3908183383
 20
11.5683648047
 11
18.0788183383
 21
11.5683648047
  0
LINE
  5
2E4
100
AcDbEntity
  8
0
100
AcDbLine
 62
9
  6
CONTINUOUS
 10
15.4508183383
 20
12.0383648047
 11
15.4508183383
 21
11.5383648047
  0
LINE
  5
2E5
100
AcDbEntity
  8
0
100
AcDbLine
 62
9
  6
CONTINUOUS
 10
15.5263183383
 20
11.2493648047
 11
15.5263183383
 21
11.2793648047
  0
LINE
  5
2E6
100
AcDbEntity
  8
0
100
AcDbLine
 62
9
  6
CONTINUOUS
 10
15.5263183383
 20
12.2973648047
 11
15.5263183383
 21
12.3273648047
  0
LINE
  5
2E7
100
AcDbEntity
  8
0
100
AcDbLine
 62
9
  6
CONTINUOUS
 10
15.5563183383
 20
11.3093648047
 11
15.5563183383
 21
11.5383648047
  0
LINE
  5
2E8
100
AcDbEntity
  8
0
100
AcDbLine
 62
9
  6
CONTINUOUS
 10
15.5563183383
 20
12.0383648047
 11
15.5563183383
 21
12.2673648047
  0
LINE
  5
2E9
100
AcDbEntity
  8
0
100
AcDbLine
 62
7
  6
CONTINUOUS
 10
15.5863183383
 20
12.2673648047
 11
15.5863183383
 21
12.0383648047
  0
LINE
  5
2EA
100
AcDbEntity
  8
0
100
AcDbLine
 62
7
  6
CONTINUOUS
 10
15.5863183383
 20
11.5383648047
 11
15.5863183383
 21
11.3093648048
  0
LINE
  5
2EB
100
AcDbEntity
  8
0
100
AcDbLine
 62
9
  6
CONTINUOUS
 10
15.7312973253
 20
11.0157531247
 11
15.7312973253
 21
11.0452973573
  0
LINE
  5
2EC
100
AcDbEntity
  8
0
100
AcDbLine
 62
9
  6
CONTINUOUS
 10
15.7312973206
 20
12.5314322522
 11
15.7312973206
 21
12.5609764848
  0
LINE
  5
2ED
100
AcDbEntity
  8
0
100
AcDbLine
 62
9
  6
CONTINUOUS
 10
15.7903857857
 20
11.1043858224
 11
15.7903857857
 21
11.5383648047
  0
LINE
  5
2EE
100
AcDbEntity
  8
0
100
AcDbLine
 62
9
  6
CONTINUOUS
 10
15.7903857857
 20
12.0383648047
 11
15.7903857857
 21
12.472343787
  0
LINE
  5
2EF
100
AcDbEntity
  8
0
100
AcDbLine
 62
9
  6
CONTINUOUS
 10
15.8199300183
 20
12.472343787
 11
15.8199300183
 21
12.0383648047
  0
LINE
  5
2F0
100
AcDbEntity
  8
0
100
AcDbLine
 62
9
  6
CONTINUOUS
 10
15.8199300183
 20
11.5383648047
 11
15.8199300183
 21
11.1043858224
  0
LINE
  5
2F1
100
AcDbEntity
  8
0
100
AcDbLine
 62
9
  6
CONTINUOUS
 10
15.8598183383
 20
10.9158648047
 11
15.8598183383
 21
10.9458648047
  0
LINE
  5
2F2
100
AcDbEntity
  8
0
100
AcDbLine
 62
9
  6
CONTINUOUS
 10
15.8598183383
 20
12.6308648047
 11
15.8598183383
 21
12.6608648047
  0
LINE
  5
2F3
100
AcDbEntity
  8
0
100
AcDbLine
 62
9
  6
CONTINUOUS
 10
15.8898183383
 20
10.9758648047
 11
15.8898183383
 21
11.5383648047
  0
LINE
  5
2F4
100
AcDbEntity
  8
0
100
AcDbLine
 62
9
  6
CONTINUOUS
 10
15.8898183383
 20
12.0383648047
 11
15.8898183383
 21
12.6008648047
  0
LINE
  5
2F5
100
AcDbEntity
  8
0
100
AcDbLine
 62
7
  6
CONTINUOUS
 10
15.9198183383
 20
12.6008648047
 11
15.9198183383
 21
12.0383648047
  0
LINE
  5
2F6
100
AcDbEntity
  8
0
100
AcDbLine
 62
7
  6
CONTINUOUS
 10
15.9198183383
 20
11.5383648047
 11
15.9198183383
 21
10.9758648048
  0
LINE
  5
2F7
100
AcDbEntity
  8
0
100
AcDbLine
 62
9
  6
CONTINUOUS
 10
18.0788183383
 20
12.0083648047
 11
15.3908183383
 21
12.0083648047
  0
LINE
  5
2F8
100
AcDbEntity
  8
0
100
AcDbLine
 62
9
  6
CONTINUOUS
 10
14.7038183383
 20
12.0083648047
 11
14.6504850049
 21
12.0083648047
  0
LINE
  5
2F9
100
AcDbEntity
  8
0
100
AcDbLine
 62
9
  6
CONTINUOUS
 10
7.4441516716
 20
12.0083648047
 11
7.3908183383
 21
12.0083648047
  0
LINE
  5
2FA
100
AcDbEntity
  8
0
100
AcDbLine
 62
9
  6
CONTINUOUS
 10
6.7038183383
 20
12.0083648047
 11
4.0158183383
 21
12.0083648047
  0
LINE
  5
2FB
100
AcDbEntity
  8
0
100
AcDbLine
 62
7
  6
CONTINUOUS
 10
4.0458183383
 20
12.0383648047
 11
6.6438183383
 21
12.0383648047
  0
LINE
  5
2FC
100
AcDbEntity
  8
0
100
AcDbLine
 62
7
  6
CONTINUOUS
 10
15.4508183383
 20
12.0383648047
 11
18.0488183383
 21
12.0383648047
  0
LINE
  5
2FD
100
AcDbEntity
  8
0
100
AcDbLine
 62
9
  6
CONTINUOUS
 10
15.3908183383
 20
12.1018648047
 11
14.7038183383
 21
12.1018648047
  0
LINE
  5
2FE
100
AcDbEntity
  8
0
100
AcDbLine
 62
9
  6
CONTINUOUS
 10
7.3908183383
 20
12.1018648047
 11
6.7038183383
 21
12.1018648047
  0
LINE
  5
2FF
100
AcDbEntity
  8
0
100
AcDbLine
 62
9
  6
CONTINUOUS
 10
11.4348183383
 20
12.1128648047
 11
11.4048183383
 21
12.1128648047
  0
LINE
  5
300
100
AcDbEntity
  8
0
100
AcDbLine
 62
9
  6
CONTINUOUS
 10
10.6898183383
 20
12.1128648047
 11
10.6598183383
 21
12.1128648047
  0
LINE
  5
301
100
AcDbEntity
  8
0
100
AcDbLine
 62
7
  6
CONTINUOUS
 10
6.7338183383
 20
12.1318648047
 11
7.3608183383
 21
12.1318648047
  0
LINE
  5
302
100
AcDbEntity
  8
0
100
AcDbLine
 62
7
  6
CONTINUOUS
 10
14.7338183383
 20
12.1318648047
 11
15.3608183383
 21
12.1318648047
  0
LINE
  5
303
100
AcDbEntity
  8
0
100
AcDbLine
 62
9
  6
CONTINUOUS
 10
11.3718183383
 20
12.1458648047
 11
10.7228183383
 21
12.1458648047
  0
LINE
  5
304
100
AcDbEntity
  8
0
100
AcDbLine
 62
7
  6
CONTINUOUS
 10
10.7228183383
 20
12.1758648047
 11
11.3718183383
 21
12.1758648047
  0
LINE
  5
305
100
AcDbEntity
  8
0
100
AcDbLine
 62
9
  6
CONTINUOUS
 10
15.5863183383
 20
12.2673648047
 11
15.5563183383
 21
12.2673648047
  0
LINE
  5
306
100
AcDbEntity
  8
0
100
AcDbLine
 62
9
  6
CONTINUOUS
 10
14.5383183383
 20
12.2673648047
 11
14.5083183383
 21
12.2673648047
  0
LINE
  5
307
100
AcDbEntity
  8
0
100
AcDbLine
 62
9
  6
CONTINUOUS
 10
7.5863183383
 20
12.2673648047
 11
7.5563183383
 21
12.2673648047
  0
LINE
  5
308
100
AcDbEntity
  8
0
100
AcDbLine
 62
9
  6
CONTINUOUS
 10
6.5383183383
 20
12.2673648047
 11
6.5083183383
 21
12.2673648047
  0
LINE
  5
309
100
AcDbEntity
  8
0
100
AcDbLine
 62
9
  6
CONTINUOUS
 10
11.6017806634
 20
12.2812766453
 11
10.4928560131
 21
12.2812766453
  0
LINE
  5
30A
100
AcDbEntity
  8
0
100
AcDbLine
 62
9
  6
CONTINUOUS
 10
15.5263183383
 20
12.2973648047
 11
14.5683183383
 21
12.2973648047
  0
LINE
  5
30B
100
AcDbEntity
  8
0
100
AcDbLine
 62
9
  6
CONTINUOUS
 10
7.5263183383
 20
12.2973648047
 11
6.5683183383
 21
12.2973648047
  0
LINE
  5
30C
100
AcDbEntity
  8
0
100
AcDbLine
 62
7
  6
CONTINUOUS
 10
6.5683183383
 20
12.3273648047
 11
7.5263183382
 21
12.3273648047
  0
LINE
  5
30D
100
AcDbEntity
  8
0
100
AcDbLine
 62
7
  6
CONTINUOUS
 10
14.5683183383
 20
12.3273648047
 11
15.5263183382
 21
12.3273648047
  0
LINE
  5
30E
100
AcDbEntity
  8
0
100
AcDbLine
 62
9
  6
CONTINUOUS
 10
10.5544064977
 20
12.3428271299
 11
11.5402301789
 21
12.3428271299
  0
LINE
  5
30F
100
AcDbEntity
  8
0
100
AcDbLine
 62
9
  6
CONTINUOUS
 10
16.1823183383
 20
10.5933648047
 11
16.1823183383
 21
10.6233648047
  0
LINE
  5
310
100
AcDbEntity
  8
0
100
AcDbLine
 62
9
  6
CONTINUOUS
 10
16.1823183383
 20
12.9533648047
 11
16.1823183383
 21
12.9833648047
  0
LINE
  5
311
100
AcDbEntity
  8
0
100
AcDbLine
 62
9
  6
CONTINUOUS
 10
16.2123183383
 20
10.6533648047
 11
16.2123183383
 21
11.5383648047
  0
LINE
  5
312
100
AcDbEntity
  8
0
100
AcDbLine
 62
9
  6
CONTINUOUS
 10
16.2123183383
 20
12.0383648047
 11
16.2123183383
 21
12.9233648047
  0
LINE
  5
313
100
AcDbEntity
  8
0
100
AcDbLine
 62
7
  6
CONTINUOUS
 10
16.2423183383
 20
12.9233648047
 11
16.2423183383
 21
12.0383648047
  0
LINE
  5
314
100
AcDbEntity
  8
0
100
AcDbLine
 62
7
  6
CONTINUOUS
 10
16.2423183383
 20
11.5383648047
 11
16.2423183383
 21
10.6533648048
  0
LINE
  5
315
100
AcDbEntity
  8
0
100
AcDbLine
 62
9
  6
CONTINUOUS
 10
15.8199300183
 20
12.4723437918
 11
15.7903857857
 21
12.4723437918
  0
LINE
  5
316
100
AcDbEntity
  8
0
100
AcDbLine
 62
9
  6
CONTINUOUS
 10
14.3042508908
 20
12.472343787
 11
14.2747066582
 21
12.472343787
  0
LINE
  5
317
100
AcDbEntity
  8
0
100
AcDbLine
 62
9
  6
CONTINUOUS
 10
7.8199300183
 20
12.4723437921
 11
7.7903857857
 21
12.4723437921
  0
LINE
  5
318
100
AcDbEntity
  8
0
100
AcDbLine
 62
9
  6
CONTINUOUS
 10
6.3042508908
 20
12.472343787
 11
6.2747066582
 21
12.472343787
  0
LINE
  5
319
100
AcDbEntity
  8
0
100
AcDbLine
 62
9
  6
CONTINUOUS
 10
15.7312973206
 20
12.5314322522
 11
14.363339356
 21
12.5314322522
  0
LINE
  5
31A
100
AcDbEntity
  8
0
100
AcDbLine
 62
9
  6
CONTINUOUS
 10
7.7312973206
 20
12.5314322522
 11
6.363339356
 21
12.5314322522
  0
LINE
  5
31B
100
AcDbEntity
  8
0
100
AcDbLine
 62
9
  6
CONTINUOUS
 10
6.363339356
 20
12.5609764848
 11
7.7312973206
 21
12.5609764848
  0
LINE
  5
31C
100
AcDbEntity
  8
0
100
AcDbLine
 62
9
  6
CONTINUOUS
 10
14.363339356
 20
12.5609764848
 11
15.7312973206
 21
12.5609764848
  0
LINE
  5
31D
100
AcDbEntity
  8
0
100
AcDbLine
 62
9
  6
CONTINUOUS
 10
15.9198183383
 20
12.6008648047
 11
15.8898183383
 21
12.6008648047
  0
LINE
  5
31E
100
AcDbEntity
  8
0
100
AcDbLine
 62
9
  6
CONTINUOUS
 10
14.2048183383
 20
12.6008648047
 11
14.1748183383
 21
12.6008648047
  0
LINE
  5
31F
100
AcDbEntity
  8
0
100
AcDbLine
 62
9
  6
CONTINUOUS
 10
7.9198183383
 20
12.6008648047
 11
7.8898183383
 21
12.6008648047
  0
LINE
  5
320
100
AcDbEntity
  8
0
100
AcDbLine
 62
9
  6
CONTINUOUS
 10
6.2048183383
 20
12.6008648047
 11
6.1748183383
 21
12.6008648047
  0
LINE
  5
321
100
AcDbEntity
  8
0
100
AcDbLine
 62
9
  6
CONTINUOUS
 10
15.8598183383
 20
12.6308648047
 11
14.2348183383
 21
12.6308648047
  0
LINE
  5
322
100
AcDbEntity
  8
0
100
AcDbLine
 62
9
  6
CONTINUOUS
 10
7.8598183383
 20
12.6308648047
 11
6.2348183383
 21
12.6308648047
  0
LINE
  5
323
100
AcDbEntity
  8
0
100
AcDbLine
 62
7
  6
CONTINUOUS
 10
6.2348183383
 20
12.6608648047
 11
7.8598183382
 21
12.6608648047
  0
LINE
  5
324
100
AcDbEntity
  8
0
100
AcDbLine
 62
7
  6
CONTINUOUS
 10
14.2348183383
 20
12.6608648047
 11
15.8598183382
 21
12.6608648047
  0
LINE
  5
325
100
AcDbEntity
  8
0
100
AcDbLine
 62
9
  6
CONTINUOUS
 10
12.1961812168
 20
12.8436709467
 11
12.1641749648
 21
12.8436709467
  0
LINE
  5
326
100
AcDbEntity
  8
0
100
AcDbLine
 62
9
  6
CONTINUOUS
 10
9.9304617118
 20
12.8436709462
 11
9.8984554598
 21
12.8436709462
  0
LINE
  5
327
100
AcDbEntity
  8
0
100
AcDbLine
 62
9
  6
CONTINUOUS
 10
12.1026244802
 20
12.9052214312
 11
9.9920121963
 21
12.9052214312
  0
LINE
  5
328
100
AcDbEntity
  8
0
100
AcDbLine
 62
9
  6
CONTINUOUS
 10
16.2423183383
 20
12.9233648047
 11
16.2123183383
 21
12.9233648047
  0
LINE
  5
329
100
AcDbEntity
  8
0
100
AcDbLine
 62
9
  6
CONTINUOUS
 10
13.8823183383
 20
12.9233648047
 11
13.8523183383
 21
12.9233648047
  0
LINE
  5
32A
100
AcDbEntity
  8
0
100
AcDbLine
 62
9
  6
CONTINUOUS
 10
8.2423183383
 20
12.9233648047
 11
8.2123183383
 21
12.9233648047
  0
LINE
  5
32B
100
AcDbEntity
  8
0
100
AcDbLine
 62
9
  6
CONTINUOUS
 10
5.8823183383
 20
12.9233648047
 11
5.8523183383
 21
12.9233648047
  0
LINE
  5
32C
100
AcDbEntity
  8
0
100
AcDbLine
 62
9
  6
CONTINUOUS
 10
9.9920121963
 20
12.9372276832
 11
12.1026244802
 21
12.9372276832
  0
LINE
  5
32D
100
AcDbEntity
  8
0
100
AcDbLine
 62
9
  6
CONTINUOUS
 10
16.1823183383
 20
12.9533648047
 11
13.9123183383
 21
12.9533648047
  0
LINE
  5
32E
100
AcDbEntity
  8
0
100
AcDbLine
 62
9
  6
CONTINUOUS
 10
8.1823183383
 20
12.9533648047
 11
5.9123183383
 21
12.9533648047
  0
LINE
  5
32F
100
AcDbEntity
  8
0
100
AcDbLine
 62
7
  6
CONTINUOUS
 10
5.9123183383
 20
12.9833648047
 11
8.1823183382
 21
12.9833648047
  0
LINE
  5
330
100
AcDbEntity
  8
0
100
AcDbLine
 62
7
  6
CONTINUOUS
 10
13.9123183383
 20
12.9833648047
 11
16.1823183382
 21
12.9833648047
  0
LINE
  5
331
100
AcDbEntity
  8
0
100
AcDbLine
 62
9
  6
CONTINUOUS
 10
12.3223183383
 20
13.0008648047
 11
12.2898183383
 21
13.0008648047
  0
LINE
  5
332
100
AcDbEntity
  8
0
100
AcDbLine
 62
9
  6
CONTINUOUS
 10
9.8048183383
 20
13.0008648047
 11
9.7723183383
 21
13.0008648047
  0
LINE
  5
333
100
AcDbEntity
  8
0
100
AcDbLine
 62
9
  6
CONTINUOUS
 10
12.2598183383
 20
13.0308648047
 11
9.8348183383
 21
13.0308648047
  0
LINE
  5
334
100
AcDbEntity
  8
0
100
AcDbLine
 62
7
  6
CONTINUOUS
 10
9.8348183365
 20
13.0633648047
 11
12.2598183383
 21
13.0633648047
  0
LINE
  5
335
100
AcDbEntity
  8
0
100
AcDbLine
 62
9
  6
CONTINUOUS
 10
12.6723183347
 20
13.3358361753
 11
9.4223183419
 21
13.3358361753
  0
LINE
  5
336
100
AcDbEntity
  8
0
100
AcDbLine
 62
7
  6
CONTINUOUS
 10
9.4998469677
 20
13.4133648011
 11
12.5947897088
 21
13.4133648011
  0
LINE
  5
337
100
AcDbEntity
  8
0
100
AcDbLine
 62
9
  6
CONTINUOUS
 10
15.5271000289
 20
11.2494931262
 11
15.7312973205
 21
11.0452973573
  0
LINE
  5
338
100
AcDbEntity
  8
0
100
AcDbLine
 62
9
  6
CONTINUOUS
 10
14.3042508908
 20
12.472343787
 11
14.5084428396
 21
12.2681534987
  0
LINE
  5
339
100
AcDbEntity
  8
0
100
AcDbLine
 62
9
  6
CONTINUOUS
 10
14.5675348806
 20
12.3272361932
 11
14.363339356
 21
12.5314322522
  0
LINE
  5
33A
100
AcDbEntity
  8
0
100
AcDbLine
 62
9
  6
CONTINUOUS
 10
15.7903857857
 20
11.1043858224
 11
15.5861942989
 21
11.3085790369
  0
LINE
  5
33B
100
AcDbEntity
  8
0
100
AcDbLine
 62
9
  6
CONTINUOUS
 10
18.0488183383
 20
11.5383648047
 11
18.0488183383
 21
12.0383648047
  0
LINE
  5
33C
100
AcDbEntity
  8
0
100
AcDbLine
 62
7
  6
CONTINUOUS
 10
18.0788183383
 20
12.0083648047
 11
18.0788183383
 21
11.5683648047
  0
ARC
  5
33D
100
AcDbEntity
  8
0
100
AcDbCircle
 62
7
  6
CONTINUOUS
 10
10.3289495304
 20
1.6128494043
 40
0.0625
100
AcDbArc
 50
180.0
 51
270.0
  0
ARC
  5
33E
100
AcDbEntity
  8
0
100
AcDbCircle
 62
7
  6
CONTINUOUS
 10
10.3289495304
 20
2.9657441857
 40
0.0625
100
AcDbArc
 50
109.6184895011
 51
180.0
  0
ARC
  5
33F
100
AcDbEntity
  8
0
100
AcDbCircle
 62
9
  6
CONTINUOUS
 10
10.3297949654
 20
2.9666414307
 40
0.0613565806
100
AcDbArc
 50
110.9586852235
 51
115.8706875594
  0
ARC
  5
340
100
AcDbEntity
  8
0
100
AcDbCircle
 62
7
  6
CONTINUOUS
 10
6.6438183383
 20
11.4783648047
 40
0.06
100
AcDbArc
 50
0.0000000067
 51
90.0
  0
ARC
  5
341
100
AcDbEntity
  8
0
100
AcDbCircle
 62
7
  6
CONTINUOUS
 10
6.5683183383
 20
11.3093648047
 40
0.06
100
AcDbArc
 50
179.9999999765
 51
270.0
  0
ARC
  5
342
100
AcDbEntity
  8
0
100
AcDbCircle
 62
7
  6
CONTINUOUS
 10
6.2348183383
 20
10.9758648047
 40
0.06
100
AcDbArc
 50
179.99999998
 51
269.9999999999
  0
ARC
  5
343
100
AcDbEntity
  8
0
100
AcDbCircle
 62
7
  6
CONTINUOUS
 10
5.9123183383
 20
10.6533648047
 40
0.06
100
AcDbArc
 50
179.9999998864
 51
270.0
  0
ARC
  5
344
100
AcDbEntity
  8
0
100
AcDbCircle
 62
7
  6
CONTINUOUS
 10
4.0458183383
 20
11.5683648047
 40
0.03
100
AcDbArc
 50
180.0
 51
270.0
  0
ARC
  5
345
100
AcDbEntity
  8
0
100
AcDbCircle
 62
7
  6
CONTINUOUS
 10
6.7338183383
 20
11.4748648047
 40
0.03
100
AcDbArc
 50
180.0
 51
270.0
  0
ARC
  5
346
100
AcDbEntity
  8
0
100
AcDbCircle
 62
7
  6
CONTINUOUS
 10
7.3608183383
 20
11.4748648047
 40
0.03
100
AcDbArc
 50
270.0
 51
360.0
  0
ARC
  5
347
100
AcDbEntity
  8
0
100
AcDbCircle
 62
9
  6
CONTINUOUS
 10
5.9123183383
 20
10.6533648047
 40
0.03
100
AcDbArc
 50
180.0
 51
270.0
  0
ARC
  5
348
100
AcDbEntity
  8
0
100
AcDbCircle
 62
9
  6
CONTINUOUS
 10
6.2348183383
 20
10.9758648047
 40
0.03
100
AcDbArc
 50
179.9999999996
 51
270.0000000004
  0
ARC
  5
349
100
AcDbEntity
  8
0
100
AcDbCircle
 62
9
  6
CONTINUOUS
 10
6.5683183383
 20
11.3093648047
 40
0.03
100
AcDbArc
 50
179.9999999996
 51
270.0000000004
  0
ARC
  5
34A
100
AcDbEntity
  8
0
100
AcDbCircle
 62
7
  6
CONTINUOUS
 10
6.6438183383
 20
12.0983648047
 40
0.06
100
AcDbArc
 50
270.0
 51
359.9999999933
  0
ARC
  5
34B
100
AcDbEntity
  8
0
100
AcDbCircle
 62
7
  6
CONTINUOUS
 10
6.5683183383
 20
12.2673648047
 40
0.06
100
AcDbArc
 50
89.99999998
 51
180.0
  0
ARC
  5
34C
100
AcDbEntity
  8
0
100
AcDbCircle
 62
7
  6
CONTINUOUS
 10
6.2348183383
 20
12.6008648047
 40
0.06
100
AcDbArc
 50
89.9999999799
 51
180.0
  0
ARC
  5
34D
100
AcDbEntity
  8
0
100
AcDbCircle
 62
7
  6
CONTINUOUS
 10
5.9123183383
 20
12.9233648047
 40
0.06
100
AcDbArc
 50
89.9999998864
 51
180.0
  0
ARC
  5
34E
100
AcDbEntity
  8
0
100
AcDbCircle
 62
7
  6
CONTINUOUS
 10
6.7338183383
 20
12.1018648047
 40
0.03
100
AcDbArc
 50
90.0
 51
180.0
  0
ARC
  5
34F
100
AcDbEntity
  8
0
100
AcDbCircle
 62
7
  6
CONTINUOUS
 10
4.0458183383
 20
12.0083648047
 40
0.03
100
AcDbArc
 50
90.0
 51
180.0
  0
ARC
  5
350
100
AcDbEntity
  8
0
100
AcDbCircle
 62
7
  6
CONTINUOUS
 10
7.3608183383
 20
12.1018648047
 40
0.03
100
AcDbArc
 50
0.0
 51
90.0
  0
ARC
  5
351
100
AcDbEntity
  8
0
100
AcDbCircle
 62
9
  6
CONTINUOUS
 10
5.9123183383
 20
12.9233648047
 40
0.03
100
AcDbArc
 50
90.0
 51
180.0
  0
ARC
  5
352
100
AcDbEntity
  8
0
100
AcDbCircle
 62
9
  6
CONTINUOUS
 10
6.5683183383
 20
12.2673648047
 40
0.03
100
AcDbArc
 50
90.0000000007
 51
179.9999999993
  0
ARC
  5
353
100
AcDbEntity
  8
0
100
AcDbCircle
 62
9
  6
CONTINUOUS
 10
6.2348183383
 20
12.6008648047
 40
0.03
100
AcDbArc
 50
90.0
 51
180.0
  0
ARC
  5
354
100
AcDbEntity
  8
0
100
AcDbCircle
 62
9
  6
CONTINUOUS
 10
10.0515541348
 20
10.9328939554
 40
0.2722334287
100
AcDbArc
 50
18.7310949869
 51
19.4342688786
  0
ARC
  5
355
100
AcDbEntity
  8
0
100
AcDbCircle
 62
7
  6
CONTINUOUS
 10
9.4998469677
 20
10.2408934341
 40
0.0775286258
100
AcDbArc
 50
179.9999999943
 51
270.0
  0
ARC
  5
356
100
AcDbEntity
  8
0
100
AcDbCircle
 62
7
  6
CONTINUOUS
 10
10.7228183383
 20
11.4638648047
 40
0.063
100
AcDbArc
 50
179.999999987
 51
270.0
  0
ARC
  5
357
100
AcDbEntity
  8
0
100
AcDbCircle
 62
7
  6
CONTINUOUS
 10
9.8348183383
 20
10.5758648047
 40
0.0625
100
AcDbArc
 50
179.9999999999
 51
269.9999999948
  0
ARC
  5
358
100
AcDbEntity
  8
0
100
AcDbCircle
 62
9
  6
CONTINUOUS
 10
10.323820612
 20
11.0638855815
 40
0.0624669786
100
AcDbArc
 50
242.6129160341
 51
257.0833066158
  0
ARC
  5
359
100
AcDbEntity
  8
0
100
AcDbCircle
 62
7
  6
CONTINUOUS
 10
7.4508183383
 20
11.4783648047
 40
0.06
100
AcDbArc
 50
96.3793702039
 51
179.9999999933
  0
ARC
  5
35A
100
AcDbEntity
  8
0
100
AcDbCircle
 62
7
  6
CONTINUOUS
 10
7.5263183383
 20
11.3093648047
 40
0.06
100
AcDbArc
 50
269.9999999772
 51
360.0
  0
ARC
  5
35B
100
AcDbEntity
  8
0
100
AcDbCircle
 62
7
  6
CONTINUOUS
 10
7.8598183383
 20
10.9758648047
 40
0.06
100
AcDbArc
 50
269.9999999801
 51
359.9999999998
  0
ARC
  5
35C
100
AcDbEntity
  8
0
100
AcDbCircle
 62
7
  6
CONTINUOUS
 10
8.1823183383
 20
10.6533648047
 40
0.06
100
AcDbArc
 50
269.9999998864
 51
360.0
  0
ARC
  5
35D
100
AcDbEntity
  8
0
100
AcDbCircle
 62
9
  6
CONTINUOUS
 10
10.7228183383
 20
11.4638648047
 40
0.033
100
AcDbArc
 50
180.0
 51
270.0
  0
ARC
  5
35E
100
AcDbEntity
  8
0
100
AcDbCircle
 62
7
  6
CONTINUOUS
 10
7.4408183383
 20
11.5678075238
 40
0.03
100
AcDbArc
 50
276.3793702175
 51
0.5321717127
  0
ARC
  5
35F
100
AcDbEntity
  8
0
100
AcDbCircle
 62
9
  6
CONTINUOUS
 10
8.1823183383
 20
10.6533648047
 40
0.03
100
AcDbArc
 50
270.0
 51
360.0
  0
ARC
  5
360
100
AcDbEntity
  8
0
100
AcDbCircle
 62
9
  6
CONTINUOUS
 10
7.8598183383
 20
10.9758648047
 40
0.03
100
AcDbArc
 50
270.0000000007
 51
359.9999999993
  0
ARC
  5
361
100
AcDbEntity
  8
0
100
AcDbCircle
 62
9
  6
CONTINUOUS
 10
7.5263183383
 20
11.3093648047
 40
0.03
100
AcDbArc
 50
270.0000000007
 51
359.9999999993
  0
ARC
  5
362
100
AcDbEntity
  8
0
100
AcDbCircle
 62
9
  6
CONTINUOUS
 10
9.8348183383
 20
10.5758648047
 40
0.03
100
AcDbArc
 50
180.0000000006
 51
269.9999999994
  0
ARC
  5
363
100
AcDbEntity
  8
0
100
AcDbCircle
 62
7
  6
CONTINUOUS
 10
9.4998469677
 20
13.3358361753
 40
0.0775286258
100
AcDbArc
 50
89.9999999943
 51
180.0
  0
ARC
  5
364
100
AcDbEntity
  8
0
100
AcDbCircle
 62
7
  6
CONTINUOUS
 10
10.7228183383
 20
12.1128648047
 40
0.063
100
AcDbArc
 50
89.999999987
 51
180.0
  0
ARC
  5
365
100
AcDbEntity
  8
0
100
AcDbCircle
 62
7
  6
CONTINUOUS
 10
9.8348183383
 20
13.0008648047
 40
0.0625
100
AcDbArc
 50
89.9999999999
 51
179.9999999948
  0
ARC
  5
366
100
AcDbEntity
  8
0
100
AcDbCircle
 62
7
  6
CONTINUOUS
 10
7.4508183383
 20
12.0983648047
 40
0.06
100
AcDbArc
 50
180.0000000067
 51
263.6206297961
  0
ARC
  5
367
100
AcDbEntity
  8
0
100
AcDbCircle
 62
7
  6
CONTINUOUS
 10
7.5263183383
 20
12.2673648047
 40
0.06
100
AcDbArc
 50
0.0
 51
90.0
  0
ARC
  5
368
100
AcDbEntity
  8
0
100
AcDbCircle
 62
7
  6
CONTINUOUS
 10
7.8598183383
 20
12.6008648047
 40
0.06
100
AcDbArc
 50
0.0
 51
89.9999999999
  0
ARC
  5
369
100
AcDbEntity
  8
0
100
AcDbCircle
 62
7
  6
CONTINUOUS
 10
8.1823183383
 20
12.9233648047
 40
0.06
100
AcDbArc
 50
359.9999998864
 51
90.0
  0
ARC
  5
36A
100
AcDbEntity
  8
0
100
AcDbCircle
 62
9
  6
CONTINUOUS
 10
10.7228183383
 20
12.1128648047
 40
0.033
100
AcDbArc
 50
90.0
 51
180.0
  0
ARC
  5
36B
100
AcDbEntity
  8
0
100
AcDbCircle
 62
7
  6
CONTINUOUS
 10
7.4408183383
 20
12.0089220856
 40
0.03
100
AcDbArc
 50
359.4678282873
 51
83.6206297825
  0
ARC
  5
36C
100
AcDbEntity
  8
0
100
AcDbCircle
 62
9
  6
CONTINUOUS
 10
8.1823183383
 20
12.9233648047
 40
0.03
100
AcDbArc
 50
0.0
 51
90.0
  0
ARC
  5
36D
100
AcDbEntity
  8
0
100
AcDbCircle
 62
9
  6
CONTINUOUS
 10
7.8598183383
 20
12.6008648047
 40
0.03
100
AcDbArc
 50
0.0
 51
90.0000000004
  0
ARC
  5
36E
100
AcDbEntity
  8
0
100
AcDbCircle
 62
9
  6
CONTINUOUS
 10
7.5263183383
 20
12.2673648047
 40
0.03
100
AcDbArc
 50
0.0
 51
90.0000000004
  0
ARC
  5
36F
100
AcDbEntity
  8
0
100
AcDbCircle
 62
9
  6
CONTINUOUS
 10
9.8348183383
 20
13.0008648047
 40
0.03
100
AcDbArc
 50
90.0000000006
 51
179.9999999994
  0
ARC
  5
370
100
AcDbEntity
  8
0
100
AcDbCircle
 62
7
  6
CONTINUOUS
 10
11.7656791064
 20
2.9657420838
 40
0.0625059718
100
AcDbArc
 50
0.0019266359
 51
60.9306683722
  0
ARC
  5
371
100
AcDbEntity
  8
0
100
AcDbCircle
 62
7
  6
CONTINUOUS
 10
11.7656871462
 20
1.6128494043
 40
0.0625
100
AcDbArc
 50
270.0
 51
360.0
  0
ARC
  5
372
100
AcDbEntity
  8
0
100
AcDbCircle
 62
7
  6
CONTINUOUS
 10
11.7658465281
 20
2.9660805086
 40
0.0621278433
100
AcDbArc
 50
60.9139782804
 51
70.4564389017
  0
ARC
  5
373
100
AcDbEntity
  8
0
100
AcDbCircle
 62
9
  6
CONTINUOUS
 10
11.7648285007
 20
2.9666144218
 40
0.0613879053
100
AcDbArc
 50
66.7783413798
 51
68.9562576632
  0
ARC
  5
374
100
AcDbEntity
  8
0
100
AcDbCircle
 62
9
  6
CONTINUOUS
 10
12.0694330673
 20
10.9239722072
 40
0.3000534548
100
AcDbArc
 50
161.4133482366
 51
161.8795477522
  0
ARC
  5
375
100
AcDbEntity
  8
0
100
AcDbCircle
 62
7
  6
CONTINUOUS
 10
12.5947897089
 20
10.2408934341
 40
0.0775286258
100
AcDbArc
 50
269.9999999943
 51
360.0
  0
ARC
  5
376
100
AcDbEntity
  8
0
100
AcDbCircle
 62
7
  6
CONTINUOUS
 10
11.3718183383
 20
11.4638648047
 40
0.063
100
AcDbArc
 50
269.999999987
 51
360.0
  0
ARC
  5
377
100
AcDbEntity
  8
0
100
AcDbCircle
 62
9
  6
CONTINUOUS
 10
11.7707726267
 20
11.0640351061
 40
0.06262242
100
AcDbArc
 50
282.9799603863
 51
289.3379030461
  0
ARC
  5
378
100
AcDbEntity
  8
0
100
AcDbCircle
 62
7
  6
CONTINUOUS
 10
12.2598183383
 20
10.5758648047
 40
0.0625
100
AcDbArc
 50
269.9999999999
 51
359.9999999948
  0
ARC
  5
379
100
AcDbEntity
  8
0
100
AcDbCircle
 62
7
  6
CONTINUOUS
 10
14.6438183383
 20
11.4783648047
 40
0.06
100
AcDbArc
 50
0.0000000067
 51
83.6206297961
  0
ARC
  5
37A
100
AcDbEntity
  8
0
100
AcDbCircle
 62
7
  6
CONTINUOUS
 10
14.5683183383
 20
11.3093648047
 40
0.06
100
AcDbArc
 50
179.9999999775
 51
270.0
  0
ARC
  5
37B
100
AcDbEntity
  8
0
100
AcDbCircle
 62
7
  6
CONTINUOUS
 10
14.2348183383
 20
10.9758648047
 40
0.06
100
AcDbArc
 50
179.99999998
 51
269.9999999999
  0
ARC
  5
37C
100
AcDbEntity
  8
0
100
AcDbCircle
 62
7
  6
CONTINUOUS
 10
13.9123183383
 20
10.6533648047
 40
0.06
100
AcDbArc
 50
179.9999998864
 51
270.0
  0
ARC
  5
37D
100
AcDbEntity
  8
0
100
AcDbCircle
 62
9
  6
CONTINUOUS
 10
11.3718183383
 20
11.4638648047
 40
0.033
100
AcDbArc
 50
270.0
 51
360.0
  0
ARC
  5
37E
100
AcDbEntity
  8
0
100
AcDbCircle
 62
7
  6
CONTINUOUS
 10
14.6538183383
 20
11.5678075238
 40
0.03
100
AcDbArc
 50
179.4678282873
 51
263.6206297825
  0
ARC
  5
37F
100
AcDbEntity
  8
0
100
AcDbCircle
 62
9
  6
CONTINUOUS
 10
13.9123183383
 20
10.6533648047
 40
0.03
100
AcDbArc
 50
180.0
 51
270.0
  0
ARC
  5
380
100
AcDbEntity
  8
0
100
AcDbCircle
 62
9
  6
CONTINUOUS
 10
14.2348183383
 20
10.9758648047
 40
0.03
100
AcDbArc
 50
179.9999999996
 51
270.0000000004
  0
ARC
  5
381
100
AcDbEntity
  8
0
100
AcDbCircle
 62
9
  6
CONTINUOUS
 10
14.5683183383
 20
11.3093648047
 40
0.03
100
AcDbArc
 50
179.9999999996
 51
270.0000000004
  0
ARC
  5
382
100
AcDbEntity
  8
0
100
AcDbCircle
 62
9
  6
CONTINUOUS
 10
12.2598183383
 20
10.5758648047
 40
0.03
100
AcDbArc
 50
270.0000000006
 51
359.9999999994
  0
ARC
  5
383
100
AcDbEntity
  8
0
100
AcDbCircle
 62
7
  6
CONTINUOUS
 10
12.5947897089
 20
13.3358361753
 40
0.0775286258
100
AcDbArc
 50
0.0
 51
90.0
  0
ARC
  5
384
100
AcDbEntity
  8
0
100
AcDbCircle
 62
7
  6
CONTINUOUS
 10
11.3718183383
 20
12.1128648047
 40
0.063
100
AcDbArc
 50
0.0
 51
90.0
  0
ARC
  5
385
100
AcDbEntity
  8
0
100
AcDbCircle
 62
7
  6
CONTINUOUS
 10
12.2598183383
 20
13.0008648047
 40
0.0625
100
AcDbArc
 50
0.0
 51
89.9999999948
  0
ARC
  5
386
100
AcDbEntity
  8
0
100
AcDbCircle
 62
7
  6
CONTINUOUS
 10
14.6438183383
 20
12.0983648047
 40
0.06
100
AcDbArc
 50
276.3793702039
 51
359.9999999933
  0
ARC
  5
387
100
AcDbEntity
  8
0
100
AcDbCircle
 62
7
  6
CONTINUOUS
 10
14.5683183383
 20
12.2673648047
 40
0.06
100
AcDbArc
 50
89.9999999772
 51
180.0
  0
ARC
  5
388
100
AcDbEntity
  8
0
100
AcDbCircle
 62
7
  6
CONTINUOUS
 10
14.2348183383
 20
12.6008648047
 40
0.06
100
AcDbArc
 50
89.9999999801
 51
179.9999999998
  0
ARC
  5
389
100
AcDbEntity
  8
0
100
AcDbCircle
 62
7
  6
CONTINUOUS
 10
13.9123183383
 20
12.9233648047
 40
0.06
100
AcDbArc
 50
89.9999998864
 51
180.0
  0
ARC
  5
38A
100
AcDbEntity
  8
0
100
AcDbCircle
 62
9
  6
CONTINUOUS
 10
11.3718183383
 20
12.1128648047
 40
0.033
100
AcDbArc
 50
0.0
 51
90.0
  0
ARC
  5
38B
100
AcDbEntity
  8
0
100
AcDbCircle
 62
7
  6
CONTINUOUS
 10
14.6538183383
 20
12.0089220856
 40
0.03
100
AcDbArc
 50
96.3793702175
 51
180.5321717127
  0
ARC
  5
38C
100
AcDbEntity
  8
0
100
AcDbCircle
 62
9
  6
CONTINUOUS
 10
13.9123183383
 20
12.9233648047
 40
0.03
100
AcDbArc
 50
90.0
 51
180.0
  0
ARC
  5
38D
100
AcDbEntity
  8
0
100
AcDbCircle
 62
9
  6
CONTINUOUS
 10
14.2348183383
 20
12.6008648047
 40
0.03
100
AcDbArc
 50
90.0000000007
 51
179.9999999993
  0
ARC
  5
38E
100
AcDbEntity
  8
0
100
AcDbCircle
 62
9
  6
CONTINUOUS
 10
14.5683183383
 20
12.2673648047
 40
0.03
100
AcDbArc
 50
90.0000000007
 51
179.9999999993
  0
ARC
  5
38F
100
AcDbEntity
  8
0
100
AcDbCircle
 62
9
  6
CONTINUOUS
 10
12.2598183383
 20
13.0008648047
 40
0.03
100
AcDbArc
 50
0.0000000006
 51
89.9999999994
  0
ARC
  5
390
100
AcDbEntity
  8
0
100
AcDbCircle
 62
7
  6
CONTINUOUS
 10
15.4508183383
 20
11.4783648047
 40
0.06
100
AcDbArc
 50
90.0
 51
179.9999999933
  0
ARC
  5
391
100
AcDbEntity
  8
0
100
AcDbCircle
 62
7
  6
CONTINUOUS
 10
15.5263183383
 20
11.3093648047
 40
0.06
100
AcDbArc
 50
269.99999998
 51
360.0
  0
ARC
  5
392
100
AcDbEntity
  8
0
100
AcDbCircle
 62
7
  6
CONTINUOUS
 10
15.8598183383
 20
10.9758648047
 40
0.06
100
AcDbArc
 50
269.9999999799
 51
360.0
  0
ARC
  5
393
100
AcDbEntity
  8
0
100
AcDbCircle
 62
7
  6
CONTINUOUS
 10
16.1823183383
 20
10.6533648047
 40
0.06
100
AcDbArc
 50
269.9999998864
 51
360.0
  0
ARC
  5
394
100
AcDbEntity
  8
0
100
AcDbCircle
 62
7
  6
CONTINUOUS
 10
15.3608183383
 20
11.4748648047
 40
0.03
100
AcDbArc
 50
270.0
 51
360.0
  0
ARC
  5
395
100
AcDbEntity
  8
0
100
AcDbCircle
 62
7
  6
CONTINUOUS
 10
18.0488183383
 20
11.5683648047
 40
0.03
100
AcDbArc
 50
270.0
 51
360.0
  0
ARC
  5
396
100
AcDbEntity
  8
0
100
AcDbCircle
 62
7
  6
CONTINUOUS
 10
14.7338183383
 20
11.4748648047
 40
0.03
100
AcDbArc
 50
180.0
 51
270.0
  0
ARC
  5
397
100
AcDbEntity
  8
0
100
AcDbCircle
 62
9
  6
CONTINUOUS
 10
16.1823183383
 20
10.6533648047
 40
0.03
100
AcDbArc
 50
270.0
 51
360.0
  0
ARC
  5
398
100
AcDbEntity
  8
0
100
AcDbCircle
 62
9
  6
CONTINUOUS
 10
15.5263183383
 20
11.3093648047
 40
0.03
100
AcDbArc
 50
270.0000000007
 51
359.9999999993
  0
ARC
  5
399
100
AcDbEntity
  8
0
100
AcDbCircle
 62
9
  6
CONTINUOUS
 10
15.8598183383
 20
10.9758648047
 40
0.03
100
AcDbArc
 50
270.0
 51
360.0
  0
ARC
  5
39A
100
AcDbEntity
  8
0
100
AcDbCircle
 62
7
  6
CONTINUOUS
 10
15.4508183383
 20
12.0983648047
 40
0.06
100
AcDbArc
 50
180.0000000067
 51
270.0
  0
ARC
  5
39B
100
AcDbEntity
  8
0
100
AcDbCircle
 62
7
  6
CONTINUOUS
 10
15.5263183383
 20
12.2673648047
 40
0.06
100
AcDbArc
 50
0.0
 51
90.0
  0
ARC
  5
39C
100
AcDbEntity
  8
0
100
AcDbCircle
 62
7
  6
CONTINUOUS
 10
15.8598183383
 20
12.6008648047
 40
0.06
100
AcDbArc
 50
0.0
 51
89.9999999999
  0
ARC
  5
39D
100
AcDbEntity
  8
0
100
AcDbCircle
 62
7
  6
CONTINUOUS
 10
16.1823183383
 20
12.9233648047
 40
0.06
100
AcDbArc
 50
359.9999998864
 51
90.0
  0
ARC
  5
39E
100
AcDbEntity
  8
0
100
AcDbCircle
 62
7
  6
CONTINUOUS
 10
18.0488183383
 20
12.0083648047
 40
0.03
100
AcDbArc
 50
0.0
 51
90.0
  0
ARC
  5
39F
100
AcDbEntity
  8
0
100
AcDbCircle
 62
7
  6
CONTINUOUS
 10
15.3608183383
 20
12.1018648047
 40
0.03
100
AcDbArc
 50
0.0
 51
90.0
  0
ARC
  5
3A0
100
AcDbEntity
  8
0
100
AcDbCircle
 62
7
  6
CONTINUOUS
 10
14.7338183383
 20
12.1018648047
 40
0.03
100
AcDbArc
 50
90.0
 51
180.0
  0
ARC
  5
3A1
100
AcDbEntity
  8
0
100
AcDbCircle
 62
9
  6
CONTINUOUS
 10
16.1823183383
 20
12.9233648047
 40
0.03
100
AcDbArc
 50
0.0
 51
90.0
  0
ARC
  5
3A2
100
AcDbEntity
  8
0
100
AcDbCircle
 62
9
  6
CONTINUOUS
 10
15.8598183383
 20
12.6008648047
 40
0.03
100
AcDbArc
 50
0.0
 51
90.0000000004
  0
ARC
  5
3A3
100
AcDbEntity
  8
0
100
AcDbCircle
 62
9
  6
CONTINUOUS
 10
15.5263183383
 20
12.2673648047
 40
0.03
100
AcDbArc
 50
0.0
 51
90.0000000004
  0
SPLINE
  5
3A4
100
AcDbEntity
  8
0
100
AcDbSpline
 62
7
  6
CONTINUOUS
 70
0
 71
3
 72
22
 73
18
 74
0
 42
0.0000001
 43
0.0000001
 44
0.0000000001
 40
0.0
 40
0.0
 40
0.0
 40
0.0
 40
0.2012143267
 40
0.3922029499
 40
0.565501817
 40
0.7154777663
 40
0.7801345608
 40
0.8372042872
 40
0.8862214062
 40
0.9267282003
 40
0.9436617093
 40
0.958348965
 40
0.9707805643
 40
0.980951954
 40
0.9888691699
 40
0.994565905
 40
1.0
 40
1.0
 40
1.0
 40
1.0
 10
7.4441516716
 20
12.0083648046
 30
0.0
 10
7.4459441543
 20
12.0083646396
 30
0.0
 10
7.449438024
 20
12.0083628292
 30
0.0
 10
7.4544757046
 20
12.0083624934
 30
0.0
 10
7.45905691
 20
12.0083723741
 30
0.0
 10
7.4625127652
 20
12.0083727143
 30
0.0
 10
7.4649331126
 20
12.0083535647
 30
0.0
 10
7.4664540837
 20
12.0083395842
 30
0.0
 10
7.467760002
 20
12.0083344433
 30
0.0
 10
7.4687083457
 20
12.0083443883
 30
0.0
 10
7.469350608
 20
12.0083684306
 30
0.0
 10
7.4697420836
 20
12.0083914965
 30
0.0
 10
7.470073964
 20
12.0084210503
 30
0.0
 10
7.470341292
 20
12.0084538202
 30
0.0
 10
7.4705561719
 20
12.0084963705
 30
0.0
 10
7.4707034313
 20
12.0085335892
 30
0.0
 10
7.4708278064
 20
12.0086032891
 30
0.0
 10
7.4708170442
 20
12.0086504863
 30
0.0
  0
LINE
  5
3A5
100
AcDbEntity
  8
0
100
AcDbLine
 62
7
  6
CONTINUOUS
 10
7.4441516716
 20
11.5683648047
 11
7.4708170442
 21
11.5683642163
  0
SPLINE
  5
3A6
100
AcDbEntity
  8
0
100
AcDbSpline
 62
9
  6
CONTINUOUS
 70
0
 71
3
 72
21
 73
17
 74
0
 42
0.0000001
 43
0.0000001
 44
0.0000000001
 40
0.0
 40
0.0
 40
0.0
 40
0.0
 40
0.0624462622
 40
0.1250000643
 40
0.1875438637
 40
0.2500548427
 40
0.3125738507
 40
0.3751170006
 40
0.5000041754
 40
0.6248896523
 40
0.687431781
 40
0.7499491569
 40
0.8124588393
 40
0.8750021177
 40
0.9375550409
 40
1.0
 40
1.0
 40
1.0
 40
1.0
 10
7.7312973206
 20
12.5609764848
 30
0.0
 10
7.7341971179
 20
12.5609772107
 30
0.0
 10
7.7400055276
 20
12.5607031543
 30
0.0
 10
7.7486388547
 20
12.559463531
 30
0.0
 10
7.7571131971
 20
12.5573801473
 30
0.0
 10
7.7653342766
 20
12.5544597553
 30
0.0
 10
7.7732312922
 20
12.5507506998
 30
0.0
 10
7.7832244983
 20
12.5448192168
 30
0.0
 10
7.7945692432
 20
12.5356148306
 30
0.0
 10
7.8037740345
 20
12.5242703129
 30
0.0
 10
7.8097044523
 20
12.514276694
 30
0.0
 10
7.8134129458
 20
12.5063796353
 30
0.0
 10
7.8163334662
 20
12.4981588233
 30
0.0
 10
7.8184186404
 20
12.4896850798
 30
0.0
 10
7.8196595315
 20
12.4810520062
 30
0.0
 10
7.819932322
 20
12.475243523
 30
0.0
 10
7.8199300183
 20
12.472343787
 30
0.0
  0
SPLINE
  5
3A7
100
AcDbEntity
  8
0
100
AcDbSpline
 62
9
  6
CONTINUOUS
 70
0
 71
3
 72
15
 73
11
 74
0
 42
0.0000001
 43
0.0000001
 44
0.0000000001
 40
0.0
 40
0.0
 40
0.0
 40
0.0
 40
0.1256015266
 40
0.250776223
 40
0.3755313937
 40
0.500015171
 40
0.6244924427
 40
0.7492360867
 40
0.8744026948
 40
1.0
 40
1.0
 40
1.0
 40
1.0
 10
7.7312985067
 20
12.5314321759
 30
0.0
 10
7.7352036619
 20
12.5314881246
 30
0.0
 10
7.7430318415
 20
12.5308481547
 30
0.0
 10
7.7543401358
 20
12.5276517075
 30
0.0
 10
7.7647441402
 20
12.5222484711
 30
0.0
 10
7.7738346514
 20
12.5148785407
 30
0.0
 10
7.7812039548
 20
12.5057879646
 30
0.0
 10
7.7866061092
 20
12.4953843259
 30
0.0
 10
7.7898019478
 20
12.4840766626
 30
0.0
 10
7.7904417315
 20
12.4762488539
 30
0.0
 10
7.790385693
 20
12.4723438313
 30
0.0
  0
SPLINE
  5
3A8
100
AcDbEntity
  8
0
100
AcDbSpline
 62
9
  6
CONTINUOUS
 70
0
 71
3
 72
21
 73
17
 74
0
 42
0.0000001
 43
0.0000001
 44
0.0000000001
 40
0.0
 40
0.0
 40
0.0
 40
0.0
 40
0.0624462622
 40
0.1250000643
 40
0.1875438637
 40
0.2500548427
 40
0.3125738507
 40
0.3751170006
 40
0.5000041754
 40
0.6248896523
 40
0.687431781
 40
0.7499491569
 40
0.8124588393
 40
0.8750021177
 40
0.9375550409
 40
1.0
 40
1.0
 40
1.0
 40
1.0
 10
7.8199300183
 20
11.1043858224
 30
0.0
 10
7.8199307442
 20
11.1014860251
 30
0.0
 10
7.8196566879
 20
11.0956776154
 30
0.0
 10
7.8184170646
 20
11.0870442884
 30
0.0
 10
7.8163336809
 20
11.0785699459
 30
0.0
 10
7.8134132889
 20
11.0703488664
 30
0.0
 10
7.8097042333
 20
11.0624518508
 30
0.0
 10
7.8037727504
 20
11.0524586447
 30
0.0
 10
7.7945683642
 20
11.0411138998
 30
0.0
 10
7.7832238464
 20
11.0319091085
 30
0.0
 10
7.7732302276
 20
11.0259786907
 30
0.0
 10
7.7653331689
 20
11.0222701972
 30
0.0
 10
7.7571123568
 20
11.0193496768
 30
0.0
 10
7.7486386134
 20
11.0172645026
 30
0.0
 10
7.7400055398
 20
11.0160236116
 30
0.0
 10
7.7341970565
 20
11.015750821
 30
0.0
 10
7.7312973205
 20
11.0157531247
 30
0.0
  0
SPLINE
  5
3A9
100
AcDbEntity
  8
0
100
AcDbSpline
 62
9
  6
CONTINUOUS
 70
0
 71
3
 72
15
 73
11
 74
0
 42
0.0000001
 43
0.0000001
 44
0.0000000001
 40
0.0
 40
0.0
 40
0.0
 40
0.0
 40
0.1256015261
 40
0.2507762218
 40
0.3755313922
 40
0.5000151694
 40
0.6244924416
 40
0.749236086
 40
0.8744026946
 40
1.0
 40
1.0
 40
1.0
 40
1.0
 10
7.7903857098
 20
11.1043846085
 30
0.0
 10
7.7904416567
 20
11.1004794545
 30
0.0
 10
7.7898016838
 20
11.0926512775
 30
0.0
 10
7.7866052332
 20
11.0813429879
 30
0.0
 10
7.7812019949
 20
11.0709389884
 30
0.0
 10
7.7738320643
 20
11.061848482
 30
0.0
 10
7.7647414893
 20
11.0544791827
 30
0.0
 10
7.7543378529
 20
11.0490770315
 30
0.0
 10
7.7430301927
 20
11.0458811948
 30
0.0
 10
7.7352023863
 20
11.0452414116
 30
0.0
 10
7.7312973649
 20
11.04529745
 30
0.0
  0
SPLINE
  5
3AA
100
AcDbEntity
  8
0
100
AcDbSpline
 62
9
  6
CONTINUOUS
 70
0
 71
3
 72
21
 73
17
 74
0
 42
0.0000001
 43
0.0000001
 44
0.0000000001
 40
0.0
 40
0.0
 40
0.0
 40
0.0
 40
0.0624462622
 40
0.1250000643
 40
0.1875438637
 40
0.2500548427
 40
0.3125738507
 40
0.3751170006
 40
0.5000041754
 40
0.6248896523
 40
0.687431781
 40
0.7499491569
 40
0.8124588393
 40
0.8750021177
 40
0.9375550409
 40
1.0
 40
1.0
 40
1.0
 40
1.0
 10
6.363339356
 20
11.0157531247
 30
0.0
 10
6.3604395587
 20
11.0157523988
 30
0.0
 10
6.354631149
 20
11.0160264552
 30
0.0
 10
6.3459978219
 20
11.0172660785
 30
0.0
 10
6.3375234794
 20
11.0193494622
 30
0.0
 10
6.3293024
 20
11.0222698541
 30
0.0
 10
6.3214053844
 20
11.0259789097
 30
0.0
 10
6.3114121783
 20
11.0319103926
 30
0.0
 10
6.3000674334
 20
11.0411147789
 30
0.0
 10
6.2908626421
 20
11.0524592966
 30
0.0
 10
6.2849322243
 20
11.0624529154
 30
0.0
 10
6.2812237307
 20
11.0703499741
 30
0.0
 10
6.2783032104
 20
11.0785707862
 30
0.0
 10
6.2762180362
 20
11.0870445296
 30
0.0
 10
6.2749771451
 20
11.0956776032
 30
0.0
 10
6.2747043545
 20
11.1014860865
 30
0.0
 10
6.2747066582
 20
11.1043858225
 30
0.0
  0
SPLINE
  5
3AB
100
AcDbEntity
  8
0
100
AcDbSpline
 62
9
  6
CONTINUOUS
 70
0
 71
3
 72
15
 73
11
 74
0
 42
0.0000001
 43
0.0000001
 44
0.0000000001
 40
0.0
 40
0.0
 40
0.0
 40
0.0
 40
0.1256015648
 40
0.2507763281
 40
0.3755315266
 40
0.5000153081
 40
0.6244925442
 40
0.749236148
 40
0.8744027176
 40
1.0
 40
1.0
 40
1.0
 40
1.0
 10
6.3633406359
 20
11.045297469
 30
0.0
 10
6.3594353791
 20
11.0452413605
 30
0.0
 10
6.3516069636
 20
11.0458810533
 30
0.0
 10
6.3402982561
 20
11.0490772011
 30
0.0
 10
6.3298938129
 20
11.0544802775
 30
0.0
 10
6.3208028804
 20
11.0618501836
 30
0.0
 10
6.3134332097
 20
11.0709408611
 30
0.0
 10
6.3080307748
 20
11.0813447026
 30
0.0
 10
6.3048347634
 20
11.0926526393
 30
0.0
 10
6.3041949436
 20
11.1004806535
 30
0.0
 10
6.3042509835
 20
11.1043857781
 30
0.0
  0
SPLINE
  5
3AC
100
AcDbEntity
  8
0
100
AcDbSpline
 62
9
  6
CONTINUOUS
 70
0
 71
3
 72
15
 73
11
 74
0
 42
0.0000001
 43
0.0000001
 44
0.0000000001
 40
0.0
 40
0.0
 40
0.0
 40
0.0
 40
0.1256015631
 40
0.2507763235
 40
0.3755315208
 40
0.5000153021
 40
0.6244925398
 40
0.7492361454
 40
0.8744027166
 40
1.0
 40
1.0
 40
1.0
 40
1.0
 10
6.304251001
 20
12.4723426144
 30
0.0
 10
6.3041948994
 20
12.4762478668
 30
0.0
 10
6.3048346043
 20
12.484076272
 30
0.0
 10
6.3080307651
 20
12.4953849616
 30
0.0
 10
6.3134338485
 20
12.5057893857
 30
0.0
 10
6.3208037556
 20
12.5148802998
 30
0.0
 10
6.3298944288
 20
12.5222499545
 30
0.0
 10
6.3402982615
 20
12.5276523772
 30
0.0
 10
6.3516061862
 20
12.5308483812
 30
0.0
 10
6.3594341915
 20
12.5314881993
 30
0.0
 10
6.3633393117
 20
12.5314321595
 30
0.0
  0
SPLINE
  5
3AD
100
AcDbEntity
  8
0
100
AcDbSpline
 62
9
  6
CONTINUOUS
 70
0
 71
3
 72
21
 73
17
 74
0
 42
0.0000001
 43
0.0000001
 44
0.0000000001
 40
0.0
 40
0.0
 40
0.0
 40
0.0
 40
0.0624462622
 40
0.1250000643
 40
0.1875438637
 40
0.2500548427
 40
0.3125738507
 40
0.3751170006
 40
0.5000041754
 40
0.6248896523
 40
0.687431781
 40
0.7499491569
 40
0.8124588393
 40
0.8750021177
 40
0.9375550409
 40
1.0
 40
1.0
 40
1.0
 40
1.0
 10
6.2747066582
 20
12.472343787
 30
0.0
 10
6.2747059324
 20
12.4752435843
 30
0.0
 10
6.2749799887
 20
12.481051994
 30
0.0
 10
6.276219612
 20
12.4896853211
 30
0.0
 10
6.2783029957
 20
12.4981596636
 30
0.0
 10
6.2812233877
 20
12.5063807431
 30
0.0
 10
6.2849324433
 20
12.5142777586
 30
0.0
 10
6.2908639262
 20
12.5242709647
 30
0.0
 10
6.3000683124
 20
12.5356157096
 30
0.0
 10
6.3114128302
 20
12.5448205009
 30
0.0
 10
6.321406449
 20
12.5507509188
 30
0.0
 10
6.3293035077
 20
12.5544594123
 30
0.0
 10
6.3375243198
 20
12.5573799326
 30
0.0
 10
6.3459980632
 20
12.5594651069
 30
0.0
 10
6.3546311368
 20
12.5607059979
 30
0.0
 10
6.36043962
 20
12.5609787885
 30
0.0
 10
6.363339356
 20
12.5609764848
 30
0.0
  0
SPLINE
  5
3AE
100
AcDbEntity
  8
0
100
AcDbSpline
 62
7
  6
CONTINUOUS
 70
0
 71
3
 72
22
 73
18
 74
0
 42
0.0000001
 43
0.0000001
 44
0.0000000001
 40
0.0
 40
0.0
 40
0.0
 40
0.0
 40
0.2012147604
 40
0.3922038014
 40
0.5655030471
 40
0.7154793272
 40
0.7801362558
 40
0.837206095
 40
0.8862233235
 40
0.9267302348
 40
0.9436637937
 40
0.9583510797
 40
0.9707826769
 40
0.980954014
 40
0.9888710965
 40
0.9945675571
 40
1.0
 40
1.0
 40
1.0
 40
1.0
 10
14.6504850049
 20
11.5683648048
 30
0.0
 10
14.6486925224
 20
11.5683649645
 30
0.0
 10
14.6451986529
 20
11.5683667623
 30
0.0
 10
14.6401609726
 20
11.5683670991
 30
0.0
 10
14.6355797672
 20
11.5683572707
 30
0.0
 10
14.6321239124
 20
11.5683569523
 30
0.0
 10
14.6297035649
 20
11.568376051
 30
0.0
 10
14.6281825936
 20
11.5683899793
 30
0.0
 10
14.6268766748
 20
11.5683950687
 30
0.0
 10
14.6259283314
 20
11.5683850921
 30
0.0
 10
14.6252860689
 20
11.5683610427
 30
0.0
 10
14.6248945938
 20
11.5683379793
 30
0.0
 10
14.6245627125
 20
11.5683084349
 30
0.0
 10
14.6242953882
 20
11.5682756796
 30
0.0
 10
14.6240805014
 20
11.5682331509
 30
0.0
 10
14.623933272
 20
11.5681959575
 30
0.0
 10
14.6238088673
 20
11.5681263071
 30
0.0
 10
14.6238196323
 20
11.5680791258
 30
0.0
  0
LINE
  5
3AF
100
AcDbEntity
  8
0
100
AcDbLine
 62
7
  6
CONTINUOUS
 10
14.6504850049
 20
12.0083648047
 11
14.6238196323
 21
12.0083653964
  0
SPLINE
  5
3B0
100
AcDbEntity
  8
0
100
AcDbSpline
 62
9
  6
CONTINUOUS
 70
0
 71
3
 72
21
 73
17
 74
0
 42
0.0000001
 43
0.0000001
 44
0.0000000001
 40
0.0
 40
0.0
 40
0.0
 40
0.0
 40
0.0624462622
 40
0.1250000643
 40
0.1875438637
 40
0.2500548427
 40
0.3125738507
 40
0.3751170006
 40
0.5000041754
 40
0.6248896523
 40
0.687431781
 40
0.7499491569
 40
0.8124588393
 40
0.8750021177
 40
0.9375550409
 40
1.0
 40
1.0
 40
1.0
 40
1.0
 10
14.363339356
 20
11.0157531247
 30
0.0
 10
14.3604395587
 20
11.0157523988
 30
0.0
 10
14.354631149
 20
11.0160264552
 30
0.0
 10
14.3459978219
 20
11.0172660785
 30
0.0
 10
14.3375234794
 20
11.0193494622
 30
0.0
 10
14.3293024
 20
11.0222698541
 30
0.0
 10
14.3214053844
 20
11.0259789097
 30
0.0
 10
14.3114121783
 20
11.0319103926
 30
0.0
 10
14.3000674334
 20
11.0411147789
 30
0.0
 10
14.2908626421
 20
11.0524592966
 30
0.0
 10
14.2849322243
 20
11.0624529154
 30
0.0
 10
14.2812237307
 20
11.0703499741
 30
0.0
 10
14.2783032104
 20
11.0785707862
 30
0.0
 10
14.2762180362
 20
11.0870445296
 30
0.0
 10
14.2749771451
 20
11.0956776032
 30
0.0
 10
14.2747043545
 20
11.1014860865
 30
0.0
 10
14.2747066582
 20
11.1043858225
 30
0.0
  0
SPLINE
  5
3B1
100
AcDbEntity
  8
0
100
AcDbSpline
 62
9
  6
CONTINUOUS
 70
0
 71
3
 72
15
 73
11
 74
0
 42
0.0000001
 43
0.0000001
 44
0.0000000001
 40
0.0
 40
0.0
 40
0.0
 40
0.0
 40
0.1256014932
 40
0.2507761839
 40
0.3755313691
 40
0.500015171
 40
0.6244924672
 40
0.7492361258
 40
0.8744027282
 40
1.0
 40
1.0
 40
1.0
 40
1.0
 10
14.3633382091
 20
11.0452973514
 30
0.0
 10
14.359433045
 20
11.0452413951
 30
0.0
 10
14.351604845
 20
11.0458813532
 30
0.0
 10
14.3402965177
 20
11.0490777941
 30
0.0
 10
14.3298924808
 20
11.0544810372
 30
0.0
 10
14.3208019421
 20
11.0618509857
 30
0.0
 10
14.3134326206
 20
11.0709415893
 30
0.0
 10
14.3080304595
 20
11.0813452604
 30
0.0
 10
14.3048346272
 20
11.0926529567
 30
0.0
 10
14.3041948553
 20
11.1004807859
 30
0.0
 10
14.3042509014
 20
11.1043858174
 30
0.0
  0
SPLINE
  5
3B2
100
AcDbEntity
  8
0
100
AcDbSpline
 62
9
  6
CONTINUOUS
 70
0
 71
3
 72
21
 73
17
 74
0
 42
0.0000001
 43
0.0000001
 44
0.0000000001
 40
0.0
 40
0.0
 40
0.0
 40
0.0
 40
0.0624462622
 40
0.1250000643
 40
0.1875438637
 40
0.2500548427
 40
0.3125738507
 40
0.3751170006
 40
0.5000041754
 40
0.6248896523
 40
0.687431781
 40
0.7499491569
 40
0.8124588393
 40
0.8750021177
 40
0.9375550409
 40
1.0
 40
1.0
 40
1.0
 40
1.0
 10
14.2747066582
 20
12.472343787
 30
0.0
 10
14.2747059324
 20
12.4752435843
 30
0.0
 10
14.2749799887
 20
12.481051994
 30
0.0
 10
14.276219612
 20
12.4896853211
 30
0.0
 10
14.2783029957
 20
12.4981596636
 30
0.0
 10
14.2812233877
 20
12.5063807431
 30
0.0
 10
14.2849324433
 20
12.5142777586
 30
0.0
 10
14.2908639262
 20
12.5242709647
 30
0.0
 10
14.3000683124
 20
12.5356157096
 30
0.0
 10
14.3114128302
 20
12.5448205009
 30
0.0
 10
14.321406449
 20
12.5507509188
 30
0.0
 10
14.3293035077
 20
12.5544594123
 30
0.0
 10
14.3375243198
 20
12.5573799326
 30
0.0
 10
14.3459980632
 20
12.5594651069
 30
0.0
 10
14.3546311368
 20
12.5607059979
 30
0.0
 10
14.36043962
 20
12.5609787885
 30
0.0
 10
14.363339356
 20
12.5609764848
 30
0.0
  0
SPLINE
  5
3B3
100
AcDbEntity
  8
0
100
AcDbSpline
 62
9
  6
CONTINUOUS
 70
0
 71
3
 72
15
 73
11
 74
0
 42
0.0000001
 43
0.0000001
 44
0.0000000001
 40
0.0
 40
0.0
 40
0.0
 40
0.0
 40
0.1256014928
 40
0.2507761827
 40
0.3755313676
 40
0.5000151694
 40
0.624492466
 40
0.7492361251
 40
0.8744027279
 40
1.0
 40
1.0
 40
1.0
 40
1.0
 10
14.3042508846
 20
12.4723449617
 30
0.0
 10
14.30419493
 20
12.4762501247
 30
0.0
 10
14.3048348913
 20
12.484078322
 30
0.0
 10
14.3080313355
 20
12.4953866447
 30
0.0
 10
14.3134345805
 20
12.5057906766
 30
0.0
 10
14.3208045292
 20
12.5148812106
 30
0.0
 10
14.3298951317
 20
12.5222505279
 30
0.0
 10
14.3402988005
 20
12.5276526858
 30
0.0
 10
14.3516064938
 20
12.5308485162
 30
0.0
 10
14.3594343206
 20
12.5314882877
 30
0.0
 10
14.363339351
 20
12.5314322417
 30
0.0
  0
SPLINE
  5
3B4
100
AcDbEntity
  8
0
100
AcDbSpline
 62
9
  6
CONTINUOUS
 70
0
 71
3
 72
21
 73
17
 74
0
 42
0.0000001
 43
0.0000001
 44
0.0000000001
 40
0.0
 40
0.0
 40
0.0
 40
0.0
 40
0.0624462622
 40
0.1250000643
 40
0.1875438637
 40
0.2500548427
 40
0.3125738507
 40
0.3751170006
 40
0.5000041754
 40
0.6248896523
 40
0.687431781
 40
0.7499491569
 40
0.8124588393
 40
0.8750021177
 40
0.9375550409
 40
1.0
 40
1.0
 40
1.0
 40
1.0
 10
15.7312973206
 20
12.5609764848
 30
0.0
 10
15.7341971179
 20
12.5609772107
 30
0.0
 10
15.7400055276
 20
12.5607031543
 30
0.0
 10
15.7486388547
 20
12.559463531
 30
0.0
 10
15.7571131971
 20
12.5573801473
 30
0.0
 10
15.7653342766
 20
12.5544597553
 30
0.0
 10
15.7732312922
 20
12.5507506998
 30
0.0
 10
15.7832244983
 20
12.5448192168
 30
0.0
 10
15.7945692432
 20
12.5356148306
 30
0.0
 10
15.8037740345
 20
12.5242703129
 30
0.0
 10
15.8097044523
 20
12.514276694
 30
0.0
 10
15.8134129458
 20
12.5063796353
 30
0.0
 10
15.8163334662
 20
12.4981588233
 30
0.0
 10
15.8184186404
 20
12.4896850798
 30
0.0
 10
15.8196595315
 20
12.4810520062
 30
0.0
 10
15.819932322
 20
12.475243523
 30
0.0
 10
15.8199300183
 20
12.472343787
 30
0.0
  0
SPLINE
  5
3B5
100
AcDbEntity
  8
0
100
AcDbSpline
 62
9
  6
CONTINUOUS
 70
0
 71
3
 72
15
 73
11
 74
0
 42
0.0000001
 43
0.0000001
 44
0.0000000001
 40
0.0
 40
0.0
 40
0.0
 40
0.0
 40
0.1256015314
 40
0.2507762889
 40
0.3755315021
 40
0.5000153081
 40
0.6244925687
 40
0.7492361872
 40
0.874402751
 40
1.0
 40
1.0
 40
1.0
 40
1.0
 10
15.7312960013
 20
12.5314322226
 30
0.0
 10
15.7352012671
 20
12.5314883388
 30
0.0
 10
15.743029703
 20
12.5308486577
 30
0.0
 10
15.7543384436
 20
12.5276525162
 30
0.0
 10
15.7647429192
 20
12.5222494332
 30
0.0
 10
15.7738338792
 20
12.514879509
 30
0.0
 10
15.781203568
 20
12.5057888039
 30
0.0
 10
15.7866060096
 20
12.49538493
 30
0.0
 10
15.7898020147
 20
12.4840769603
 30
0.0
 10
15.7904418228
 20
12.4762489256
 30
0.0
 10
15.7903857752
 20
12.472343792
 30
0.0
  0
SPLINE
  5
3B6
100
AcDbEntity
  8
0
100
AcDbSpline
 62
9
  6
CONTINUOUS
 70
0
 71
3
 72
15
 73
11
 74
0
 42
0.0000001
 43
0.0000001
 44
0.0000000001
 40
0.0
 40
0.0
 40
0.0
 40
0.0
 40
0.1256015297
 40
0.2507762843
 40
0.3755314963
 40
0.5000153021
 40
0.6244925643
 40
0.7492361845
 40
0.87440275
 40
1.0
 40
1.0
 40
1.0
 40
1.0
 10
15.7903857577
 20
11.1043870344
 30
0.0
 10
15.790441867
 20
11.100481773
 30
0.0
 10
15.7898021738
 20
11.0926533474
 30
0.0
 10
15.7866060193
 20
11.0813446248
 30
0.0
 10
15.7812029292
 20
11.0709401683
 30
0.0
 10
15.773833004
 20
11.0618492266
 30
0.0
 10
15.7647423033
 20
11.0544795538
 30
0.0
 10
15.7543384382
 20
11.0490771244
 30
0.0
 10
15.7430304805
 20
11.0458811268
 30
0.0
 10
15.7352024547
 20
11.0452413203
 30
0.0
 10
15.7312973256
 20
11.0452973678
 30
0.0
  0
SPLINE
  5
3B7
100
AcDbEntity
  8
0
100
AcDbSpline
 62
9
  6
CONTINUOUS
 70
0
 71
3
 72
21
 73
17
 74
0
 42
0.0000001
 43
0.0000001
 44
0.0000000001
 40
0.0
 40
0.0
 40
0.0
 40
0.0
 40
0.0624462622
 40
0.1250000643
 40
0.1875438637
 40
0.2500548427
 40
0.3125738507
 40
0.3751170006
 40
0.5000041754
 40
0.6248896523
 40
0.687431781
 40
0.7499491569
 40
0.8124588393
 40
0.8750021177
 40
0.9375550409
 40
1.0
 40
1.0
 40
1.0
 40
1.0
 10
15.8199300183
 20
11.1043858224
 30
0.0
 10
15.8199307442
 20
11.1014860251
 30
0.0
 10
15.8196566879
 20
11.0956776154
 30
0.0
 10
15.8184170646
 20
11.0870442884
 30
0.0
 10
15.8163336809
 20
11.0785699459
 30
0.0
 10
15.8134132889
 20
11.0703488664
 30
0.0
 10
15.8097042333
 20
11.0624518508
 30
0.0
 10
15.8037727504
 20
11.0524586447
 30
0.0
 10
15.7945683642
 20
11.0411138998
 30
0.0
 10
15.7832238464
 20
11.0319091085
 30
0.0
 10
15.7732302276
 20
11.0259786907
 30
0.0
 10
15.7653331689
 20
11.0222701972
 30
0.0
 10
15.7571123568
 20
11.0193496768
 30
0.0
 10
15.7486386134
 20
11.0172645026
 30
0.0
 10
15.7400055398
 20
11.0160236116
 30
0.0
 10
15.7341970565
 20
11.015750821
 30
0.0
 10
15.7312973205
 20
11.0157531247
 30
0.0
  0
SPLINE
  5
3B8
100
AcDbEntity
  8
0
100
AcDbSpline
 62
9
  6
CONTINUOUS
 70
0
 71
3
 72
11
 73
7
 74
0
 42
0.0000001
 43
0.0000001
 44
0.0000000001
 40
0.0
 40
0.0
 40
0.0
 40
0.0
 40
0.2490332395
 40
0.5
 40
0.7509667605
 40
1.0
 40
1.0
 40
1.0
 40
1.0
 10
11.6017806634
 20
1.8383063716
 30
0.0
 10
11.6015424152
 20
1.8304052412
 30
0.0
 10
11.5979402802
 20
1.814482054
 30
0.0
 10
11.5841722446
 20
1.7943643059
 30
0.0
 10
11.5640544965
 20
1.7805962703
 30
0.0
 10
11.5481313092
 20
1.7769941353
 30
0.0
 10
11.5402301789
 20
1.776755887
 30
0.0
  0
SPLINE
  5
3B9
100
AcDbEntity
  8
0
100
AcDbSpline
 62
9
  6
CONTINUOUS
 70
0
 71
3
 72
16
 73
12
 74
0
 42
0.0000001
 43
0.0000001
 44
0.0000000001
 40
0.0
 40
0.0
 40
0.0
 40
0.0
 40
0.0898112349
 40
0.1329032349
 40
0.1762298517
 40
0.2678284158
 40
0.3726623904
 40
0.4959617533
 40
0.6406952813
 40
0.8084396393
 40
1.0
 40
1.0
 40
1.0
 40
1.0
 10
11.8272376083
 20
2.9658263959
 30
0.0
 10
11.8257994142
 20
2.9651385505
 30
0.0
 10
11.8235055533
 20
2.9643999653
 30
0.0
 10
11.8203693028
 20
2.9642306814
 30
0.0
 10
11.8172156122
 20
2.964595272
 30
0.0
 10
11.8131783267
 20
2.9661529198
 30
0.0
 10
11.8085744035
 20
2.9695499554
 30
0.0
 10
11.8040746591
 20
2.9744424972
 30
0.0
 10
11.7996549794
 20
2.9808116815
 30
0.0
 10
11.7953108234
 20
2.9886457396
 30
0.0
 10
11.7926491775
 20
2.9944478168
 30
0.0
 10
11.7913184442
 20
2.9975769525
 30
0.0
  0
LINE
  5
3BA
100
AcDbEntity
  8
0
100
AcDbLine
 62
9
  6
CONTINUOUS
 10
11.7913184442
 20
2.9975769525
 11
11.7866287317
 21
3.009659628
  0
SPLINE
  5
3BB
100
AcDbEntity
  8
0
100
AcDbSpline
 62
9
  6
CONTINUOUS
 70
0
 71
3
 72
9
 73
5
 74
0
 42
0.0000001
 43
0.0000001
 44
0.0000000001
 40
0.0
 40
0.0
 40
0.0
 40
0.0
 40
0.2353797848
 40
1.0
 40
1.0
 40
1.0
 40
1.0
 10
11.7866287317
 20
3.009659628
 30
0.0
 10
11.7860515695
 20
3.0112802919
 30
0.0
 10
11.7836679885
 20
3.0181899614
 30
0.0
 10
11.7815387501
 20
3.0251859697
 30
0.0
 10
11.7800181127
 20
3.0305636458
 30
0.0
  0
SPLINE
  5
3BC
100
AcDbEntity
  8
0
100
AcDbSpline
 62
9
  6
CONTINUOUS
 70
0
 71
3
 72
15
 73
11
 74
0
 42
0.0000001
 43
0.0000001
 44
0.0000000001
 40
0.0
 40
0.0
 40
0.0
 40
0.0
 40
0.0881711395
 40
0.1901489214
 40
0.3046152146
 40
0.4299441882
 40
0.5642610661
 40
0.7055590769
 40
0.8516847115
 40
1.0
 40
1.0
 40
1.0
 40
1.0
 10
11.7800181127
 20
3.0305636458
 30
0.0
 10
11.7770282377
 20
3.041137224
 30
0.0
 10
11.7714618511
 20
3.0641901303
 30
0.0
 10
11.764461431
 20
3.1015120149
 30
0.0
 10
11.7583088813
 20
3.1436683523
 30
0.0
 10
11.7531117997
 20
3.190007954
 30
0.0
 10
11.7489664514
 20
3.2398087167
 30
0.0
 10
11.7459464002
 20
3.2922858801
 30
0.0
 10
11.7441171584
 20
3.3465628477
 30
0.0
 10
11.7437064794
 20
3.3832583521
 30
0.0
 10
11.7437071098
 20
3.401741881
 30
0.0
  0
SPLINE
  5
3BD
100
AcDbEntity
  8
0
100
AcDbSpline
 62
9
  6
CONTINUOUS
 70
0
 71
3
 72
11
 73
7
 74
0
 42
0.0000001
 43
0.0000001
 44
0.0000000001
 40
0.0
 40
0.0
 40
0.0
 40
0.0
 40
0.2490332395
 40
0.5
 40
0.7509667605
 40
1.0
 40
1.0
 40
1.0
 40
1.0
 10
10.5544064977
 20
1.776755887
 30
0.0
 10
10.5465053673
 20
1.7769941353
 30
0.0
 10
10.5305821801
 20
1.7805962703
 30
0.0
 10
10.510464432
 20
1.7943643058
 30
0.0
 10
10.4966963964
 20
1.814482054
 30
0.0
 10
10.4930942614
 20
1.8304052412
 30
0.0
 10
10.4928560131
 20
1.8383063716
 30
0.0
  0
SPLINE
  5
3BE
100
AcDbEntity
  8
0
100
AcDbSpline
 62
9
  6
CONTINUOUS
 70
0
 71
3
 72
11
 73
7
 74
0
 42
0.0000001
 43
0.0000001
 44
0.0000000001
 40
0.0
 40
0.0
 40
0.0
 40
0.0
 40
0.2490322592
 40
0.5000000747
 40
0.7509678345
 40
1.0
 40
1.0
 40
1.0
 40
1.0
 10
11.7656871462
 20
1.5512989197
 30
0.0
 10
11.7735882458
 20
1.551537167
 30
0.0
 10
11.7895114374
 20
1.5551392818
 30
0.0
 10
11.8096292222
 20
1.5689073363
 30
0.0
 10
11.8233972717
 20
1.5890251207
 30
0.0
 10
11.8269993835
 20
1.6049483077
 30
0.0
 10
11.8272376308
 20
1.6128494043
 30
0.0
  0
SPLINE
  5
3BF
100
AcDbEntity
  8
0
100
AcDbSpline
 62
9
  6
CONTINUOUS
 70
0
 71
3
 72
13
 73
9
 74
0
 42
0.0000001
 43
0.0000001
 44
0.0000000001
 40
0.0
 40
0.0
 40
0.0
 40
0.0
 40
0.249675098
 40
0.3753209675
 40
0.5007993794
 40
0.6260837707
 40
0.7511461058
 40
1.0
 40
1.0
 40
1.0
 40
1.0
 10
11.8272376523
 20
2.9657442069
 30
0.0
 10
11.8271495676
 20
2.9717879264
 30
0.0
 10
11.8256742271
 20
2.9809190685
 30
0.0
 10
11.8212506402
 20
2.9922374092
 30
0.0
 10
11.8167280422
 20
3.0001867803
 30
0.0
 10
11.8111329407
 20
3.0074030462
 30
0.0
 10
11.8024168514
 20
3.0158148514
 30
0.0
 10
11.7945694476
 20
3.0206535299
 30
0.0
 10
11.7890330966
 20
3.0230290693
 30
0.0
  0
SPLINE
  5
3C0
100
AcDbEntity
  8
0
100
AcDbSpline
 62
9
  6
CONTINUOUS
 70
0
 71
3
 72
12
 73
8
 74
0
 42
0.0000001
 43
0.0000001
 44
0.0000000001
 40
0.0
 40
0.0
 40
0.0
 40
0.0
 40
0.2490785325
 40
0.4989904593
 40
0.6245379343
 40
0.7502494224
 40
1.0
 40
1.0
 40
1.0
 40
1.0
 10
10.3030225418
 20
3.021848924
 30
0.0
 10
10.2978106818
 20
3.0193217836
 30
0.0
 10
10.2880290901
 20
3.0127607005
 30
0.0
 10
10.2785257276
 20
3.001528818
 30
0.0
 10
10.2729479446
 20
2.9912562476
 30
0.0
 10
10.2688539903
 20
2.9803205104
 30
0.0
 10
10.2674852279
 20
2.9715514015
 30
0.0
 10
10.2673988887
 20
2.9657441857
 30
0.0
  0
SPLINE
  5
3C1
100
AcDbEntity
  8
0
100
AcDbSpline
 62
9
  6
CONTINUOUS
 70
0
 71
3
 72
11
 73
7
 74
0
 42
0.0000001
 43
0.0000001
 44
0.0000000001
 40
0.0
 40
0.0
 40
0.0
 40
0.0
 40
0.2509952114
 40
0.4998886831
 40
0.748896324
 40
1.0
 40
1.0
 40
1.0
 40
1.0
 10
9.9920121424
 20
10.6715082868
 30
0.0
 10
9.9839278249
 20
10.6713885428
 30
0.0
 10
9.9676371376
 20
10.6744120465
 30
0.0
 10
9.9467433857
 20
10.6877785332
 30
0.0
 10
9.933376021
 20
10.7086743102
 30
0.0
 10
9.9303424407
 20
10.7249707917
 30
0.0
 10
9.9304618204
 20
10.7330586088
 30
0.0
  0
SPLINE
  5
3C2
100
AcDbEntity
  8
0
100
AcDbSpline
 62
9
  6
CONTINUOUS
 70
0
 71
3
 72
14
 73
10
 74
0
 42
0.0000001
 43
0.0000001
 44
0.0000000001
 40
0.0
 40
0.0
 40
0.0
 40
0.0
 40
0.2521322523
 40
0.3810544129
 40
0.510108742
 40
0.637715408
 40
0.7624413199
 40
0.8835218021
 40
1.0
 40
1.0
 40
1.0
 40
1.0
 10
10.2950858246
 20
11.0084199578
 30
0.0
 10
10.290029615
 20
11.0110323987
 30
0.0
 10
10.2828495065
 20
11.0160074202
 30
0.0
 10
10.2749109028
 20
11.0243843352
 30
0.0
 10
10.2698098161
 20
11.0314696901
 30
0.0
 10
10.2657256546
 20
11.039077365
 30
0.0
 10
10.2627927972
 20
11.0470080694
 30
0.0
 10
10.2609840869
 20
11.0550049659
 30
0.0
 10
10.2604700058
 20
11.0603597148
 30
0.0
 10
10.2603907619
 20
11.0629877129
 30
0.0
  0
SPLINE
  5
3C3
100
AcDbEntity
  8
0
100
AcDbSpline
 62
9
  6
CONTINUOUS
 70
0
 71
3
 72
21
 73
17
 74
0
 42
0.0000001
 43
0.0000001
 44
0.0000000001
 40
0.0
 40
0.0
 40
0.0
 40
0.0
 40
0.0534299465
 40
0.1015592516
 40
0.1455433148
 40
0.1869118203
 40
0.2275175933
 40
0.2693406759
 40
0.3142073084
 40
0.3635806492
 40
0.4185373463
 40
0.4798360574
 40
0.5480022386
 40
0.6233874574
 40
0.7964948207
 40
1.0
 40
1.0
 40
1.0
 40
1.0
 10
10.260390762
 20
11.062987713
 30
0.0
 10
10.2613450877
 20
11.0639416965
 30
0.0
 10
10.2632615881
 20
11.0656586334
 30
0.0
 10
10.2663350104
 20
11.0677020844
 30
0.0
 10
10.269445185
 20
11.0690557621
 30
0.0
 10
10.2725866598
 20
11.0696998553
 30
0.0
 10
10.2757398543
 20
11.0696165767
 30
0.0
 10
10.278876325
 20
11.0688036743
 30
0.0
 10
10.2819783991
 20
11.0672801686
 30
0.0
 10
10.2850452148
 20
11.0650664765
 30
0.0
 10
10.2880804026
 20
11.0621732488
 30
0.0
 10
10.2910861041
 20
11.0586057157
 30
0.0
 10
10.2940621172
 20
11.0543672527
 30
0.0
 10
10.2981778237
 20
11.0475039883
 30
0.0
 10
10.3031436021
 20
11.0372016589
 30
0.0
 10
10.3065664888
 20
11.0283195235
 30
0.0
 10
10.3082767432
 20
11.0234728824
 30
0.0
  0
SPLINE
  5
3C4
100
AcDbEntity
  8
0
100
AcDbSpline
 62
9
  6
CONTINUOUS
 70
0
 71
3
 72
17
 73
13
 74
0
 42
0.0000001
 43
0.0000001
 44
0.0000000001
 40
0.0
 40
0.0
 40
0.0
 40
0.0
 40
0.0389310978
 40
0.0819760757
 40
0.1290041632
 40
0.1798673384
 40
0.2923058304
 40
0.4175453432
 40
0.5534294966
 40
0.6975677143
 40
0.8474234006
 40
1.0
 40
1.0
 40
1.0
 40
1.0
 10
10.3093690298
 20
11.0203154606
 30
0.0
 10
10.3110018008
 20
11.0155021609
 30
0.0
 10
10.3141731579
 20
11.0052757275
 30
0.0
 10
10.3185133267
 20
10.9889988628
 30
0.0
 10
10.3226587063
 20
10.9710686683
 30
0.0
 10
10.3280770104
 20
10.9441456702
 30
0.0
 10
10.334112304
 20
10.9069475804
 30
0.0
 10
10.3400717283
 20
10.8585331626
 30
0.0
 10
10.3448472909
 20
10.8058315365
 30
0.0
 10
10.3483350395
 20
10.7498100171
 30
0.0
 10
10.3504547781
 20
10.6915402187
 30
0.0
 10
10.3509293752
 20
10.6520541399
 30
0.0
 10
10.3509295668
 20
10.632134321
 30
0.0
  0
SPLINE
  5
3C5
100
AcDbEntity
  8
0
100
AcDbSpline
 62
9
  6
CONTINUOUS
 70
0
 71
3
 72
16
 73
12
 74
0
 42
0.0000001
 43
0.0000001
 44
0.0000000001
 40
0.0
 40
0.0
 40
0.0
 40
0.0
 40
0.1517464306
 40
0.3008671762
 40
0.4444463833
 40
0.5800269363
 40
0.7052901252
 40
0.8181254607
 40
0.9168098721
 40
0.9604101328
 40
1.0
 40
1.0
 40
1.0
 40
1.0
 10
11.7437071098
 20
10.632134321
 30
0.0
 10
11.743707288
 20
10.6517845055
 30
0.0
 10
11.7441694519
 20
10.6907464774
 30
0.0
 10
11.7462331082
 20
10.7482679331
 30
0.0
 10
11.7496301592
 20
10.8036299575
 30
0.0
 10
11.7542848863
 20
10.8558001568
 30
0.0
 10
11.760095919
 20
10.9038489438
 30
0.0
 10
11.7669542641
 20
10.9469283837
 30
0.0
 10
11.7736607715
 20
10.9792967119
 30
0.0
 10
11.7795678191
 20
11.0020996876
 30
0.0
 10
11.7826662751
 20
11.0124211986
 30
0.0
 10
11.784260832
 20
11.017293544
 30
0.0
  0
SPLINE
  5
3C6
100
AcDbEntity
  8
0
100
AcDbSpline
 62
9
  6
CONTINUOUS
 70
0
 71
3
 72
21
 73
17
 74
0
 42
0.0000001
 43
0.0000001
 44
0.0000000001
 40
0.0
 40
0.0
 40
0.0
 40
0.0
 40
0.2057284771
 40
0.3807900182
 40
0.457000205
 40
0.5258534183
 40
0.5876643683
 40
0.6429237329
 40
0.6923494921
 40
0.7369773519
 40
0.7782447044
 40
0.817992296
 40
0.8582669607
 40
0.9010152202
 40
0.9478536549
 40
1.0
 40
1.0
 40
1.0
 40
1.0
 10
11.7850295929
 20
11.0196107948
 30
0.0
 10
11.7867751656
 20
11.0248006529
 30
0.0
 10
11.7902730311
 20
11.0343206941
 30
0.0
 10
11.7953577598
 20
11.045393432
 30
0.0
 10
11.7995803464
 20
11.0527999603
 30
0.0
 10
11.8026354452
 20
11.0573871243
 30
0.0
 10
11.8057230328
 20
11.0612634896
 30
0.0
 10
11.808842203
 20
11.0644255917
 30
0.0
 10
11.8119949926
 20
11.0668686204
 30
0.0
 10
11.8151858485
 20
11.0685823781
 30
0.0
 10
11.8184160916
 20
11.069545689
 30
0.0
 10
11.8216691362
 20
11.0697347383
 30
0.0
 10
11.8249128073
 20
11.0691484539
 30
0.0
 10
11.8281229788
 20
11.067805764
 30
0.0
 10
11.8312925783
 20
11.0657297157
 30
0.0
 10
11.8332643156
 20
11.0639688966
 30
0.0
 10
11.8342459146
 20
11.062987713
 30
0.0
  0
SPLINE
  5
3C7
100
AcDbEntity
  8
0
100
AcDbSpline
 62
9
  6
CONTINUOUS
 70
0
 71
3
 72
15
 73
11
 74
0
 42
0.0000001
 43
0.0000001
 44
0.0000000001
 40
0.0
 40
0.0
 40
0.0
 40
0.0
 40
0.1171855816
 40
0.2394424314
 40
0.3656327003
 40
0.4945130326
 40
0.6240626366
 40
0.7524819528
 40
0.8783835206
 40
1.0
 40
1.0
 40
1.0
 40
1.0
 10
11.8342459146
 20
11.062987713
 30
0.0
 10
11.8341558505
 20
11.0600008761
 30
0.0
 10
11.8335155949
 20
11.0539039879
 30
0.0
 10
11.8312186903
 20
11.0448344548
 30
0.0
 10
11.8274486318
 20
11.0359390681
 30
0.0
 10
11.8222614624
 20
11.0275723491
 30
0.0
 10
11.8158574454
 20
11.0200177083
 30
0.0
 10
11.8083934499
 20
11.0136223109
 30
0.0
 10
11.8002396323
 20
11.0085202962
 30
0.0
 10
11.7944354802
 20
11.0059728334
 30
0.0
 10
11.7915093319
 20
11.0049457116
 30
0.0
  0
SPLINE
  5
3C8
100
AcDbEntity
  8
0
100
AcDbSpline
 62
9
  6
CONTINUOUS
 70
0
 71
3
 72
11
 73
7
 74
0
 42
0.0000001
 43
0.0000001
 44
0.0000000001
 40
0.0
 40
0.0
 40
0.0
 40
0.0
 40
0.2509912135
 40
0.4998829828
 40
0.7488952071
 40
1.0
 40
1.0
 40
1.0
 40
1.0
 10
12.1641748552
 20
10.7330586083
 30
0.0
 10
12.164294601
 20
10.7249744209
 30
0.0
 10
12.1612713348
 20
10.7086838993
 30
0.0
 10
12.1479048967
 20
10.6877901138
 30
0.0
 10
12.1270090146
 20
10.6744227391
 30
0.0
 10
12.1107123859
 20
10.6713888632
 30
0.0
 10
12.1026245347
 20
10.6715082878
 30
0.0
  0
SPLINE
  5
3C9
100
AcDbEntity
  8
0
100
AcDbSpline
 62
9
  6
CONTINUOUS
 70
0
 71
3
 72
15
 73
11
 74
0
 42
0.0000001
 43
0.0000001
 44
0.0000000001
 40
0.0
 40
0.0
 40
0.0
 40
0.0
 40
0.1249014628
 40
0.2500227047
 40
0.3750090271
 40
0.4999953834
 40
0.6249831711
 40
0.7499704398
 40
0.8750946946
 40
1.0
 40
1.0
 40
1.0
 40
1.0
 10
9.8984554598
 20
10.7330586628
 30
0.0
 10
9.898456774
 20
10.726942081
 30
0.0
 10
9.8996394603
 20
10.7146662451
 30
0.0
 10
9.9049050901
 20
10.6969560659
 30
0.0
 10
9.9135516562
 20
10.6806099639
 30
0.0
 10
9.9252623951
 20
10.6663094023
 30
0.0
 10
9.9395634402
 20
10.6545995826
 30
0.0
 10
9.9559083229
 20
10.6459502107
 30
0.0
 10
9.9736191898
 20
10.6406847195
 30
0.0
 10
9.9858954264
 20
10.639502939
 30
0.0
 10
9.9920121963
 20
10.6395019262
 30
0.0
  0
SPLINE
  5
3CA
100
AcDbEntity
  8
0
100
AcDbSpline
 62
9
  6
CONTINUOUS
 70
0
 71
3
 72
15
 73
11
 74
0
 42
0.0000001
 43
0.0000001
 44
0.0000000001
 40
0.0
 40
0.0
 40
0.0
 40
0.0
 40
0.1249012548
 40
0.250022854
 40
0.375009047
 40
0.4999950152
 40
0.6249831407
 40
0.7499704311
 40
0.8750944827
 40
1.0
 40
1.0
 40
1.0
 40
1.0
 10
12.1026244802
 20
10.6395019262
 30
0.0
 10
12.1087410515
 20
10.6395032049
 30
0.0
 10
12.1210168911
 20
10.6406861399
 30
0.0
 10
12.1387269853
 20
10.6459518776
 30
0.0
 10
12.1550733186
 20
10.6545979955
 30
0.0
 10
12.1693738087
 20
10.6663088717
 30
0.0
 10
12.1810834593
 20
10.6806100081
 30
0.0
 10
12.1897331607
 20
10.6969547174
 30
0.0
 10
12.1949985864
 20
10.7146656419
 30
0.0
 10
12.1961801982
 20
10.7269418827
 30
0.0
 10
12.1961812168
 20
10.7330586628
 30
0.0
  0
SPLINE
  5
3CB
100
AcDbEntity
  8
0
100
AcDbSpline
 62
9
  6
CONTINUOUS
 70
0
 71
3
 72
15
 73
11
 74
0
 42
0.0000001
 43
0.0000001
 44
0.0000000001
 40
0.0
 40
0.0
 40
0.0
 40
0.0
 40
0.1249014628
 40
0.2500227047
 40
0.3750090271
 40
0.4999953834
 40
0.6249831711
 40
0.7499704398
 40
0.8750946946
 40
1.0
 40
1.0
 40
1.0
 40
1.0
 10
12.1961812168
 20
12.8436709467
 30
0.0
 10
12.1961799026
 20
12.8497875284
 30
0.0
 10
12.1949972162
 20
12.8620633643
 30
0.0
 10
12.1897315864
 20
12.8797735435
 30
0.0
 10
12.1810850204
 20
12.8961196456
 30
0.0
 10
12.1693742815
 20
12.9104202072
 30
0.0
 10
12.1550732364
 20
12.9221300268
 30
0.0
 10
12.1387283536
 20
12.9307793988
 30
0.0
 10
12.1210174868
 20
12.93604489
 30
0.0
 10
12.1087412502
 20
12.9372266705
 30
0.0
 10
12.1026244802
 20
12.9372276832
 30
0.0
  0
SPLINE
  5
3CC
100
AcDbEntity
  8
0
100
AcDbSpline
 62
9
  6
CONTINUOUS
 70
0
 71
3
 72
15
 73
11
 74
0
 42
0.0000001
 43
0.0000001
 44
0.0000000001
 40
0.0
 40
0.0
 40
0.0
 40
0.0
 40
0.1249012548
 40
0.250022854
 40
0.375009047
 40
0.4999950152
 40
0.6249831407
 40
0.7499704311
 40
0.8750944827
 40
1.0
 40
1.0
 40
1.0
 40
1.0
 10
9.9920121963
 20
12.9372276832
 30
0.0
 10
9.9858956251
 20
12.9372264045
 30
0.0
 10
9.9736197854
 20
12.9360434695
 30
0.0
 10
9.9559096912
 20
12.9307777318
 30
0.0
 10
9.939563358
 20
12.922131614
 30
0.0
 10
9.9252628678
 20
12.9104207378
 30
0.0
 10
9.9135532173
 20
12.8961196014
 30
0.0
 10
9.9049035159
 20
12.8797748921
 30
0.0
 10
9.8996380901
 20
12.8620639675
 30
0.0
 10
9.8984564783
 20
12.8497877267
 30
0.0
 10
9.8984554598
 20
12.8436709467
 30
0.0
  0
SPLINE
  5
3CD
100
AcDbEntity
  8
0
100
AcDbSpline
 62
9
  6
CONTINUOUS
 70
0
 71
3
 72
11
 73
7
 74
0
 42
0.0000001
 43
0.0000001
 44
0.0000000001
 40
0.0
 40
0.0
 40
0.0
 40
0.0
 40
0.2490322592
 40
0.5000000747
 40
0.7509678345
 40
1.0
 40
1.0
 40
1.0
 40
1.0
 10
10.2673990458
 20
1.6128494043
 30
0.0
 10
10.2676372931
 20
1.6049483047
 30
0.0
 10
10.2712394079
 20
1.5890251131
 30
0.0
 10
10.2850074624
 20
1.5689073283
 30
0.0
 10
10.3051252468
 20
1.5551392787
 30
0.0
 10
10.3210484338
 20
1.5515371669
 30
0.0
 10
10.3289495304
 20
1.5512989197
 30
0.0
  0
SPLINE
  5
3CE
100
AcDbEntity
  8
0
100
AcDbSpline
 62
9
  6
CONTINUOUS
 70
0
 71
3
 72
15
 73
11
 74
0
 42
0.0000001
 43
0.0000001
 44
0.0000000001
 40
0.0
 40
0.0
 40
0.0
 40
0.0
 40
0.1447566785
 40
0.2877189906
 40
0.4266163152
 40
0.5595996586
 40
0.6849539903
 40
0.8010818635
 40
0.9064978914
 40
1.0
 40
1.0
 40
1.0
 40
1.0
 10
10.3509295668
 20
3.401741881
 30
0.0
 10
10.3509294145
 20
3.3845913143
 30
0.0
 10
10.3505746834
 20
3.3505017394
 30
0.0
 10
10.3489976063
 20
3.2999777968
 30
0.0
 10
10.3463864967
 20
3.2508929967
 30
0.0
 10
10.3427934868
 20
3.2039618091
 30
0.0
 10
10.3382693642
 20
3.1598215777
 30
0.0
 10
10.3328934126
 20
3.1190674692
 30
0.0
 10
10.3267374381
 20
3.0822446683
 30
0.0
 10
10.3218771882
 20
3.0591721686
 30
0.0
 10
10.3192761263
 20
3.0484038582
 30
0.0
  0
LINE
  5
3CF
100
AcDbEntity
  8
0
100
AcDbLine
 62
9
  6
CONTINUOUS
 10
10.3192761263
 20
3.0484038582
 11
10.314623622
 21
3.0305814623
  0
SPLINE
  5
3D0
100
AcDbEntity
  8
0
100
AcDbSpline
 62
9
  6
CONTINUOUS
 70
0
 71
3
 72
9
 73
5
 74
0
 42
0.0000001
 43
0.0000001
 44
0.0000000001
 40
0.0
 40
0.0
 40
0.0
 40
0.0
 40
0.534692362
 40
1.0
 40
1.0
 40
1.0
 40
1.0
 10
10.314623622
 20
3.0305814623
 30
0.0
 10
10.3129389118
 20
3.0246225959
 30
0.0
 10
10.3095417998
 20
3.0135453482
 30
0.0
 10
10.3054848898
 20
3.0026853973
 30
0.0
 10
10.3033801319
 20
2.9977245534
 30
0.0
  0
SPLINE
  5
3D1
100
AcDbEntity
  8
0
100
AcDbSpline
 62
9
  6
CONTINUOUS
 70
0
 71
3
 72
15
 73
11
 74
0
 42
0.0000001
 43
0.0000001
 44
0.0000000001
 40
0.0
 40
0.0
 40
0.0
 40
0.0
 40
0.1917126063
 40
0.3595876765
 40
0.5044328555
 40
0.6278229533
 40
0.7327244338
 40
0.8243564744
 40
0.910415117
 40
1.0
 40
1.0
 40
1.0
 40
1.0
 10
10.3033801319
 20
2.9977245534
 30
0.0
 10
10.3020474696
 20
2.994583513
 30
0.0
 10
10.2993818134
 20
2.9887591612
 30
0.0
 10
10.2950308416
 20
2.9808937801
 30
0.0
 10
10.2906036429
 20
2.9744976545
 30
0.0
 10
10.2860971894
 20
2.9695813362
 30
0.0
 10
10.2814831145
 20
2.9661652424
 30
0.0
 10
10.2767263435
 20
2.96430543
 30
0.0
 10
10.2718797244
 20
2.9641238044
 30
0.0
 10
10.2688416792
 20
2.9650869325
 30
0.0
 10
10.2673990674
 20
2.9657659142
 30
0.0
  0
SPLINE
  5
3D2
100
AcDbEntity
  8
0
100
AcDbSpline
 62
9
  6
CONTINUOUS
 70
0
 71
3
 72
11
 73
7
 74
0
 42
0.0000001
 43
0.0000001
 44
0.0000000001
 40
0.0
 40
0.0
 40
0.0
 40
0.0
 40
0.2509952114
 40
0.4998886831
 40
0.748896324
 40
1.0
 40
1.0
 40
1.0
 40
1.0
 10
12.1026245342
 20
12.9052213226
 30
0.0
 10
12.1107088516
 20
12.9053410666
 30
0.0
 10
12.126999539
 20
12.902317563
 30
0.0
 10
12.1478932908
 20
12.8889510762
 30
0.0
 10
12.1612606556
 20
12.8680552993
 30
0.0
 10
12.1642942359
 20
12.8517588178
 30
0.0
 10
12.1641748562
 20
12.8436710007
 30
0.0
  0
SPLINE
  5
3D3
100
AcDbEntity
  8
0
100
AcDbSpline
 62
9
  6
CONTINUOUS
 70
0
 71
3
 72
11
 73
7
 74
0
 42
0.0000001
 43
0.0000001
 44
0.0000000001
 40
0.0
 40
0.0
 40
0.0
 40
0.0
 40
0.2509912135
 40
0.4998829828
 40
0.7488952071
 40
1.0
 40
1.0
 40
1.0
 40
1.0
 10
9.9304618213
 20
12.8436710011
 30
0.0
 10
9.9303420756
 20
12.8517551886
 30
0.0
 10
9.9333653418
 20
12.8680457102
 30
0.0
 10
9.9467317798
 20
12.8889394957
 30
0.0
 10
9.967627662
 20
12.9023068704
 30
0.0
 10
9.9839242906
 20
12.9053407463
 30
0.0
 10
9.9920121419
 20
12.9052213217
 30
0.0
  0
SPLINE
  5
3D4
100
AcDbEntity
  8
0
100
AcDbSpline
 62
9
  6
CONTINUOUS
 70
0
 71
3
 72
11
 73
7
 74
0
 42
0.0000001
 43
0.0000001
 44
0.0000000001
 40
0.0
 40
0.0
 40
0.0
 40
0.0
 40
0.2490332395
 40
0.5
 40
0.7509667605
 40
1.0
 40
1.0
 40
1.0
 40
1.0
 10
10.4928560131
 20
12.2812766453
 30
0.0
 10
10.4930942614
 20
12.2891777757
 30
0.0
 10
10.4966963964
 20
12.3051009629
 30
0.0
 10
10.510464432
 20
12.3252187111
 30
0.0
 10
10.5305821801
 20
12.3389867466
 30
0.0
 10
10.5465053673
 20
12.3425888816
 30
0.0
 10
10.5544064977
 20
12.3428271299
 30
0.0
  0
SPLINE
  5
3D5
100
AcDbEntity
  8
0
100
AcDbSpline
 62
9
  6
CONTINUOUS
 70
0
 71
3
 72
11
 73
7
 74
0
 42
0.0000001
 43
0.0000001
 44
0.0000000001
 40
0.0
 40
0.0
 40
0.0
 40
0.0
 40
0.2490332395
 40
0.5
 40
0.7509667605
 40
1.0
 40
1.0
 40
1.0
 40
1.0
 10
11.5402301789
 20
12.3428271299
 30
0.0
 10
11.5481313092
 20
12.3425888816
 30
0.0
 10
11.5640544965
 20
12.3389867466
 30
0.0
 10
11.5841722446
 20
12.3252187111
 30
0.0
 10
11.5979402801
 20
12.3051009629
 30
0.0
 10
11.6015424152
 20
12.2891777757
 30
0.0
 10
11.6017806634
 20
12.2812766453
 30
0.0
  0
ENDSEC
  0
SECTION
  2
OBJECTS
  0
DICTIONARY
  5
C
100
AcDbDictionary
280
0
281
1
  3
ACAD_GROUP
350
D
  3
ACAD_MLINESTYLE
350
17
  3
ACAD_LAYOUT
350
1A
  3
ACAD_PLOTSETTINGS
350
19
  3
ACAD_PLOTSTYLENAME
350
E
  0
DICTIONARY
  5
D
102
{ACAD_REACTORS
330
C
102
}
100
AcDbDictionary
280
0
281
1
  0
ACDBDICTIONARYWDFLT
  5
E
102
{ACAD_REACTORS
330
C
102
}
100
AcDbDictionary
281
1
  3
Normal
350
F
100
AcDbDictionaryWithDefault
340
F
  0
DICTIONARY
  5
17
102
{ACAD_REACTORS
330
C
102
}
100
AcDbDictionary
280
0
281
1
  3
Standard
350
18
  0
DICTIONARY
  5
19
102
{ACAD_REACTORS
330
C
102
}
100
AcDbDictionary
281
1
  0
DICTIONARY
  5
1A
102
{ACAD_REACTORS
330
C
102
}
100
AcDbDictionary
281
1
  3
Model
350
3D6
  3
Layout1
350
3D7
  0
ACDBPLACEHOLDER
  5
F
102
{ACAD_REACTORS
330
E
102
}
  0
MLINESTYLE
  5
18
102
{ACAD_REACTORS
330
17
102
}
100
AcDbMlineStyle
  2
STANDARD
 70
0
  3

 62
256
 51
90.0
 52
90.0
 71
2
 49
0.5
 62
256
  6
BYLAYER
 49
-0.5
 62
256
  6
BYLAYER
  0
LAYOUT
  5
3D6
102
{ACAD_REACTORS
330
1A
102
}
100
AcDbPlotSettings
  1

  2
none_device
  4
ANSI_C_(22.00_x_17.00_Inches)
  6

 40
0.0
 41
0.0
 42
0.0
 43
0.0
 44
558.8
 45
431.8
 46
0.0
 47
0.0
 48
0.0
 49
0.0
140
0.0
141
0.0
142
1.0
143
1.0
 70
1024
 72
0
 73
0
 74
0
  7

 75
0
147
1.0
148
0.0
149
0.0
100
AcDbLayout
  1
Model
 70
0
 71
0
 10
0.0
 20
0.0
 11
22.0
 21
17.0
 12
0.0
 22
0.0
 32
0.0
 14
0.0
 24
0.0
 34
0.0
 15
0.0
 25
0.0
 35
0.0
146
0.0
 13
0.0
 23
0.0
 33
0.0
 16
1.0
 26
0.0
 36
0.0
 17
0.0
 27
1.0
 37
0.0
 76
0
330
202
345
0
346
0
  0
LAYOUT
  5
3D7
102
{ACAD_REACTORS
330
1A
102
}
100
AcDbPlotSettings
  1

  2
none_device
  4
ANSI_C_(22.00_x_17.00_Inches)
  6

 40
0.0
 41
0.0
 42
0.0
 43
0.0
 44
558.8
 45
431.8
 46
0.0
 47
0.0
 48
0.0
 49
0.0
140
0.0
141
0.0
142
1.0
143
1.0
 70
0
 72
0
 73
0
 74
0
  7

 75
0
147
1.0
148
0.0
149
0.0
100
AcDbLayout
  1
Layout1
 70
0
 71
1
 10
0.0
 20
0.0
 11
22.0
 21
17.0
 12
0.0
 22
0.0
 32
0.0
 14
0.0
 24
0.0
 34
0.0
 15
0.0
 25
0.0
 35
0.0
146
0.0
 13
0.0
 23
0.0
 33
0.0
 16
1.0
 26
0.0
 36
0.0
 17
0.0
 27
1.0
 37
0.0
 76
0
330
203
345
0
346
0
  0
ENDSEC
  0
EOF
