999
DXF file: E:\BT Custom\CADOUTPUT\_TOP.dxf
999
Pro/ENGINEER 2018400 by Parametric Technology Corporation
  0
SECTION
  2
HEADER
  9
$ACADVER
  1
AC1018
  9
$DWGCODEPAGE
  3
ANSI_1252
  9
$EXTMAX
 10
22.0
 20
17.0
 30
0.0
  9
$EXTMIN
 10
0.0
 20
0.0
 30
0.0
  9
$LIMMIN
 10
0.0
 20
0.0
  9
$LIMMAX
 10
22.0
 20
17.0
  9
$VIEWCTR
 10
11.0
 20
8.5
  9
$VIEWSIZE
 40
17.0
  9
$CLAYER
  8
0
  9
$LTSCALE
 40
1.21
  9
$CELTYPE
  6
BYLAYER
  9
$DIMSCALE
 40
1.0
  9
$DIMASZ
 40
0.1
  9
$DIMEXO
 40
0.0625
  9
$DIMDLI
 40
0.836
  9
$DIMEXE
 40
0.125
  9
$DIMCEN
 40
0.198
  9
$DIMLFAC
 40
1.0
  9
$DIMBLK
  1
_FILLED
  9
$DIMALT
 70
1
  9
$DIMALTD
 70
2
  9
$DIMALTTD
 70
2
  9
$DIMALTF
 40
25.4
  9
$DIMTXT
 40
0.08
  9
$DIMTOL
 70
1
  9
$DIMLIM
 70
0
  9
$DIMTFAC
 40
1.0
  9
$DIMTP
 40
0.001
  9
$DIMTM
 40
0.001
  9
$DIMGAP
 40
0.09
  9
$DIMDSEP
 70
46
  9
$AUNITS
 70
0
  9
$PDMODE
 70
3
  9
$PDSIZE
 40
0.06
  9
$HANDSEED
  5
338
  9
$TILEMODE
 70
1
  9
$MEASUREMENT
 70
0
  9
$INSUNITS
 70
1
  0
ENDSEC
  0
SECTION
  2
CLASSES
  0
CLASS
  1
ACDBDICTIONARYWDFLT
  2
AcDbDictionaryWithDefault
  3
AutoCAD 2000
 90
0
 91
1
280
0
281
0
  0
CLASS
  1
ACDBPLACEHOLDER
  2
AcDbPlaceHolder
  3
AutoCAD 2000
 90
0
 91
1
280
0
281
0
  0
CLASS
  1
LAYOUT
  2
AcDbLayout
  3
AutoCAD 2000
 90
0
 91
0
280
0
281
0
  0
ENDSEC
  0
SECTION
  2
TABLES
  0
TABLE
  2
VPORT
  5
8
100
AcDbSymbolTable
 70
2
  0
VPORT
  5
1F4
100
AcDbSymbolTableRecord
100
AcDbViewportTableRecord
  2
*ACTIVE
 70
0
 10
0.0
 20
0.0
 11
1.0
 21
1.0
 12
11.0
 22
8.5
 13
0.0
 23
0.0
 14
1.0
 24
1.0
 15
0.0
 25
0.0
 16
0.0
 26
0.0
 36
1.0
 17
0.0
 27
0.0
 37
0.0
 40
17.0
 41
1.2941176471
 42
50.0
 43
0.0
 44
0.0
 50
0.0
 51
0.0
 71
0
 72
100
 73
1
 74
1
 75
0
 76
0
 77
0
 78
0
  0
ENDTAB
  0
TABLE
  2
LTYPE
  5
5
100
AcDbSymbolTable
 70
6
  0
LTYPE
  5
14
100
AcDbSymbolTableRecord
100
AcDbLinetypeTableRecord
  2
BYBLOCK
 70
0
  3

 72
65
 73
0
 40
0.0
  0
LTYPE
  5
15
100
AcDbSymbolTableRecord
100
AcDbLinetypeTableRecord
  2
BYLAYER
 70
0
  3

 72
65
 73
0
 40
0.0
  0
LTYPE
  5
16
100
AcDbSymbolTableRecord
100
AcDbLinetypeTableRecord
  2
CONTINUOUS
 70
64
  3
Solid line
 72
65
 73
0
 40
0.0
  0
LTYPE
  5
1F5
100
AcDbSymbolTableRecord
100
AcDbLinetypeTableRecord
  2
CENTER
 70
64
  3
____ _ ____ _ ____ _ ____ _ ____ _ ____ _ ____
 72
65
 73
4
 40
0.6
 49
0.375
 74
0
 49
-0.075
 74
0
 49
0.075
 74
0
 49
-0.075
 74
0
  0
LTYPE
  5
1F6
100
AcDbSymbolTableRecord
100
AcDbLinetypeTableRecord
  2
HIDDEN
 70
64
  3
- - - - - - - - - - - - - - - - - - - -
 72
65
 73
2
 40
0.2
 49
0.1
 74
0
 49
-0.1
 74
0
  0
LTYPE
  5
1F7
100
AcDbSymbolTableRecord
100
AcDbLinetypeTableRecord
  2
PHANTOM
 70
64
  3
_____ _ _ _____ _ _ _____ _ _ _____
 72
65
 73
6
 40
0.8
 49
0.45
 74
0
 49
-0.05
 74
0
 49
0.1
 74
0
 49
-0.05
 74
0
 49
0.1
 74
0
 49
-0.05
 74
0
  0
LTYPE
  5
1F8
100
AcDbSymbolTableRecord
100
AcDbLinetypeTableRecord
  2
DOT
 70
64
  3
. . . . . . . . . . . . . . . . . . . .
 72
65
 73
2
 40
0.2
 49
0.1
 74
0
 49
-0.1
 74
0
  0
LTYPE
  5
1F9
100
AcDbSymbolTableRecord
100
AcDbLinetypeTableRecord
  2
DASHED
 70
64
  3
- - - - - - - - - - - - - - - - - - - -
 72
65
 73
2
 40
0.2
 49
0.1
 74
0
 49
-0.1
 74
0
  0
ENDTAB
  0
TABLE
  2
LAYER
  5
2
100
AcDbSymbolTable
 70
36
  0
LAYER
  5
10
100
AcDbSymbolTableRecord
100
AcDbLayerTableRecord
  2
0
 70
0
 62
7
  6
CONTINUOUS
370
-3
390
F
  0
LAYER
  5
1FA
100
AcDbSymbolTableRecord
100
AcDbLayerTableRecord
  2
DEFAULT_1
 70
0
 62
7
  6
CENTER
370
-3
390
F
  0
LAYER
  5
1FB
100
AcDbSymbolTableRecord
100
AcDbLayerTableRecord
  2
DEFAULT_2
 70
0
 62
8
  6
HIDDEN
370
-3
390
F
  0
LAYER
  5
1FC
100
AcDbSymbolTableRecord
100
AcDbLayerTableRecord
  2
DEFAULT_3
 70
0
 62
7
  6
PHANTOM
370
-3
390
F
  0
LAYER
  5
1FD
100
AcDbSymbolTableRecord
100
AcDbLayerTableRecord
  2
ALL_FEATURES
 70
0
 62
7
  6
CONTINUOUS
370
-3
390
F
  0
LAYER
  5
1FE
100
AcDbSymbolTableRecord
100
AcDbLayerTableRecord
  2
AXES_FEATURES
 70
0
 62
7
  6
CONTINUOUS
370
-3
390
F
  0
LAYER
  5
1FF
100
AcDbSymbolTableRecord
100
AcDbLayerTableRecord
  2
DEFAULT_COORDINATE_SYSTEM
 70
0
 62
7
  6
CONTINUOUS
370
-3
390
F
  0
LAYER
  5
200
100
AcDbSymbolTableRecord
100
AcDbLayerTableRecord
  2
DEFAULT_DATUM_AXES
 70
0
 62
7
  6
CONTINUOUS
370
-3
390
F
  0
LAYER
  5
201
100
AcDbSymbolTableRecord
100
AcDbLayerTableRecord
  2
DEFAULT_DATUM_PLANES
 70
0
 62
7
  6
CONTINUOUS
370
-3
390
F
  0
LAYER
  5
202
100
AcDbSymbolTableRecord
100
AcDbLayerTableRecord
  2
DIMENSIONS
 70
0
 62
7
  6
CONTINUOUS
370
-3
390
F
  0
ENDTAB
  0
TABLE
  2
STYLE
  5
3
100
AcDbSymbolTable
 70
1
  0
STYLE
  5
11
100
AcDbSymbolTableRecord
100
AcDbTextStyleTableRecord
  2
STANDARD
 70
0
 40
0.0
 41
0.8
 50
0.0
 71
0
 42
0.2
  3
txt
  4

  0
STYLE
  5
203
100
AcDbSymbolTableRecord
100
AcDbTextStyleTableRecord
  2
TEXTSTYLE_1
 70
0
 40
0.0
 41
0.8
 50
0.0
 71
0
 42
0.2
  3
gdt
  4

  0
ENDTAB
  0
TABLE
  2
VIEW
  5
6
100
AcDbSymbolTable
 70
0
  0
ENDTAB
  0
TABLE
  2
UCS
  5
7
100
AcDbSymbolTable
 70
0
  0
ENDTAB
  0
TABLE
  2
APPID
  5
9
100
AcDbSymbolTable
 70
1
  0
APPID
  5
204
100
AcDbSymbolTableRecord
100
AcDbRegAppTableRecord
  2
ACAD
 70
0
  0
ENDTAB
  0
TABLE
  2
BLOCK_RECORD
  5
1
100
AcDbSymbolTable
 70
0
  0
BLOCK_RECORD
  5
205
100
AcDbSymbolTableRecord
100
AcDbBlockTableRecord
  2
*Model_Space
  0
BLOCK_RECORD
  5
206
100
AcDbSymbolTableRecord
100
AcDbBlockTableRecord
  2
*Paper_Space
  0
BLOCK_RECORD
  5
207
100
AcDbSymbolTableRecord
100
AcDbBlockTableRecord
  2
_FILLED
  0
ENDTAB
  0
TABLE
  2
DIMSTYLE
  5
A
100
AcDbSymbolTable
 70
1
100
AcDbDimStyleTable
 71
0
  0
DIMSTYLE
105
208
100
AcDbSymbolTableRecord
100
AcDbDimStyleTableRecord
  2
STANDARD
 70
0
  3

  4

 40
1.0
 41
0.1
 42
0.0625
 43
0.38
 44
0.125
 45
0.0
 46
0.0
 47
0.001
 48
0.001
140
0.08
141
0.09
142
0.0
143
25.4
144
1.0
145
0.0
146
1.0
147
0.09
 71
1.0
 72
0.0
 73
1
 74
1
 75
0
 76
0
 77
0
 78
4
 79
1
170
1
171
2
172
0
173
0
174
0
175
0
176
0
177
0
178
0
270
2
179
3
271
3
272
3
273
2
274
2
275
0
280
0
281
0
282
0
283
1
284
4
285
0
286
0
287
3
288
0
340
11
278
46
341
207
342
207
343
207
344
207
  0
ENDTAB
  0
ENDSEC
  0
SECTION
  2
BLOCKS
  0
BLOCK
  5
20
100
AcDbEntity
  8
0
100
AcDbBlockBegin
  2
*Model_Space
 70
0
 10
0.0
 20
0.0
 30
0.0
  3
*Model_Space
  1

  0
ENDBLK
  5
21
100
AcDbEntity
  8
0
100
AcDbBlockEnd
  0
BLOCK
  5
1C
100
AcDbEntity
  8
0
100
AcDbBlockBegin
  2
*Paper_Space
 70
0
 10
0.0
 20
0.0
 30
0.0
  3
*Paper_Space
  1

  0
ENDBLK
  5
1D
100
AcDbEntity
  8
0
100
AcDbBlockEnd
  0
BLOCK
  5
209
100
AcDbEntity
  8
0
100
AcDbBlockBegin
  2
_FILLED
 70
64
 10
0.0
 20
0.0
  3
_FILLED
  1

  0
SOLID
  5
20A
100
AcDbEntity
  8
0
  6
BYBLOCK
 62
0
100
AcDbTrace
 10
0.0
 20
0.0
 11
-1.0
 21
0.2
 12
-1.0
 22
-0.2
 13
-1.0
 23
-0.2
  0
ENDBLK
  5
20B
100
AcDbEntity
  8
0
  6
BYBLOCK
 62
0
100
AcDbBlockEnd
  0
ENDSEC
  0
SECTION
  2
ENTITIES
  0
LINE
  5
20C
100
AcDbEntity
  8
0
100
AcDbLine
 62
7
  6
CONTINUOUS
 10
7.7973183383
 20
11.5371481653
 11
7.7973183383
 21
11.7251481653
  0
LINE
  5
20D
100
AcDbEntity
  8
0
100
AcDbLine
 62
7
  6
CONTINUOUS
 10
8.0923183383
 20
5.9591231177
 11
8.0923183383
 21
5.3378028904
  0
LINE
  5
20E
100
AcDbEntity
  8
0
100
AcDbLine
 62
7
  6
CONTINUOUS
 10
9.5873183383
 20
6.164891191
 11
9.5873183383
 21
6.0015495245
  0
LINE
  5
20F
100
AcDbEntity
  8
0
100
AcDbLine
 62
7
  6
CONTINUOUS
 10
9.6098183383
 20
7.9071481653
 11
9.6098183383
 21
8.3471481653
  0
LINE
  5
210
100
AcDbEntity
  8
0
100
AcDbLine
 62
9
  6
CONTINUOUS
 10
9.6398183383
 20
7.8771481653
 11
9.6398183383
 21
8.3771481653
  0
LINE
  5
211
100
AcDbEntity
  8
0
100
AcDbLine
 62
7
  6
CONTINUOUS
 10
9.7723183383
 20
11.4121481653
 11
9.7723183383
 21
11.3451481653
  0
LINE
  5
212
100
AcDbEntity
  8
0
100
AcDbLine
 62
7
  6
CONTINUOUS
 10
9.8223183383
 20
11.4151481653
 11
9.8223183383
 21
11.7251481653
  0
LINE
  5
213
100
AcDbEntity
  8
0
100
AcDbLine
 62
9
  6
CONTINUOUS
 10
9.8323183383
 20
11.3151481653
 11
9.8323183383
 21
11.3887852121
  0
LINE
  5
214
100
AcDbEntity
  8
0
100
AcDbLine
 62
7
  6
CONTINUOUS
 10
9.8523183383
 20
11.0321481653
 11
9.8523183383
 21
11.1353027994
  0
LINE
  5
215
100
AcDbEntity
  8
0
100
AcDbLine
 62
9
  6
CONTINUOUS
 10
9.8623183383
 20
11.3751481653
 11
9.8623183383
 21
11.7251481653
  0
LINE
  5
216
100
AcDbEntity
  8
0
100
AcDbLine
 62
7
  6
CONTINUOUS
 10
9.9023183383
 20
11.2327707428
 11
9.9023183383
 21
11.3751481653
  0
LINE
  5
217
100
AcDbEntity
  8
0
100
AcDbLine
 62
9
  6
CONTINUOUS
 10
9.9123183383
 20
11.0021481653
 11
9.9123183383
 21
11.1326322732
  0
LINE
  5
218
100
AcDbEntity
  8
0
100
AcDbLine
 62
9
  6
CONTINUOUS
 10
9.9623183993
 20
11.1353027994
 11
9.9623183383
 21
11.3751481653
  0
LINE
  5
219
100
AcDbEntity
  8
0
100
AcDbLine
 62
9
  6
CONTINUOUS
 10
9.9204998753
 20
11.133720787
 11
9.9184527637
 21
11.1594121827
  0
LWPOLYLINE
  5
21A
100
AcDbEntity
  8
0
100
AcDbPolyline
 62
7
  6
CONTINUOUS
 90
4
 70
0
 10
10.0528353778
 20
11.0021481653
 10
10.1116943451
 20
9.7883406442
 10
10.1747012096
 20
8.5721445699
 10
10.1855955816
 20
8.3771481653
  0
LINE
  5
21B
100
AcDbEntity
  8
0
100
AcDbLine
 62
7
  6
CONTINUOUS
 10
10.1748183383
 20
10.8346481653
 11
10.1748183383
 21
10.9921481653
  0
LINE
  5
21C
100
AcDbEntity
  8
0
100
AcDbLine
 62
9
  6
CONTINUOUS
 10
10.2348183383
 20
10.8046481653
 11
10.2348183383
 21
10.9921481653
  0
LINE
  5
21D
100
AcDbEntity
  8
0
100
AcDbLine
 62
7
  6
CONTINUOUS
 10
10.2973183383
 20
11.0021481653
 11
10.2973183383
 21
10.9921481653
  0
LINE
  5
21E
100
AcDbEntity
  8
0
100
AcDbLine
 62
7
  6
CONTINUOUS
 10
10.3473183383
 20
6.3374252456
 11
10.3473183383
 21
6.2073175979
  0
LINE
  5
21F
100
AcDbEntity
  8
0
100
AcDbLine
 62
7
  6
CONTINUOUS
 10
10.3473183383
 20
6.3657095168
 11
10.3473183383
 21
6.4993526985
  0
LINE
  5
220
100
AcDbEntity
  8
0
100
AcDbLine
 62
9
  6
CONTINUOUS
 10
10.363339356
 20
10.8046481653
 11
10.363339356
 21
10.7798576107
  0
LINE
  5
221
100
AcDbEntity
  8
0
100
AcDbLine
 62
7
  6
CONTINUOUS
 10
11.0471575961
 20
6.6521493613
 11
11.0476606293
 21
6.6521494425
  0
LINE
  5
222
100
AcDbEntity
  8
0
100
AcDbLine
 62
9
  6
CONTINUOUS
 10
10.5669076383
 20
9.0483479274
 11
10.5683183383
 21
9.0184439788
  0
LINE
  5
223
100
AcDbEntity
  8
0
100
AcDbLine
 62
7
  6
CONTINUOUS
 10
10.3973183383
 20
6.3156409678
 11
10.3973183383
 21
6.9305518026
  0
LINE
  5
224
100
AcDbEntity
  8
0
100
AcDbLine
 62
7
  6
CONTINUOUS
 10
10.5083183383
 20
8.8966481653
 11
10.5083183383
 21
9.0235739168
  0
LINE
  5
225
100
AcDbEntity
  8
0
100
AcDbLine
 62
9
  6
CONTINUOUS
 10
10.5273183383
 20
11.0021481653
 11
10.5273183383
 21
10.9921481653
  0
LINE
  5
226
100
AcDbEntity
  8
0
100
AcDbLine
 62
9
  6
CONTINUOUS
 10
10.5683183383
 20
8.8666481653
 11
10.5683183383
 21
9.0184439788
  0
LINE
  5
227
100
AcDbEntity
  8
0
100
AcDbLine
 62
7
  6
CONTINUOUS
 10
10.5948183383
 20
7.2549578692
 11
10.5948183383
 21
7.0271790819
  0
LINE
  5
228
100
AcDbEntity
  8
0
100
AcDbLine
 62
7
  6
CONTINUOUS
 10
10.6410683383
 20
11.3751481653
 11
10.6410683383
 21
7.46040843
  0
LINE
  5
229
100
AcDbEntity
  8
0
100
AcDbLine
 62
7
  6
CONTINUOUS
 10
10.6410683383
 20
7.3782970278
 11
10.6410683383
 21
7.3608997977
  0
LINE
  5
22A
100
AcDbEntity
  8
0
100
AcDbLine
 62
7
  6
CONTINUOUS
 10
10.6410683383
 20
7.3270684551
 11
10.6410683383
 21
7.3111823793
  0
LINE
  5
22B
100
AcDbEntity
  8
0
100
AcDbLine
 62
7
  6
CONTINUOUS
 10
10.6410683383
 20
7.2757686048
 11
10.6410683383
 21
7.2614531793
  0
LINE
  5
22C
100
AcDbEntity
  8
0
100
AcDbLine
 62
7
  6
CONTINUOUS
 10
10.6410685839
 20
7.4298925471
 11
10.6410683383
 21
7.4106885126
  0
LINE
  5
22D
100
AcDbEntity
  8
0
100
AcDbLine
 62
7
  6
CONTINUOUS
 10
11.1719427741
 20
6.8589780718
 11
10.9226939025
 21
6.8589780718
  0
LINE
  5
22E
100
AcDbEntity
  8
0
100
AcDbLine
 62
9
  6
CONTINUOUS
 10
9.9123183387
 20
11.1326322732
 11
9.9076682351
 21
11.1590935452
  0
LINE
  5
22F
100
AcDbEntity
  8
0
100
AcDbLine
 62
7
  6
CONTINUOUS
 10
10.9226939025
 20
6.8589780718
 11
10.9226939025
 21
6.7195876321
  0
LINE
  5
230
100
AcDbEntity
  8
0
100
AcDbLine
 62
9
  6
CONTINUOUS
 10
10.6410685839
 20
7.4298925471
 11
10.6434357041
 21
7.43085708
  0
LINE
  5
231
100
AcDbEntity
  8
0
100
AcDbLine
 62
7
  6
CONTINUOUS
 10
10.3042508908
 20
10.7798576107
 11
10.5909887326
 21
9.1536865013
  0
LINE
  5
232
100
AcDbEntity
  8
0
100
AcDbLine
 62
9
  6
CONTINUOUS
 10
10.363339356
 20
10.7798576107
 11
10.6410683383
 21
9.2047782827
  0
LINE
  5
233
100
AcDbEntity
  8
0
100
AcDbLine
 62
7
  6
CONTINUOUS
 10
11.1719427741
 20
6.8589780718
 11
11.1719427741
 21
6.7195876321
  0
LINE
  5
234
100
AcDbEntity
  8
0
100
AcDbLine
 62
9
  6
CONTINUOUS
 10
11.7312973206
 20
10.7798576107
 11
11.4535683383
 21
9.2047782827
  0
LINE
  5
235
100
AcDbEntity
  8
0
100
AcDbLine
 62
7
  6
CONTINUOUS
 10
11.7903857857
 20
10.7798576107
 11
11.5036479439
 21
9.1536865013
  0
LINE
  5
236
100
AcDbEntity
  8
0
100
AcDbLine
 62
7
  6
CONTINUOUS
 10
9.6398183383
 20
7.8771481653
 11
9.8489081803
 21
7.8771481653
  0
LINE
  5
237
100
AcDbEntity
  8
0
100
AcDbLine
 62
7
  6
CONTINUOUS
 10
12.2457682908
 20
7.8771481653
 11
12.4548183383
 21
7.8771481653
  0
LINE
  5
238
100
AcDbEntity
  8
0
100
AcDbLine
 62
7
  6
CONTINUOUS
 10
11.4535683383
 20
7.4039414912
 11
11.4535683383
 21
7.3858007977
  0
LINE
  5
239
100
AcDbEntity
  8
0
100
AcDbLine
 62
7
  6
CONTINUOUS
 10
11.4535683383
 20
7.3526760903
 11
11.4535683383
 21
7.3361216808
  0
LINE
  5
23A
100
AcDbEntity
  8
0
100
AcDbLine
 62
7
  6
CONTINUOUS
 10
11.4535683383
 20
7.3013379228
 11
11.4535683383
 21
7.2863196364
  0
LINE
  5
23B
100
AcDbEntity
  8
0
100
AcDbLine
 62
7
  6
CONTINUOUS
 10
11.4998183383
 20
7.2549578692
 11
11.4998183383
 21
7.0271790819
  0
LINE
  5
23C
100
AcDbEntity
  8
0
100
AcDbLine
 62
9
  6
CONTINUOUS
 10
11.5263183383
 20
8.8666481653
 11
11.5263183383
 21
9.0184426916
  0
LINE
  5
23D
100
AcDbEntity
  8
0
100
AcDbLine
 62
9
  6
CONTINUOUS
 10
11.5673183383
 20
11.0021481653
 11
11.5673183383
 21
10.9921481653
  0
LINE
  5
23E
100
AcDbEntity
  8
0
100
AcDbLine
 62
7
  6
CONTINUOUS
 10
11.5863183383
 20
8.8966481653
 11
11.5863183383
 21
9.0235739482
  0
LINE
  5
23F
100
AcDbEntity
  8
0
100
AcDbLine
 62
7
  6
CONTINUOUS
 10
11.6973183383
 20
6.3156409678
 11
11.6973183383
 21
6.9305518026
  0
LINE
  5
240
100
AcDbEntity
  8
0
100
AcDbLine
 62
9
  6
CONTINUOUS
 10
11.7312973206
 20
10.8046481653
 11
11.7312973206
 21
10.7798576107
  0
LINE
  5
241
100
AcDbEntity
  8
0
100
AcDbLine
 62
7
  6
CONTINUOUS
 10
11.7473183383
 20
6.3374252456
 11
11.7473183383
 21
6.2073175979
  0
LINE
  5
242
100
AcDbEntity
  8
0
100
AcDbLine
 62
7
  6
CONTINUOUS
 10
11.7473183383
 20
6.3657095168
 11
11.7473183383
 21
6.4993526985
  0
LINE
  5
243
100
AcDbEntity
  8
0
100
AcDbLine
 62
7
  6
CONTINUOUS
 10
11.7973183383
 20
11.0021481653
 11
11.7973183383
 21
10.9921481653
  0
LINE
  5
244
100
AcDbEntity
  8
0
100
AcDbLine
 62
7
  6
CONTINUOUS
 10
11.4535683383
 20
11.3751481653
 11
11.4535680927
 21
7.4600925752
  0
LINE
  5
245
100
AcDbEntity
  8
0
100
AcDbLine
 62
9
  6
CONTINUOUS
 10
11.527726311
 20
9.0483466227
 11
11.5263183381
 21
9.0184426916
  0
LINE
  5
246
100
AcDbEntity
  8
0
100
AcDbLine
 62
9
  6
CONTINUOUS
 10
12.1823183383
 20
11.1326323125
 11
12.186968688
 21
11.1590935504
  0
LINE
  5
247
100
AcDbEntity
  8
0
100
AcDbLine
 62
9
  6
CONTINUOUS
 10
9.6098183383
 20
7.9071481653
 11
9.9489648849
 21
7.9071481653
  0
LINE
  5
248
100
AcDbEntity
  8
0
100
AcDbLine
 62
9
  6
CONTINUOUS
 10
12.1457211541
 20
7.9071481653
 11
12.4848183383
 21
7.9071481653
  0
LINE
  5
249
100
AcDbEntity
  8
0
100
AcDbLine
 62
9
  6
CONTINUOUS
 10
11.8598183383
 20
10.8046481653
 11
11.8598183383
 21
10.9921481653
  0
LINE
  5
24A
100
AcDbEntity
  8
0
100
AcDbLine
 62
7
  6
CONTINUOUS
 10
11.9198183383
 20
10.8346481653
 11
11.9198183383
 21
10.9921481653
  0
LINE
  5
24B
100
AcDbEntity
  8
0
100
AcDbLine
 62
9
  6
CONTINUOUS
 10
12.1323182825
 20
11.1353027994
 11
12.1323183383
 21
11.3751481653
  0
LWPOLYLINE
  5
24C
100
AcDbEntity
  8
0
100
AcDbPolyline
 62
7
  6
CONTINUOUS
 90
4
 70
0
 10
11.9090405597
 20
8.3771481653
 10
11.9199428845
 20
8.5722889388
 10
11.9829495299
 20
9.788484983
 10
12.0418015406
 20
11.0021481653
  0
LINE
  5
24D
100
AcDbEntity
  8
0
100
AcDbLine
 62
9
  6
CONTINUOUS
 10
12.1741367432
 20
11.1337207917
 11
12.1761829787
 21
11.1594118344
  0
LINE
  5
24E
100
AcDbEntity
  8
0
100
AcDbLine
 62
9
  6
CONTINUOUS
 10
9.6098183383
 20
8.3471481653
 11
10.6410683383
 21
8.3471481653
  0
LINE
  5
24F
100
AcDbEntity
  8
0
100
AcDbLine
 62
9
  6
CONTINUOUS
 10
11.4535683383
 20
8.3471481653
 11
12.4848183383
 21
8.3471481653
  0
LINE
  5
250
100
AcDbEntity
  8
0
100
AcDbLine
 62
7
  6
CONTINUOUS
 10
9.6398183383
 20
8.3771481653
 11
10.6410683383
 21
8.3771481653
  0
LINE
  5
251
100
AcDbEntity
  8
0
100
AcDbLine
 62
7
  6
CONTINUOUS
 10
11.4535683383
 20
8.3771481653
 11
12.4548183383
 21
8.3771481653
  0
LINE
  5
252
100
AcDbEntity
  8
0
100
AcDbLine
 62
9
  6
CONTINUOUS
 10
12.1823183383
 20
11.0021481653
 11
12.1823183383
 21
11.1326323125
  0
LINE
  5
253
100
AcDbEntity
  8
0
100
AcDbLine
 62
7
  6
CONTINUOUS
 10
12.1923183383
 20
11.2327707428
 11
12.1923183383
 21
11.3751481653
  0
LINE
  5
254
100
AcDbEntity
  8
0
100
AcDbLine
 62
9
  6
CONTINUOUS
 10
12.2323183383
 20
11.3751481653
 11
12.2323183383
 21
11.7251481653
  0
LINE
  5
255
100
AcDbEntity
  8
0
100
AcDbLine
 62
7
  6
CONTINUOUS
 10
12.2423183383
 20
11.0321481653
 11
12.2423183383
 21
11.1353027994
  0
LINE
  5
256
100
AcDbEntity
  8
0
100
AcDbLine
 62
9
  6
CONTINUOUS
 10
12.2623183383
 20
11.3151481653
 11
12.2623183383
 21
11.3887852121
  0
LINE
  5
257
100
AcDbEntity
  8
0
100
AcDbLine
 62
7
  6
CONTINUOUS
 10
12.2723183383
 20
11.4151481653
 11
12.2723183383
 21
11.7251481653
  0
LINE
  5
258
100
AcDbEntity
  8
0
100
AcDbLine
 62
7
  6
CONTINUOUS
 10
12.3223183383
 20
11.4121481653
 11
12.3223183383
 21
11.3451481653
  0
LINE
  5
259
100
AcDbEntity
  8
0
100
AcDbLine
 62
9
  6
CONTINUOUS
 10
12.4548183383
 20
8.3771481653
 11
12.4548183383
 21
7.8771481653
  0
LINE
  5
25A
100
AcDbEntity
  8
0
100
AcDbLine
 62
7
  6
CONTINUOUS
 10
12.4848183383
 20
8.3471481653
 11
12.4848183383
 21
7.9071481653
  0
LINE
  5
25B
100
AcDbEntity
  8
0
100
AcDbLine
 62
7
  6
CONTINUOUS
 10
12.5073183383
 20
6.164891191
 11
12.5073183383
 21
6.0015495245
  0
LINE
  5
25C
100
AcDbEntity
  8
0
100
AcDbLine
 62
7
  6
CONTINUOUS
 10
11.5563183383
 20
8.8666481653
 11
11.4535683383
 21
8.8666481653
  0
LINE
  5
25D
100
AcDbEntity
  8
0
100
AcDbLine
 62
7
  6
CONTINUOUS
 10
10.6410683383
 20
8.8666481653
 11
10.5383183383
 21
8.8666481653
  0
LINE
  5
25E
100
AcDbEntity
  8
0
100
AcDbLine
 62
9
  6
CONTINUOUS
 10
11.5863183383
 20
8.8966481653
 11
11.4535683383
 21
8.8966481653
  0
LINE
  5
25F
100
AcDbEntity
  8
0
100
AcDbLine
 62
9
  6
CONTINUOUS
 10
10.6410683383
 20
8.8966481653
 11
10.5083183383
 21
8.8966481653
  0
LINE
  5
260
100
AcDbEntity
  8
0
100
AcDbLine
 62
9
  6
CONTINUOUS
 10
11.4535683383
 20
9.4751481653
 11
10.6410683383
 21
9.4751481653
  0
LINE
  5
261
100
AcDbEntity
  8
0
100
AcDbLine
 62
7
  6
CONTINUOUS
 10
14.0023183383
 20
5.9591231177
 11
14.0023183383
 21
5.3378028904
  0
LINE
  5
262
100
AcDbEntity
  8
0
100
AcDbLine
 62
7
  6
CONTINUOUS
 10
14.2973183383
 20
11.5371481653
 11
14.2973183383
 21
11.7251481653
  0
LINE
  5
263
100
AcDbEntity
  8
0
100
AcDbLine
 62
9
  6
CONTINUOUS
 10
11.7312973206
 20
10.7798576107
 11
11.4535683383
 21
10.7798576107
  0
LINE
  5
264
100
AcDbEntity
  8
0
100
AcDbLine
 62
9
  6
CONTINUOUS
 10
10.6410683383
 20
10.7798576107
 11
10.363339356
 21
10.7798576107
  0
LINE
  5
265
100
AcDbEntity
  8
0
100
AcDbLine
 62
7
  6
CONTINUOUS
 10
11.8898183383
 20
10.8046481653
 11
11.4535683383
 21
10.8046481653
  0
LINE
  5
266
100
AcDbEntity
  8
0
100
AcDbLine
 62
7
  6
CONTINUOUS
 10
10.6410683383
 20
10.8046481653
 11
10.2048183383
 21
10.8046481653
  0
LINE
  5
267
100
AcDbEntity
  8
0
100
AcDbLine
 62
9
  6
CONTINUOUS
 10
11.9198183383
 20
10.8346481653
 11
11.4535683383
 21
10.8346481653
  0
LINE
  5
268
100
AcDbEntity
  8
0
100
AcDbLine
 62
9
  6
CONTINUOUS
 10
10.6410683383
 20
10.8346481653
 11
10.1748183383
 21
10.8346481653
  0
LINE
  5
269
100
AcDbEntity
  8
0
100
AcDbLine
 62
7
  6
CONTINUOUS
 10
10.1748183383
 20
10.9921481653
 11
10.6410683383
 21
10.9921481653
  0
LINE
  5
26A
100
AcDbEntity
  8
0
100
AcDbLine
 62
7
  6
CONTINUOUS
 10
11.4535683383
 20
10.9921481653
 11
11.9198183383
 21
10.9921481653
  0
LINE
  5
26B
100
AcDbEntity
  8
0
100
AcDbLine
 62
7
  6
CONTINUOUS
 10
12.2123183383
 20
11.0021481653
 11
11.4535683383
 21
11.0021481653
  0
LINE
  5
26C
100
AcDbEntity
  8
0
100
AcDbLine
 62
7
  6
CONTINUOUS
 10
10.6410683383
 20
11.0021481653
 11
9.8823183383
 21
11.0021481653
  0
LINE
  5
26D
100
AcDbEntity
  8
0
100
AcDbLine
 62
9
  6
CONTINUOUS
 10
12.2423183383
 20
11.0321481653
 11
11.4535683383
 21
11.0321481653
  0
LINE
  5
26E
100
AcDbEntity
  8
0
100
AcDbLine
 62
9
  6
CONTINUOUS
 10
10.6410683383
 20
11.0321481653
 11
9.8523183383
 21
11.0321481653
  0
LINE
  5
26F
100
AcDbEntity
  8
0
100
AcDbLine
 62
9
  6
CONTINUOUS
 10
12.1323182825
 20
11.1353027994
 11
11.4535683383
 21
11.1353027994
  0
LINE
  5
270
100
AcDbEntity
  8
0
100
AcDbLine
 62
9
  6
CONTINUOUS
 10
10.6410683383
 20
11.1353027994
 11
9.9623183993
 21
11.1353027994
  0
LINE
  5
271
100
AcDbEntity
  8
0
100
AcDbLine
 62
9
  6
CONTINUOUS
 10
12.1323183383
 20
11.1596697852
 11
11.4535683383
 21
11.1596697852
  0
LINE
  5
272
100
AcDbEntity
  8
0
100
AcDbLine
 62
9
  6
CONTINUOUS
 10
10.6410683383
 20
11.1596697852
 11
9.9623182466
 21
11.1596697852
  0
LINE
  5
273
100
AcDbEntity
  8
0
100
AcDbLine
 62
9
  6
CONTINUOUS
 10
12.1323183383
 20
11.2327707428
 11
11.4535683383
 21
11.2327707428
  0
LINE
  5
274
100
AcDbEntity
  8
0
100
AcDbLine
 62
9
  6
CONTINUOUS
 10
10.6410683383
 20
11.2327707428
 11
9.9623183383
 21
11.2327707428
  0
LINE
  5
275
100
AcDbEntity
  8
0
100
AcDbLine
 62
7
  6
CONTINUOUS
 10
12.2923183383
 20
11.3151481653
 11
12.1923183383
 21
11.3151481653
  0
LINE
  5
276
100
AcDbEntity
  8
0
100
AcDbLine
 62
7
  6
CONTINUOUS
 10
9.9023183383
 20
11.3151481653
 11
9.8023183383
 21
11.3151481653
  0
LINE
  5
277
100
AcDbEntity
  8
0
100
AcDbLine
 62
9
  6
CONTINUOUS
 10
12.3223183383
 20
11.3451481653
 11
12.1923183383
 21
11.3451481653
  0
LINE
  5
278
100
AcDbEntity
  8
0
100
AcDbLine
 62
9
  6
CONTINUOUS
 10
9.9023183383
 20
11.3451481653
 11
9.7723183383
 21
11.3451481653
  0
LINE
  5
279
100
AcDbEntity
  8
0
100
AcDbLine
 62
7
  6
CONTINUOUS
 10
12.2323183383
 20
11.3751481653
 11
9.8623183383
 21
11.3751481653
  0
LINE
  5
27A
100
AcDbEntity
  8
0
100
AcDbLine
 62
7
  6
CONTINUOUS
 10
14.1823183383
 20
11.4121481653
 11
12.2721518471
 21
11.4121481653
  0
LINE
  5
27B
100
AcDbEntity
  8
0
100
AcDbLine
 62
7
  6
CONTINUOUS
 10
9.8224848295
 20
11.4121481653
 11
7.9123183383
 21
11.4121481653
  0
LINE
  5
27C
100
AcDbEntity
  8
0
100
AcDbLine
 62
9
  6
CONTINUOUS
 10
12.2723183383
 20
11.4151481653
 11
9.8223183383
 21
11.4151481653
  0
LINE
  5
27D
100
AcDbEntity
  8
0
100
AcDbLine
 62
7
  6
CONTINUOUS
 10
14.2973183383
 20
11.5371481653
 11
12.2723183383
 21
11.5371481653
  0
LINE
  5
27E
100
AcDbEntity
  8
0
100
AcDbLine
 62
7
  6
CONTINUOUS
 10
9.8223183383
 20
11.5371481653
 11
7.7973183383
 21
11.5371481653
  0
LINE
  5
27F
100
AcDbEntity
  8
0
100
AcDbLine
 62
7
  6
CONTINUOUS
 10
7.7973183383
 20
11.7251481653
 11
14.2973183383
 21
11.7251481653
  0
ARC
  5
280
100
AcDbEntity
  8
0
100
AcDbCircle
 62
9
  6
CONTINUOUS
 10
-420.5867516413
 20
31.4034692342
 40
433.109396645
100
AcDbArc
 50
357.1517748806
 51
357.3001220885
  0
ARC
  5
281
100
AcDbEntity
  8
0
100
AcDbCircle
 62
9
  6
CONTINUOUS
 10
-317.2977571794
 20
26.2417955875
 40
329.6914868007
100
AcDbArc
 50
356.9623481363
 51
357.0970008941
  0
ARC
  5
282
100
AcDbEntity
  8
0
100
AcDbCircle
 62
7
  6
CONTINUOUS
 10
10.7079246339
 20
6.3657232158
 40
0.3606062959
100
AcDbArc
 50
180.0021765832
 51
184.3661937635
  0
ARC
  5
283
100
AcDbEntity
  8
0
100
AcDbCircle
 62
7
  6
CONTINUOUS
 10
10.7074969763
 20
6.3374222533
 40
0.3601786381
100
AcDbArc
 50
177.7482910156
 51
179.9995239919
  0
ARC
  5
284
100
AcDbEntity
  8
0
100
AcDbCircle
 62
7
  6
CONTINUOUS
 10
10.8333080985
 20
7.2757554329
 40
0.1922397607
100
AcDbArc
 50
174.7352678244
 51
179.996074224
  0
ARC
  5
285
100
AcDbEntity
  8
0
100
AcDbCircle
 62
7
  6
CONTINUOUS
 10
10.8332612532
 20
7.378308101
 40
0.1921928939
100
AcDbArc
 50
180.0033011187
 51
185.1704573125
  0
ARC
  5
286
100
AcDbEntity
  8
0
100
AcDbCircle
 62
7
  6
CONTINUOUS
 10
10.8331756638
 20
7.3270765328
 40
0.1921073044
100
AcDbArc
 50
180.0024091567
 51
184.7232873877
  0
ARC
  5
287
100
AcDbEntity
  8
0
100
AcDbCircle
 62
7
  6
CONTINUOUS
 10
10.8330507606
 20
7.3270663053
 40
0.1919824009
100
AcDbArc
 50
174.9438725764
 51
179.9993583931
  0
ARC
  5
288
100
AcDbEntity
  8
0
100
AcDbCircle
 62
7
  6
CONTINUOUS
 10
10.833039202
 20
7.4295824386
 40
0.1919708686
100
AcDbArc
 50
175.5245800186
 51
179.9074447539
  0
ARC
  5
289
100
AcDbEntity
  8
0
100
AcDbCircle
 62
7
  6
CONTINUOUS
 10
10.833032722
 20
7.378295218
 40
0.1919643623
100
AcDbArc
 50
175.1962912162
 51
179.99945984
  0
ARC
  5
28A
100
AcDbEntity
  8
0
100
AcDbCircle
 62
7
  6
CONTINUOUS
 10
10.8330041754
 20
7.2757706997
 40
0.1919358372
100
AcDbArc
 50
180.0006253808
 51
184.2698840324
  0
ARC
  5
28B
100
AcDbEntity
  8
0
100
AcDbCircle
 62
7
  6
CONTINUOUS
 10
9.6398183383
 20
7.9071481653
 40
0.03
100
AcDbArc
 50
180.0
 51
270.0
  0
ARC
  5
28C
100
AcDbEntity
  8
0
100
AcDbCircle
 62
7
  6
CONTINUOUS
 10
9.6398183383
 20
8.3471481653
 40
0.03
100
AcDbArc
 50
90.0
 51
180.0
  0
ARC
  5
28D
100
AcDbEntity
  8
0
100
AcDbCircle
 62
7
  6
CONTINUOUS
 10
7.7868835557
 20
11.4121481653
 40
0.1254347826
100
AcDbArc
 50
0.0
 51
85.2281119392
  0
ARC
  5
28E
100
AcDbEntity
  8
0
100
AcDbCircle
 62
7
  6
CONTINUOUS
 10
9.8123183383
 20
11.2327707428
 40
0.09
100
AcDbArc
 50
305.6853347121
 51
360.0
  0
ARC
  5
28F
100
AcDbEntity
  8
0
100
AcDbCircle
 62
7
  6
CONTINUOUS
 10
10.5023560349
 20
9.1380581653
 40
0.09
100
AcDbArc
 50
287.4388003746
 51
10.0
  0
ARC
  5
290
100
AcDbEntity
  8
0
100
AcDbCircle
 62
7
  6
CONTINUOUS
 10
9.8623183383
 20
11.4151481653
 40
0.04
100
AcDbArc
 50
180.0
 51
270.0
  0
ARC
  5
291
100
AcDbEntity
  8
0
100
AcDbCircle
 62
7
  6
CONTINUOUS
 10
10.2747066582
 20
10.7746481653
 40
0.03
100
AcDbArc
 50
10.0
 51
85.4740838838
  0
ARC
  5
292
100
AcDbEntity
  8
0
100
AcDbCircle
 62
7
  6
CONTINUOUS
 10
9.8823183383
 20
11.1353027994
 40
0.03
100
AcDbArc
 50
125.6853347127
 51
179.9999999999
  0
ARC
  5
293
100
AcDbEntity
  8
0
100
AcDbCircle
 62
7
  6
CONTINUOUS
 10
9.8823183383
 20
11.0321481653
 40
0.03
100
AcDbArc
 50
180.0
 51
270.0
  0
ARC
  5
294
100
AcDbEntity
  8
0
100
AcDbCircle
 62
7
  6
CONTINUOUS
 10
10.2048183383
 20
10.8346481653
 40
0.03
100
AcDbArc
 50
180.0
 51
270.0
  0
ARC
  5
295
100
AcDbEntity
  8
0
100
AcDbCircle
 62
7
  6
CONTINUOUS
 10
10.5383183383
 20
9.023573613
 40
0.03
100
AcDbArc
 50
107.4385438139
 51
179.9999448807
  0
ARC
  5
296
100
AcDbEntity
  8
0
100
AcDbCircle
 62
7
  6
CONTINUOUS
 10
10.5383183383
 20
8.8966481653
 40
0.03
100
AcDbArc
 50
180.0
 51
270.0
  0
ARC
  5
297
100
AcDbEntity
  8
0
100
AcDbCircle
 62
7
  6
CONTINUOUS
 10
9.8023183383
 20
11.3451481653
 40
0.03
100
AcDbArc
 50
180.0
 51
270.0
  0
ARC
  5
298
100
AcDbEntity
  8
0
100
AcDbCircle
 62
9
  6
CONTINUOUS
 10
10.5382974605
 20
9.0184257018
 40
0.0299808049
100
AcDbArc
 50
93.6741247005
 51
179.9676062067
  0
ARC
  5
299
100
AcDbEntity
  8
0
100
AcDbCircle
 62
9
  6
CONTINUOUS
 10
9.8822035214
 20
11.1337014681
 40
0.0298865191
100
AcDbArc
 50
120.6583293328
 51
179.9629529034
  0
ARC
  5
29A
100
AcDbEntity
  8
0
100
AcDbCircle
 62
7
  6
CONTINUOUS
 10
11.3869639672
 20
6.3657136057
 40
0.3603543711
100
AcDbArc
 50
355.6317573446
 51
359.9993498842
  0
ARC
  5
29B
100
AcDbEntity
  8
0
100
AcDbCircle
 62
7
  6
CONTINUOUS
 10
11.3872445323
 20
6.3374243142
 40
0.360073806
100
AcDbArc
 50
0.0001482023
 51
2.2520370074
  0
ARC
  5
29C
100
AcDbEntity
  8
0
100
AcDbCircle
 62
7
  6
CONTINUOUS
 10
11.2378689002
 20
7.4039162538
 40
0.2156994183
100
AcDbArc
 50
0.0067037615
 51
7.8361999957
  0
ARC
  5
29D
100
AcDbEntity
  8
0
100
AcDbCircle
 62
7
  6
CONTINUOUS
 10
11.2383053991
 20
7.3013295952
 40
0.215262918
100
AcDbArc
 50
0.0022165281
 51
4.6412499377
  0
ARC
  5
29E
100
AcDbEntity
  8
0
100
AcDbCircle
 62
7
  6
CONTINUOUS
 10
11.2384165029
 20
7.352669139
 40
0.2151518141
100
AcDbArc
 50
0.0018511653
 51
4.4205032969
  0
ARC
  5
29F
100
AcDbEntity
  8
0
100
AcDbCircle
 62
7
  6
CONTINUOUS
 10
11.2385003071
 20
7.4039434399
 40
0.2150680099
100
AcDbArc
 50
355.1824622388
 51
359.9994808542
  0
ARC
  5
2A0
100
AcDbEntity
  8
0
100
AcDbCircle
 62
7
  6
CONTINUOUS
 10
11.2385264186
 20
7.3013389146
 40
0.2150418983
100
AcDbArc
 50
356.0104121953
 51
359.9997357359
  0
ARC
  5
2A1
100
AcDbEntity
  8
0
100
AcDbCircle
 62
7
  6
CONTINUOUS
 10
11.2385618164
 20
7.352677502
 40
0.2150065006
100
AcDbArc
 50
355.6022009366
 51
359.9996237872
  0
ARC
  5
2A2
100
AcDbEntity
  8
0
100
AcDbCircle
 62
7
  6
CONTINUOUS
 10
12.4548183383
 20
7.9071481653
 40
0.03
100
AcDbArc
 50
270.0
 51
360.0
  0
ARC
  5
2A3
100
AcDbEntity
  8
0
100
AcDbCircle
 62
7
  6
CONTINUOUS
 10
12.4548183383
 20
8.3471481653
 40
0.03
100
AcDbArc
 50
0.0
 51
90.0
  0
ARC
  5
2A4
100
AcDbEntity
  8
0
100
AcDbCircle
 62
7
  6
CONTINUOUS
 10
14.3077531209
 20
11.4121481653
 40
0.1254347826
100
AcDbArc
 50
94.7718880608
 51
180.0
  0
ARC
  5
2A5
100
AcDbEntity
  8
0
100
AcDbCircle
 62
7
  6
CONTINUOUS
 10
12.2823183383
 20
11.2327707428
 40
0.09
100
AcDbArc
 50
180.0
 51
234.3146652873
  0
ARC
  5
2A6
100
AcDbEntity
  8
0
100
AcDbCircle
 62
7
  6
CONTINUOUS
 10
11.5922806417
 20
9.1380581653
 40
0.09
100
AcDbArc
 50
170.0
 51
252.5611917408
  0
ARC
  5
2A7
100
AcDbEntity
  8
0
100
AcDbCircle
 62
7
  6
CONTINUOUS
 10
12.2323183383
 20
11.4151481653
 40
0.04
100
AcDbArc
 50
270.0
 51
360.0
  0
ARC
  5
2A8
100
AcDbEntity
  8
0
100
AcDbCircle
 62
7
  6
CONTINUOUS
 10
11.8199300183
 20
10.7746481653
 40
0.03
100
AcDbArc
 50
94.5259422879
 51
169.9999999999
  0
ARC
  5
2A9
100
AcDbEntity
  8
0
100
AcDbCircle
 62
7
  6
CONTINUOUS
 10
12.2123183383
 20
11.1353027994
 40
0.03
100
AcDbArc
 50
0.0000000001
 51
54.3146652873
  0
ARC
  5
2AA
100
AcDbEntity
  8
0
100
AcDbCircle
 62
7
  6
CONTINUOUS
 10
12.2123183383
 20
11.0321481653
 40
0.03
100
AcDbArc
 50
270.0
 51
360.0
  0
ARC
  5
2AB
100
AcDbEntity
  8
0
100
AcDbCircle
 62
7
  6
CONTINUOUS
 10
11.8898183383
 20
10.8346481653
 40
0.03
100
AcDbArc
 50
270.0
 51
360.0
  0
ARC
  5
2AC
100
AcDbEntity
  8
0
100
AcDbCircle
 62
7
  6
CONTINUOUS
 10
11.5563183383
 20
8.8966481653
 40
0.03
100
AcDbArc
 50
270.0
 51
360.0
  0
ARC
  5
2AD
100
AcDbEntity
  8
0
100
AcDbCircle
 62
7
  6
CONTINUOUS
 10
11.5563183383
 20
9.023573613
 40
0.03
100
AcDbArc
 50
0.0006402738
 51
72.56147984
  0
ARC
  5
2AE
100
AcDbEntity
  8
0
100
AcDbCircle
 62
7
  6
CONTINUOUS
 10
12.2923183383
 20
11.3451481653
 40
0.03
100
AcDbArc
 50
270.0
 51
360.0
  0
ARC
  5
2AF
100
AcDbEntity
  8
0
100
AcDbCircle
 62
9
  6
CONTINUOUS
 10
11.5563392591
 20
9.0184268739
 40
0.0299807707
100
AcDbArc
 50
0.032524954
 51
86.3292881315
  0
ARC
  5
2B0
100
AcDbEntity
  8
0
100
AcDbCircle
 62
9
  6
CONTINUOUS
 10
12.2124331782
 20
11.1337014009
 40
0.0298864993
100
AcDbArc
 50
0.0371670477
 51
59.3432812199
  0
ARC
  5
2B1
100
AcDbEntity
  8
0
100
AcDbCircle
 62
9
  6
CONTINUOUS
 10
429.732192757
 20
30.7756407288
 40
420.1450019575
100
AcDbArc
 50
182.6975365541
 51
182.8453309371
  0
ARC
  5
2B2
100
AcDbEntity
  8
0
100
AcDbCircle
 62
9
  6
CONTINUOUS
 10
340.9185419702
 20
26.3220724924
 40
331.2197438514
100
AcDbArc
 50
182.8917940151
 51
183.0407552316
  0
SPLINE
  5
2B3
100
AcDbEntity
  8
0
100
AcDbSpline
 62
7
  6
CONTINUOUS
 70
0
 71
3
 72
28
 73
24
 74
0
 42
0.0000001
 43
0.0000001
 44
0.0000000001
 40
0.0
 40
0.0
 40
0.0
 40
0.0
 40
0.0253211388
 40
0.0507083231
 40
0.0762264633
 40
0.1019382616
 40
0.1279032089
 40
0.154176719
 40
0.1808094222
 40
0.2078466364
 40
0.2353279627
 40
0.2632870179
 40
0.3207201282
 40
0.3803188131
 40
0.4421386933
 40
0.5061509542
 40
0.5722515867
 40
0.6402720075
 40
0.7099889591
 40
0.781134852
 40
0.8534069835
 40
0.9264766866
 40
1.0
 40
1.0
 40
1.0
 40
1.0
 10
10.6410683555
 20
7.2614531793
 30
0.0
 10
10.6410683667
 20
7.2568814027
 30
0.0
 10
10.6413956868
 20
7.2477225727
 30
0.0
 10
10.6428669307
 20
7.2340275341
 30
0.0
 10
10.6453148339
 20
7.2204007442
 30
0.0
 10
10.6487331775
 20
7.2068773027
 30
0.0
 10
10.65311335
 20
7.1934907993
 30
0.0
 10
10.6584444166
 20
7.1802747352
 30
0.0
 10
10.6647130718
 20
7.1672619409
 30
0.0
 10
10.6719036792
 20
7.1544847935
 30
0.0
 10
10.6799988696
 20
7.1419745736
 30
0.0
 10
10.6920775376
 20
7.1255476683
 30
0.0
 10
10.7094039113
 20
7.1058437938
 30
0.0
 10
10.7332430202
 20
7.0839792119
 30
0.0
 10
10.7600881055
 20
7.0638859441
 30
0.0
 10
10.7896785947
 20
7.0457609647
 30
0.0
 10
10.821731427
 20
7.0297798851
 30
0.0
 10
10.8559401207
 20
7.0161001223
 30
0.0
 10
10.891978055
 20
7.0048575362
 30
0.0
 10
10.9295009442
 20
6.9961657747
 30
0.0
 10
10.9681509315
 20
6.990114369
 30
0.0
 10
11.0075563496
 20
6.9867681534
 30
0.0
 10
11.0340460921
 20
6.9863676469
 30
0.0
 10
11.0473183383
 20
6.9866262286
 30
0.0
  0
SPLINE
  5
2B4
100
AcDbEntity
  8
0
100
AcDbSpline
 62
7
  6
CONTINUOUS
 70
0
 71
3
 72
15
 73
11
 74
0
 42
0.0000001
 43
0.0000001
 44
0.0000000001
 40
0.0
 40
0.0
 40
0.0
 40
0.0
 40
0.1196855468
 40
0.2399227117
 40
0.3612465607
 40
0.4841601919
 40
0.6091213861
 40
0.7365326818
 40
0.8667343302
 40
1.0
 40
1.0
 40
1.0
 40
1.0
 10
10.6410683383
 20
7.3111823793
 30
0.0
 10
10.6410683403
 20
7.3050941094
 30
0.0
 10
10.6416501375
 20
7.2928816193
 30
0.0
 10
10.6442621389
 20
7.2746658449
 30
0.0
 10
10.648601899
 20
7.2566128813
 30
0.0
 10
10.6546493527
 20
7.2388056291
 30
0.0
 10
10.6623767988
 20
7.2213226627
 30
0.0
 10
10.6717496361
 20
7.2042409603
 30
0.0
 10
10.6827252409
 20
7.1876364675
 30
0.0
 10
10.6909807057
 20
7.1770589319
 30
0.0
 10
10.6953467171
 20
7.1718730077
 30
0.0
  0
SPLINE
  5
2B5
100
AcDbEntity
  8
0
100
AcDbSpline
 62
7
  6
CONTINUOUS
 70
0
 71
3
 72
28
 73
24
 74
0
 42
0.0000001
 43
0.0000001
 44
0.0000000001
 40
0.0
 40
0.0
 40
0.0
 40
0.0
 40
0.0253216808
 40
0.0507093252
 40
0.0762278514
 40
0.101939963
 40
0.1279051455
 40
0.1541788183
 40
0.1808116283
 40
0.2078488958
 40
0.2353302167
 40
0.2632892182
 40
0.3207221245
 40
0.3803204846
 40
0.4421399868
 40
0.5061518385
 40
0.5722520817
 40
0.6402721566
 40
0.7099888375
 40
0.7811345604
 40
0.8534066456
 40
0.9264764255
 40
1.0
 40
1.0
 40
1.0
 40
1.0
 10
10.6410683596
 20
7.3608997977
 30
0.0
 10
10.6410683596
 20
7.3563279444
 30
0.0
 10
10.6413957077
 20
7.3471689768
 30
0.0
 10
10.6428669173
 20
7.3334737478
 30
0.0
 10
10.6453148312
 20
7.3198468111
 30
0.0
 10
10.6487331925
 20
7.3063232668
 30
0.0
 10
10.6531133733
 20
7.2929367
 30
0.0
 10
10.658444426
 20
7.2797206028
 30
0.0
 10
10.6647130979
 20
7.2667078253
 30
0.0
 10
10.6719037239
 20
7.2539307341
 30
0.0
 10
10.6799989198
 20
7.2414206013
 30
0.0
 10
10.6920775776
 20
7.2249938638
 30
0.0
 10
10.7094039825
 20
7.2052903142
 30
0.0
 10
10.7332430941
 20
7.1834261953
 30
0.0
 10
10.7600882129
 20
7.1633335604
 30
0.0
 10
10.7896787055
 20
7.1452092971
 30
0.0
 10
10.8217315529
 20
7.1292290765
 30
0.0
 10
10.8559402437
 20
7.1155502511
 30
0.0
 10
10.891978176
 20
7.1043087161
 30
0.0
 10
10.9295010538
 20
7.09561808
 30
0.0
 10
10.9681510236
 20
7.0895678876
 30
0.0
 10
11.0075564202
 20
7.0862229509
 30
0.0
 10
11.0340461155
 20
7.085823341
 30
0.0
 10
11.0473183383
 20
7.0860823795
 30
0.0
  0
SPLINE
  5
2B6
100
AcDbEntity
  8
0
100
AcDbSpline
 62
7
  6
CONTINUOUS
 70
0
 71
3
 72
41
 73
37
 74
0
 42
0.0000001
 43
0.0000001
 44
0.0000000001
 40
0.0
 40
0.0
 40
0.0
 40
0.0
 40
0.0627481745
 40
0.0951652547
 40
0.1282064284
 40
0.1618129482
 40
0.1959160088
 40
0.2304385005
 40
0.265296308
 40
0.3003997825
 40
0.3356552033
 40
0.370966033
 40
0.4062343846
 40
0.4413623894
 40
0.4762534644
 40
0.510813818
 40
0.5449537863
 40
0.5785892245
 40
0.6116430914
 40
0.6440468516
 40
0.6757420685
 40
0.7066820792
 40
0.7368335275
 40
0.7661780835
 40
0.7947140671
 40
0.8224578578
 40
0.8494452143
 40
0.8757320788
 40
0.9013947298
 40
0.9265291905
 40
0.938937525
 40
0.9512578907
 40
0.963506843
 40
0.9757016069
 40
0.9878599533
 40
1.0
 40
1.0
 40
1.0
 40
1.0
 10
11.3431286757
 20
7.2326816608
 30
0.0
 10
11.3289737349
 20
7.2216463621
 30
0.0
 10
11.3062572854
 20
7.206450026
 30
0.0
 10
11.2739492028
 20
7.1890715786
 30
0.0
 10
11.2481906797
 20
7.1772158299
 30
0.0
 10
11.2213229429
 20
7.1667493279
 30
0.0
 10
11.1934915512
 20
7.157724286
 30
0.0
 10
11.1648514027
 20
7.15018759
 30
0.0
 10
11.1355607722
 20
7.1441772872
 30
0.0
 10
11.1057818462
 20
7.1397232379
 30
0.0
 10
11.0756794494
 20
7.1368466951
 30
0.0
 10
11.0454202245
 20
7.1355602308
 30
0.0
 10
11.0151716799
 20
7.135867653
 30
0.0
 10
10.9851012632
 20
7.1377639834
 30
0.0
 10
10.9553754167
 20
7.1412354894
 30
0.0
 10
10.9261586616
 20
7.1462597679
 30
0.0
 10
10.897612676
 20
7.1528058778
 30
0.0
 10
10.8698953966
 20
7.1608345339
 30
0.0
 10
10.8431601592
 20
7.1702983447
 30
0.0
 10
10.8175548534
 20
7.1811421019
 30
0.0
 10
10.7932211317
 20
7.1933031118
 30
0.0
 10
10.770293673
 20
7.2067115781
 30
0.0
 10
10.7488994974
 20
7.2212910151
 30
0.0
 10
10.729157361
 20
7.2369586806
 30
0.0
 10
10.7111772153
 20
7.2536259911
 30
0.0
 10
10.6950597183
 20
7.2711989972
 30
0.0
 10
10.6808958603
 20
7.2895785456
 30
0.0
 10
10.6687663821
 20
7.3086613253
 30
0.0
 10
10.6587419072
 20
7.3283374803
 30
0.0
 10
10.652161966
 20
7.3452131353
 30
0.0
 10
10.6480258857
 20
7.3588685778
 30
0.0
 10
10.6454920524
 20
7.3691427905
 30
0.0
 10
10.6435175598
 20
7.3794766232
 30
0.0
 10
10.6421052418
 20
7.38985562
 30
0.0
 10
10.6412569502
 20
7.4002643179
 30
0.0
 10
10.6410683638
 20
7.407216017
 30
0.0
 10
10.6410683588
 20
7.4106885126
 30
0.0
  0
SPLINE
  5
2B7
100
AcDbEntity
  8
0
100
AcDbSpline
 62
7
  6
CONTINUOUS
 70
0
 71
3
 72
18
 73
14
 74
0
 42
0.0000001
 43
0.0000001
 44
0.0000000001
 40
0.0
 40
0.0
 40
0.0
 40
0.0
 40
0.0580891705
 40
0.1164572533
 40
0.1751885177
 40
0.2343630678
 40
0.2940560467
 40
0.354337066
 40
0.476872971
 40
0.6024416306
 40
0.7313638912
 40
0.8638480505
 40
1.0
 40
1.0
 40
1.0
 40
1.0
 10
11.4448889203
 20
7.4010058732
 30
0.0
 10
11.4444225445
 20
7.3971285814
 30
0.0
 10
11.4432680411
 20
7.3893800269
 30
0.0
 10
11.440883957
 20
7.3778403522
 30
0.0
 10
11.4378489057
 20
7.3663787682
 30
0.0
 10
11.4341686674
 20
7.3550144465
 30
0.0
 10
11.4298498197
 20
7.3437653278
 30
0.0
 10
11.4232158713
 20
7.3288657264
 30
0.0
 10
11.4133281982
 20
7.3105997953
 30
0.0
 10
11.3991262096
 20
7.2895607542
 30
0.0
 10
11.3826196258
 20
7.2694061831
 30
0.0
 10
11.3639241213
 20
7.2502629872
 30
0.0
 10
11.3502670864
 20
7.2384110143
 30
0.0
 10
11.3431286757
 20
7.2326816608
 30
0.0
  0
SPLINE
  5
2B8
100
AcDbEntity
  8
0
100
AcDbSpline
 62
7
  6
CONTINUOUS
 70
0
 71
3
 72
15
 73
11
 74
0
 42
0.0000001
 43
0.0000001
 44
0.0000000001
 40
0.0
 40
0.0
 40
0.0
 40
0.0
 40
0.1226655628
 40
0.2455747503
 40
0.3689374429
 40
0.4929811138
 40
0.6179164241
 40
0.7439423129
 40
0.8712462619
 40
1.0
 40
1.0
 40
1.0
 40
1.0
 10
11.4535680927
 20
7.4600925752
 30
0.0
 10
11.4535616526
 20
7.4559509811
 30
0.0
 10
11.4532948209
 20
7.4476577358
 30
0.0
 10
11.4521343727
 20
7.4352479822
 30
0.0
 10
11.4502154936
 20
7.4228851982
 30
0.0
 10
11.44754206
 20
7.4105936014
 30
0.0
 10
11.4441192859
 20
7.3983959961
 30
0.0
 10
11.4399536508
 20
7.3863152981
 30
0.0
 10
11.4350533364
 20
7.3743746748
 30
0.0
 10
11.4313250574
 20
7.3665687329
 30
0.0
 10
11.4293453112
 20
7.3626985427
 30
0.0
  0
SPLINE
  5
2B9
100
AcDbEntity
  8
0
100
AcDbSpline
 62
7
  6
CONTINUOUS
 70
0
 71
3
 72
21
 73
17
 74
0
 42
0.0000001
 43
0.0000001
 44
0.0000000001
 40
0.0
 40
0.0
 40
0.0
 40
0.0
 40
0.0525036382
 40
0.1063082459
 40
0.1615372481
 40
0.2182728521
 40
0.3363112845
 40
0.3976697995
 40
0.4604866795
 40
0.5246701094
 40
0.5901031243
 40
0.6566468384
 40
0.7241439468
 40
0.7924217956
 40
0.8612958867
 40
1.0
 40
1.0
 40
1.0
 40
1.0
 10
11.4293453112
 20
7.3626985427
 30
0.0
 10
11.425783156
 20
7.3557349133
 30
0.0
 10
11.4178741487
 20
7.3419809807
 30
0.0
 10
11.403982568
 20
7.3222925312
 30
0.0
 10
11.3880074986
 20
7.3034178803
 30
0.0
 10
11.3637483978
 20
7.2791744675
 30
0.0
 10
11.3359476618
 20
7.257361564
 30
0.0
 10
11.3053639994
 20
7.2381777077
 30
0.0
 10
11.2806189894
 20
7.2248966452
 30
0.0
 10
11.2545185672
 20
7.2129931013
 30
0.0
 10
11.2272116882
 20
7.2025334288
 30
0.0
 10
11.1988579119
 20
7.1935785774
 30
0.0
 10
11.1696225429
 20
7.1861801599
 30
0.0
 10
11.1396736525
 20
7.1803807697
 30
0.0
 10
11.0989420358
 20
7.1748136414
 30
0.0
 10
11.0679820591
 20
7.1731463002
 30
0.0
 10
11.0473183383
 20
7.1731463002
 30
0.0
  0
SPLINE
  5
2BA
100
AcDbEntity
  8
0
100
AcDbSpline
 62
7
  6
CONTINUOUS
 70
0
 71
3
 72
28
 73
24
 74
0
 42
0.0000001
 43
0.0000001
 44
0.0000000001
 40
0.0
 40
0.0
 40
0.0
 40
0.0
 40
0.0726338318
 40
0.1449184502
 40
0.2165149225
 40
0.2870999218
 40
0.3563761522
 40
0.4240811168
 40
0.4899962315
 40
0.553956506
 40
0.6158600751
 40
0.6756778504
 40
0.7334619854
 40
0.7616434594
 40
0.7893767754
 40
0.8166937012
 40
0.8436316047
 40
0.8702331163
 40
0.8965458529
 40
0.9226218536
 40
0.948516413
 40
0.9742896249
 40
1.0
 40
1.0
 40
1.0
 40
1.0
 10
11.0473183383
 20
7.1731463002
 30
0.0
 10
11.0340371126
 20
7.1731463002
 30
0.0
 10
11.0075292345
 20
7.1740647804
 30
0.0
 10
10.9681234103
 20
7.1781881368
 30
0.0
 10
10.929472793
 20
7.1850169555
 30
0.0
 10
10.8919491264
 20
7.1944864516
 30
0.0
 10
10.8559103796
 20
7.2065072257
 30
0.0
 10
10.8217009742
 20
7.2209656859
 30
0.0
 10
10.7896477818
 20
7.2377260575
 30
0.0
 10
10.7600575084
 20
7.2566308441
 30
0.0
 10
10.7332136267
 20
7.2775043412
 30
0.0
 10
10.7093768575
 20
7.3001491921
 30
0.0
 10
10.6920641466
 20
7.3204966408
 30
0.0
 10
10.6799937716
 20
7.3374361568
 30
0.0
 10
10.6718992407
 20
7.3503350925
 30
0.0
 10
10.664709381
 20
7.3635008523
 30
0.0
 10
10.6584415191
 20
7.3769021227
 30
0.0
 10
10.6531112104
 20
7.3905064923
 30
0.0
 10
10.648731697
 20
7.4042811378
 30
0.0
 10
10.6453140165
 20
7.4181925413
 30
0.0
 10
10.6428665195
 20
7.4322072746
 30
0.0
 10
10.6413956679
 20
7.4462901199
 30
0.0
 10
10.6410683434
 20
7.4557072421
 30
0.0
 10
10.6410683385
 20
7.46040843
 30
0.0
  0
SPLINE
  5
2BB
100
AcDbEntity
  8
0
100
AcDbSpline
 62
7
  6
CONTINUOUS
 70
0
 71
3
 72
32
 73
28
 74
0
 42
0.0000001
 43
0.0000001
 44
0.0000000001
 40
0.0
 40
0.0
 40
0.0
 40
0.0
 40
0.0302632474
 40
0.0605279513
 40
0.0907976866
 40
0.1210743844
 40
0.1513621787
 40
0.1816655028
 40
0.2119897725
 40
0.2423418111
 40
0.2727298016
 40
0.3031630749
 40
0.333651836
 40
0.3642070801
 40
0.3948406348
 40
0.4255648488
 40
0.4873128328
 40
0.5495578317
 40
0.5808964276
 40
0.6123808211
 40
0.6757819156
 40
0.7397690431
 40
0.7719746303
 40
0.8043041954
 40
0.8692695934
 40
0.9345516638
 40
1.0
 40
1.0
 40
1.0
 40
1.0
 10
11.4998183383
 20
7.0271790819
 30
0.0
 10
11.4998183383
 20
7.0206010606
 30
0.0
 10
11.4994126695
 20
7.007441099
 30
0.0
 10
11.4975905998
 20
6.9877777164
 30
0.0
 10
11.494565778
 20
6.9682595054
 30
0.0
 10
11.4903553439
 20
6.9489575332
 30
0.0
 10
11.4849829997
 20
6.9299387525
 30
0.0
 10
11.4784778748
 20
6.9112663774
 30
0.0
 10
11.4708739797
 20
6.8929990319
 30
0.0
 10
11.4622092955
 20
6.8751902159
 30
0.0
 10
11.4525248796
 20
6.8578879669
 30
0.0
 10
11.4418640044
 20
6.8411348869
 30
0.0
 10
11.4302713342
 20
6.824968228
 30
0.0
 10
11.4177923132
 20
6.8094202782
 30
0.0
 10
11.4044718598
 20
6.7945181096
 30
0.0
 10
11.385621846
 20
6.7755123305
 30
0.0
 10
11.3601477619
 20
6.7534668917
 30
0.0
 10
11.3325617087
 20
6.733909725
 30
0.0
 10
11.3093481061
 20
6.7197473597
 30
0.0
 10
11.2853006617
 20
6.7065220894
 30
0.0
 10
11.2539671289
 20
6.6918975353
 30
0.0
 10
11.2213694533
 20
6.6799129482
 30
0.0
 10
11.1946055285
 20
6.6718845783
 30
0.0
 10
11.1673356231
 20
6.6648817164
 30
0.0
 10
11.1326084382
 20
6.6581300119
 30
0.0
 10
11.0903135357
 20
6.6532542674
 30
0.0
 10
11.0618864811
 20
6.65215811
 30
0.0
 10
11.0476606293
 20
6.6521494425
 30
0.0
  0
LINE
  5
2BC
100
AcDbEntity
  8
0
100
AcDbLine
 62
7
  6
CONTINUOUS
 10
11.0471575961
 20
6.6521493613
 11
11.0469014194
 21
6.652149493
  0
SPLINE
  5
2BD
100
AcDbEntity
  8
0
100
AcDbSpline
 62
7
  6
CONTINUOUS
 70
0
 71
3
 72
32
 73
28
 74
0
 42
0.0000001
 43
0.0000001
 44
0.0000000001
 40
0.0
 40
0.0
 40
0.0
 40
0.0
 40
0.0654490212
 40
0.1307314725
 40
0.1956969286
 40
0.228026436
 40
0.2602319349
 40
0.3242187613
 40
0.3876194997
 40
0.4191036995
 40
0.4504420733
 40
0.5126867277
 40
0.5744343178
 40
0.6051584016
 40
0.6357919156
 40
0.6663470106
 40
0.6968356454
 40
0.7272689109
 40
0.7576568459
 40
0.7880089146
 40
0.8183332177
 40
0.8486366
 40
0.8789245275
 40
0.9092014154
 40
0.9394713431
 40
0.969736439
 40
1.0
 40
1.0
 40
1.0
 40
1.0
 10
11.0469014194
 20
6.652149493
 30
0.0
 10
11.0326770473
 20
6.6521600489
 30
0.0
 10
11.0042531602
 20
6.6532597518
 30
0.0
 10
10.9619634552
 20
6.6581401333
 30
0.0
 10
10.9272409515
 20
6.6648951167
 30
0.0
 10
10.8999749731
 20
6.671900242
 30
0.0
 10
10.8732150835
 20
6.6799305974
 30
0.0
 10
10.8406225623
 20
6.6919172069
 30
0.0
 10
10.8092942635
 20
6.7065431711
 30
0.0
 10
10.7852509951
 20
6.7197691691
 30
0.0
 10
10.7620415202
 20
6.7339320095
 30
0.0
 10
10.7344605648
 20
6.7534893021
 30
0.0
 10
10.7089913402
 20
6.775534166
 30
0.0
 10
10.690145057
 20
6.7945391579
 30
0.0
 10
10.6768272626
 20
6.8094405407
 30
0.0
 10
10.6643507675
 20
6.824987503
 30
0.0
 10
10.6527604663
 20
6.8411529824
 30
0.0
 10
10.6421018049
 20
6.8579047282
 30
0.0
 10
10.6324194292
 20
6.8752055096
 30
0.0
 10
10.6237565926
 20
6.8930127042
 30
0.0
 10
10.6161543065
 20
6.9112782936
 30
0.0
 10
10.6096505573
 20
6.929948802
 30
0.0
 10
10.6042793407
 20
6.948965636
 30
0.0
 10
10.6000698043
 20
6.9682656031
 30
0.0
 10
10.5970456028
 20
6.9877817919
 30
0.0
 10
10.5952239281
 20
7.0074431364
 30
0.0
 10
10.5948183383
 20
7.0206017449
 30
0.0
 10
10.5948183383
 20
7.0271790819
 30
0.0
  0
SPLINE
  5
2BE
100
AcDbEntity
  8
0
100
AcDbSpline
 62
7
  6
CONTINUOUS
 70
0
 71
3
 72
15
 73
11
 74
0
 42
0.0000001
 43
0.0000001
 44
0.0000000001
 40
0.0
 40
0.0
 40
0.0
 40
0.0
 40
0.1211618218
 40
0.2427136625
 40
0.3650368653
 40
0.4884956955
 40
0.6134301092
 40
0.7401494861
 40
0.8689277295
 40
1.0
 40
1.0
 40
1.0
 40
1.0
 10
11.4998183181
 20
7.2549578692
 30
0.0
 10
11.4998183181
 20
7.2610263327
 30
0.0
 10
11.4993283045
 20
7.2731884377
 30
0.0
 10
11.4971269543
 20
7.2913571937
 30
0.0
 10
11.4934664645
 20
7.3094072765
 30
0.0
 10
11.4883593597
 20
7.3272779289
 30
0.0
 10
11.4818230637
 20
7.3449111069
 30
0.0
 10
11.4738794861
 20
7.3622495729
 30
0.0
 10
11.4645559037
 20
7.3792362663
 30
0.0
 10
11.457504955
 20
7.3901898994
 30
0.0
 10
11.4537693452
 20
7.3955882574
 30
0.0
  0
SPLINE
  5
2BF
100
AcDbEntity
  8
0
100
AcDbSpline
 62
7
  6
CONTINUOUS
 70
0
 71
3
 72
15
 73
11
 74
0
 42
0.0000001
 43
0.0000001
 44
0.0000000001
 40
0.0
 40
0.0
 40
0.0
 40
0.0
 40
0.1211104813
 40
0.2426165629
 40
0.3649049126
 40
0.4883446331
 40
0.6132798336
 40
0.7400232144
 40
0.8688510739
 40
1.0
 40
1.0
 40
1.0
 40
1.0
 10
10.5948183584
 20
7.2549578692
 30
0.0
 10
10.5948183584
 20
7.2610711441
 30
0.0
 10
10.5953156616
 20
7.2733234318
 30
0.0
 10
10.5975497009
 20
7.2916257852
 30
0.0
 10
10.6012644129
 20
7.3098067885
 30
0.0
 10
10.6064468891
 20
7.3278043287
 30
0.0
 10
10.613079176
 20
7.345559083
 30
0.0
 10
10.6211387069
 20
7.3630125668
 30
0.0
 10
10.630597393
 20
7.3801065064
 30
0.0
 10
10.6377489565
 20
7.3911240169
 30
0.0
 10
10.6415375608
 20
7.3965527059
 30
0.0
  0
LINE
  5
2C0
100
AcDbEntity
  8
0
100
AcDbLine
 62
7
  6
CONTINUOUS
 10
11.7462715529
 20
6.3382667178
 11
11.7462163917
 21
6.337553503
  0
SPLINE
  5
2C1
100
AcDbEntity
  8
0
100
AcDbSpline
 62
7
  6
CONTINUOUS
 70
0
 71
3
 72
53
 73
49
 74
0
 42
0.0000001
 43
0.0000001
 44
0.0000000001
 40
0.0
 40
0.0
 40
0.0
 40
0.0
 40
0.0130485536
 40
0.0261508224
 40
0.0393306492
 40
0.052610847
 40
0.0660130088
 40
0.0795572109
 40
0.093261822
 40
0.107143315
 40
0.1212161185
 40
0.1354925196
 40
0.1499825952
 40
0.1646941818
 40
0.1796328671
 40
0.1948020155
 40
0.2258264391
 40
0.2577610346
 40
0.290559942
 40
0.3241501635
 40
0.3584353181
 40
0.3932995894
 40
0.4286116666
 40
0.4642286818
 40
0.5000000767
 40
0.5357714704
 40
0.5713884821
 40
0.6067005533
 40
0.6415648169
 40
0.6758499617
 40
0.7094401715
 40
0.7422390661
 40
0.7741736479
 40
0.8051980569
 40
0.8203671979
 40
0.835305876
 40
0.8500174556
 40
0.8645075242
 40
0.8787839186
 40
0.8928567158
 40
0.9067382029
 40
0.9204428085
 40
0.9339870058
 40
0.9473891632
 40
0.9606693574
 40
0.9738491811
 40
0.9869514478
 40
1.0
 40
1.0
 40
1.0
 40
1.0
 10
11.7462163917
 20
6.337553503
 30
0.0
 10
11.7455903561
 20
6.329561963
 30
0.0
 10
11.7438020208
 20
6.3135827619
 30
0.0
 10
11.7395337773
 20
6.2897842741
 30
0.0
 10
11.7336886138
 20
6.2661758577
 30
0.0
 10
11.7262840855
 20
6.2428165961
 30
0.0
 10
11.7173417415
 20
6.2197619844
 30
0.0
 10
11.7068868593
 20
6.1970659815
 30
0.0
 10
11.6949480863
 20
6.1747803187
 30
0.0
 10
11.6815571174
 20
6.1529546613
 30
0.0
 10
11.6667484336
 20
6.1316366146
 30
0.0
 10
11.6505591141
 20
6.1108718298
 30
0.0
 10
11.6330286117
 20
6.0907040645
 30
0.0
 10
11.6141988494
 20
6.0711754453
 30
0.0
 10
11.5941133871
 20
6.0523259338
 30
0.0
 10
11.5655101408
 20
6.027971448
 30
0.0
 10
11.5268029799
 20
5.9994698824
 30
0.0
 10
11.4765007233
 20
5.9688382963
 30
0.0
 10
11.4224339807
 20
5.9417605976
 30
0.0
 10
11.365080029
 20
5.9184590025
 30
0.0
 10
11.3049398334
 20
5.8991237844
 30
0.0
 10
11.2425397654
 20
5.8839150177
 30
0.0
 10
11.1784262112
 20
5.8729594356
 30
0.0
 10
11.1131613844
 20
5.8663489795
 30
0.0
 10
11.0473182082
 20
5.8641392905
 30
0.0
 10
10.9814750347
 20
5.866348995
 30
0.0
 10
10.9162102165
 20
5.8729594708
 30
0.0
 10
10.8520966755
 20
5.8839150676
 30
0.0
 10
10.789696625
 20
5.8991238449
 30
0.0
 10
10.7295564516
 20
5.9184590733
 30
0.0
 10
10.672202526
 20
5.9417606766
 30
0.0
 10
10.61813581
 20
5.9688383757
 30
0.0
 10
10.5678335812
 20
5.9994699589
 30
0.0
 10
10.5291264449
 20
6.0279715208
 30
0.0
 10
10.5005232166
 20
6.0523260001
 30
0.0
 10
10.4804377667
 20
6.0711755054
 30
0.0
 10
10.461608016
 20
6.0907041177
 30
0.0
 10
10.4440775244
 20
6.1108718756
 30
0.0
 10
10.4278882147
 20
6.1316366524
 30
0.0
 10
10.4130795398
 20
6.1529546911
 30
0.0
 10
10.3996885784
 20
6.1747803403
 30
0.0
 10
10.3877498111
 20
6.1970659948
 30
0.0
 10
10.377294933
 20
6.2197619897
 30
0.0
 10
10.3683525918
 20
6.2428165939
 30
0.0
 10
10.3609480652
 20
6.266175849
 30
0.0
 10
10.3551029022
 20
6.28978426
 30
0.0
 10
10.3508346585
 20
6.3135827436
 30
0.0
 10
10.3490463225
 20
6.3295619424
 30
0.0
 10
10.3484202866
 20
6.3375534815
 30
0.0
  0
LINE
  5
2C2
100
AcDbEntity
  8
0
100
AcDbLine
 62
7
  6
CONTINUOUS
 10
10.3484202866
 20
6.3375534815
 11
10.3483648733
 21
6.3382699975
  0
SPLINE
  5
2C3
100
AcDbEntity
  8
0
100
AcDbSpline
 62
7
  6
CONTINUOUS
 70
0
 71
3
 72
30
 73
26
 74
0
 42
0.0000001
 43
0.0000001
 44
0.0000000001
 40
0.0
 40
0.0
 40
0.0
 40
0.0
 40
0.0270493967
 40
0.0541360681
 40
0.0812964902
 40
0.1085669595
 40
0.1359824572
 40
0.1635767606
 40
0.1913819983
 40
0.2194284411
 40
0.2477442574
 40
0.2763553288
 40
0.3052850889
 40
0.3345543926
 40
0.3641814299
 40
0.3941816695
 40
0.455336106
 40
0.518101356
 40
0.5825032202
 40
0.6485267565
 40
0.7161192144
 40
0.7851934843
 40
0.855631836
 40
0.9272897864
 40
1.0
 40
1.0
 40
1.0
 40
1.0
 10
12.5073183383
 20
6.164891191
 30
0.0
 10
12.5073183383
 20
6.1786125316
 30
0.0
 10
12.5065589798
 20
6.2060801539
 30
0.0
 10
12.5031449965
 20
6.2471977592
 30
0.0
 10
12.4974624592
 20
6.2881779892
 30
0.0
 10
12.4895226243
 20
6.3289506166
 30
0.0
 10
12.4793408097
 20
6.3694486341
 30
0.0
 10
12.4669365097
 20
6.4096056092
 30
0.0
 10
12.4523330007
 20
6.4493567281
 30
0.0
 10
12.4355572015
 20
6.4886386953
 30
0.0
 10
12.4166394161
 20
6.5273898995
 30
0.0
 10
12.3956131577
 20
6.5655504278
 30
0.0
 10
12.3725148718
 20
6.6030621466
 30
0.0
 10
12.3473840461
 20
6.6398684108
 30
0.0
 10
12.3202620579
 20
6.6759150761
 30
0.0
 10
12.281260568
 20
6.7231892543
 30
0.0
 10
12.2276508105
 20
6.7800967177
 30
0.0
 10
12.1565659843
 20
6.8440643625
 30
0.0
 10
12.0787535292
 20
6.9037957893
 30
0.0
 10
11.9946966178
 20
6.9589481815
 30
0.0
 10
11.9049071351
 20
7.0092093012
 30
0.0
 10
11.8099302729
 20
7.0542918652
 30
0.0
 10
11.7103390473
 20
7.0939374376
 30
0.0
 10
11.6067397309
 20
7.1279159462
 30
0.0
 10
11.5358622927
 20
7.1465417425
 30
0.0
 10
11.4999330281
 20
7.1548780885
 30
0.0
  0
SPLINE
  5
2C4
100
AcDbEntity
  8
0
100
AcDbSpline
 62
7
  6
CONTINUOUS
 70
0
 71
3
 72
30
 73
26
 74
0
 42
0.0000001
 43
0.0000001
 44
0.0000000001
 40
0.0
 40
0.0
 40
0.0
 40
0.0
 40
0.0727102187
 40
0.1443681742
 40
0.2148065311
 40
0.2838808058
 40
0.3514732674
 40
0.4174968063
 40
0.481898672
 40
0.5446639219
 40
0.6058183569
 40
0.6358185953
 40
0.665445631
 40
0.6947149329
 40
0.723644691
 40
0.7522557602
 40
0.7805715741
 40
0.8086180146
 40
0.8364232499
 40
0.8640175509
 40
0.8914330464
 40
0.9187035137
 40
0.9458639341
 40
0.9729506042
 40
1.0
 40
1.0
 40
1.0
 40
1.0
 10
10.59470495
 20
7.1548783907
 30
0.0
 10
10.5587756459
 20
7.1465420605
 30
0.0
 10
10.4878981269
 20
7.1279162981
 30
0.0
 10
10.3842986905
 20
7.0939378228
 30
0.0
 10
10.284707345
 20
7.0542922768
 30
0.0
 10
10.1897303651
 20
7.009209729
 30
0.0
 10
10.0999407695
 20
6.9589486144
 30
0.0
 10
10.0158837501
 20
6.9037962185
 30
0.0
 10
9.9380711924
 20
6.8440647806
 30
0.0
 10
9.8669862708
 20
6.7800971163
 30
0.0
 10
9.8133764406
 20
6.723189629
 30
0.0
 10
9.7743748963
 20
6.6759154287
 30
0.0
 10
9.7472528699
 20
6.6398687454
 30
0.0
 10
9.7221220084
 20
6.6030624616
 30
0.0
 10
9.6990236893
 20
6.5655507214
 30
0.0
 10
9.6779974003
 20
6.5273901701
 30
0.0
 10
9.6590795869
 20
6.4886389413
 30
0.0
 10
9.6423037627
 20
6.4493569479
 30
0.0
 10
9.6277002313
 20
6.4096058016
 30
0.0
 10
9.615295912
 20
6.3694487974
 30
0.0
 10
9.6051140813
 20
6.3289507496
 30
0.0
 10
9.5971742336
 20
6.2881780906
 30
0.0
 10
9.5914916871
 20
6.2471978277
 30
0.0
 10
9.588077698
 20
6.2060801884
 30
0.0
 10
9.5873183383
 20
6.1786125432
 30
0.0
 10
9.5873183383
 20
6.164891191
 30
0.0
  0
SPLINE
  5
2C5
100
AcDbEntity
  8
0
100
AcDbSpline
 62
7
  6
CONTINUOUS
 70
0
 71
3
 72
38
 73
34
 74
0
 42
0.0000001
 43
0.0000001
 44
0.0000000001
 40
0.0
 40
0.0
 40
0.0
 40
0.0
 40
0.0262776898
 40
0.0526050235
 40
0.0790312262
 40
0.1056040103
 40
0.1323693188
 40
0.1593706485
 40
0.186648607
 40
0.214240498
 40
0.2421799978
 40
0.2704969029
 40
0.299216954
 40
0.3283617324
 40
0.357948617
 40
0.3879907937
 40
0.4184973209
 40
0.4494732254
 40
0.4809196319
 40
0.5128339206
 40
0.5452098972
 40
0.5780379783
 40
0.6113053913
 40
0.6449963743
 40
0.6790923807
 40
0.7135722888
 40
0.7484126055
 40
0.7835876725
 40
0.8190698735
 40
0.8548298348
 40
0.8908366259
 40
0.9270579588
 40
1.0
 40
1.0
 40
1.0
 40
1.0
 10
14.0023183383
 20
5.9591231177
 30
0.0
 10
14.0023183383
 20
5.9905725576
 30
0.0
 10
14.0003260944
 20
6.0535489402
 30
0.0
 10
13.9913707517
 20
6.1477692469
 30
0.0
 10
13.9764685974
 20
6.2415944166
 30
0.0
 10
13.9556541826
 20
6.3348224156
 30
0.0
 10
13.928975507
 20
6.4272600086
 30
0.0
 10
13.8964932476
 20
6.518715671
 30
0.0
 10
13.8582803282
 20
6.609002161
 30
0.0
 10
13.8144213162
 20
6.6979363496
 30
0.0
 10
13.7650118531
 20
6.7853396189
 30
0.0
 10
13.710158156
 20
6.8710379822
 30
0.0
 10
13.6499765788
 20
6.9548621923
 30
0.0
 10
13.5845932331
 20
7.0366477987
 30
0.0
 10
13.5141436807
 20
7.1162352094
 30
0.0
 10
13.4387726574
 20
7.1934697579
 30
0.0
 10
13.3586338087
 20
7.2682017695
 30
0.0
 10
13.2738894613
 20
7.3402866744
 30
0.0
 10
13.1847103954
 20
7.4095851418
 30
0.0
 10
13.0912756089
 20
7.475963239
 30
0.0
 10
12.9937720771
 20
7.5392926258
 30
0.0
 10
12.8923944829
 20
7.5994507599
 30
0.0
 10
12.7873449112
 20
7.6563210939
 30
0.0
 10
12.678832531
 20
7.7097932982
 30
0.0
 10
12.5670732482
 20
7.7597634806
 30
0.0
 10
12.4522893425
 20
7.8061343997
 30
0.0
 10
12.3347090531
 20
7.8488156908
 30
0.0
 10
12.2145662543
 20
7.8877240588
 30
0.0
 10
12.0920996636
 20
7.9227835056
 30
0.0
 10
11.9675536938
 20
7.9539253022
 30
0.0
 10
11.8411730448
 20
7.981088932
 30
0.0
 10
11.6701820489
 20
8.0119995416
 30
0.0
 10
11.5405173164
 20
8.0289499303
 30
0.0
 10
11.4536395134
 20
8.0375036111
 30
0.0
  0
SPLINE
  5
2C6
100
AcDbEntity
  8
0
100
AcDbSpline
 62
7
  6
CONTINUOUS
 70
0
 71
3
 72
38
 73
34
 74
0
 42
0.0000001
 43
0.0000001
 44
0.0000000001
 40
0.0
 40
0.0
 40
0.0
 40
0.0
 40
0.0729420433
 40
0.1091633769
 40
0.1451701685
 40
0.1809301301
 40
0.2164123312
 40
0.2515873981
 40
0.2864277145
 40
0.3209076223
 40
0.3550036282
 40
0.3886946106
 40
0.421962023
 40
0.4547901033
 40
0.4871660792
 40
0.5190803671
 40
0.5505267728
 40
0.5815026765
 40
0.612009203
 40
0.6420513791
 40
0.671638263
 40
0.700783041
 40
0.7295030917
 40
0.7578199966
 40
0.7857594962
 40
0.8133513873
 40
0.8406293461
 40
0.8676306762
 40
0.8943959852
 40
0.9209687702
 40
0.9473949738
 40
0.9737223088
 40
1.0
 40
1.0
 40
1.0
 40
1.0
 10
10.6409965745
 20
8.0375035529
 30
0.0
 10
10.5541187847
 20
8.0289498596
 30
0.0
 10
10.4244540726
 20
8.0119994561
 30
0.0
 10
10.2534631051
 20
7.981088828
 30
0.0
 10
10.1270824788
 20
7.9539251853
 30
0.0
 10
10.0025365326
 20
7.9227833768
 30
0.0
 10
9.8800699665
 20
7.8877239195
 30
0.0
 10
9.7599271928
 20
7.8488155424
 30
0.0
 10
9.6423469288
 20
7.8061342438
 30
0.0
 10
9.5275630486
 20
7.7597633192
 30
0.0
 10
9.4158037918
 20
7.7097931322
 30
0.0
 10
9.3072914378
 20
7.6563209245
 30
0.0
 10
9.2022418922
 20
7.5994505886
 30
0.0
 10
9.100864324
 20
7.5392924541
 30
0.0
 10
9.0033608175
 20
7.4759630685
 30
0.0
 10
8.9099260555
 20
7.4095849741
 30
0.0
 10
8.8207470136
 20
7.3402865105
 30
0.0
 10
8.7360026897
 20
7.2682016107
 30
0.0
 10
8.6558638635
 20
7.1934696053
 30
0.0
 10
8.5804928615
 20
7.1162350643
 30
0.0
 10
8.510043329
 20
7.0366476621
 30
0.0
 10
8.4446600017
 20
6.9548620654
 30
0.0
 10
8.3844784416
 20
6.8710378656
 30
0.0
 10
8.3296247601
 20
6.7853395132
 30
0.0
 10
8.2802153109
 20
6.6979362554
 30
0.0
 10
8.2363563111
 20
6.6090020788
 30
0.0
 10
8.1981434021
 20
6.5187156011
 30
0.0
 10
8.1656611512
 20
6.4272599509
 30
0.0
 10
8.1389824826
 20
6.3348223701
 30
0.0
 10
8.118168073
 20
6.2415943832
 30
0.0
 10
8.1032659224
 20
6.1477692251
 30
0.0
 10
8.0943105817
 20
6.0535489295
 30
0.0
 10
8.0923183383
 20
5.9905725541
 30
0.0
 10
8.0923183383
 20
5.9591231177
 30
0.0
  0
SPLINE
  5
2C7
100
AcDbEntity
  8
0
100
AcDbSpline
 62
7
  6
CONTINUOUS
 70
0
 71
3
 72
89
 73
85
 74
0
 42
0.0000001
 43
0.0000001
 44
0.0000000001
 40
0.0
 40
0.0
 40
0.0
 40
0.0
 40
0.0064688126
 40
0.0129414467
 40
0.0194213441
 40
0.0259122542
 40
0.0324177795
 40
0.0389414431
 40
0.045486725
 40
0.0520570161
 40
0.05865561
 40
0.065285696
 40
0.0719503469
 40
0.0786525093
 40
0.0853949947
 40
0.0921804725
 40
0.1058887185
 40
0.1197972161
 40
0.1268323063
 40
0.1339231101
 40
0.148276441
 40
0.1628689355
 40
0.1702579676
 40
0.1777093912
 40
0.1928001537
 40
0.208144755
 40
0.2237429666
 40
0.2395921785
 40
0.2556875264
 40
0.272022029
 40
0.288586729
 40
0.3053708397
 40
0.3223618943
 40
0.3395458894
 40
0.3569074328
 40
0.374429891
 40
0.3920955304
 40
0.4098856595
 40
0.4277807702
 40
0.4457606765
 40
0.4638046512
 40
0.4818915623
 40
0.5000000088
 40
0.5181084552
 40
0.5361953662
 40
0.5542393407
 40
0.5722192467
 40
0.5901143571
 40
0.6079044858
 40
0.6255701248
 40
0.6430925825
 40
0.6604541254
 40
0.6776381198
 40
0.6946291738
 40
0.7114132838
 40
0.7279779829
 40
0.7443124847
 40
0.7604078319
 40
0.7762570428
 40
0.7918552536
 40
0.8071998541
 40
0.8222906157
 40
0.8297420389
 40
0.8371310706
 40
0.8517235642
 40
0.8660768944
 40
0.8731676977
 40
0.8802027876
 40
0.8941112845
 40
0.9078195298
 40
0.9146050073
 40
0.9213474924
 40
0.9280496545
 40
0.9347143052
 40
0.941344391
 40
0.9479429847
 40
0.9545132756
 40
0.9610585573
 40
0.9675822208
 40
0.974087746
 40
0.980578656
 40
0.9870585534
 40
0.9935311874
 40
1.0
 40
1.0
 40
1.0
 40
1.0
 10
8.0923183383
 20
5.3378028904
 30
0.0
 10
8.0923183383
 20
5.320563591
 30
0.0
 10
8.0929161529
 20
5.2860718242
 30
0.0
 10
8.0956051356
 20
5.2343742581
 30
0.0
 10
8.1000848507
 20
5.1827412782
 30
0.0
 10
8.1063521397
 20
5.131206599
 30
0.0
 10
8.1144026099
 20
5.0798021926
 30
0.0
 10
8.1242308546
 20
5.0285604352
 30
0.0
 10
8.1358301756
 20
4.9775134189
 30
0.0
 10
8.1491926152
 20
4.9266929402
 30
0.0
 10
8.1643092606
 20
4.8761305824
 30
0.0
 10
8.1811699487
 20
4.8258576205
 30
0.0
 10
8.199763409
 20
4.7759049399
 30
0.0
 10
8.2200773605
 20
4.7263033113
 30
0.0
 10
8.2420986892
 20
4.6770824735
 30
0.0
 10
8.2738222068
 20
4.6117866567
 30
0.0
 10
8.3177372587
 20
4.5312363724
 30
0.0
 10
8.3667959112
 20
4.4529307455
 30
0.0
 10
8.4092021955
 20
4.3914098379
 30
0.0
 10
8.4540669357
 20
4.3301816586
 30
0.0
 10
8.5141230702
 20
4.2551704014
 30
0.0
 10
8.578732336
 20
4.1829788001
 30
0.0
 10
8.6333212987
 20
4.1266419814
 30
0.0
 10
8.690308967
 20
4.0708179003
 30
0.0
 10
8.7651434387
 20
4.0029670677
 30
0.0
 10
8.8600302929
 20
3.9251329791
 30
0.0
 10
8.960153188
 20
3.8507213052
 30
0.0
 10
9.0652693503
 20
3.7799062216
 30
0.0
 10
9.1751267305
 20
3.7128517894
 30
0.0
 10
9.2894618934
 20
3.6497140503
 30
0.0
 10
9.4080011823
 20
3.5906399704
 30
0.0
 10
9.530461114
 20
3.5357673555
 30
0.0
 10
9.6565489977
 20
3.485224455
 30
0.0
 10
9.7859635048
 20
3.4391295518
 30
0.0
 10
9.9183953611
 20
3.3975906925
 30
0.0
 10
10.0535280554
 20
3.3607054274
 30
0.0
 10
10.1910385536
 20
3.3285605104
 30
0.0
 10
10.3305980389
 20
3.30123158
 30
0.0
 10
10.4718727197
 20
3.2787830377
 30
0.0
 10
10.6145246259
 20
3.2612678679
 30
0.0
 10
10.7582124126
 20
3.2487274092
 30
0.0
 10
10.902592198
 20
3.2411912511
 30
0.0
 10
11.0473184084
 20
3.2386772081
 30
0.0
 10
11.1920446184
 20
3.2411912554
 30
0.0
 10
11.3364244026
 20
3.2487274191
 30
0.0
 10
11.4801121874
 20
3.2612678829
 30
0.0
 10
11.6227640912
 20
3.2787830561
 30
0.0
 10
11.7640387687
 20
3.301231603
 30
0.0
 10
11.9035982499
 20
3.3285605381
 30
0.0
 10
12.0411087436
 20
3.3607054587
 30
0.0
 10
12.1762414329
 20
3.3975907263
 30
0.0
 10
12.3086732833
 20
3.4391295892
 30
0.0
 10
12.438087784
 20
3.4852244954
 30
0.0
 10
12.5641756614
 20
3.5357673971
 30
0.0
 10
12.6866355862
 20
3.5906400135
 30
0.0
 10
12.8051748675
 20
3.649714095
 30
0.0
 10
12.9195100229
 20
3.7128518345
 30
0.0
 10
13.029367396
 20
3.7799062659
 30
0.0
 10
13.1344835505
 20
3.850721349
 30
0.0
 10
13.2346064378
 20
3.9251330219
 30
0.0
 10
13.3294932849
 20
4.0029671083
 30
0.0
 10
13.404327751
 20
4.0708179387
 30
0.0
 10
13.4613154143
 20
4.1266420183
 30
0.0
 10
13.5159043728
 20
4.1829788348
 30
0.0
 10
13.5805136331
 20
4.2551704337
 30
0.0
 10
13.6405697635
 20
4.3301816873
 30
0.0
 10
13.6854344996
 20
4.3914098645
 30
0.0
 10
13.7278407812
 20
4.4529307693
 30
0.0
 10
13.7768994296
 20
4.5312363932
 30
0.0
 10
13.8208144787
 20
4.611786674
 30
0.0
 10
13.8525379941
 20
4.6770824883
 30
0.0
 10
13.8745593217
 20
4.726303324
 30
0.0
 10
13.8948732718
 20
4.775904951
 30
0.0
 10
13.9134667311
 20
4.8258576298
 30
0.0
 10
13.9303274185
 20
4.8761305901
 30
0.0
 10
13.945444063
 20
4.9266929463
 30
0.0
 10
13.9588065022
 20
4.9775134237
 30
0.0
 10
13.9704058227
 20
5.0285604388
 30
0.0
 10
13.9802340671
 20
5.0798021951
 30
0.0
 10
13.9882845372
 20
5.1312066007
 30
0.0
 10
13.9945518259
 20
5.1827412792
 30
0.0
 10
13.999031541
 20
5.2343742585
 30
0.0
 10
14.0017205237
 20
5.2860718244
 30
0.0
 10
14.0023183383
 20
5.3205635911
 30
0.0
 10
14.0023183383
 20
5.3378028904
 30
0.0
  0
SPLINE
  5
2C8
100
AcDbEntity
  8
0
100
AcDbSpline
 62
7
  6
CONTINUOUS
 70
0
 71
3
 72
21
 73
17
 74
0
 42
0.0000001
 43
0.0000001
 44
0.0000000001
 40
0.0
 40
0.0
 40
0.0
 40
0.0
 40
0.0536592995
 40
0.108663478
 40
0.1650417173
 40
0.2227990759
 40
0.342307425
 40
0.4040159732
 40
0.4669167735
 40
0.5309208172
 40
0.5959259039
 40
0.6618183939
 40
0.7284751065
 40
0.7957648683
 40
0.8635502409
 40
1.0
 40
1.0
 40
1.0
 40
1.0
 10
10.6953467171
 20
7.1718730077
 30
0.0
 10
10.6998294566
 20
7.16655112
 30
0.0
 10
10.7093207699
 20
7.1561158368
 30
0.0
 10
10.7248291161
 20
7.1413434701
 30
0.0
 10
10.7417179849
 20
7.127322616
 30
0.0
 10
10.7662513877
 20
7.1095159725
 30
0.0
 10
10.7930048809
 20
7.093703847
 30
0.0
 10
10.8215278908
 20
7.0799483631
 30
0.0
 10
10.8441194441
 20
7.0705423097
 30
0.0
 10
10.8675780522
 20
7.0622028696
 30
0.0
 10
10.8918052236
 20
7.0549667991
 30
0.0
 10
10.9166970734
 20
7.0488673397
 30
0.0
 10
10.9421470345
 20
7.0439326351
 30
0.0
 10
10.9680476424
 20
7.0401858654
 30
0.0
 10
11.0031023918
 20
7.0367916175
 30
0.0
 10
11.0296276176
 20
7.0360886418
 30
0.0
 10
11.0473183383
 20
7.0364348885
 30
0.0
  0
SPLINE
  5
2C9
100
AcDbEntity
  8
0
100
AcDbSpline
 62
7
  6
CONTINUOUS
 70
0
 71
3
 72
13
 73
9
 74
0
 42
0.0000001
 43
0.0000001
 44
0.0000000001
 40
0.0
 40
0.0
 40
0.0
 40
0.0
 40
0.2570894649
 40
0.384854041
 40
0.511522945
 40
0.6367171199
 40
0.7600859915
 40
1.0
 40
1.0
 40
1.0
 40
1.0
 10
11.0473183383
 20
6.9866262286
 30
0.0
 10
11.0692824125
 20
6.9870541522
 30
0.0
 10
11.1021677693
 20
6.9895790219
 30
0.0
 10
11.1453092739
 20
6.996709208
 30
0.0
 10
11.176966085
 20
7.0038821115
 30
0.0
 10
11.207773324
 20
7.0128485816
 30
0.0
 10
11.2470644636
 20
7.0269833285
 30
0.0
 10
11.2752511989
 20
7.0402776551
 30
0.0
 10
11.2931241043
 20
7.0503192675
 30
0.0
  0
SPLINE
  5
2CA
100
AcDbEntity
  8
0
100
AcDbSpline
 62
7
  6
CONTINUOUS
 70
0
 71
3
 72
21
 73
17
 74
0
 42
0.0000001
 43
0.0000001
 44
0.0000000001
 40
0.0
 40
0.0
 40
0.0
 40
0.0
 40
0.1403439093
 40
0.208726169
 40
0.2758646577
 40
0.4063434803
 40
0.4697809593
 40
0.5320545408
 40
0.5932303034
 40
0.6533931542
 40
0.7126464569
 40
0.7711110204
 40
0.8289233913
 40
0.8862337184
 40
0.9432030628
 40
1.0
 40
1.0
 40
1.0
 40
1.0
 10
11.2931241043
 20
7.0503192675
 30
0.0
 10
11.3053275315
 20
7.0571755723
 30
0.0
 10
11.3230001359
 20
7.068269593
 30
0.0
 10
11.3450622566
 20
7.0847286752
 30
0.0
 10
11.3654277843
 20
7.1017472975
 30
0.0
 10
11.3839668142
 20
7.1201343131
 30
0.0
 10
11.4003526627
 20
7.1397585676
 30
0.0
 10
11.4113620932
 20
7.1548168279
 30
0.0
 10
11.4211659867
 20
7.1703011767
 30
0.0
 10
11.429731903
 20
7.1861627569
 30
0.0
 10
11.4370305398
 20
7.2023504734
 30
0.0
 10
11.4430369601
 20
7.2188122154
 30
0.0
 10
11.4477304329
 20
7.2354945565
 30
0.0
 10
11.451094674
 20
7.2523436055
 30
0.0
 10
11.4531179465
 20
7.2693029283
 30
0.0
 10
11.4535683169
 20
7.2806548356
 30
0.0
 10
11.4535683169
 20
7.2863196364
 30
0.0
  0
SPLINE
  5
2CB
100
AcDbEntity
  8
0
100
AcDbSpline
 62
7
  6
CONTINUOUS
 70
0
 71
3
 72
28
 73
24
 74
0
 42
0.0000001
 43
0.0000001
 44
0.0000000001
 40
0.0
 40
0.0
 40
0.0
 40
0.0
 40
0.0717758711
 40
0.1433044497
 40
0.2142516731
 40
0.2842991612
 40
0.3531545241
 40
0.4205600344
 40
0.4863011609
 40
0.550216067
 40
0.6122043682
 40
0.6722362119
 40
0.7303597688
 40
0.7587553098
 40
0.7867305702
 40
0.8143154961
 40
0.8415452452
 40
0.8684599334
 40
0.8951042583
 40
0.9215269734
 40
0.9477802631
 40
0.9739190182
 40
1.0
 40
1.0
 40
1.0
 40
1.0
 10
11.0473183383
 20
7.0364348885
 30
0.0
 10
11.0606085492
 20
7.0366950075
 30
0.0
 10
11.0871344397
 20
7.0381343114
 30
0.0
 10
11.1265404441
 20
7.0430373815
 30
0.0
 10
11.1651914769
 20
7.0506455447
 30
0.0
 10
11.202715716
 20
7.0608941308
 30
0.0
 10
11.2387550901
 20
7.0736938377
 30
0.0
 10
11.272964986
 20
7.0889312285
 30
0.0
 10
11.3050183665
 20
7.1064705027
 30
0.0
 10
11.3346081941
 20
7.1261542599
 30
0.0
 10
11.3614507778
 20
7.1478065067
 30
0.0
 10
11.3852850695
 20
7.1712297758
 30
0.0
 10
11.4025848855
 20
7.1922187665
 30
0.0
 10
11.4146475441
 20
7.2096693956
 30
0.0
 10
11.4227414086
 20
7.2229558344
 30
0.0
 10
11.4299306049
 20
7.2365088629
 30
0.0
 10
11.4361978035
 20
7.2502971834
 30
0.0
 10
11.4415274068
 20
7.2642884044
 30
0.0
 10
11.4459062431
 20
7.2784496755
 30
0.0
 10
11.4493234473
 20
7.2927475322
 30
0.0
 10
11.4517704694
 20
7.307148421
 30
0.0
 10
11.4532411164
 20
7.3216173618
 30
0.0
 10
11.453568317
 20
7.331291532
 30
0.0
 10
11.4535683169
 20
7.3361216808
 30
0.0
  0
SPLINE
  5
2CC
100
AcDbEntity
  8
0
100
AcDbSpline
 62
7
  6
CONTINUOUS
 70
0
 71
3
 72
28
 73
24
 74
0
 42
0.0000001
 43
0.0000001
 44
0.0000000001
 40
0.0
 40
0.0
 40
0.0
 40
0.0
 40
0.0717723418
 40
0.14329727
 40
0.2142408989
 40
0.2842849977
 40
0.3531373459
 40
0.4205403351
 40
0.4862795798
 40
0.5501933459
 40
0.6121813476
 40
0.6722138095
 40
0.730338937
 40
0.7587356331
 40
0.786712283
 40
0.814298826
 40
0.8415304183
 40
0.8684471686
 40
0.895093746
 40
0.9215188801
 40
0.9477747415
 40
0.9739162081
 40
1.0
 40
1.0
 40
1.0
 40
1.0
 10
11.0473183383
 20
7.0860823795
 30
0.0
 10
11.0606085797
 20
7.0863417696
 30
0.0
 10
11.0871345568
 20
7.0877798566
 30
0.0
 10
11.1265407213
 20
7.0926817918
 30
0.0
 10
11.1651918796
 20
7.1002894668
 30
0.0
 10
11.2027162112
 20
7.1105381727
 30
0.0
 10
11.238755644
 20
7.1233385687
 30
0.0
 10
11.2729655702
 20
7.1385771804
 30
0.0
 10
11.3050189521
 20
7.1561181703
 30
0.0
 10
11.3346087572
 20
7.1758041003
 30
0.0
 10
11.3614512951
 20
7.1974589413
 30
0.0
 10
11.3852855217
 20
7.2208851861
 30
0.0
 10
11.4025851937
 20
7.2418768759
 30
0.0
 10
11.4146477506
 20
7.259329801
 30
0.0
 10
11.4227415803
 20
7.2726180813
 30
0.0
 10
11.4299307424
 20
7.2861730191
 30
0.0
 10
11.4361979091
 20
7.299963315
 30
0.0
 10
11.441527484
 20
7.3139565734
 30
0.0
 10
11.4459062947
 20
7.3281199381
 30
0.0
 10
11.4493234774
 20
7.3424199391
 30
0.0
 10
11.451770483
 20
7.3568230222
 30
0.0
 10
11.4532411198
 20
7.3712942053
 30
0.0
 10
11.4535683169
 20
7.380969885
 30
0.0
 10
11.4535683169
 20
7.3858007977
 30
0.0
  0
SPLINE
  5
2CD
100
AcDbEntity
  8
0
100
AcDbSpline
 62
7
  6
CONTINUOUS
 70
0
 71
3
 72
14
 73
10
 74
0
 42
0.0000001
 43
0.0000001
 44
0.0000000001
 40
0.0
 40
0.0
 40
0.0
 40
0.0
 40
0.1160981731
 40
0.2345260975
 40
0.3554492894
 40
0.4789856916
 40
0.6052092911
 40
0.7341506036
 40
1.0
 40
1.0
 40
1.0
 40
1.0
 10
11.6973183383
 20
6.9305518026
 30
0.0
 10
11.6919937647
 20
6.9399713775
 30
0.0
 10
11.6805060761
 20
6.9585950863
 30
0.0
 10
11.6610915975
 20
6.9854705603
 30
0.0
 10
11.6394021068
 20
7.0114561863
 30
0.0
 10
11.6155206957
 20
7.0364540625
 30
0.0
 10
11.5895344811
 20
7.0603745489
 30
0.0
 10
11.5518378051
 20
7.0910175917
 30
0.0
 10
11.5212445462
 20
7.111648313
 30
0.0
 10
11.4999936099
 20
7.1243881309
 30
0.0
  0
SPLINE
  5
2CE
100
AcDbEntity
  8
0
100
AcDbSpline
 62
7
  6
CONTINUOUS
 70
0
 71
3
 72
14
 73
10
 74
0
 42
0.0000001
 43
0.0000001
 44
0.0000000001
 40
0.0
 40
0.0
 40
0.0
 40
0.0
 40
0.2658493964
 40
0.3947907089
 40
0.5210143084
 40
0.6445507106
 40
0.7654739025
 40
0.8839018269
 40
1.0
 40
1.0
 40
1.0
 40
1.0
 10
10.5946430667
 20
7.1243881309
 30
0.0
 10
10.5733921304
 20
7.111648313
 30
0.0
 10
10.5427988714
 20
7.0910175917
 30
0.0
 10
10.5051021955
 20
7.0603745489
 30
0.0
 10
10.4791159809
 20
7.0364540625
 30
0.0
 10
10.4552345697
 20
7.0114561863
 30
0.0
 10
10.4335450791
 20
6.9854705603
 30
0.0
 10
10.4141306004
 20
6.9585950863
 30
0.0
 10
10.4026429118
 20
6.9399713775
 30
0.0
 10
10.3973183383
 20
6.9305518026
 30
0.0
  0
SPLINE
  5
2CF
100
AcDbEntity
  8
0
100
AcDbSpline
 62
7
  6
CONTINUOUS
 70
0
 71
3
 72
15
 73
11
 74
0
 42
0.0000001
 43
0.0000001
 44
0.0000000001
 40
0.0
 40
0.0
 40
0.0
 40
0.0
 40
0.1222394899
 40
0.2447559009
 40
0.3678167753
 40
0.4916867591
 40
0.6166152966
 40
0.742836027
 40
0.8705671527
 40
1.0
 40
1.0
 40
1.0
 40
1.0
 10
10.3473183383
 20
6.4993526985
 30
0.0
 10
10.3473183383
 20
6.5071964117
 30
0.0
 10
10.347847005
 20
6.5229067059
 30
0.0
 10
10.3502230923
 20
6.5464052629
 30
0.0
 10
10.3541771331
 20
6.5697972926
 30
0.0
 10
10.3596996139
 20
6.5930279181
 30
0.0
 10
10.3667777047
 20
6.6160445288
 30
0.0
 10
10.3753948623
 20
6.6387950708
 30
0.0
 10
10.38553062
 20
6.6612268432
 30
0.0
 10
10.3932313901
 20
6.6758343075
 30
0.0
 10
10.3973183383
 20
6.6830644292
 30
0.0
  0
SPLINE
  5
2D0
100
AcDbEntity
  8
0
100
AcDbSpline
 62
7
  6
CONTINUOUS
 70
0
 71
3
 72
15
 73
11
 74
0
 42
0.0000001
 43
0.0000001
 44
0.0000000001
 40
0.0
 40
0.0
 40
0.0
 40
0.0
 40
0.1294328473
 40
0.257163973
 40
0.3833847034
 40
0.5083132409
 40
0.6321832247
 40
0.7552440991
 40
0.8777605101
 40
1.0
 40
1.0
 40
1.0
 40
1.0
 10
11.6973183383
 20
6.6830644292
 30
0.0
 10
11.7014052865
 20
6.6758343075
 30
0.0
 10
11.7091060565
 20
6.6612268432
 30
0.0
 10
11.7192418143
 20
6.6387950708
 30
0.0
 10
11.7278589718
 20
6.6160445288
 30
0.0
 10
11.7349370627
 20
6.5930279181
 30
0.0
 10
11.7404595435
 20
6.5697972926
 30
0.0
 10
11.7444135843
 20
6.5464052629
 30
0.0
 10
11.7467896716
 20
6.5229067059
 30
0.0
 10
11.7473183383
 20
6.5071964117
 30
0.0
 10
11.7473183383
 20
6.4993526985
 30
0.0
  0
LINE
  5
2D1
100
AcDbEntity
  8
0
100
AcDbLine
 62
7
  6
CONTINUOUS
 10
11.0469013938
 20
6.652149493
 11
11.0471575961
 21
6.6521493613
  0
SPLINE
  5
2D2
100
AcDbEntity
  8
0
100
AcDbSpline
 62
7
  6
CONTINUOUS
 70
0
 71
3
 72
24
 73
20
 74
0
 42
0.0000001
 43
0.0000001
 44
0.0000000001
 40
0.0
 40
0.0
 40
0.0
 40
0.0
 40
0.1422666232
 40
0.2127435589
 40
0.2824057402
 40
0.3510076762
 40
0.4183262722
 40
0.4841668534
 40
0.5483693233
 40
0.610814461
 40
0.6714301661
 40
0.7301976004
 40
0.7871568416
 40
0.8424112313
 40
0.8961297312
 40
0.9224945359
 40
0.9485683029
 40
0.9743895733
 40
1.0
 40
1.0
 40
1.0
 40
1.0
 10
11.0473183383
 20
6.5721132582
 30
0.0
 10
11.0676674646
 20
6.5721132582
 30
0.0
 10
11.0981447586
 20
6.5740119997
 30
0.0
 10
11.1380567146
 20
6.5803554125
 30
0.0
 10
11.1672013191
 20
6.5869457622
 30
0.0
 10
11.1954089101
 20
6.595330987
 30
0.0
 10
11.2224623601
 20
6.6054466154
 30
0.0
 10
11.2481500763
 20
6.6172146283
 30
0.0
 10
11.2722719219
 20
6.6305445867
 30
0.0
 10
11.2946395601
 20
6.6453341832
 30
0.0
 10
11.315077974
 20
6.6614703102
 30
0.0
 10
11.3334263584
 20
6.6788296007
 30
0.0
 10
11.3495395436
 20
6.6972800435
 30
0.0
 10
11.3632874537
 20
6.716678275
 30
0.0
 10
11.3727407855
 20
6.7336210068
 30
0.0
 10
11.3789810598
 20
6.7474714193
 30
0.0
 10
11.3829819259
 20
6.7579331531
 30
0.0
 10
11.3863232298
 20
6.7685101622
 30
0.0
 10
11.3881131893
 20
6.7756511747
 30
0.0
 10
11.3888942737
 20
6.7792301236
 30
0.0
  0
SPLINE
  5
2D3
100
AcDbEntity
  8
0
100
AcDbSpline
 62
7
  6
CONTINUOUS
 70
0
 71
3
 72
21
 73
17
 74
0
 42
0.0000001
 43
0.0000001
 44
0.0000000001
 40
0.0
 40
0.0
 40
0.0
 40
0.0
 40
0.1364555722
 40
0.2042422036
 40
0.2715323009
 40
0.3381885715
 40
0.4040799934
 40
0.4690835438
 40
0.5330857487
 40
0.5959845822
 40
0.6576912198
 40
0.7771966543
 40
0.8349534856
 40
0.891332101
 40
0.9463377969
 40
1.0
 40
1.0
 40
1.0
 40
1.0
 10
11.0473183383
 20
7.0012461346
 30
0.0
 10
11.0296280856
 20
7.0008922782
 30
0.0
 10
11.0031032136
 20
7.0015843463
 30
0.0
 10
10.9680483458
 20
7.0049652849
 30
0.0
 10
10.942147825
 20
7.008702697
 30
0.0
 10
10.9166979197
 20
7.0136286901
 30
0.0
 10
10.8918060929
 20
7.0197201043
 30
0.0
 10
10.867578912
 20
7.0269488168
 30
0.0
 10
10.8441202634
 20
7.0352816067
 30
0.0
 10
10.8215286391
 20
7.0446817394
 30
0.0
 10
10.7930054455
 20
7.058430427
 30
0.0
 10
10.7662517
 20
7.0742372358
 30
0.0
 10
10.7417182277
 20
7.0920400092
 30
0.0
 10
10.7248292005
 20
7.1060588949
 30
0.0
 10
10.7093206989
 20
7.1208301419
 30
0.0
 10
10.6998294278
 20
7.1312651007
 30
0.0
 10
10.6953467171
 20
7.1365869542
 30
0.0
  0
SPLINE
  5
2D4
100
AcDbEntity
  8
0
100
AcDbSpline
 62
7
  6
CONTINUOUS
 70
0
 71
3
 72
27
 73
23
 74
0
 42
0.0000001
 43
0.0000001
 44
0.0000000001
 40
0.0
 40
0.0
 40
0.0
 40
0.0
 40
0.0730380093
 40
0.1456508214
 40
0.2175205726
 40
0.2883419456
 40
0.3578320235
 40
0.4257378672
 40
0.4918444624
 40
0.5559833926
 40
0.6180414892
 40
0.6779698049
 40
0.7357919944
 40
0.7916118526
 40
0.8188382743
 40
0.8456422166
 40
0.8720607067
 40
0.8981358463
 40
0.9239144796
 40
0.9494477168
 40
0.9747903209
 40
1.0
 40
1.0
 40
1.0
 40
1.0
 10
11.0473183383
 20
7.0526159303
 30
0.0
 10
11.0345240171
 20
7.0523593045
 30
0.0
 10
11.0089844644
 20
7.0526989748
 30
0.0
 10
10.9709685606
 20
7.0557608527
 30
0.0
 10
10.9336299734
 20
7.0613402285
 30
0.0
 10
10.89730252
 20
7.0693811376
 30
0.0
 10
10.8623083032
 20
7.0798058437
 30
0.0
 10
10.8289582097
 20
7.0925160346
 30
0.0
 10
10.7975482282
 20
7.1073933945
 30
0.0
 10
10.7683574132
 20
7.1243014163
 30
0.0
 10
10.7416456093
 20
7.1430859301
 30
0.0
 10
10.7176510925
 20
7.1635780852
 30
0.0
 10
10.696591613
 20
7.1855911708
 30
0.0
 10
10.6815192863
 20
7.2052078616
 30
0.0
 10
10.671166149
 20
7.2214441479
 30
0.0
 10
10.6643060565
 20
7.2337676816
 30
0.0
 10
10.658303806
 20
7.2463077849
 30
0.0
 10
10.6531729381
 20
7.2590359204
 30
0.0
 10
10.6489253826
 20
7.2719224756
 30
0.0
 10
10.6455709177
 20
7.2849377914
 30
0.0
 10
10.6431174677
 20
7.2980507827
 30
0.0
 10
10.6420843474
 20
7.3068557655
 30
0.0
 10
10.6417207556
 20
7.3112577303
 30
0.0
  0
SPLINE
  5
2D5
100
AcDbEntity
  8
0
100
AcDbSpline
 62
7
  6
CONTINUOUS
 70
0
 71
3
 72
27
 73
23
 74
0
 42
0.0000001
 43
0.0000001
 44
0.0000000001
 40
0.0
 40
0.0
 40
0.0
 40
0.0
 40
0.0729882503
 40
0.1455540788
 40
0.2173820727
 40
0.2881691292
 40
0.3576342277
 40
0.4255258796
 40
0.491629941
 40
0.5557781651
 40
0.6178567155
 40
0.6778150008
 40
0.7356739737
 40
0.7915335792
 40
0.8187793504
 40
0.8456014641
 40
0.8720361854
 40
0.8981248292
 40
0.9239134503
 40
0.9494523617
 40
0.974795549
 40
1.0
 40
1.0
 40
1.0
 40
1.0
 10
11.0473183383
 20
7.1038556774
 30
0.0
 10
11.0345693699
 20
7.1035994992
 30
0.0
 10
11.0091200024
 20
7.1039340603
 30
0.0
 10
10.9712361437
 20
7.1069703708
 30
0.0
 10
10.9340224731
 20
7.1125067634
 30
0.0
 10
10.8978093509
 20
7.1204880742
 30
0.0
 10
10.8629156076
 20
7.1308376346
 30
0.0
 10
10.8296490611
 20
7.143458501
 30
0.0
 10
10.7983028835
 20
7.1582339696
 30
0.0
 10
10.7691535882
 20
7.1750293586
 30
0.0
 10
10.7424588225
 20
7.193692572
 30
0.0
 10
10.7184549573
 20
7.2140569299
 30
0.0
 10
10.6973582336
 20
7.2359381836
 30
0.0
 10
10.6822302016
 20
7.2554426518
 30
0.0
 10
10.6718168522
 20
7.2715906969
 30
0.0
 10
10.6649045415
 20
7.2838493049
 30
0.0
 10
10.6588426329
 20
7.2963255996
 30
0.0
 10
10.6536447069
 20
7.3089913959
 30
0.0
 10
10.649322721
 20
7.3218174321
 30
0.0
 10
10.6458865625
 20
7.3347744162
 30
0.0
 10
10.6433443213
 20
7.3478316356
 30
0.0
 10
10.6422470707
 20
7.3566023709
 30
0.0
 10
10.6418503926
 20
7.3609878556
 30
0.0
  0
SPLINE
  5
2D6
100
AcDbEntity
  8
0
100
AcDbSpline
 62
9
  6
CONTINUOUS
 70
0
 71
3
 72
28
 73
24
 74
0
 42
0.0000001
 43
0.0000001
 44
0.0000000001
 40
0.0
 40
0.0
 40
0.0
 40
0.0
 40
0.0726338758
 40
0.1449184564
 40
0.2165149474
 40
0.2870999556
 40
0.3563761946
 40
0.4240811627
 40
0.4899962892
 40
0.5539565614
 40
0.6158601463
 40
0.6756779136
 40
0.7334620672
 40
0.7616435369
 40
0.789376848
 40
0.816693785
 40
0.8436316899
 40
0.8702332096
 40
0.8965459382
 40
0.9226218795
 40
0.9485167611
 40
0.9742892393
 40
1.0
 40
1.0
 40
1.0
 40
1.0
 10
11.0473183383
 20
7.9504491684
 30
0.0
 10
11.0340371045
 20
7.9504491684
 30
0.0
 10
11.0075292252
 20
7.9513676474
 30
0.0
 10
10.9681233974
 20
7.9554910107
 30
0.0
 10
10.9294727808
 20
7.9623198236
 30
0.0
 10
10.8919491109
 20
7.9717893317
 30
0.0
 10
10.8559103555
 20
7.9838100938
 30
0.0
 10
10.8217009571
 20
7.9982685793
 30
0.0
 10
10.7896477475
 20
8.0150289254
 30
0.0
 10
10.760057496
 20
8.0339337526
 30
0.0
 10
10.7332135821
 20
8.0548072115
 30
0.0
 10
10.7093768544
 20
8.0774521128
 30
0.0
 10
10.6920641077
 20
8.0977995301
 30
0.0
 10
10.6799937375
 20
8.1147390535
 30
0.0
 10
10.6718992417
 20
8.1276380112
 30
0.0
 10
10.6647093698
 20
8.1408037646
 30
0.0
 10
10.6584414747
 20
8.1542050242
 30
0.0
 10
10.6531111897
 20
8.1678094051
 30
0.0
 10
10.6487317226
 20
8.181584052
 30
0.0
 10
10.6453139775
 20
8.195495488
 30
0.0
 10
10.642866538
 20
8.2095101439
 30
0.0
 10
10.6413956291
 20
8.2235929781
 30
0.0
 10
10.6410683594
 20
8.2330100398
 30
0.0
 10
10.6410683594
 20
8.2377112983
 30
0.0
  0
SPLINE
  5
2D7
100
AcDbEntity
  8
0
100
AcDbSpline
 62
7
  6
CONTINUOUS
 70
0
 71
3
 72
30
 73
26
 74
0
 42
0.0000001
 43
0.0000001
 44
0.0000000001
 40
0.0
 40
0.0
 40
0.0
 40
0.0
 40
0.0260112981
 40
0.0521323257
 40
0.0784141056
 40
0.1049052573
 40
0.1316513607
 40
0.1586943932
 40
0.1860722787
 40
0.213818547
 40
0.2419620604
 40
0.2705268692
 40
0.2995322072
 40
0.3289924859
 40
0.3589172842
 40
0.3893115402
 40
0.4514903337
 40
0.5154997985
 40
0.581232045
 40
0.6485255899
 40
0.7171731788
 40
0.7869299171
 40
0.8575207473
 40
0.9286478154
 40
1.0
 40
1.0
 40
1.0
 40
1.0
 10
11.4530472082
 20
7.2863773341
 30
0.0
 10
11.452721057
 20
7.2816987695
 30
0.0
 10
11.4517609906
 20
7.2723404255
 30
0.0
 10
11.4494087679
 20
7.2583897153
 30
0.0
 10
11.446147812
 20
7.244533697
 30
0.0
 10
11.4419857808
 20
7.2308037864
 30
0.0
 10
11.4369322819
 20
7.217230073
 30
0.0
 10
11.430999058
 20
7.203842466
 30
0.0
 10
11.4241998438
 20
7.1906702944
 30
0.0
 10
11.4165502409
 20
7.1777423941
 30
0.0
 10
11.4080677379
 20
7.1650870104
 30
0.0
 10
11.3987717707
 20
7.1527316744
 30
0.0
 10
11.3886834787
 20
7.1407032206
 30
0.0
 10
11.3778257978
 20
7.1290278482
 30
0.0
 10
11.3662230913
 20
7.1177306038
 30
0.0
 10
11.3496715776
 20
7.1030955732
 30
0.0
 10
11.3272266177
 20
7.0859002203
 30
0.0
 10
11.297991404
 20
7.0673123199
 30
0.0
 10
11.2665095244
 20
7.0507674405
 30
0.0
 10
11.2330650966
 20
7.0364057475
 30
0.0
 10
11.197957143
 20
7.0243468808
 30
0.0
 10
11.1615004126
 20
7.0146907034
 30
0.0
 10
11.1240208316
 20
7.007515948
 30
0.0
 10
11.0858562651
 20
7.0028794131
 30
0.0
 10
11.0601807892
 20
7.0015034209
 30
0.0
 10
11.0473183383
 20
7.0012461346
 30
0.0
  0
SPLINE
  5
2D8
100
AcDbEntity
  8
0
100
AcDbSpline
 62
9
  6
CONTINUOUS
 70
0
 71
3
 72
17
 73
13
 74
0
 42
0.0000001
 43
0.0000001
 44
0.0000000001
 40
0.0
 40
0.0
 40
0.0
 40
0.0
 40
0.1243802532
 40
0.1866292245
 40
0.2489055138
 40
0.3734967697
 40
0.4982832019
 40
0.5608014699
 40
0.6233823512
 40
0.7486657566
 40
0.874208048
 40
1.0
 40
1.0
 40
1.0
 40
1.0
 10
12.2423183383
 20
11.1326322732
 30
0.0
 10
12.2423183383
 20
11.1339974719
 30
0.0
 10
12.2421735305
 20
11.1360497303
 30
0.0
 10
12.2416947334
 20
11.1387410644
 30
0.0
 10
12.2410275444
 20
11.1413948484
 30
0.0
 10
12.2398450431
 20
11.1446173752
 30
0.0
 10
12.2382223477
 20
11.1476452206
 30
0.0
 10
12.2366801811
 20
11.1499156996
 30
0.0
 10
12.2349805271
 20
11.152077696
 30
0.0
 10
12.232575796
 20
11.154554479
 30
0.0
 10
12.2293047416
 20
11.1571019337
 30
0.0
 10
12.2269068315
 20
11.158486682
 30
0.0
 10
12.2256666575
 20
11.1590935452
 30
0.0
  0
SPLINE
  5
2D9
100
AcDbEntity
  8
0
100
AcDbSpline
 62
9
  6
CONTINUOUS
 70
0
 71
3
 72
17
 73
13
 74
0
 42
0.0000001
 43
0.0000001
 44
0.0000000001
 40
0.0
 40
0.0
 40
0.0
 40
0.0
 40
0.1243802749
 40
0.1866292511
 40
0.2489055417
 40
0.3734967908
 40
0.4982832081
 40
0.5608014675
 40
0.6233823407
 40
0.7486657347
 40
0.8742080289
 40
1.0
 40
1.0
 40
1.0
 40
1.0
 10
9.8523183383
 20
11.1326323125
 30
0.0
 10
9.8523183383
 20
11.1339975109
 30
0.0
 10
9.8524631462
 20
11.1360497688
 30
0.0
 10
9.8529419439
 20
11.138741102
 30
0.0
 10
9.8536091337
 20
11.1413948846
 30
0.0
 10
9.8547916364
 20
11.1446174093
 30
0.0
 10
9.8564143338
 20
11.1476452518
 30
0.0
 10
9.8579565022
 20
11.1499157279
 30
0.0
 10
9.8596561582
 20
11.1520777211
 30
0.0
 10
9.8620608921
 20
11.1545544993
 30
0.0
 10
9.86533195
 20
11.1571019471
 30
0.0
 10
9.8677298624
 20
11.1584866899
 30
0.0
 10
9.8689700374
 20
11.1590935504
 30
0.0
  0
SPLINE
  5
2DA
100
AcDbEntity
  8
0
100
AcDbSpline
 62
7
  6
CONTINUOUS
 70
0
 71
3
 72
30
 73
26
 74
0
 42
0.0000001
 43
0.0000001
 44
0.0000000001
 40
0.0
 40
0.0
 40
0.0
 40
0.0
 40
0.0260027922
 40
0.0521204475
 40
0.0784034336
 40
0.1048997595
 40
0.1316543595
 40
0.1587085523
 40
0.1860996132
 40
0.213860443
 40
0.2420193116
 40
0.270599704
 40
0.2996203381
 40
0.3290951709
 40
0.3590333915
 40
0.3894395855
 40
0.451636869
 40
0.5156561897
 40
0.5813888828
 40
0.6486734572
 40
0.7173032972
 40
0.7870346493
 40
0.8575940502
 40
0.928685507
 40
1.0
 40
1.0
 40
1.0
 40
1.0
 10
11.452935273
 20
7.3361906471
 30
0.0
 10
11.4525770111
 20
7.3315294938
 30
0.0
 10
11.45155472
 20
7.3222071729
 30
0.0
 10
11.4491161817
 20
7.3083146334
 30
0.0
 10
11.4457757497
 20
7.2945192169
 30
0.0
 10
11.4415412411
 20
7.2808519755
 30
0.0
 10
11.4364223685
 20
7.2673426456
 30
0.0
 10
11.4304309069
 20
7.2540207987
 30
0.0
 10
11.4235806409
 20
7.2409154096
 30
0.0
 10
11.4158871905
 20
7.2280549564
 30
0.0
 10
11.4073679996
 20
7.2154673518
 30
0.0
 10
11.3980424487
 20
7.2031797921
 30
0.0
 10
11.3879316071
 20
7.1912187733
 30
0.0
 10
11.3770583036
 20
7.1796101626
 30
0.0
 10
11.3654467501
 20
7.1683787089
 30
0.0
 10
11.3488927628
 20
7.1538307707
 30
0.0
 10
11.326461534
 20
7.1367401805
 30
0.0
 10
11.2972655547
 20
7.118267513
 30
0.0
 10
11.2658445686
 20
7.1018270208
 30
0.0
 10
11.2324802114
 20
7.0875570301
 30
0.0
 10
11.197468777
 20
7.0755755961
 30
0.0
 10
11.1611220345
 20
7.0659812188
 30
0.0
 10
11.1237627374
 20
7.0588515673
 30
0.0
 10
11.0857253929
 20
7.054242634
 30
0.0
 10
11.0601370067
 20
7.0528730445
 30
0.0
 10
11.0473183383
 20
7.0526159303
 30
0.0
  0
SPLINE
  5
2DB
100
AcDbEntity
  8
0
100
AcDbSpline
 62
7
  6
CONTINUOUS
 70
0
 71
3
 72
22
 73
18
 74
0
 42
0.0000001
 43
0.0000001
 44
0.0000000001
 40
0.0
 40
0.0
 40
0.0
 40
0.0
 40
0.0582654447
 40
0.1179021363
 40
0.1787798651
 40
0.2407467397
 40
0.3036329952
 40
0.3672544388
 40
0.4314162473
 40
0.4959162098
 40
0.5605481212
 40
0.6251053023
 40
0.6893836496
 40
0.7531851823
 40
0.8163213411
 40
0.878616259
 40
1.0
 40
1.0
 40
1.0
 40
1.0
 10
10.8148097156
 20
7.0832652349
 30
0.0
 10
10.8228852442
 20
7.0790354324
 30
0.0
 10
10.8395347469
 20
7.0710531577
 30
0.0
 10
10.8655256837
 20
7.0606632951
 30
0.0
 10
10.89267878
 20
7.051777235
 30
0.0
 10
10.9208192932
 20
7.0444560729
 30
0.0
 10
10.9497682653
 20
7.0387499999
 30
0.0
 10
10.9793409867
 20
7.034699326
 30
0.0
 10
11.0093488937
 20
7.0323338151
 30
0.0
 10
11.0396005807
 20
7.031672573
 30
0.0
 10
11.069903114
 20
7.0327238877
 30
0.0
 10
11.1000631509
 20
7.0354851201
 30
0.0
 10
11.1298885898
 20
7.0399429063
 30
0.0
 10
11.1591883815
 20
7.046072687
 30
0.0
 10
11.1877789383
 20
7.0538409583
 30
0.0
 10
11.2243762882
 20
7.0662090175
 30
0.0
 10
11.2507284895
 20
7.0779391981
 30
0.0
 10
11.2675064393
 20
7.0868378174
 30
0.0
  0
LINE
  5
2DC
100
AcDbEntity
  8
0
100
AcDbLine
 62
9
  6
CONTINUOUS
 10
12.2298183372
 20
11.159669786
 11
12.2276736646
 21
11.1594117374
  0
SPLINE
  5
2DD
100
AcDbEntity
  8
0
100
AcDbSpline
 62
9
  6
CONTINUOUS
 70
0
 71
3
 72
15
 73
11
 74
0
 42
0.0000001
 43
0.0000001
 44
0.0000000001
 40
0.0
 40
0.0
 40
0.0
 40
0.0
 40
0.1283788669
 40
0.2559039132
 40
0.3824368945
 40
0.5078995783
 40
0.6322857253
 40
0.7556624416
 40
0.878166225
 40
1.0
 40
1.0
 40
1.0
 40
1.0
 10
12.1888868808
 20
11.2364849804
 30
0.0
 10
12.1887270681
 20
11.2326241301
 30
0.0
 10
12.1888824318
 20
11.2248997251
 30
0.0
 10
12.1905496109
 20
11.2134806272
 30
0.0
 10
12.1936228001
 20
11.2024456941
 30
0.0
 10
12.198051309
 20
11.1919835607
 30
0.0
 10
12.2037614046
 20
11.1822711008
 30
0.0
 10
12.2106580643
 20
11.1734731133
 30
0.0
 10
12.2186230846
 20
11.165741055
 30
0.0
 10
12.224573703
 20
11.1613724034
 30
0.0
 10
12.2276729764
 20
11.1594121727
 30
0.0
  0
SPLINE
  5
2DE
100
AcDbEntity
  8
0
100
AcDbSpline
 62
9
  6
CONTINUOUS
 70
0
 71
3
 72
9
 73
5
 74
0
 42
0.0000001
 43
0.0000001
 44
0.0000000001
 40
0.0
 40
0.0
 40
0.0
 40
0.0
 40
0.4992593473
 40
1.0
 40
1.0
 40
1.0
 40
1.0
 10
12.1869662688
 20
11.1590937129
 30
0.0
 10
12.1851755182
 20
11.1592275135
 30
0.0
 10
12.1815827821
 20
11.1594230114
 30
0.0
 10
12.1779842657
 20
11.1594477985
 30
0.0
 10
12.1761835473
 20
11.1594121977
 30
0.0
  0
SPLINE
  5
2DF
100
AcDbEntity
  8
0
100
AcDbSpline
 62
9
  6
CONTINUOUS
 70
0
 71
3
 72
21
 73
17
 74
0
 42
0.0000001
 43
0.0000001
 44
0.0000000001
 40
0.0
 40
0.0
 40
0.0
 40
0.0
 40
0.0105094252
 40
0.0225004706
 40
0.0510283916
 40
0.085709837
 40
0.1265350833
 40
0.1733804156
 40
0.2260865875
 40
0.2844089052
 40
0.3480408708
 40
0.4166535879
 40
0.4898519215
 40
0.64827869
 40
0.8196265185
 40
1.0
 40
1.0
 40
1.0
 40
1.0
 10
12.2256667285
 20
11.1590935133
 30
0.0
 10
12.2255393022
 20
11.1590460514
 30
0.0
 10
12.2252624791
 20
11.1589551177
 30
0.0
 10
12.224624417
 20
11.1587845345
 30
0.0
 10
12.2236684532
 20
11.1585979463
 30
0.0
 10
12.2223345004
 20
11.1584149191
 30
0.0
 10
12.2207582894
 20
11.1582638701
 30
0.0
 10
12.218945684
 20
11.1581451452
 30
0.0
 10
12.2169045995
 20
11.1580604538
 30
0.0
 10
12.2146451801
 20
11.1580098188
 30
0.0
 10
12.2121794576
 20
11.1579933434
 30
0.0
 10
12.2095212873
 20
11.158012325
 30
0.0
 10
12.205637222
 20
11.1580856686
 30
0.0
 10
12.2004260899
 20
11.1582675282
 30
0.0
 10
12.1938341651
 20
11.1586119315
 30
0.0
 10
12.1892935963
 20
11.1589200492
 30
0.0
 10
12.1869662688
 20
11.1590937129
 30
0.0
  0
SPLINE
  5
2E0
100
AcDbEntity
  8
0
100
AcDbSpline
 62
9
  6
CONTINUOUS
 70
0
 71
3
 72
10
 73
6
 74
0
 42
0.0000001
 43
0.0000001
 44
0.0000000001
 40
0.0
 40
0.0
 40
0.0
 40
0.0
 40
0.4692401967
 40
0.7270197154
 40
1.0
 40
1.0
 40
1.0
 40
1.0
 10
12.2276729764
 20
11.1594121727
 30
0.0
 10
12.2273550944
 20
11.1594499327
 30
0.0
 10
12.2268513765
 20
11.1594222319
 30
0.0
 10
12.2261859066
 20
11.1592718921
 30
0.0
 10
12.2258411981
 20
11.1591586377
 30
0.0
 10
12.2256667285
 20
11.1590935133
 30
0.0
  0
SPLINE
  5
2E1
100
AcDbEntity
  8
0
100
AcDbSpline
 62
9
  6
CONTINUOUS
 70
0
 71
3
 72
18
 73
14
 74
0
 42
0.0000001
 43
0.0000001
 44
0.0000000001
 40
0.0
 40
0.0
 40
0.0
 40
0.0
 40
0.1438468143
 40
0.2862510501
 40
0.4250838839
 40
0.5582942163
 40
0.6839665296
 40
0.7434357659
 40
0.8003942927
 40
0.8546684643
 40
0.9061053423
 40
0.954583456
 40
1.0
 40
1.0
 40
1.0
 40
1.0
 10
12.1523183383
 20
11.2364849804
 30
0.0
 10
12.152771939
 20
11.2326109454
 30
0.0
 10
12.1538403447
 20
11.2249200905
 30
0.0
 10
12.1559169894
 20
11.2135787512
 30
0.0
 10
12.1584325958
 20
11.2026217522
 30
0.0
 10
12.1613443467
 20
11.1922335924
 30
0.0
 10
12.1641081107
 20
11.1840502643
 30
0.0
 10
12.1664922774
 20
11.1779327664
 30
0.0
 10
12.168313933
 20
11.1736765991
 30
0.0
 10
12.1701942677
 20
11.1696854389
 30
0.0
 10
12.1721254261
 20
11.1659758033
 30
0.0
 10
12.174099218
 20
11.1625634282
 30
0.0
 10
12.1754839004
 20
11.160425106
 30
0.0
 10
12.1761838014
 20
11.1594118298
 30
0.0
  0
LINE
  5
2E2
100
AcDbEntity
  8
0
100
AcDbLine
 62
9
  6
CONTINUOUS
 10
12.1761838014
 20
11.1594118298
 11
12.1323183383
 21
11.1596697865
  0
LINE
  5
2E3
100
AcDbEntity
  8
0
100
AcDbLine
 62
9
  6
CONTINUOUS
 10
9.9623182466
 20
11.159669786
 11
9.918453165
 21
11.1594117374
  0
SPLINE
  5
2E4
100
AcDbEntity
  8
0
100
AcDbSpline
 62
9
  6
CONTINUOUS
 70
0
 71
3
 72
18
 73
14
 74
0
 42
0.0000001
 43
0.0000001
 44
0.0000000001
 40
0.0
 40
0.0
 40
0.0
 40
0.0
 40
0.1438464172
 40
0.2862502262
 40
0.4250826528
 40
0.5582926633
 40
0.6839648196
 40
0.7434340709
 40
0.8003926936
 40
0.8546670594
 40
0.906104252
 40
0.9545828221
 40
1.0
 40
1.0
 40
1.0
 40
1.0
 10
9.9423183383
 20
11.2364849804
 30
0.0
 10
9.9418647793
 20
11.2326109729
 30
0.0
 10
9.9407964602
 20
11.2249201717
 30
0.0
 10
9.9387199561
 20
11.213578905
 30
0.0
 10
9.9362044872
 20
11.2026219697
 30
0.0
 10
9.9332928572
 20
11.1922338622
 30
0.0
 10
9.9305291732
 20
11.1840505699
 30
0.0
 10
9.9281450504
 20
11.1779330948
 30
0.0
 10
9.9263234141
 20
11.1736769376
 30
0.0
 10
9.9244430853
 20
11.1696857832
 30
0.0
 10
9.9225119168
 20
11.165976149
 30
0.0
 10
9.9205380972
 20
11.1625637707
 30
0.0
 10
9.9191533852
 20
11.1604254488
 30
0.0
 10
9.9184534657
 20
11.1594121727
 30
0.0
  0
SPLINE
  5
2E5
100
AcDbEntity
  8
0
100
AcDbSpline
 62
9
  6
CONTINUOUS
 70
0
 71
3
 72
10
 73
6
 74
0
 42
0.0000001
 43
0.0000001
 44
0.0000000001
 40
0.0
 40
0.0
 40
0.0
 40
0.0
 40
0.2730079516
 40
0.5308023889
 40
1.0
 40
1.0
 40
1.0
 40
1.0
 10
9.8689695169
 20
11.1590937129
 30
0.0
 10
9.8687950697
 20
11.1591588039
 30
0.0
 10
9.8684504105
 20
11.1592719863
 30
0.0
 10
9.8677851003
 20
11.1594221467
 30
0.0
 10
9.8672815524
 20
11.1594499415
 30
0.0
 10
9.8669637869
 20
11.1594121977
 30
0.0
  0
SPLINE
  5
2E6
100
AcDbEntity
  8
0
100
AcDbSpline
 62
9
  6
CONTINUOUS
 70
0
 71
3
 72
21
 73
17
 74
0
 42
0.0000001
 43
0.0000001
 44
0.0000000001
 40
0.0
 40
0.0
 40
0.0
 40
0.0
 40
0.1803790354
 40
0.3517301252
 40
0.510159138
 40
0.583355264
 40
0.6519722037
 40
0.7156084623
 40
0.7739262443
 40
0.8266282956
 40
0.8734756881
 40
0.9142988757
 40
0.9489765836
 40
0.9775003331
 40
0.9894899788
 40
1.0
 40
1.0
 40
1.0
 40
1.0
 10
9.9076682577
 20
11.1590935133
 30
0.0
 10
9.9053409648
 20
11.1589197847
 30
0.0
 10
9.9008004649
 20
11.1586118736
 30
0.0
 10
9.8942086853
 20
11.1582675133
 30
0.0
 10
9.8889977377
 20
11.1580855842
 30
0.0
 10
9.8851137827
 20
11.1580124607
 30
0.0
 10
9.8824556485
 20
11.1579933511
 30
0.0
 10
9.8799899801
 20
11.1580096819
 30
0.0
 10
9.877730717
 20
11.158060447
 30
0.0
 10
9.8756898147
 20
11.1581452807
 30
0.0
 10
9.8738773336
 20
11.1582638758
 30
0.0
 10
9.8723012436
 20
11.158414972
 30
0.0
 10
9.8709674842
 20
11.1585980302
 30
0.0
 10
9.8700116981
 20
11.1587846882
 30
0.0
 10
9.8693737528
 20
11.1589553479
 30
0.0
 10
9.8690969545
 20
11.1590462763
 30
0.0
 10
9.8689695169
 20
11.1590937129
 30
0.0
  0
SPLINE
  5
2E7
100
AcDbEntity
  8
0
100
AcDbSpline
 62
9
  6
CONTINUOUS
 70
0
 71
3
 72
9
 73
5
 74
0
 42
0.0000001
 43
0.0000001
 44
0.0000000001
 40
0.0
 40
0.0
 40
0.0
 40
0.0
 40
0.5007387153
 40
1.0
 40
1.0
 40
1.0
 40
1.0
 10
9.9184534657
 20
11.1594121727
 30
0.0
 10
9.9166523378
 20
11.1594477838
 30
0.0
 10
9.9130529859
 20
11.1594231111
 30
0.0
 10
9.9094594272
 20
11.1592273748
 30
0.0
 10
9.9076682577
 20
11.1590935133
 30
0.0
  0
SPLINE
  5
2E8
100
AcDbEntity
  8
0
100
AcDbSpline
 62
9
  6
CONTINUOUS
 70
0
 71
3
 72
15
 73
11
 74
0
 42
0.0000001
 43
0.0000001
 44
0.0000000001
 40
0.0
 40
0.0
 40
0.0
 40
0.0
 40
0.1283787757
 40
0.2559036647
 40
0.382436449
 40
0.5078989431
 40
0.6322849655
 40
0.7556616923
 40
0.8781656971
 40
1.0
 40
1.0
 40
1.0
 40
1.0
 10
9.9057497958
 20
11.2364849804
 30
0.0
 10
9.9059096231
 20
11.2326241045
 30
0.0
 10
9.9057542816
 20
11.2248996483
 30
0.0
 10
9.9040871135
 20
11.2134804744
 30
0.0
 10
9.901013909
 20
11.2024454726
 30
0.0
 10
9.8965853556
 20
11.1919832813
 30
0.0
 10
9.8908751848
 20
11.1822707771
 30
0.0
 10
9.8839784185
 20
11.1734727614
 30
0.0
 10
9.8760132595
 20
11.1657406922
 30
0.0
 10
9.8700625353
 20
11.1613720521
 30
0.0
 10
9.8669632052
 20
11.1594118298
 30
0.0
  0
LINE
  5
2E9
100
AcDbEntity
  8
0
100
AcDbLine
 62
9
  6
CONTINUOUS
 10
9.8669632052
 20
11.1594118298
 11
9.86481834
 21
11.1596697865
  0
LINE
  5
2EA
100
AcDbEntity
  8
0
100
AcDbLine
 62
9
  6
CONTINUOUS
 10
12.2423183383
 20
11.1326322732
 11
12.2420302482
 21
11.1321537208
  0
SPLINE
  5
2EB
100
AcDbEntity
  8
0
100
AcDbSpline
 62
9
  6
CONTINUOUS
 70
0
 71
3
 72
26
 73
22
 74
0
 42
0.0000001
 43
0.0000001
 44
0.0000000001
 40
0.0
 40
0.0
 40
0.0
 40
0.0
 40
0.0064805069
 40
0.014728064
 40
0.0248613072
 40
0.0369314476
 40
0.0509569594
 40
0.0669346907
 40
0.0848490559
 40
0.1046738617
 40
0.1499134349
 40
0.2023167281
 40
0.2614634996
 40
0.3268645415
 40
0.3979709459
 40
0.4741809428
 40
0.5548468294
 40
0.6392817481
 40
0.8165555504
 40
0.9078922086
 40
1.0
 40
1.0
 40
1.0
 40
1.0
 10
12.2420302482
 20
11.1321537208
 30
0.0
 10
12.2419276761
 20
11.1320747016
 30
0.0
 10
12.2416697264
 20
11.1319280961
 30
0.0
 10
12.2412061652
 20
11.1317478611
 30
0.0
 10
12.2406201207
 20
11.1315816764
 30
0.0
 10
12.239912132
 20
11.1314295676
 30
0.0
 10
12.2390827187
 20
11.131291298
 30
0.0
 10
12.2381333318
 20
11.1311667043
 30
0.0
 10
12.2370657494
 20
11.1310554766
 30
0.0
 10
12.2354133694
 20
11.1309189907
 30
0.0
 10
12.2330695687
 20
11.1307892609
 30
0.0
 10
12.2299382957
 20
11.1306907715
 30
0.0
 10
12.2264029925
 20
11.1306428997
 30
0.0
 10
12.2224937286
 20
11.1306466315
 30
0.0
 10
12.2182439338
 20
11.1307029377
 30
0.0
 10
12.213690078
 20
11.1308110424
 30
0.0
 10
12.2088713108
 20
11.1309717528
 30
0.0
 10
12.2020368544
 20
11.1312634831
 30
0.0
 10
12.194993719
 20
11.1316608102
 30
0.0
 10
12.18780479
 20
11.132173783
 30
0.0
 10
12.1841516463
 20
11.1324719792
 30
0.0
 10
12.1823183383
 20
11.1326323125
 30
0.0
  0
SPLINE
  5
2EC
100
AcDbEntity
  8
0
100
AcDbSpline
 62
9
  6
CONTINUOUS
 70
0
 71
3
 72
32
 73
28
 74
0
 42
0.0000001
 43
0.0000001
 44
0.0000000001
 40
0.0
 40
0.0
 40
0.0
 40
0.0
 40
0.0972952534
 40
0.193661164
 40
0.2881713038
 40
0.3799130886
 40
0.4679984833
 40
0.5515738673
 40
0.6298301056
 40
0.7020116604
 40
0.767425888
 40
0.8254527839
 40
0.8515248395
 40
0.8755565105
 40
0.8974954109
 40
0.917298354
 40
0.9349291041
 40
0.9503646662
 40
0.9635954755
 40
0.9746372554
 40
0.9835435208
 40
0.9872361358
 40
0.9904566334
 40
0.9932514914
 40
0.9956941083
 40
0.9978941973
 40
1.0
 40
1.0
 40
1.0
 40
1.0
 10
9.9123183383
 20
11.1326322732
 30
0.0
 10
9.9103630885
 20
11.1324612281
 30
0.0
 10
9.9064691281
 20
11.1321448697
 30
0.0
 10
9.9006701298
 20
11.1317370108
 30
0.0
 10
9.8949789334
 20
11.1313977881
 30
0.0
 10
9.8894514846
 20
11.1311238094
 30
0.0
 10
9.8841420834
 20
11.1309113528
 30
0.0
 10
9.8791027135
 20
11.1307608981
 30
0.0
 10
9.8743827989
 20
11.130669917
 30
0.0
 10
9.8700284611
 20
11.1306369384
 30
0.0
 10
9.8660821481
 20
11.1306634146
 30
0.0
 10
9.8630667006
 20
11.1307366757
 30
0.0
 10
9.8608872914
 20
11.1308287229
 30
0.0
 10
9.8594362263
 20
11.1309103284
 30
0.0
 10
9.8581128574
 20
11.1310072415
 30
0.0
 10
9.8569203109
 20
11.1311194447
 30
0.0
 10
9.85586127
 20
11.1312468756
 30
0.0
 10
9.8549381083
 20
11.131389734
 30
0.0
 10
9.8541524566
 20
11.1315481597
 30
0.0
 10
9.853505764
 20
11.1317224297
 30
0.0
 10
9.8530576168
 20
11.1318897863
 30
0.0
 10
9.8527741796
 20
11.1320373353
 30
0.0
 10
9.8526103789
 20
11.1321454986
 30
0.0
 10
9.8524816209
 20
11.1322584996
 30
0.0
 10
9.8523880807
 20
11.1323772269
 30
0.0
 10
9.8523308896
 20
11.1325024458
 30
0.0
 10
9.8523183456
 20
11.1325898325
 30
0.0
 10
9.8523183383
 20
11.1326323125
 30
0.0
  0
SPLINE
  5
2ED
100
AcDbEntity
  8
0
100
AcDbSpline
 62
9
  6
CONTINUOUS
 70
0
 71
3
 72
11
 73
7
 74
0
 42
0.0000001
 43
0.0000001
 44
0.0000000001
 40
0.0
 40
0.0
 40
0.0
 40
0.0
 40
0.2442535348
 40
0.4932968161
 40
0.7457425738
 40
1.0
 40
1.0
 40
1.0
 40
1.0
 10
12.1523183383
 20
11.2364849804
 30
0.0
 10
12.150738814
 20
11.2359642374
 30
0.0
 10
12.1475290821
 20
11.2349698793
 30
0.0
 10
12.1425931343
 20
11.2337588101
 30
0.0
 10
12.1375024156
 20
11.2329589313
 30
0.0
 10
12.1340496066
 20
11.2327707454
 30
0.0
 10
12.1323183383
 20
11.2327707428
 30
0.0
  0
SPLINE
  5
2EE
100
AcDbEntity
  8
0
100
AcDbSpline
 62
9
  6
CONTINUOUS
 70
0
 71
3
 72
23
 73
19
 74
0
 42
0.0000001
 43
0.0000001
 44
0.0000000001
 40
0.0
 40
0.0
 40
0.0
 40
0.0
 40
0.039445506
 40
0.080575171
 40
0.1242419111
 40
0.1710919328
 40
0.2215146505
 40
0.2756822293
 40
0.3336239658
 40
0.3952728508
 40
0.4604983389
 40
0.5291310999
 40
0.6009740016
 40
0.6758081815
 40
0.7533954569
 40
0.8334776981
 40
0.9157849075
 40
1.0
 40
1.0
 40
1.0
 40
1.0
 10
12.1888868808
 20
11.2364849804
 30
0.0
 10
12.1885232149
 20
11.2368218747
 30
0.0
 10
12.1877224849
 20
11.2374499728
 30
0.0
 10
12.1863564966
 20
11.238216846
 30
0.0
 10
12.1848151657
 20
11.2388293746
 30
0.0
 10
12.183105265
 20
11.2393017014
 30
0.0
 10
12.1812326574
 20
11.2396515351
 30
0.0
 10
12.1792028727
 20
11.2398908962
 30
0.0
 10
12.1770226705
 20
11.2400289186
 30
0.0
 10
12.1746997529
 20
11.2400726939
 30
0.0
 10
12.1722426441
 20
11.2400237356
 30
0.0
 10
12.1696609552
 20
11.2398800383
 30
0.0
 10
12.1669656115
 20
11.2396348267
 30
0.0
 10
12.1641690674
 20
11.2392791546
 30
0.0
 10
12.1612855993
 20
11.2388015918
 30
0.0
 10
12.1583321538
 20
11.2381863497
 30
0.0
 10
12.1553277273
 20
11.2374217414
 30
0.0
 10
12.1533241536
 20
11.2368143646
 30
0.0
 10
12.1523183383
 20
11.2364849804
 30
0.0
  0
LINE
  5
2EF
100
AcDbEntity
  8
0
100
AcDbLine
 62
9
  6
CONTINUOUS
 10
12.1923183383
 20
11.2327707428
 11
12.1888868808
 21
11.2364849804
  0
LINE
  5
2F0
100
AcDbEntity
  8
0
100
AcDbLine
 62
9
  6
CONTINUOUS
 10
9.9057497958
 20
11.2364849804
 11
9.9023183383
 21
11.2327707428
  0
SPLINE
  5
2F1
100
AcDbEntity
  8
0
100
AcDbSpline
 62
9
  6
CONTINUOUS
 70
0
 71
3
 72
23
 73
19
 74
0
 42
0.0000001
 43
0.0000001
 44
0.0000000001
 40
0.0
 40
0.0
 40
0.0
 40
0.0
 40
0.0842152227
 40
0.1665223115
 40
0.2466044349
 40
0.3241916975
 40
0.3990260238
 40
0.4708689283
 40
0.5395016387
 40
0.6047271846
 40
0.6663760171
 40
0.7243178506
 40
0.7784853801
 40
0.8289076608
 40
0.8757575864
 40
0.9194253054
 40
0.9605559023
 40
1.0
 40
1.0
 40
1.0
 40
1.0
 10
9.9423183383
 20
11.2364849804
 30
0.0
 10
9.9413125398
 20
11.2368144213
 30
0.0
 10
9.939308988
 20
11.2374218782
 30
0.0
 10
9.9363045322
 20
11.2381863773
 30
0.0
 10
9.9333510566
 20
11.2388014522
 30
0.0
 10
9.9304675955
 20
11.2392790412
 30
0.0
 10
9.9276710699
 20
11.2396348671
 30
0.0
 10
9.924975728
 20
11.2398801449
 30
0.0
 10
9.92239403
 20
11.2400236798
 30
0.0
 10
9.9199369256
 20
11.2400726901
 30
0.0
 10
9.9176140025
 20
11.2400289793
 30
0.0
 10
9.9154338106
 20
11.2398907949
 30
0.0
 10
9.9134040293
 20
11.239651487
 30
0.0
 10
9.9115314005
 20
11.239301808
 30
0.0
 10
9.9098214785
 20
11.2388295119
 30
0.0
 10
9.9082801816
 20
11.238216824
 30
0.0
 10
9.9069142466
 20
11.2374498595
 30
0.0
 10
9.9061134804
 20
11.2368218283
 30
0.0
 10
9.9057497958
 20
11.2364849804
 30
0.0
  0
SPLINE
  5
2F2
100
AcDbEntity
  8
0
100
AcDbSpline
 62
7
  6
CONTINUOUS
 70
0
 71
3
 72
15
 73
11
 74
0
 42
0.0000001
 43
0.0000001
 44
0.0000000001
 40
0.0
 40
0.0
 40
0.0
 40
0.0
 40
0.1194658493
 40
0.2397611983
 40
0.3613054336
 40
0.4844883429
 40
0.6096632157
 40
0.7371387843
 40
0.8671809707
 40
1.0
 40
1.0
 40
1.0
 40
1.0
 10
10.6416010742
 20
7.2614801989
 30
0.0
 10
10.6420105778
 20
7.2559920019
 30
0.0
 10
10.6433061165
 20
7.2450071564
 30
0.0
 10
10.6466532122
 20
7.2286837874
 30
0.0
 10
10.6513964829
 20
7.2125309422
 30
0.0
 10
10.6575182677
 20
7.1966086517
 30
0.0
 10
10.6649962117
 20
7.1809739385
 30
0.0
 10
10.6738033664
 20
7.1656826069
 30
0.0
 10
10.6839075588
 20
7.15079019
 30
0.0
 10
10.691403755
 20
7.1412656585
 30
0.0
 10
10.6953467171
 20
7.1365869542
 30
0.0
  0
SPLINE
  5
2F3
100
AcDbEntity
  8
0
100
AcDbSpline
 62
9
  6
CONTINUOUS
 70
0
 71
3
 72
12
 73
8
 74
0
 42
0.0000001
 43
0.0000001
 44
0.0000000001
 40
0.0
 40
0.0
 40
0.0
 40
0.0
 40
0.254240524
 40
0.3808220055
 40
0.5067357315
 40
0.7557611587
 40
1.0
 40
1.0
 40
1.0
 40
1.0
 10
9.9623183383
 20
11.2327707428
 30
0.0
 10
9.9605870626
 20
11.23277074
 30
0.0
 10
9.9579913542
 20
11.2329123567
 30
0.0
 10
9.9545692099
 20
11.2333615924
 30
0.0
 10
9.9512064772
 20
11.2339644957
 30
0.0
 10
9.9471072291
 20
11.2349688733
 30
0.0
 10
9.943897966
 20
11.2359644951
 30
0.0
 10
9.9423183383
 20
11.2364849804
 30
0.0
  0
LINE
  5
2F4
100
AcDbEntity
  8
0
100
AcDbLine
 62
9
  6
CONTINUOUS
 10
12.1823183383
 20
11.1326323125
 11
12.1741367432
 21
11.1337207917
  0
SPLINE
  5
2F5
100
AcDbEntity
  8
0
100
AcDbSpline
 62
9
  6
CONTINUOUS
 70
0
 71
3
 72
10
 73
6
 74
0
 42
0.0000001
 43
0.0000001
 44
0.0000000001
 40
0.0
 40
0.0
 40
0.0
 40
0.0
 40
0.2500040512
 40
0.5000100953
 40
1.0
 40
1.0
 40
1.0
 40
1.0
 10
12.1741367432
 20
11.1337207917
 30
0.0
 10
12.1706595642
 20
11.133997666
 30
0.0
 10
12.1636982354
 20
11.134467161
 30
0.0
 10
12.1497602477
 20
11.1351162445
 30
0.0
 10
12.1392943981
 20
11.1353031632
 30
0.0
 10
12.1323182825
 20
11.1353027994
 30
0.0
  0
SPLINE
  5
2F6
100
AcDbEntity
  8
0
100
AcDbSpline
 62
9
  6
CONTINUOUS
 70
0
 71
3
 72
11
 73
7
 74
0
 42
0.0000001
 43
0.0000001
 44
0.0000000001
 40
0.0
 40
0.0
 40
0.0
 40
0.0
 40
0.2499996067
 40
0.500000645
 40
0.7500012436
 40
1.0
 40
1.0
 40
1.0
 40
1.0
 10
9.9623183993
 20
11.1353027994
 30
0.0
 10
9.9588301981
 20
11.1353027618
 30
0.0
 10
9.951853612
 20
11.1352398314
 30
0.0
 10
9.9413922945
 20
11.1349537411
 30
0.0
 10
9.9309383415
 20
11.1344672925
 30
0.0
 10
9.9239770675
 20
11.1339975535
 30
0.0
 10
9.9204998753
 20
11.133720787
 30
0.0
  0
LINE
  5
2F7
100
AcDbEntity
  8
0
100
AcDbLine
 62
9
  6
CONTINUOUS
 10
9.9204998753
 20
11.133720787
 11
9.9123183383
 21
11.1326322732
  0
SPLINE
  5
2F8
100
AcDbEntity
  8
0
100
AcDbSpline
 62
9
  6
CONTINUOUS
 70
0
 71
3
 72
30
 73
26
 74
0
 42
0.0000001
 43
0.0000001
 44
0.0000000001
 40
0.0
 40
0.0
 40
0.0
 40
0.0
 40
0.0267626826
 40
0.0535664703
 40
0.0804507609
 40
0.1074554948
 40
0.1346185686
 40
0.1619765569
 40
0.1895640089
 40
0.2174132512
 40
0.2455541412
 40
0.2740138723
 40
0.3028168314
 40
0.3319844939
 40
0.361535359
 40
0.3914849278
 40
0.4526136107
 40
0.5154503188
 40
0.5800149798
 40
0.6462855924
 40
0.7142018809
 40
0.7836691922
 40
0.8545625591
 40
0.926730711
 40
1.0
 40
1.0
 40
1.0
 40
1.0
 10
9.6173183383
 20
6.1861043944
 30
0.0
 10
9.6173183383
 20
6.1992590801
 30
0.0
 10
9.6180456483
 20
6.2255944252
 30
0.0
 10
9.6213157732
 20
6.2650220669
 30
0.0
 10
9.6267604696
 20
6.3043298294
 30
0.0
 10
9.6343709203
 20
6.3434555948
 30
0.0
 10
9.6441354064
 20
6.3823399705
 30
0.0
 10
9.6560385951
 20
6.4209232224
 30
0.0
 10
9.6700619715
 20
6.4591463956
 30
0.0
 10
9.6861837055
 20
6.4969511148
 30
0.0
 10
9.704378794
 20
6.5342797447
 30
0.0
 10
9.7246190869
 20
6.5710754358
 30
0.0
 10
9.7468734056
 20
6.6072822743
 30
0.0
 10
9.7711073521
 20
6.6428450847
 30
0.0
 10
9.7972842919
 20
6.6777105275
 30
0.0
 10
9.8349753384
 20
6.7235033361
 30
0.0
 10
9.8868476506
 20
6.7787107507
 30
0.0
 10
9.9557056186
 20
6.8408696591
 30
0.0
 10
10.0311848849
 20
6.8990298172
 30
0.0
 10
10.1128221541
 20
6.952840353
 30
0.0
 10
10.2001224289
 20
7.0019810039
 30
0.0
 10
10.2925555844
 20
7.0461575251
 30
0.0
 10
10.3895627173
 20
7.0851055962
 30
0.0
 10
10.4905516399
 20
7.1185902834
 30
0.0
 10
10.5596733728
 20
7.1370165494
 30
0.0
 10
10.5947251912
 20
7.1452861849
 30
0.0
  0
SPLINE
  5
2F9
100
AcDbEntity
  8
0
100
AcDbSpline
 62
9
  6
CONTINUOUS
 70
0
 71
3
 72
30
 73
26
 74
0
 42
0.0000001
 43
0.0000001
 44
0.0000000001
 40
0.0
 40
0.0
 40
0.0
 40
0.0
 40
0.073269289
 40
0.1454374409
 40
0.2163308078
 40
0.2857981191
 40
0.3537144076
 40
0.4199850202
 40
0.4845496812
 40
0.5473863893
 40
0.6085150722
 40
0.638464641
 40
0.6680155061
 40
0.6971831686
 40
0.7259861277
 40
0.7544458588
 40
0.7825867488
 40
0.8104359911
 40
0.8380234431
 40
0.8653814314
 40
0.8925445052
 40
0.9195492391
 40
0.9464335297
 40
0.9732373174
 40
1.0
 40
1.0
 40
1.0
 40
1.0
 10
11.4999114854
 20
7.1452861849
 30
0.0
 10
11.5349633037
 20
7.1370165494
 30
0.0
 10
11.6040850366
 20
7.1185902834
 30
0.0
 10
11.7050739592
 20
7.0851055962
 30
0.0
 10
11.8020810921
 20
7.0461575251
 30
0.0
 10
11.8945142476
 20
7.0019810039
 30
0.0
 10
11.9818145224
 20
6.952840353
 30
0.0
 10
12.0634517917
 20
6.8990298173
 30
0.0
 10
12.138931058
 20
6.8408696591
 30
0.0
 10
12.2077890259
 20
6.7787107507
 30
0.0
 10
12.2596613381
 20
6.7235033361
 30
0.0
 10
12.2973523847
 20
6.6777105275
 30
0.0
 10
12.3235293245
 20
6.6428450848
 30
0.0
 10
12.3477632709
 20
6.6072822743
 30
0.0
 10
12.3700175896
 20
6.5710754358
 30
0.0
 10
12.3902578826
 20
6.5342797447
 30
0.0
 10
12.4084529711
 20
6.4969511148
 30
0.0
 10
12.424574705
 20
6.4591463956
 30
0.0
 10
12.4385980815
 20
6.4209232224
 30
0.0
 10
12.4505012702
 20
6.3823399705
 30
0.0
 10
12.4602657562
 20
6.3434555948
 30
0.0
 10
12.467876207
 20
6.3043298294
 30
0.0
 10
12.4733209034
 20
6.2650220669
 30
0.0
 10
12.4765910282
 20
6.2255944252
 30
0.0
 10
12.4773183383
 20
6.1992590801
 30
0.0
 10
12.4773183383
 20
6.1861043944
 30
0.0
  0
SPLINE
  5
2FA
100
AcDbEntity
  8
0
100
AcDbSpline
 62
9
  6
CONTINUOUS
 70
0
 71
3
 72
71
 73
67
 74
0
 42
0.0000001
 43
0.0000001
 44
0.0000000001
 40
0.0
 40
0.0
 40
0.0
 40
0.0
 40
0.0128532954
 40
0.0257374239
 40
0.0386827736
 40
0.0517186347
 40
0.0648728787
 40
0.0781714931
 40
0.0916382694
 40
0.1052945328
 40
0.1191589514
 40
0.1332474085
 40
0.1475729371
 40
0.1621457078
 40
0.176973062
 40
0.1920595808
 40
0.2074071811
 40
0.223015233
 40
0.2388806908
 40
0.2549982345
 40
0.271360417
 40
0.2879578155
 40
0.3047791834
 40
0.3218116017
 40
0.3390406295
 40
0.356450452
 40
0.3740240266
 40
0.3917432264
 40
0.4095889815
 40
0.4275414183
 40
0.4455799959
 40
0.4636836424
 40
0.4818308883
 40
0.5
 40
0.5181691117
 40
0.5363163576
 40
0.5544200041
 40
0.5724585817
 40
0.5904110185
 40
0.6082567736
 40
0.6259759734
 40
0.643549548
 40
0.6609593705
 40
0.6781883983
 40
0.6952208166
 40
0.7120421845
 40
0.728639583
 40
0.7450017655
 40
0.7611193092
 40
0.776984767
 40
0.7925928189
 40
0.8079404192
 40
0.823026938
 40
0.8378542922
 40
0.8524270629
 40
0.8667525915
 40
0.8808410486
 40
0.8947054672
 40
0.9083617306
 40
0.9218285069
 40
0.9351271213
 40
0.9482813653
 40
0.9613172264
 40
0.9742625761
 40
0.9871467046
 40
1.0
 40
1.0
 40
1.0
 40
1.0
 10
12.4773183383
 20
6.1861043944
 30
0.0
 10
12.4773183383
 20
6.1695559752
 30
0.0
 10
12.4761663245
 20
6.1364079648
 30
0.0
 10
12.4709886567
 20
6.0868364451
 30
0.0
 10
12.462373782
 20
6.0375048801
 30
0.0
 10
12.450343343
 20
5.9885366116
 30
0.0
 10
12.4349275637
 20
5.9400498693
 30
0.0
 10
12.4161649265
 20
5.8921624334
 30
0.0
 10
12.3941020667
 20
5.8449900114
 30
0.0
 10
12.368793527
 20
5.7986463383
 30
0.0
 10
12.3403015718
 20
5.7532428461
 30
0.0
 10
12.3086959788
 20
5.7088884793
 30
0.0
 10
12.2740538464
 20
5.6656894872
 30
0.0
 10
12.236459397
 20
5.6237492271
 30
0.0
 10
12.1960037781
 20
5.5831679646
 30
0.0
 10
12.1527848554
 20
5.5440426724
 30
0.0
 10
12.1069069954
 20
5.5064668276
 30
0.0
 10
12.0584808368
 20
5.4705302102
 30
0.0
 10
12.0076230466
 20
5.4363187016
 30
0.0
 10
11.9544560612
 20
5.4039140879
 30
0.0
 10
11.8991078109
 20
5.3733938657
 30
0.0
 10
11.8417114282
 20
5.3448310562
 30
0.0
 10
11.7824049411
 20
5.3182940271
 30
0.0
 10
11.7213309512
 20
5.2938463235
 30
0.0
 10
11.6586362996
 20
5.2715465111
 30
0.0
 10
11.5944717197
 20
5.2514480297
 30
0.0
 10
11.5289914794
 20
5.23359906
 30
0.0
 10
11.4623530131
 20
5.2180424027
 30
0.0
 10
11.3947165448
 20
5.2048153713
 30
0.0
 10
11.3262447038
 20
5.1939496987
 30
0.0
 10
11.2571021333
 20
5.185471457
 30
0.0
 10
11.1874550945
 20
5.1794009929
 30
0.0
 10
11.1174710657
 20
5.1757528763
 30
0.0
 10
11.0473183383
 20
5.1745358636
 30
0.0
 10
10.9771656109
 20
5.1757528763
 30
0.0
 10
10.907181582
 20
5.1794009929
 30
0.0
 10
10.8375345433
 20
5.185471457
 30
0.0
 10
10.7683919728
 20
5.1939496987
 30
0.0
 10
10.6999201317
 20
5.2048153713
 30
0.0
 10
10.6322836635
 20
5.2180424027
 30
0.0
 10
10.5656451972
 20
5.23359906
 30
0.0
 10
10.5001649569
 20
5.2514480297
 30
0.0
 10
10.436000377
 20
5.2715465111
 30
0.0
 10
10.3733057254
 20
5.2938463235
 30
0.0
 10
10.3122317355
 20
5.3182940271
 30
0.0
 10
10.2529252483
 20
5.3448310562
 30
0.0
 10
10.1955288657
 20
5.3733938657
 30
0.0
 10
10.1401806154
 20
5.4039140879
 30
0.0
 10
10.08701363
 20
5.4363187016
 30
0.0
 10
10.0361558398
 20
5.4705302102
 30
0.0
 10
9.9877296812
 20
5.5064668276
 30
0.0
 10
9.9418518212
 20
5.5440426724
 30
0.0
 10
9.8986328984
 20
5.5831679646
 30
0.0
 10
9.8581772795
 20
5.6237492271
 30
0.0
 10
9.8205828302
 20
5.6656894872
 30
0.0
 10
9.7859406978
 20
5.7088884793
 30
0.0
 10
9.7543351048
 20
5.7532428461
 30
0.0
 10
9.7258431496
 20
5.7986463383
 30
0.0
 10
9.7005346099
 20
5.8449900114
 30
0.0
 10
9.67847175
 20
5.8921624334
 30
0.0
 10
9.6597091129
 20
5.9400498693
 30
0.0
 10
9.6442933335
 20
5.9885366116
 30
0.0
 10
9.6322628946
 20
6.0375048801
 30
0.0
 10
9.6236480198
 20
6.0868364451
 30
0.0
 10
9.6184703521
 20
6.1364079648
 30
0.0
 10
9.6173183383
 20
6.1695559752
 30
0.0
 10
9.6173183383
 20
6.1861043944
 30
0.0
  0
SPLINE
  5
2FB
100
AcDbEntity
  8
0
100
AcDbSpline
 62
9
  6
CONTINUOUS
 70
0
 71
3
 72
15
 73
11
 74
0
 42
0.0000001
 43
0.0000001
 44
0.0000000001
 40
0.0
 40
0.0
 40
0.0
 40
0.0
 40
0.1233757694
 40
0.2469170935
 40
0.37076922
 40
0.4950919377
 40
0.6200354744
 40
0.7457435788
 40
0.8723548484
 40
1.0
 40
1.0
 40
1.0
 40
1.0
 10
11.7773183383
 20
6.1861043944
 30
0.0
 10
11.7773183383
 20
6.1922789351
 30
0.0
 10
11.7770044664
 20
6.2046385903
 30
0.0
 10
11.7755933517
 20
6.2231481643
 30
0.0
 10
11.773243366
 20
6.2416103142
 30
0.0
 10
11.7699577393
 20
6.2600001757
 30
0.0
 10
11.7657408955
 20
6.2782943131
 30
0.0
 10
11.760598214
 20
6.2964690872
 30
0.0
 10
11.7545366655
 20
6.3145004666
 30
0.0
 10
11.749908225
 20
6.3263595585
 30
0.0
 10
11.7474470503
 20
6.3322546269
 30
0.0
  0
SPLINE
  5
2FC
100
AcDbEntity
  8
0
100
AcDbSpline
 62
9
  6
CONTINUOUS
 70
0
 71
3
 72
15
 73
11
 74
0
 42
0.0000001
 43
0.0000001
 44
0.0000000001
 40
0.0
 40
0.0
 40
0.0
 40
0.0
 40
0.1276451517
 40
0.2542564213
 40
0.3799645257
 40
0.5049080624
 40
0.6292307801
 40
0.7530829066
 40
0.8766242307
 40
1.0
 40
1.0
 40
1.0
 40
1.0
 10
10.3471896271
 20
6.3322546289
 30
0.0
 10
10.3447284523
 20
6.3263595604
 30
0.0
 10
10.3401000117
 20
6.3145004684
 30
0.0
 10
10.334038463
 20
6.2964690887
 30
0.0
 10
10.3288957814
 20
6.2782943144
 30
0.0
 10
10.3246789375
 20
6.2600001767
 30
0.0
 10
10.3213933107
 20
6.241610315
 30
0.0
 10
10.3190433249
 20
6.2231481648
 30
0.0
 10
10.3176322101
 20
6.2046385906
 30
0.0
 10
10.3173183383
 20
6.1922789352
 30
0.0
 10
10.3173183383
 20
6.1861043944
 30
0.0
  0
SPLINE
  5
2FD
100
AcDbEntity
  8
0
100
AcDbSpline
 62
9
  6
CONTINUOUS
 70
0
 71
3
 72
55
 73
51
 74
0
 42
0.0000001
 43
0.0000001
 44
0.0000000001
 40
0.0
 40
0.0
 40
0.0
 40
0.0
 40
0.0128545394
 40
0.0257401214
 40
0.0386867494
 40
0.0517239879
 40
0.0648795923
 40
0.0781795939
 40
0.0916477735
 40
0.1053054608
 40
0.1191713242
 40
0.1332612481
 40
0.1475882672
 40
0.1621625541
 40
0.1769914515
 40
0.1920795409
 40
0.2230295589
 40
0.2388966699
 40
0.255015893
 40
0.2879715697
 40
0.3218221101
 40
0.3564582473
 40
0.3917487237
 40
0.4275449189
 40
0.4636853433
 40
0.5
 40
0.5363146567
 40
0.5724550811
 40
0.6082512763
 40
0.6435417527
 40
0.6781778899
 40
0.7120284303
 40
0.744984107
 40
0.7611033301
 40
0.7769704411
 40
0.807920459
 40
0.8230085485
 40
0.8378374459
 40
0.8524117328
 40
0.8667387519
 40
0.8808286758
 40
0.8946945392
 40
0.9083522265
 40
0.9218204061
 40
0.9351204076
 40
0.9482760121
 40
0.9613132506
 40
0.9742598786
 40
0.9871454606
 40
1.0
 40
1.0
 40
1.0
 40
1.0
 10
10.3173183383
 20
6.1861043944
 30
0.0
 10
10.3173183383
 20
6.1776566616
 30
0.0
 10
10.3179064546
 20
6.1607349396
 30
0.0
 10
10.3205495405
 20
6.135429225
 30
0.0
 10
10.3249474063
 20
6.1102459464
 30
0.0
 10
10.3310887746
 20
6.0852481877
 30
0.0
 10
10.3389583813
 20
6.0604962074
 30
0.0
 10
10.3485364922
 20
6.0360501698
 30
0.0
 10
10.3597993442
 20
6.0119691342
 30
0.0
 10
10.3727190804
 20
5.9883111672
 30
0.0
 10
10.3872639286
 20
5.9651331559
 30
0.0
 10
10.403398247
 20
5.9424907249
 30
0.0
 10
10.4210827267
 20
5.920438067
 30
0.0
 10
10.4402741715
 20
5.8990281084
 30
0.0
 10
10.4609268196
 20
5.8783113967
 30
0.0
 10
10.4905909963
 20
5.8514567571
 30
0.0
 10
10.5227656859
 20
5.8264379494
 30
0.0
 10
10.5570924722
 20
5.8033469661
 30
0.0
 10
10.5935466889
 20
5.7811285079
 30
0.0
 10
10.6419026349
 20
5.7558435117
 30
0.0
 10
10.7033724531
 20
5.7298636752
 30
0.0
 10
10.7681318037
 20
5.7082630407
 30
0.0
 10
10.835559006
 20
5.6912470882
 30
0.0
 10
10.9050106385
 20
5.6789762466
 30
0.0
 10
10.975822704
 20
5.6715668812
 30
0.0
 10
11.0473183383
 20
5.6690892412
 30
0.0
 10
11.1188139726
 20
5.6715668812
 30
0.0
 10
11.1896260381
 20
5.6789762466
 30
0.0
 10
11.2590776706
 20
5.6912470882
 30
0.0
 10
11.3265048728
 20
5.7082630407
 30
0.0
 10
11.3912642234
 20
5.7298636752
 30
0.0
 10
11.4527340417
 20
5.7558435117
 30
0.0
 10
11.5010899877
 20
5.7811285079
 30
0.0
 10
11.5375442043
 20
5.8033469661
 30
0.0
 10
11.5718709907
 20
5.8264379494
 30
0.0
 10
11.6040456802
 20
5.8514567571
 30
0.0
 10
11.6337098569
 20
5.8783113967
 30
0.0
 10
11.654362505
 20
5.8990281084
 30
0.0
 10
11.6735539499
 20
5.920438067
 30
0.0
 10
11.6912384296
 20
5.9424907249
 30
0.0
 10
11.707372748
 20
5.9651331558
 30
0.0
 10
11.7219175962
 20
5.9883111672
 30
0.0
 10
11.7348373323
 20
6.0119691342
 30
0.0
 10
11.7461001844
 20
6.0360501697
 30
0.0
 10
11.7556782952
 20
6.0604962074
 30
0.0
 10
11.7635479019
 20
6.0852481877
 30
0.0
 10
11.7696892702
 20
6.1102459464
 30
0.0
 10
11.774087136
 20
6.135429225
 30
0.0
 10
11.776730222
 20
6.1607349396
 30
0.0
 10
11.7773183383
 20
6.1776566616
 30
0.0
 10
11.7773183383
 20
6.1861043944
 30
0.0
  0
SPLINE
  5
2FE
100
AcDbEntity
  8
0
100
AcDbSpline
 62
9
  6
CONTINUOUS
 70
0
 71
3
 72
38
 73
34
 74
0
 42
0.0000001
 43
0.0000001
 44
0.0000000001
 40
0.0
 40
0.0
 40
0.0
 40
0.0
 40
0.0261152687
 40
0.0522825392
 40
0.0785533567
 40
0.1049775556
 40
0.1316030346
 40
0.1584749841
 40
0.1856354341
 40
0.2131228232
 40
0.2409716718
 40
0.269212342
 40
0.2978708828
 40
0.3269689526
 40
0.3565238091
 40
0.3865483542
 40
0.4170512255
 40
0.4480369242
 40
0.4795059709
 40
0.5114550835
 40
0.5438773702
 40
0.5767625328
 40
0.6100970755
 40
0.6438645174
 40
0.6780456046
 40
0.7126185235
 40
0.7475591106
 40
0.78284106
 40
0.8184361297
 40
0.8543143432
 40
0.8904441888
 40
0.9267928157
 40
1.0
 40
1.0
 40
1.0
 40
1.0
 10
8.1223183383
 20
5.9803363211
 30
0.0
 10
8.1223183383
 20
6.0111817336
 30
0.0
 10
8.1242742192
 20
6.0729517516
 30
0.0
 10
8.1330667708
 20
6.1653742685
 30
0.0
 10
8.1477005662
 20
6.257426117
 30
0.0
 10
8.1681453406
 20
6.3489165161
 30
0.0
 10
8.1943586426
 20
6.4396621328
 30
0.0
 10
8.2262863786
 20
6.5294799433
 30
0.0
 10
8.2638628488
 20
6.618189609
 30
0.0
 10
8.3070110551
 20
6.7056132915
 30
0.0
 10
8.3556429177
 20
6.7915761226
 30
0.0
 10
8.4096595157
 20
6.8759064643
 30
0.0
 10
8.4689513431
 20
6.9584361962
 30
0.0
 10
8.5333985552
 20
7.0390009867
 30
0.0
 10
8.6028712195
 20
7.1174405634
 30
0.0
 10
8.6772295728
 20
7.19359898
 30
0.0
 10
8.7563242871
 20
7.2673248828
 30
0.0
 10
8.8399967475
 20
7.3384717764
 30
0.0
 10
8.9280793444
 20
7.4068982887
 30
0.0
 10
9.0203957778
 20
7.4724684445
 30
0.0
 10
9.1167613948
 20
7.5350519155
 30
0.0
 10
9.216983537
 20
7.5945242762
 30
0.0
 10
9.3208619067
 20
7.6507672492
 30
0.0
 10
9.42818895
 20
7.7036689427
 30
0.0
 10
9.5387502586
 20
7.7531240766
 30
0.0
 10
9.6523249805
 20
7.7990341967
 30
0.0
 10
9.7686862752
 20
7.8413078794
 30
0.0
 10
9.8876016667
 20
7.8798609159
 30
0.0
 10
10.0088338482
 20
7.9146165302
 30
0.0
 10
10.1321398648
 20
7.9455053328
 30
0.0
 10
10.2572764603
 20
7.9724662394
 30
0.0
 10
10.4266085705
 20
8.0031737412
 30
0.0
 10
10.5550226414
 20
8.0200445447
 30
0.0
 10
10.6410674388
 20
8.0285776651
 30
0.0
  0
SPLINE
  5
2FF
100
AcDbEntity
  8
0
100
AcDbSpline
 62
9
  6
CONTINUOUS
 70
0
 71
3
 72
38
 73
34
 74
0
 42
0.0000001
 43
0.0000001
 44
0.0000000001
 40
0.0
 40
0.0
 40
0.0
 40
0.0
 40
0.0732071843
 40
0.1095558112
 40
0.1456856568
 40
0.1815638703
 40
0.21715894
 40
0.2524408894
 40
0.2873814765
 40
0.3219543954
 40
0.3561354826
 40
0.3899029245
 40
0.4232374672
 40
0.4561226298
 40
0.4885449165
 40
0.5204940291
 40
0.5519630758
 40
0.5829487745
 40
0.6134516458
 40
0.6434761909
 40
0.6730310474
 40
0.7021291172
 40
0.730787658
 40
0.7590283282
 40
0.7868771768
 40
0.8143645659
 40
0.8415250159
 40
0.8683969654
 40
0.8950224444
 40
0.9214466433
 40
0.9477174608
 40
0.9738847313
 40
1.0
 40
1.0
 40
1.0
 40
1.0
 10
11.4535692378
 20
8.0285776651
 30
0.0
 10
11.5396140351
 20
8.0200445447
 30
0.0
 10
11.668028106
 20
8.0031737412
 30
0.0
 10
11.8373602163
 20
7.9724662394
 30
0.0
 10
11.9624968117
 20
7.9455053328
 30
0.0
 10
12.0858028283
 20
7.9146165302
 30
0.0
 10
12.2070350098
 20
7.8798609159
 30
0.0
 10
12.3259504013
 20
7.8413078794
 30
0.0
 10
12.442311696
 20
7.7990341967
 30
0.0
 10
12.5558864179
 20
7.7531240766
 30
0.0
 10
12.6664477265
 20
7.7036689427
 30
0.0
 10
12.7737747698
 20
7.6507672492
 30
0.0
 10
12.8776531396
 20
7.5945242762
 30
0.0
 10
12.9778752818
 20
7.5350519155
 30
0.0
 10
13.0742408987
 20
7.4724684445
 30
0.0
 10
13.1665573321
 20
7.4068982887
 30
0.0
 10
13.2546399291
 20
7.3384717764
 30
0.0
 10
13.3383123895
 20
7.2673248828
 30
0.0
 10
13.4174071038
 20
7.19359898
 30
0.0
 10
13.4917654571
 20
7.1174405634
 30
0.0
 10
13.5612381214
 20
7.0390009867
 30
0.0
 10
13.6256853335
 20
6.9584361962
 30
0.0
 10
13.6849771609
 20
6.8759064643
 30
0.0
 10
13.7389937589
 20
6.7915761226
 30
0.0
 10
13.7876256214
 20
6.7056132915
 30
0.0
 10
13.8307738278
 20
6.618189609
 30
0.0
 10
13.8683502979
 20
6.5294799433
 30
0.0
 10
13.900278034
 20
6.4396621328
 30
0.0
 10
13.926491336
 20
6.3489165161
 30
0.0
 10
13.9469361104
 20
6.257426117
 30
0.0
 10
13.9615699058
 20
6.1653742685
 30
0.0
 10
13.9703624574
 20
6.0729517516
 30
0.0
 10
13.9723183383
 20
6.0111817336
 30
0.0
 10
13.9723183383
 20
5.9803363211
 30
0.0
  0
SPLINE
  5
300
100
AcDbEntity
  8
0
100
AcDbSpline
 62
9
  6
CONTINUOUS
 70
0
 71
3
 72
89
 73
85
 74
0
 42
0.0000001
 43
0.0000001
 44
0.0000000001
 40
0.0
 40
0.0
 40
0.0
 40
0.0
 40
0.0064253937
 40
0.0128548553
 40
0.0192919033
 40
0.0257404917
 40
0.0322044116
 40
0.0386873368
 40
0.045192902
 40
0.0517246481
 40
0.0582860046
 40
0.0648802851
 40
0.0715106774
 40
0.0781802295
 40
0.0848918426
 40
0.0916482654
 40
0.1053041027
 40
0.1191680904
 40
0.126183958
 40
0.1332575785
 40
0.1475826616
 40
0.1621549777
 40
0.1695368899
 40
0.1769831286
 40
0.1920691773
 40
0.2074162997
 40
0.2230238653
 40
0.2388888287
 40
0.2550058706
 40
0.2713675437
 40
0.2879644249
 40
0.3047852683
 40
0.321817156
 40
0.3390456472
 40
0.3564549272
 40
0.3740279538
 40
0.3917466013
 40
0.4095918004
 40
0.4275436775
 40
0.4455816927
 40
0.4636847747
 40
0.4818314548
 40
0.5
 40
0.5181685452
 40
0.5363152253
 40
0.5544183073
 40
0.5724563225
 40
0.5904081996
 40
0.6082533987
 40
0.6259720462
 40
0.6435450728
 40
0.6609543528
 40
0.678182844
 40
0.6952147317
 40
0.7120355751
 40
0.7286324563
 40
0.7449941294
 40
0.7611111713
 40
0.7769761347
 40
0.7925837003
 40
0.8079308227
 40
0.8230168714
 40
0.8304631101
 40
0.8378450223
 40
0.8524173384
 40
0.8667424215
 40
0.873816042
 40
0.8808319096
 40
0.8946958973
 40
0.9083517346
 40
0.9151081574
 40
0.9218197705
 40
0.9284893226
 40
0.9351197149
 40
0.9417139954
 40
0.9482753519
 40
0.954807098
 40
0.9613126632
 40
0.9677955884
 40
0.9742595083
 40
0.9807080967
 40
0.9871451447
 40
0.9935746063
 40
1.0
 40
1.0
 40
1.0
 40
1.0
 10
13.9723183383
 20
5.9803363211
 30
0.0
 10
13.9723183383
 20
5.9634145771
 30
0.0
 10
13.971730495
 20
5.9295574379
 30
0.0
 10
13.9690864191
 20
5.8788099557
 30
0.0
 10
13.9646812018
 20
5.8281230243
 30
0.0
 10
13.9585176632
 20
5.7775285478
 30
0.0
 10
13.9505996795
 20
5.7270565365
 30
0.0
 10
13.9409318716
 20
5.67673759
 30
0.0
 10
13.9295202429
 20
5.6266021304
 30
0.0
 10
13.9163717641
 20
5.5766804044
 30
0.0
 10
13.9014943155
 20
5.5270025751
 30
0.0
 10
13.8848970905
 20
5.4775985933
 30
0.0
 10
13.8665900604
 20
5.428498256
 30
0.0
 10
13.8465844317
 20
5.3797312974
 30
0.0
 10
13.824892129
 20
5.3313266007
 30
0.0
 10
13.7936298231
 20
5.267087012
 30
0.0
 10
13.7503357585
 20
5.1878079083
 30
0.0
 10
13.7019606862
 20
5.110720461
 30
0.0
 10
13.6601294617
 20
5.0501317716
 30
0.0
 10
13.6158480176
 20
4.9897965505
 30
0.0
 10
13.5565499028
 20
4.91585085
 30
0.0
 10
13.4927438722
 20
4.8446693949
 30
0.0
 10
13.4388147047
 20
4.7891
 30
0.0
 10
13.3824883191
 20
4.7340087151
 30
0.0
 10
13.3084990225
 20
4.6670274412
 30
0.0
 10
13.2146588942
 20
4.590168684
 30
0.0
 10
13.1156051319
 20
4.5166617156
 30
0.0
 10
13.0115779131
 20
4.4466836949
 30
0.0
 10
12.9028272346
 20
4.3804015285
 30
0.0
 10
12.789614906
 20
4.3179738216
 30
0.0
 10
12.6722132179
 20
4.2595498957
 30
0.0
 10
12.5509045043
 20
4.2052696041
 30
0.0
 10
12.4259804348
 20
4.1552629498
 30
0.0
 10
12.2977413734
 20
4.1096497154
 30
0.0
 10
12.1664956465
 20
4.0685391915
 30
0.0
 10
12.0325588009
 20
4.0320299299
 30
0.0
 10
11.8962528537
 20
4.0002094985
 30
0.0
 10
11.7579055359
 20
3.973154226
 30
0.0
 10
11.6178495043
 20
3.9509289941
 30
0.0
 10
11.4764215289
 20
3.9335871307
 30
0.0
 10
11.3339616862
 20
3.9211702668
 30
0.0
 10
11.1908125445
 20
3.9137082247
 30
0.0
 10
11.0473183383
 20
3.9112188876
 30
0.0
 10
10.9038241321
 20
3.9137082247
 30
0.0
 10
10.7606749903
 20
3.9211702668
 30
0.0
 10
10.6182151477
 20
3.9335871307
 30
0.0
 10
10.4767871723
 20
3.9509289941
 30
0.0
 10
10.3367311406
 20
3.973154226
 30
0.0
 10
10.1983838228
 20
4.0002094985
 30
0.0
 10
10.0620778757
 20
4.0320299299
 30
0.0
 10
9.92814103
 20
4.0685391915
 30
0.0
 10
9.7968953032
 20
4.1096497154
 30
0.0
 10
9.6686562418
 20
4.1552629498
 30
0.0
 10
9.5437321723
 20
4.2052696041
 30
0.0
 10
9.4224234586
 20
4.2595498957
 30
0.0
 10
9.3050217706
 20
4.3179738216
 30
0.0
 10
9.1918094419
 20
4.3804015285
 30
0.0
 10
9.0830587635
 20
4.4466836949
 30
0.0
 10
8.9790315446
 20
4.5166617156
 30
0.0
 10
8.8799777823
 20
4.590168684
 30
0.0
 10
8.7861376541
 20
4.6670274412
 30
0.0
 10
8.7121483574
 20
4.7340087151
 30
0.0
 10
8.6558219719
 20
4.7891
 30
0.0
 10
8.6018928044
 20
4.8446693949
 30
0.0
 10
8.5380867738
 20
4.91585085
 30
0.0
 10
8.478788659
 20
4.9897965505
 30
0.0
 10
8.4345072149
 20
5.0501317716
 30
0.0
 10
8.3926759904
 20
5.110720461
 30
0.0
 10
8.344300918
 20
5.1878079083
 30
0.0
 10
8.3010068534
 20
5.267087012
 30
0.0
 10
8.2697445476
 20
5.3313266007
 30
0.0
 10
8.2480522448
 20
5.3797312974
 30
0.0
 10
8.2280466162
 20
5.428498256
 30
0.0
 10
8.2097395861
 20
5.4775985933
 30
0.0
 10
8.1931423611
 20
5.5270025751
 30
0.0
 10
8.1782649125
 20
5.5766804044
 30
0.0
 10
8.1651164337
 20
5.6266021304
 30
0.0
 10
8.153704805
 20
5.67673759
 30
0.0
 10
8.144036997
 20
5.7270565365
 30
0.0
 10
8.1361190134
 20
5.7775285478
 30
0.0
 10
8.1299554748
 20
5.8281230243
 30
0.0
 10
8.1255502575
 20
5.8788099557
 30
0.0
 10
8.1229061815
 20
5.9295574379
 30
0.0
 10
8.1223183383
 20
5.9634145771
 30
0.0
 10
8.1223183383
 20
5.9803363211
 30
0.0
  0
SPLINE
  5
301
100
AcDbEntity
  8
0
100
AcDbSpline
 62
9
  6
CONTINUOUS
 70
0
 71
3
 72
11
 73
7
 74
0
 42
0.0000001
 43
0.0000001
 44
0.0000000001
 40
0.0
 40
0.0
 40
0.0
 40
0.0
 40
0.2484265757
 40
0.4974885987
 40
0.747812557
 40
1.0
 40
1.0
 40
1.0
 40
1.0
 10
12.5373183383
 20
5.9803363211
 30
0.0
 10
12.5373183383
 20
5.9981487745
 30
0.0
 10
12.5360371749
 20
6.0338323021
 30
0.0
 10
12.5302792119
 20
6.0871853177
 30
0.0
 10
12.5207007962
 20
6.1402599304
 30
0.0
 10
12.5118227382
 20
6.1752148824
 30
0.0
 10
12.506772796
 20
6.1925775101
 30
0.0
  0
SPLINE
  5
302
100
AcDbEntity
  8
0
100
AcDbSpline
 62
9
  6
CONTINUOUS
 70
0
 71
3
 72
11
 73
7
 74
0
 42
0.0000001
 43
0.0000001
 44
0.0000000001
 40
0.0
 40
0.0
 40
0.0
 40
0.0
 40
0.2521874393
 40
0.5025113971
 40
0.7515734216
 40
1.0
 40
1.0
 40
1.0
 40
1.0
 10
9.587863828
 20
6.1925773294
 30
0.0
 10
9.5828138945
 20
6.1752147159
 30
0.0
 10
9.5739358517
 20
6.140259793
 30
0.0
 10
9.5643574525
 20
6.0871852255
 30
0.0
 10
9.5585994995
 20
6.0338322557
 30
0.0
 10
9.5573183383
 20
5.9981487591
 30
0.0
 10
9.5573183383
 20
5.9803363211
 30
0.0
  0
SPLINE
  5
303
100
AcDbEntity
  8
0
100
AcDbSpline
 62
9
  6
CONTINUOUS
 70
0
 71
3
 72
71
 73
67
 74
0
 42
0.0000001
 43
0.0000001
 44
0.0000000001
 40
0.0
 40
0.0
 40
0.0
 40
0.0
 40
0.0128532972
 40
0.0257374276
 40
0.0386827783
 40
0.0517186401
 40
0.0648728843
 40
0.0781714982
 40
0.0916382737
 40
0.1052945366
 40
0.1191589552
 40
0.1332474126
 40
0.1475729415
 40
0.1621457123
 40
0.1769730662
 40
0.1920595845
 40
0.2074071846
 40
0.2230152363
 40
0.2388806941
 40
0.2549982377
 40
0.27136042
 40
0.2879578183
 40
0.304779186
 40
0.3218116041
 40
0.3390406316
 40
0.3564504539
 40
0.3740240283
 40
0.3917432278
 40
0.4095889828
 40
0.4275414193
 40
0.4455799966
 40
0.4636836429
 40
0.4818308886
 40
0.5
 40
0.5181691114
 40
0.5363163571
 40
0.5544200034
 40
0.5724585807
 40
0.5904110172
 40
0.6082567722
 40
0.6259759717
 40
0.6435495461
 40
0.6609593684
 40
0.6781883959
 40
0.695220814
 40
0.7120421817
 40
0.72863958
 40
0.7450017623
 40
0.7611193059
 40
0.7769847637
 40
0.7925928154
 40
0.8079404155
 40
0.8230269338
 40
0.8378542877
 40
0.8524270585
 40
0.8667525874
 40
0.8808410448
 40
0.8947054634
 40
0.9083617263
 40
0.9218285018
 40
0.9351271157
 40
0.9482813599
 40
0.9613172217
 40
0.9742625724
 40
0.9871467028
 40
1.0
 40
1.0
 40
1.0
 40
1.0
 10
9.5573183383
 20
5.9803363211
 30
0.0
 10
9.5573183383
 20
5.9630935601
 30
0.0
 10
9.5585186888
 20
5.9285547191
 30
0.0
 10
9.5639136025
 20
5.8769032692
 30
0.0
 10
9.5728899426
 20
5.8255018438
 30
0.0
 10
9.585425157
 20
5.7744789607
 30
0.0
 10
9.6014877539
 20
5.7239578095
 30
0.0
 10
9.6210376353
 20
5.6740611124
 30
0.0
 10
9.6440262098
 20
5.6249094305
 30
0.0
 10
9.6703966462
 20
5.5766212698
 30
0.0
 10
9.7000840687
 20
5.5293127367
 30
0.0
 10
9.7330157718
 20
5.4830973474
 30
0.0
 10
9.7691114215
 20
5.4380858099
 30
0.0
 10
9.8082832612
 20
5.3943858192
 30
0.0
 10
9.8504363186
 20
5.3521018477
 30
0.0
 10
9.8954686223
 20
5.3113349364
 30
0.0
 10
9.943271427
 20
5.2721824841
 30
0.0
 10
9.9937294523
 20
5.2347380374
 30
0.0
 10
10.0467211358
 20
5.1990910817
 30
0.0
 10
10.1021189038
 20
5.1653268344
 30
0.0
 10
10.159789458
 20
5.1335260443
 30
0.0
 10
10.21959408
 20
5.1037647961
 30
0.0
 10
10.2813889505
 20
5.0761143259
 30
0.0
 10
10.3450254847
 20
5.0506408453
 30
0.0
 10
10.4103506805
 20
5.027405377
 30
0.0
 10
10.4772074799
 20
5.0064636033
 30
0.0
 10
10.545435142
 20
4.9878657262
 30
0.0
 10
10.614869627
 20
4.9716563425
 30
0.0
 10
10.6853439881
 20
4.9578743312
 30
0.0
 10
10.7566887726
 20
4.9465527565
 30
0.0
 10
10.828732429
 20
4.9377187846
 30
0.0
 10
10.9013017201
 20
4.9313936159
 30
0.0
 10
10.9742221408
 20
4.9275924316
 30
0.0
 10
11.0473183383
 20
4.9263243555
 30
0.0
 10
11.1204145358
 20
4.9275924316
 30
0.0
 10
11.1933349564
 20
4.9313936159
 30
0.0
 10
11.2659042476
 20
4.9377187846
 30
0.0
 10
11.337947904
 20
4.9465527565
 30
0.0
 10
11.4092926884
 20
4.9578743312
 30
0.0
 10
11.4797670495
 20
4.9716563425
 30
0.0
 10
11.5492015345
 20
4.9878657262
 30
0.0
 10
11.6174291967
 20
5.0064636033
 30
0.0
 10
11.6842859961
 20
5.027405377
 30
0.0
 10
11.7496111918
 20
5.0506408453
 30
0.0
 10
11.8132477261
 20
5.076114326
 30
0.0
 10
11.8750425966
 20
5.1037647961
 30
0.0
 10
11.9348472185
 20
5.1335260443
 30
0.0
 10
11.9925177728
 20
5.1653268345
 30
0.0
 10
12.0479155407
 20
5.1990910817
 30
0.0
 10
12.1009072243
 20
5.2347380374
 30
0.0
 10
12.1513652496
 20
5.2721824841
 30
0.0
 10
12.1991680543
 20
5.3113349364
 30
0.0
 10
12.244200358
 20
5.3521018477
 30
0.0
 10
12.2863534154
 20
5.3943858192
 30
0.0
 10
12.3255252551
 20
5.4380858099
 30
0.0
 10
12.3616209048
 20
5.4830973474
 30
0.0
 10
12.3945526079
 20
5.5293127367
 30
0.0
 10
12.4242400304
 20
5.5766212698
 30
0.0
 10
12.4506104668
 20
5.6249094305
 30
0.0
 10
12.4735990413
 20
5.6740611124
 30
0.0
 10
12.4931489227
 20
5.7239578095
 30
0.0
 10
12.5092115195
 20
5.7744789607
 30
0.0
 10
12.5217467339
 20
5.8255018438
 30
0.0
 10
12.5307230741
 20
5.8769032692
 30
0.0
 10
12.5361179878
 20
5.9285547191
 30
0.0
 10
12.5373183383
 20
5.9630935601
 30
0.0
 10
12.5373183383
 20
5.9803363211
 30
0.0
  0
SPLINE
  5
304
100
AcDbEntity
  8
0
100
AcDbSpline
 62
9
  6
CONTINUOUS
 70
0
 71
3
 72
55
 73
51
 74
0
 42
0.0000001
 43
0.0000001
 44
0.0000000001
 40
0.0
 40
0.0
 40
0.0
 40
0.0
 40
0.0128545513
 40
0.0257401925
 40
0.0386868162
 40
0.0517240634
 40
0.0648796652
 40
0.0781796618
 40
0.0916478365
 40
0.1053055212
 40
0.1191713843
 40
0.1332613086
 40
0.1475883274
 40
0.1621626125
 40
0.176991507
 40
0.1920795938
 40
0.2230296094
 40
0.2388967183
 40
0.2550159382
 40
0.2879716073
 40
0.3218221431
 40
0.3564582764
 40
0.3917487445
 40
0.427544932
 40
0.4636853509
 40
0.5
 40
0.5363146491
 40
0.572455068
 40
0.6082512555
 40
0.6435417236
 40
0.6781778569
 40
0.7120283927
 40
0.7449840618
 40
0.7611032817
 40
0.7769703906
 40
0.8079204062
 40
0.823008493
 40
0.8378373875
 40
0.8524116726
 40
0.8667386914
 40
0.8808286157
 40
0.8946944788
 40
0.9083521635
 40
0.9218203382
 40
0.9351203348
 40
0.9482759366
 40
0.9613131838
 40
0.9742598075
 40
0.9871454487
 40
1.0
 40
1.0
 40
1.0
 40
1.0
 10
10.3473183383
 20
6.2073175979
 30
0.0
 10
10.3473183383
 20
6.1992170246
 30
0.0
 10
10.3478822969
 20
6.1829906717
 30
0.0
 10
10.3504167593
 20
6.1587248749
 30
0.0
 10
10.3546339193
 20
6.1345764898
 30
0.0
 10
10.360522902
 20
6.1106060353
 30
0.0
 10
10.368069108
 20
6.0868712612
 30
0.0
 10
10.3772535996
 20
6.0634298646
 30
0.0
 10
10.3880535992
 20
6.0403384712
 30
0.0
 10
10.4004423999
 20
6.0176527619
 30
0.0
 10
10.4143895236
 20
5.9954272793
 30
0.0
 10
10.4298607925
 20
5.9737153628
 30
0.0
 10
10.4468185131
 20
5.9525689804
 30
0.0
 10
10.4652212655
 20
5.9320388848
 30
0.0
 10
10.4850251712
 20
5.9121735479
 30
0.0
 10
10.5134702722
 20
5.8864225306
 30
0.0
 10
10.5443227273
 20
5.8624319171
 30
0.0
 10
10.5772388245
 20
5.8402898887
 30
0.0
 10
10.6121949151
 20
5.8189845213
 30
0.0
 10
10.6585636153
 20
5.7947386269
 30
0.0
 10
10.7175072709
 20
5.7698264649
 30
0.0
 10
10.7796052792
 20
5.749113565
 30
0.0
 10
10.8442614845
 20
5.7327968911
 30
0.0
 10
10.9108589235
 20
5.7210303103
 30
0.0
 10
10.9787608938
 20
5.7139254596
 30
0.0
 10
11.0473183383
 20
5.7115496646
 30
0.0
 10
11.1158757827
 20
5.7139254596
 30
0.0
 10
11.1837777531
 20
5.7210303103
 30
0.0
 10
11.2503751921
 20
5.7327968911
 30
0.0
 10
11.3150313974
 20
5.749113565
 30
0.0
 10
11.3771294056
 20
5.7698264649
 30
0.0
 10
11.4360730613
 20
5.7947386269
 30
0.0
 10
11.4824417615
 20
5.8189845213
 30
0.0
 10
11.5173978521
 20
5.8402898887
 30
0.0
 10
11.5503139493
 20
5.8624319171
 30
0.0
 10
11.5811664044
 20
5.8864225306
 30
0.0
 10
11.6096115054
 20
5.9121735479
 30
0.0
 10
11.629415411
 20
5.9320388848
 30
0.0
 10
11.6478181635
 20
5.9525689804
 30
0.0
 10
11.6647758841
 20
5.9737153628
 30
0.0
 10
11.680247153
 20
5.9954272793
 30
0.0
 10
11.6941942767
 20
6.0176527619
 30
0.0
 10
11.7065830773
 20
6.0403384712
 30
0.0
 10
11.717383077
 20
6.0634298646
 30
0.0
 10
11.7265675685
 20
6.0868712612
 30
0.0
 10
11.7341137745
 20
6.1106060353
 30
0.0
 10
11.7400027573
 20
6.1345764898
 30
0.0
 10
11.7442199173
 20
6.1587248749
 30
0.0
 10
11.7467543797
 20
6.1829906717
 30
0.0
 10
11.7473183383
 20
6.1992170246
 30
0.0
 10
11.7473183383
 20
6.2073175979
 30
0.0
  0
SPLINE
  5
305
100
AcDbEntity
  8
0
100
AcDbSpline
 62
9
  6
CONTINUOUS
 70
0
 71
3
 72
22
 73
18
 74
0
 42
0.0000001
 43
0.0000001
 44
0.0000000001
 40
0.0
 40
0.0
 40
0.0
 40
0.0
 40
0.0076731022
 40
0.0173430852
 40
0.0289758394
 40
0.0425289283
 40
0.075225783
 40
0.1150444939
 40
0.1615587536
 40
0.2143684951
 40
0.273075014
 40
0.3372918033
 40
0.4066437117
 40
0.4807281924
 40
0.6414468244
 40
0.8159030204
 40
1.0
 40
1.0
 40
1.0
 40
1.0
 10
10.5363761255
 20
9.0483465832
 30
0.0
 10
10.5364514094
 20
9.0483256959
 30
0.0
 10
10.5366246845
 20
9.0482899968
 30
0.0
 10
10.5369169655
 20
9.0482493878
 30
0.0
 10
10.5372702951
 20
9.0482150904
 30
0.0
 10
10.5378582839
 20
9.0481743053
 30
0.0
 10
10.5387340716
 20
9.0481391134
 30
0.0
 10
10.5399457448
 20
9.0481121824
 30
0.0
 10
10.5413624186
 20
9.0480951428
 30
0.0
 10
10.5429714581
 20
9.0480848656
 30
0.0
 10
10.544760771
 20
9.0480793463
 30
0.0
 10
10.5467185219
 20
9.0480773754
 30
0.0
 10
10.5488328529
 20
9.0480786638
 30
0.0
 10
10.5519297589
 20
9.0480859176
 30
0.0
 10
10.556096809
 20
9.0481093814
 30
0.0
 10
10.5613836461
 20
9.0481788728
 30
0.0
 10
10.5650333994
 20
9.0482763289
 30
0.0
 10
10.5669065134
 20
9.0483478866
 30
0.0
  0
SPLINE
  5
306
100
AcDbEntity
  8
0
100
AcDbSpline
 62
9
  6
CONTINUOUS
 70
0
 71
3
 72
15
 73
11
 74
0
 42
0.0000001
 43
0.0000001
 44
0.0000000001
 40
0.0
 40
0.0
 40
0.0
 40
0.0
 40
0.1244753455
 40
0.2490533614
 40
0.3737695276
 40
0.4986555993
 40
0.6237374741
 40
0.7490079234
 40
0.8744422696
 40
1.0
 40
1.0
 40
1.0
 40
1.0
 10
10.5669065134
 20
9.0483478866
 30
0.0
 10
10.5699855475
 20
9.048465599
 30
0.0
 10
10.5761439607
 20
9.048759632
 30
0.0
 10
10.5853796064
 20
9.0493168926
 30
0.0
 10
10.5946219669
 20
9.0499277813
 30
0.0
 10
10.6038770472
 20
9.0505352999
 30
0.0
 10
10.6131488968
 20
9.0510960606
 30
0.0
 10
10.6224392516
 20
9.0515709217
 30
0.0
 10
10.6317467349
 20
9.0519283601
 30
0.0
 10
10.6379583896
 20
9.0520753708
 30
0.0
 10
10.6410660851
 20
9.0521240668
 30
0.0
  0
SPLINE
  5
307
100
AcDbEntity
  8
0
100
AcDbSpline
 62
9
  6
CONTINUOUS
 70
0
 71
3
 72
32
 73
28
 74
0
 42
0.0000001
 43
0.0000001
 44
0.0000000001
 40
0.0
 40
0.0
 40
0.0
 40
0.0
 40
0.0000765459
 40
0.0003137558
 40
0.000711341
 40
0.0012689236
 40
0.0028625284
 40
0.0050914512
 40
0.007952566
 40
0.0114427475
 40
0.015558873
 40
0.0202978231
 40
0.0316317337
 40
0.0454195831
 40
0.0616287635
 40
0.0802051107
 40
0.101090846
 40
0.1242283261
 40
0.1770282731
 40
0.2380189472
 40
0.3062931444
 40
0.3809014823
 40
0.460915005
 40
0.5454404434
 40
0.6335906559
 40
0.8161537904
 40
1.0
 40
1.0
 40
1.0
 40
1.0
 10
10.529327814
 20
9.0521953749
 30
0.0
 10
10.5293278087
 20
9.0521955807
 30
0.0
 10
10.5293289718
 20
9.0521943527
 30
0.0
 10
10.5293300776
 20
9.0521939917
 30
0.0
 10
10.5293329486
 20
9.0521917063
 30
0.0
 10
10.5293383567
 20
9.0521879681
 30
0.0
 10
10.52934803
 20
9.0521808896
 30
0.0
 10
10.5293625495
 20
9.0521704707
 30
0.0
 10
10.5293812892
 20
9.0521569462
 30
0.0
 10
10.529404127
 20
9.0521405202
 30
0.0
 10
10.5294310914
 20
9.0521211518
 30
0.0
 10
10.5294752149
 20
9.0520895317
 30
0.0
 10
10.529540561
 20
9.0520428748
 30
0.0
 10
10.5296311623
 20
9.0519785163
 30
0.0
 10
10.5297378365
 20
9.0519031567
 30
0.0
 10
10.5298603645
 20
9.0518171626
 30
0.0
 10
10.5299984674
 20
9.051720933
 30
0.0
 10
10.5302126146
 20
9.0515728757
 30
0.0
 10
10.5305167045
 20
9.0513652927
 30
0.0
 10
10.5309234236
 20
9.0510928104
 30
0.0
 10
10.5313824677
 20
9.0507931317
 30
0.0
 10
10.5318889135
 20
9.0504725863
 30
0.0
 10
10.5324382938
 20
9.0501383204
 30
0.0
 10
10.5330268403
 20
9.0497986574
 30
0.0
 10
10.5338674552
 20
9.0493447646
 30
0.0
 10
10.5349714132
 20
9.0488180533
 30
0.0
 10
10.535899889
 20
9.0484791363
 30
0.0
 10
10.5363761255
 20
9.0483465832
 30
0.0
  0
SPLINE
  5
308
100
AcDbEntity
  8
0
100
AcDbSpline
 62
9
  6
CONTINUOUS
 70
0
 71
3
 72
55
 73
51
 74
0
 42
0.0000001
 43
0.0000001
 44
0.0000000001
 40
0.0
 40
0.0
 40
0.0
 40
0.0
 40
0.0128545513
 40
0.0257401925
 40
0.0386868162
 40
0.0517240635
 40
0.0648796652
 40
0.0781796618
 40
0.0916478365
 40
0.1053055213
 40
0.1191713843
 40
0.1332613086
 40
0.1475883274
 40
0.1621626125
 40
0.1769915071
 40
0.1920795938
 40
0.2230296094
 40
0.2388967183
 40
0.2550159382
 40
0.2879716073
 40
0.3218221431
 40
0.3564582764
 40
0.3917487445
 40
0.427544932
 40
0.4636853509
 40
0.5
 40
0.5363146491
 40
0.572455068
 40
0.6082512555
 40
0.6435417236
 40
0.6781778569
 40
0.7120283927
 40
0.7449840618
 40
0.7611032817
 40
0.7769703906
 40
0.8079204062
 40
0.8230084929
 40
0.8378373875
 40
0.8524116726
 40
0.8667386914
 40
0.8808286157
 40
0.8946944787
 40
0.9083521635
 40
0.9218203382
 40
0.9351203348
 40
0.9482759365
 40
0.9613131838
 40
0.9742598075
 40
0.9871454487
 40
1.0
 40
1.0
 40
1.0
 40
1.0
 10
11.7473183383
 20
6.3374252456
 30
0.0
 10
11.7473183383
 20
6.3293246724
 30
0.0
 10
11.7467543797
 20
6.3130983194
 30
0.0
 10
11.7442199173
 20
6.2888325227
 30
0.0
 10
11.7400027573
 20
6.2646841375
 30
0.0
 10
11.7341137745
 20
6.240713683
 30
0.0
 10
11.7265675685
 20
6.2169789089
 30
0.0
 10
11.717383077
 20
6.1935375123
 30
0.0
 10
11.7065830773
 20
6.1704461189
 30
0.0
 10
11.6941942766
 20
6.1477604096
 30
0.0
 10
11.680247153
 20
6.1255349269
 30
0.0
 10
11.6647758841
 20
6.1038230105
 30
0.0
 10
11.6478181634
 20
6.0826766281
 30
0.0
 10
11.629415411
 20
6.0621465325
 30
0.0
 10
11.6096115053
 20
6.0422811956
 30
0.0
 10
11.5811664044
 20
6.0165301783
 30
0.0
 10
11.5503139492
 20
5.9925395649
 30
0.0
 10
11.517397852
 20
5.9703975364
 30
0.0
 10
11.4824417615
 20
5.949092169
 30
0.0
 10
11.4360730612
 20
5.9248462746
 30
0.0
 10
11.3771294056
 20
5.8999341126
 30
0.0
 10
11.3150313974
 20
5.8792212127
 30
0.0
 10
11.2503751921
 20
5.8629045388
 30
0.0
 10
11.1837777531
 20
5.851137958
 30
0.0
 10
11.1158757827
 20
5.8440331073
 30
0.0
 10
11.0473183383
 20
5.8416573123
 30
0.0
 10
10.9787608938
 20
5.8440331073
 30
0.0
 10
10.9108589235
 20
5.851137958
 30
0.0
 10
10.8442614845
 20
5.8629045388
 30
0.0
 10
10.7796052792
 20
5.8792212127
 30
0.0
 10
10.717507271
 20
5.8999341126
 30
0.0
 10
10.6585636153
 20
5.9248462746
 30
0.0
 10
10.6121949151
 20
5.949092169
 30
0.0
 10
10.5772388245
 20
5.9703975364
 30
0.0
 10
10.5443227273
 20
5.9925395649
 30
0.0
 10
10.5134702722
 20
6.0165301783
 30
0.0
 10
10.4850251712
 20
6.0422811956
 30
0.0
 10
10.4652212656
 20
6.0621465325
 30
0.0
 10
10.4468185131
 20
6.0826766281
 30
0.0
 10
10.4298607925
 20
6.1038230105
 30
0.0
 10
10.4143895236
 20
6.125534927
 30
0.0
 10
10.4004423999
 20
6.1477604096
 30
0.0
 10
10.3880535993
 20
6.1704461189
 30
0.0
 10
10.3772535996
 20
6.1935375123
 30
0.0
 10
10.368069108
 20
6.2169789089
 30
0.0
 10
10.360522902
 20
6.240713683
 30
0.0
 10
10.3546339193
 20
6.2646841375
 30
0.0
 10
10.3504167593
 20
6.2888325227
 30
0.0
 10
10.3478822969
 20
6.3130983194
 30
0.0
 10
10.3473183383
 20
6.3293246724
 30
0.0
 10
10.3473183383
 20
6.3374252456
 30
0.0
  0
SPLINE
  5
309
100
AcDbEntity
  8
0
100
AcDbSpline
 62
9
  6
CONTINUOUS
 70
0
 71
3
 72
32
 73
28
 74
0
 42
0.0000001
 43
0.0000001
 44
0.0000000001
 40
0.0
 40
0.0
 40
0.0
 40
0.0
 40
0.1842634771
 40
0.3663619147
 40
0.4544131986
 40
0.5390745321
 40
0.6192676947
 40
0.6939050255
 40
0.7620582965
 40
0.8229183211
 40
0.8756935378
 40
0.8988528706
 40
0.919770385
 40
0.93837882
 40
0.9546108225
 40
0.9684041506
 40
0.9797290661
 40
0.984460495
 40
0.9885683684
 40
0.9920505306
 40
0.9949048225
 40
0.9971290814
 40
0.9987211415
 40
0.9992794195
 40
0.9996788346
 40
0.9999191162
 40
1.0
 40
1.0
 40
1.0
 40
1.0
 10
11.5582586284
 20
9.0483478023
 30
0.0
 10
11.5587362246
 20
9.0484800272
 30
0.0
 10
11.5596664993
 20
9.0488143689
 30
0.0
 10
11.5607690741
 20
9.0493441566
 30
0.0
 10
11.5616078238
 20
9.0497993832
 30
0.0
 10
11.5621974199
 20
9.0501386446
 30
0.0
 10
11.5627485309
 20
9.0504720972
 30
0.0
 10
11.5632556507
 20
9.0507922581
 30
0.0
 10
11.5637140478
 20
9.0510920427
 30
0.0
 10
11.5641198012
 20
9.051364808
 30
0.0
 10
11.5644234952
 20
9.0515724641
 30
0.0
 10
11.5646377609
 20
9.0517205793
 30
0.0
 10
11.564776124
 20
9.0518168984
 30
0.0
 10
11.5648989284
 20
9.0519029571
 30
0.0
 10
11.5650058165
 20
9.0519783411
 30
0.0
 10
11.5650965153
 20
9.0520426917
 30
0.0
 10
11.5651618594
 20
9.0520893266
 30
0.0
 10
11.5652059285
 20
9.0521209297
 30
0.0
 10
11.5652328323
 20
9.0521402784
 30
0.0
 10
11.5652556043
 20
9.052156717
 30
0.0
 10
11.5652742741
 20
9.0521702074
 30
0.0
 10
11.56528874
 20
9.0521807732
 30
0.0
 10
11.565298351
 20
9.0521876546
 30
0.0
 10
11.5653037451
 20
9.0521917703
 30
0.0
 10
11.5653065719
 20
9.0521935692
 30
0.0
 10
11.5653077234
 20
9.0521949117
 30
0.0
 10
11.5653088403
 20
9.0521952288
 30
0.0
 10
11.5653088355
 20
9.0521954463
 30
0.0
  0
SPLINE
  5
30A
100
AcDbEntity
  8
0
100
AcDbSpline
 62
9
  6
CONTINUOUS
 70
0
 71
3
 72
14
 73
10
 74
0
 42
0.0000001
 43
0.0000001
 44
0.0000000001
 40
0.0
 40
0.0
 40
0.0
 40
0.0
 40
0.250987436
 40
0.3762557728
 40
0.5013378545
 40
0.626229422
 40
0.75094156
 40
0.8755153102
 40
1.0
 40
1.0
 40
1.0
 40
1.0
 10
11.453570615
 20
9.0521242514
 30
0.0
 10
11.4597824675
 20
9.0520266614
 30
0.0
 10
11.4690928309
 20
9.0517304193
 30
0.0
 10
11.4814862009
 20
9.0510967431
 30
0.0
 10
11.4907575887
 20
9.0505353293
 30
0.0
 10
11.5000121149
 20
9.0499272439
 30
0.0
 10
11.5092539868
 20
9.0493181959
 30
0.0
 10
11.5184890856
 20
9.0487608015
 30
0.0
 10
11.5246471459
 20
9.0484641517
 30
0.0
 10
11.5277262371
 20
9.0483466251
 30
0.0
  0
SPLINE
  5
30B
100
AcDbEntity
  8
0
100
AcDbSpline
 62
9
  6
CONTINUOUS
 70
0
 71
3
 72
22
 73
18
 74
0
 42
0.0000001
 43
0.0000001
 44
0.0000000001
 40
0.0
 40
0.0
 40
0.0
 40
0.0
 40
0.1840996034
 40
0.3585342582
 40
0.519228878
 40
0.5933191847
 40
0.6626863721
 40
0.7269188664
 40
0.7856319475
 40
0.8384316412
 40
0.8849217516
 40
0.9247202499
 40
0.9574071464
 40
0.9709626534
 40
0.9826067345
 40
0.9922977696
 40
1.0
 40
1.0
 40
1.0
 40
1.0
 10
11.5277262371
 20
9.0483466251
 30
0.0
 10
11.529599509
 20
9.0482751667
 30
0.0
 10
11.5332493439
 20
9.0481784685
 30
0.0
 10
11.5385361222
 20
9.0481105856
 30
0.0
 10
11.5427030502
 20
9.0480875732
 30
0.0
 10
11.5458001346
 20
9.0480794847
 30
0.0
 10
11.5479149832
 20
9.0480772761
 30
0.0
 10
11.5498732502
 20
9.048078341
 30
0.0
 10
11.5516628109
 20
9.0480833352
 30
0.0
 10
11.5532716793
 20
9.0480936024
 30
0.0
 10
11.5546878908
 20
9.0481110883
 30
0.0
 10
11.5558990794
 20
9.0481386793
 30
0.0
 10
11.5567746185
 20
9.0481745177
 30
0.0
 10
11.5573626536
 20
9.0482157716
 30
0.0
 10
11.557716335
 20
9.0482503474
 30
0.0
 10
11.5580092409
 20
9.0482911575
 30
0.0
 10
11.5581830293
 20
9.0483269221
 30
0.0
 10
11.5582586284
 20
9.0483478023
 30
0.0
  0
SPLINE
  5
30C
100
AcDbEntity
  8
0
100
AcDbSpline
 62
9
  6
CONTINUOUS
 70
0
 71
3
 72
71
 73
67
 74
0
 42
0.0000001
 43
0.0000001
 44
0.0000000001
 40
0.0
 40
0.0
 40
0.0
 40
0.0
 40
0.0128533138
 40
0.0257374574
 40
0.0386828119
 40
0.0517186742
 40
0.0648729162
 40
0.0781715275
 40
0.0916383016
 40
0.1052945644
 40
0.1191589836
 40
0.133247441
 40
0.1475729691
 40
0.1621457386
 40
0.1769730912
 40
0.1920596085
 40
0.2074072077
 40
0.2230152587
 40
0.2388807155
 40
0.2549982579
 40
0.271360439
 40
0.2879578361
 40
0.3047792025
 40
0.3218116193
 40
0.3390406455
 40
0.3564504664
 40
0.3740240392
 40
0.3917432373
 40
0.4095889907
 40
0.4275414256
 40
0.4455800015
 40
0.4636836461
 40
0.4818308902
 40
0.5
 40
0.5181691098
 40
0.5363163539
 40
0.5544199985
 40
0.5724585744
 40
0.5904110093
 40
0.6082567627
 40
0.6259759608
 40
0.6435495336
 40
0.6609593545
 40
0.6781883807
 40
0.6952207975
 40
0.7120421639
 40
0.728639561
 40
0.7450017421
 40
0.7611192845
 40
0.7769847413
 40
0.7925927923
 40
0.8079403915
 40
0.8230269088
 40
0.8378542614
 40
0.8524270309
 40
0.866752559
 40
0.8808410164
 40
0.8947054356
 40
0.9083616984
 40
0.9218284725
 40
0.9351270838
 40
0.9482813258
 40
0.9613171881
 40
0.9742625426
 40
0.9871466862
 40
1.0
 40
1.0
 40
1.0
 40
1.0
 10
12.5073183383
 20
6.164891191
 30
0.0
 10
12.5073183383
 20
6.1479955779
 30
0.0
 10
12.506142152
 20
6.1141521106
 30
0.0
 10
12.5008558523
 20
6.0635405792
 30
0.0
 10
12.4920602301
 20
6.0131740607
 30
0.0
 10
12.4797773939
 20
5.9631784831
 30
0.0
 10
12.4640381982
 20
5.9136745444
 30
0.0
 10
12.4448819344
 20
5.8647824893
 30
0.0
 10
12.4223562129
 20
5.8166204466
 30
0.0
 10
12.3965167195
 20
5.7693045351
 30
0.0
 10
12.3674270243
 20
5.7229485257
 30
0.0
 10
12.3351583705
 20
5.6776636516
 30
0.0
 10
12.2997894757
 20
5.6335583928
 30
0.0
 10
12.2614063294
 20
5.5907382748
 30
0.0
 10
12.2201019909
 20
5.5493056656
 30
0.0
 10
12.1759763776
 20
5.509359571
 30
0.0
 10
12.1291360452
 20
5.4709954288
 30
0.0
 10
12.0796939535
 20
5.4343049026
 30
0.0
 10
12.0277692176
 20
5.3993756763
 30
0.0
 10
11.9734868427
 20
5.3662912516
 30
0.0
 10
11.9169774432
 20
5.3351307509
 30
0.0
 10
11.8583769442
 20
5.3059687274
 30
0.0
 10
11.7978262691
 20
5.2788749827
 30
0.0
 10
11.7354710113
 20
5.2539143952
 30
0.0
 10
11.6714610922
 20
5.231146759
 30
0.0
 10
11.6059504076
 20
5.2106266352
 30
0.0
 10
11.5390964619
 20
5.1924032152
 30
0.0
 10
11.471059992
 20
5.1765201976
 30
0.0
 10
11.4020045835
 20
5.1630156788
 30
0.0
 10
11.3320962771
 20
5.1519220572
 30
0.0
 10
11.2615031702
 20
5.143265952
 30
0.0
 10
11.1903950119
 20
5.1370681368
 30
0.0
 10
11.1189427939
 20
5.133343487
 30
0.0
 10
11.0473183383
 20
5.1321009429
 30
0.0
 10
10.9756938826
 20
5.133343487
 30
0.0
 10
10.9042416647
 20
5.1370681368
 30
0.0
 10
10.8331335064
 20
5.143265952
 30
0.0
 10
10.7625403995
 20
5.1519220572
 30
0.0
 10
10.6926320931
 20
5.1630156788
 30
0.0
 10
10.6235766845
 20
5.1765201976
 30
0.0
 10
10.5555402147
 20
5.1924032152
 30
0.0
 10
10.4886862689
 20
5.2106266352
 30
0.0
 10
10.4231755844
 20
5.231146759
 30
0.0
 10
10.3591656653
 20
5.2539143952
 30
0.0
 10
10.2968104074
 20
5.2788749827
 30
0.0
 10
10.2362597324
 20
5.3059687274
 30
0.0
 10
10.1776592334
 20
5.3351307509
 30
0.0
 10
10.1211498338
 20
5.3662912516
 30
0.0
 10
10.066867459
 20
5.3993756763
 30
0.0
 10
10.0149427231
 20
5.4343049026
 30
0.0
 10
9.9655006314
 20
5.4709954288
 30
0.0
 10
9.918660299
 20
5.509359571
 30
0.0
 10
9.8745346857
 20
5.5493056656
 30
0.0
 10
9.8332303471
 20
5.5907382748
 30
0.0
 10
9.7948472009
 20
5.6335583928
 30
0.0
 10
9.759478306
 20
5.6776636516
 30
0.0
 10
9.7272096523
 20
5.7229485257
 30
0.0
 10
9.6981199571
 20
5.7693045351
 30
0.0
 10
9.6722804637
 20
5.8166204466
 30
0.0
 10
9.6497547422
 20
5.8647824893
 30
0.0
 10
9.6305984783
 20
5.9136745444
 30
0.0
 10
9.6148592826
 20
5.9631784831
 30
0.0
 10
9.6025764465
 20
6.0131740607
 30
0.0
 10
9.5937808243
 20
6.0635405792
 30
0.0
 10
9.5884945245
 20
6.1141521106
 30
0.0
 10
9.5873183383
 20
6.1479955779
 30
0.0
 10
9.5873183383
 20
6.164891191
 30
0.0
  0
SPLINE
  5
30D
100
AcDbEntity
  8
0
100
AcDbSpline
 62
9
  6
CONTINUOUS
 70
0
 71
3
 72
71
 73
67
 74
0
 42
0.0000001
 43
0.0000001
 44
0.0000000001
 40
0.0
 40
0.0
 40
0.0
 40
0.0
 40
0.0128533138
 40
0.0257374574
 40
0.0386828119
 40
0.0517186742
 40
0.0648729162
 40
0.0781715275
 40
0.0916383016
 40
0.1052945644
 40
0.1191589836
 40
0.133247441
 40
0.1475729691
 40
0.1621457386
 40
0.1769730912
 40
0.1920596085
 40
0.2074072077
 40
0.2230152587
 40
0.2388807155
 40
0.2549982579
 40
0.271360439
 40
0.2879578361
 40
0.3047792025
 40
0.3218116193
 40
0.3390406455
 40
0.3564504664
 40
0.3740240392
 40
0.3917432373
 40
0.4095889907
 40
0.4275414256
 40
0.4455800015
 40
0.4636836461
 40
0.4818308902
 40
0.5
 40
0.5181691098
 40
0.5363163539
 40
0.5544199985
 40
0.5724585744
 40
0.5904110093
 40
0.6082567627
 40
0.6259759608
 40
0.6435495336
 40
0.6609593545
 40
0.6781883807
 40
0.6952207975
 40
0.7120421639
 40
0.728639561
 40
0.7450017421
 40
0.7611192845
 40
0.7769847413
 40
0.7925927923
 40
0.8079403915
 40
0.8230269088
 40
0.8378542614
 40
0.8524270309
 40
0.866752559
 40
0.8808410164
 40
0.8947054356
 40
0.9083616984
 40
0.9218284725
 40
0.9351270838
 40
0.9482813258
 40
0.9613171881
 40
0.9742625426
 40
0.9871466862
 40
1.0
 40
1.0
 40
1.0
 40
1.0
 10
9.5873183383
 20
6.0015495245
 30
0.0
 10
9.5873183383
 20
5.9846539115
 30
0.0
 10
9.5884945245
 20
5.9508104441
 30
0.0
 10
9.5937808243
 20
5.9001989128
 30
0.0
 10
9.6025764465
 20
5.8498323943
 30
0.0
 10
9.6148592826
 20
5.7998368167
 30
0.0
 10
9.6305984783
 20
5.7503328779
 30
0.0
 10
9.6497547422
 20
5.7014408229
 30
0.0
 10
9.6722804637
 20
5.6532787801
 30
0.0
 10
9.6981199571
 20
5.6059628686
 30
0.0
 10
9.7272096523
 20
5.5596068592
 30
0.0
 10
9.759478306
 20
5.5143219851
 30
0.0
 10
9.7948472009
 20
5.4702167263
 30
0.0
 10
9.8332303471
 20
5.4273966084
 30
0.0
 10
9.8745346857
 20
5.3859639992
 30
0.0
 10
9.918660299
 20
5.3460179045
 30
0.0
 10
9.9655006314
 20
5.3076537624
 30
0.0
 10
10.0149427231
 20
5.2709632362
 30
0.0
 10
10.066867459
 20
5.2360340098
 30
0.0
 10
10.1211498338
 20
5.2029495851
 30
0.0
 10
10.1776592334
 20
5.1717890845
 30
0.0
 10
10.2362597324
 20
5.142627061
 30
0.0
 10
10.2968104074
 20
5.1155333163
 30
0.0
 10
10.3591656653
 20
5.0905727287
 30
0.0
 10
10.4231755844
 20
5.0678050925
 30
0.0
 10
10.4886862689
 20
5.0472849687
 30
0.0
 10
10.5555402147
 20
5.0290615487
 30
0.0
 10
10.6235766845
 20
5.0131785311
 30
0.0
 10
10.6926320931
 20
4.9996740123
 30
0.0
 10
10.7625403995
 20
4.9885803907
 30
0.0
 10
10.8331335064
 20
4.9799242856
 30
0.0
 10
10.9042416647
 20
4.9737264704
 30
0.0
 10
10.9756938826
 20
4.9700018205
 30
0.0
 10
11.0473183383
 20
4.9687592764
 30
0.0
 10
11.1189427939
 20
4.9700018205
 30
0.0
 10
11.1903950119
 20
4.9737264704
 30
0.0
 10
11.2615031702
 20
4.9799242856
 30
0.0
 10
11.3320962771
 20
4.9885803907
 30
0.0
 10
11.4020045835
 20
4.9996740123
 30
0.0
 10
11.471059992
 20
5.0131785311
 30
0.0
 10
11.5390964619
 20
5.0290615487
 30
0.0
 10
11.6059504076
 20
5.0472849687
 30
0.0
 10
11.6714610922
 20
5.0678050925
 30
0.0
 10
11.7354710113
 20
5.0905727287
 30
0.0
 10
11.7978262691
 20
5.1155333163
 30
0.0
 10
11.8583769442
 20
5.142627061
 30
0.0
 10
11.9169774432
 20
5.1717890845
 30
0.0
 10
11.9734868427
 20
5.2029495851
 30
0.0
 10
12.0277692176
 20
5.2360340098
 30
0.0
 10
12.0796939535
 20
5.2709632362
 30
0.0
 10
12.1291360452
 20
5.3076537624
 30
0.0
 10
12.1759763776
 20
5.3460179045
 30
0.0
 10
12.2201019909
 20
5.3859639992
 30
0.0
 10
12.2614063294
 20
5.4273966084
 30
0.0
 10
12.2997894757
 20
5.4702167263
 30
0.0
 10
12.3351583705
 20
5.5143219851
 30
0.0
 10
12.3674270243
 20
5.5596068592
 30
0.0
 10
12.3965167195
 20
5.6059628686
 30
0.0
 10
12.4223562129
 20
5.6532787801
 30
0.0
 10
12.4448819344
 20
5.7014408229
 30
0.0
 10
12.4640381982
 20
5.7503328779
 30
0.0
 10
12.4797773939
 20
5.7998368167
 30
0.0
 10
12.4920602301
 20
5.8498323943
 30
0.0
 10
12.5008558523
 20
5.9001989128
 30
0.0
 10
12.506142152
 20
5.9508104441
 30
0.0
 10
12.5073183383
 20
5.9846539115
 30
0.0
 10
12.5073183383
 20
6.0015495245
 30
0.0
  0
SPLINE
  5
30E
100
AcDbEntity
  8
0
100
AcDbSpline
 62
9
  6
CONTINUOUS
 70
0
 71
3
 72
35
 73
31
 74
0
 42
0.0000001
 43
0.0000001
 44
0.0000000001
 40
0.0
 40
0.0
 40
0.0
 40
0.0
 40
0.0002921384
 40
0.00064582
 40
0.0011044289
 40
0.0016883497
 40
0.0024073347
 40
0.0032665059
 40
0.0054156634
 40
0.0081487641
 40
0.0114699293
 40
0.0153802479
 40
0.019879485
 40
0.0306384924
 40
0.043726216
 40
0.0591149524
 40
0.0767681613
 40
0.0966450316
 40
0.1186972694
 40
0.142872886
 40
0.169112925
 40
0.2275305073
 40
0.2933876821
 40
0.3660502288
 40
0.4448183225
 40
0.5289333132
 40
0.6175850536
 40
0.7099196559
 40
0.8050477458
 40
1.0
 40
1.0
 40
1.0
 40
1.0
 10
10.5083183383
 20
9.0184426514
 30
0.0
 10
10.5083183422
 20
9.0184368042
 30
0.0
 10
10.5083222068
 20
9.0184237891
 30
0.0
 10
10.5083374044
 20
9.0184071721
 30
0.0
 10
10.5083608197
 20
9.0183916727
 30
0.0
 10
10.5083928899
 20
9.0183768112
 30
0.0
 10
10.5084337561
 20
9.018362456
 30
0.0
 10
10.5085056738
 20
9.0183424727
 30
0.0
 10
10.5086184874
 20
9.0183199667
 30
0.0
 10
10.5087809803
 20
9.0182962154
 30
0.0
 10
10.5089792434
 20
9.0182742513
 30
0.0
 10
10.5092131719
 20
9.0182539816
 30
0.0
 10
10.5095959401
 20
9.0182275978
 30
0.0
 10
10.5101626675
 20
9.0182000896
 30
0.0
 10
10.5109475446
 20
9.0181738651
 30
0.0
 10
10.5118705948
 20
9.0181522648
 30
0.0
 10
10.5129296316
 20
9.0181347669
 30
0.0
 10
10.5141221012
 20
9.0181208778
 30
0.0
 10
10.5154451515
 20
9.0181099491
 30
0.0
 10
10.5168955803
 20
9.0181013459
 30
0.0
 10
10.5190738723
 20
9.0180922983
 30
0.0
 10
10.5220864394
 20
9.0180859297
 30
0.0
 10
10.5260281624
 20
9.0180835793
 30
0.0
 10
10.530377204
 20
9.0180853814
 30
0.0
 10
10.535091672
 20
9.0180931546
 30
0.0
 10
10.5401261515
 20
9.0181078889
 30
0.0
 10
10.5454321282
 20
9.0181333128
 30
0.0
 10
10.5509584536
 20
9.0181737163
 30
0.0
 10
10.5586121124
 20
9.0182539635
 30
0.0
 10
10.5644174204
 20
9.0183524241
 30
0.0
 10
10.5683183383
 20
9.0184439788
 30
0.0
  0
SPLINE
  5
30F
100
AcDbEntity
  8
0
100
AcDbSpline
 62
9
  6
CONTINUOUS
 70
0
 71
3
 72
35
 73
31
 74
0
 42
0.0000001
 43
0.0000001
 44
0.0000000001
 40
0.0
 40
0.0
 40
0.0
 40
0.0
 40
0.194951829
 40
0.2900796652
 40
0.3824140114
 40
0.4710654836
 40
0.5551802076
 40
0.6339480262
 40
0.7066102927
 40
0.7724671828
 40
0.8308844836
 40
0.8571243845
 40
0.8812998703
 40
0.9033520085
 40
0.9232288232
 40
0.9408820265
 40
0.9562708044
 40
0.9693586266
 40
0.9801178444
 40
0.9846172604
 40
0.9885277992
 40
0.9918492174
 40
0.9945825943
 40
0.9967320477
 40
0.9975913897
 40
0.9983105729
 40
0.998894728
 40
0.9993536124
 40
0.9997075981
 40
1.0
 40
1.0
 40
1.0
 40
1.0
 10
11.5263183383
 20
9.0184426916
 30
0.0
 10
11.5302192623
 20
9.018351245
 30
0.0
 10
11.5360245883
 20
9.0182534442
 30
0.0
 10
11.5436782612
 20
9.0181740967
 30
0.0
 10
11.5492045938
 20
9.0181344342
 30
0.0
 10
11.5545105735
 20
9.018109629
 30
0.0
 10
11.5595450505
 20
9.0180943585
 30
0.0
 10
11.5642595161
 20
9.0180862472
 30
0.0
 10
11.5686085537
 20
9.0180835008
 30
0.0
 10
11.5725502727
 20
9.0180848994
 30
0.0
 10
11.5755628356
 20
9.0180910461
 30
0.0
 10
11.5777411244
 20
9.0180998225
 30
0.0
 10
11.5791915511
 20
9.0181083274
 30
0.0
 10
11.5805145985
 20
9.0181194345
 30
0.0
 10
11.5817070647
 20
9.0181336628
 30
0.0
 10
11.5827660983
 20
9.0181515323
 30
0.0
 10
11.5836891454
 20
9.0181735044
 30
0.0
 10
11.5844740206
 20
9.0182000684
 30
0.0
 10
11.5850407464
 20
9.0182278571
 30
0.0
 10
11.5854235121
 20
9.0182544735
 30
0.0
 10
11.5856574406
 20
9.0182749029
 30
0.0
 10
11.5858557029
 20
9.0182970162
 30
0.0
 10
11.5860181937
 20
9.0183209002
 30
0.0
 10
11.5861310033
 20
9.0183435046
 30
0.0
 10
11.5862029164
 20
9.0183635548
 30
0.0
 10
11.5862437814
 20
9.0183779509
 30
0.0
 10
11.586275851
 20
9.0183928473
 30
0.0
 10
11.5862992668
 20
9.0184083759
 30
0.0
 10
11.586314464
 20
9.0184250149
 30
0.0
 10
11.5863183322
 20
9.0184380396
 30
0.0
 10
11.5863183383
 20
9.0184438921
 30
0.0
  0
SPLINE
  5
310
100
AcDbEntity
  8
0
100
AcDbSpline
 62
9
  6
CONTINUOUS
 70
0
 71
3
 72
37
 73
33
 74
0
 42
0.0000001
 43
0.0000001
 44
0.0000000001
 40
0.0
 40
0.0
 40
0.0
 40
0.0
 40
0.1001137219
 40
0.1495922221
 40
0.1985380288
 40
0.2468392402
 40
0.2943820503
 40
0.3410443976
 40
0.3867004041
 40
0.4312295063
 40
0.474513899
 40
0.5164348675
 40
0.5568752529
 40
0.5957275113
 40
0.6328917249
 40
0.6682782004
 40
0.7018069117
 40
0.7334157142
 40
0.7630545266
 40
0.8162871041
 40
0.8398823511
 40
0.8614884225
 40
0.8811572802
 40
0.8989709791
 40
0.9150535501
 40
0.9295737941
 40
0.9427443867
 40
0.9548227114
 40
0.9661591362
 40
0.9772045772
 40
0.9883863572
 40
1.0
 40
1.0
 40
1.0
 40
1.0
 10
10.64106442
 20
9.155687244
 30
0.0
 10
10.6393228405
 20
9.1560446892
 30
0.0
 10
10.6367155085
 20
9.156554871
 30
0.0
 10
10.6332452335
 20
9.1571782236
 30
0.0
 10
10.6306755042
 20
9.1576097243
 30
0.0
 10
10.6281349929
 20
9.1580065795
 30
0.0
 10
10.6256304081
 20
9.1583696942
 30
0.0
 10
10.6231682582
 20
9.1586970015
 30
0.0
 10
10.6207549842
 20
9.1589842247
 30
0.0
 10
10.6183974788
 20
9.1592303345
 30
0.0
 10
10.6161027489
 20
9.1594366733
 30
0.0
 10
10.6138775123
 20
9.1596023452
 30
0.0
 10
10.611728302
 20
9.1597249699
 30
0.0
 10
10.6096615621
 20
9.1598038756
 30
0.0
 10
10.607683369
 20
9.1598392606
 30
0.0
 10
10.6057993828
 20
9.1598309545
 30
0.0
 10
10.6040147976
 20
9.1597785003
 30
0.0
 10
10.6023341329
 20
9.1596827337
 30
0.0
 10
10.6003087819
 20
9.1595053985
 30
0.0
 10
10.5984333648
 20
9.1592455655
 30
0.0
 10
10.596723366
 20
9.1588795493
 30
0.0
 10
10.595610757
 20
9.1585783731
 30
0.0
 10
10.5946165285
 20
9.1582401502
 30
0.0
 10
10.5937412428
 20
9.1578647988
 30
0.0
 10
10.5929847068
 20
9.1574530657
 30
0.0
 10
10.592346803
 20
9.1570053306
 30
0.0
 10
10.5918267669
 20
9.1565238409
 30
0.0
 10
10.5914225499
 20
9.1560113032
 30
0.0
 10
10.59113465
 20
9.1554669863
 30
0.0
 10
10.5909660571
 20
9.1548909446
 30
0.0
 10
10.5909148934
 20
9.1542885879
 30
0.0
 10
10.5909540781
 20
9.1538833922
 30
0.0
 10
10.590989831
 20
9.1536802724
 30
0.0
  0
SPLINE
  5
311
100
AcDbEntity
  8
0
100
AcDbSpline
 62
9
  6
CONTINUOUS
 70
0
 71
3
 72
31
 73
27
 74
0
 42
0.0000001
 43
0.0000001
 44
0.0000000001
 40
0.0
 40
0.0
 40
0.0
 40
0.0
 40
0.1950679782
 40
0.2905373724
 40
0.3833642019
 40
0.4725759114
 40
0.5572116889
 40
0.6363416716
 40
0.7090968355
 40
0.7746971246
 40
0.8324710266
 40
0.8582500393
 40
0.8818834438
 40
0.9033264719
 40
0.9225468757
 40
0.939522384
 40
0.9542474364
 40
0.9667311127
 40
0.9770103755
 40
0.9851649529
 40
0.9884976387
 40
0.9913774391
 40
0.9938611699
 40
0.9960363763
 40
0.9980295085
 40
1.0
 40
1.0
 40
1.0
 40
1.0
 10
10.363339356
 20
10.7798576107
 30
0.0
 10
10.35947249
 20
10.7801729891
 30
0.0
 10
10.3537097163
 20
10.7806030897
 30
0.0
 10
10.3460995454
 20
10.7810751073
 30
0.0
 10
10.3405880505
 20
10.7813709575
 30
0.0
 10
10.3352892442
 20
10.781604895
 30
0.0
 10
10.330260587
 20
10.7817759305
 30
0.0
 10
10.3255574684
 20
10.7818807793
 30
0.0
 10
10.3212318963
 20
10.781917826
 30
0.0
 10
10.3173310069
 20
10.781887813
 30
0.0
 10
10.3143653568
 20
10.7818040938
 30
0.0
 10
10.3122360427
 20
10.7816990959
 30
0.0
 10
10.3108297277
 20
10.781607207
 30
0.0
 10
10.3095553655
 20
10.7814996577
 30
0.0
 10
10.308415482
 20
10.7813765981
 30
0.0
 10
10.3074120114
 20
10.7812382763
 30
0.0
 10
10.3065463309
 20
10.7810857741
 30
0.0
 10
10.3058188563
 20
10.7809201166
 30
0.0
 10
10.3052299411
 20
10.7807415173
 30
0.0
 10
10.3048294551
 20
10.7805726863
 30
0.0
 10
10.3045836867
 20
10.780425955
 30
0.0
 10
10.3044463389
 20
10.7803199582
 30
0.0
 10
10.3043430381
 20
10.7802101503
 30
0.0
 10
10.3042741257
 20
10.7800956728
 30
0.0
 10
10.3042411757
 20
10.7799763477
 30
0.0
 10
10.3042441027
 20
10.7798962094
 30
0.0
 10
10.3042508908
 20
10.7798576107
 30
0.0
  0
SPLINE
  5
312
100
AcDbEntity
  8
0
100
AcDbSpline
 62
9
  6
CONTINUOUS
 70
0
 71
3
 72
35
 73
31
 74
0
 42
0.0000001
 43
0.0000001
 44
0.0000000001
 40
0.0
 40
0.0
 40
0.0
 40
0.0
 40
0.0115772616
 40
0.0226902905
 40
0.033717017
 40
0.0450756662
 40
0.0571715123
 40
0.070342784
 40
0.0848565182
 40
0.1009347094
 40
0.1187513322
 40
0.1384258588
 40
0.1600350439
 40
0.183634619
 40
0.209250474
 40
0.2368862095
 40
0.2981305231
 40
0.3316645424
 40
0.3670554643
 40
0.443077411
 40
0.483520637
 40
0.5254420726
 40
0.5687302301
 40
0.6132680416
 40
0.7055912529
 40
0.8014409434
 40
0.8503934061
 40
0.899876567
 40
0.949780871
 40
1.0
 40
1.0
 40
1.0
 40
1.0
 10
11.503647957
 20
9.1536865754
 30
0.0
 10
11.5036836454
 20
9.1538890258
 30
0.0
 10
11.5037227588
 20
9.1542923586
 30
0.0
 10
11.5036701653
 20
9.1548923495
 30
0.0
 10
11.5035009898
 20
9.155466797
 30
0.0
 10
11.503214065
 20
9.156011877
 30
0.0
 10
11.5028103381
 20
9.1565257081
 30
0.0
 10
11.5022899761
 20
9.1570071287
 30
0.0
 10
11.5016514656
 20
9.1574535762
 30
0.0
 10
11.5008942453
 20
9.1578634894
 30
0.0
 10
11.5000190243
 20
9.1582386865
 30
0.0
 10
11.4990255608
 20
9.158579356
 30
0.0
 10
11.4979130959
 20
9.1588816765
 30
0.0
 10
11.4966823366
 20
9.1591427591
 30
0.0
 10
11.4953353229
 20
9.1593637535
 30
0.0
 10
11.4933172616
 20
9.1596136411
 30
0.0
 10
11.491147057
 20
9.1597636746
 30
0.0
 10
11.4888365792
 20
9.1598310378
 30
0.0
 10
11.4862625927
 20
9.1598423266
 30
0.0
 10
11.4835664866
 20
9.1597614029
 30
0.0
 10
11.4807585399
 20
9.159602032
 30
0.0
 10
11.4785332892
 20
9.1594381977
 30
0.0
 10
11.4762386115
 20
9.1592315904
 30
0.0
 10
11.4730573584
 20
9.1588958287
 30
0.0
 10
11.4689571912
 20
9.1583789664
 30
0.0
 10
11.4647933688
 20
9.1577508293
 30
0.0
 10
11.4613915063
 20
9.1571771567
 30
0.0
 10
11.4587991429
 20
9.1567103685
 30
0.0
 10
11.4561893541
 20
9.1562142509
 30
0.0
 10
11.4544457348
 20
9.1558669306
 30
0.0
 10
11.4535720845
 20
9.155688339
 30
0.0
  0
SPLINE
  5
313
100
AcDbEntity
  8
0
100
AcDbSpline
 62
9
  6
CONTINUOUS
 70
0
 71
3
 72
31
 73
27
 74
0
 42
0.0000001
 43
0.0000001
 44
0.0000000001
 40
0.0
 40
0.0
 40
0.0
 40
0.0
 40
0.0019702607
 40
0.0039632881
 40
0.0061384862
 40
0.0086222582
 40
0.0115021083
 40
0.0148348362
 40
0.0229894682
 40
0.033268754
 40
0.0457524316
 40
0.0604774961
 40
0.0774530412
 40
0.0966734795
 40
0.1181164994
 40
0.1417498259
 40
0.1675287798
 40
0.2253028907
 40
0.2909031221
 40
0.3636582292
 40
0.4427883882
 40
0.5274240417
 40
0.6166357643
 40
0.7094626383
 40
0.8049320058
 40
1.0
 40
1.0
 40
1.0
 40
1.0
 10
11.7903857857
 20
10.7798576107
 30
0.0
 10
11.7903925741
 20
10.7798962047
 30
0.0
 10
11.7903955001
 20
10.7799763367
 30
0.0
 10
11.7903625479
 20
10.7800956539
 30
0.0
 10
11.7902936346
 20
10.7802101288
 30
0.0
 10
11.7901903338
 20
10.7803199387
 30
0.0
 10
11.7900529868
 20
10.7804259406
 30
0.0
 10
11.7898072209
 20
10.7805726818
 30
0.0
 10
11.7894067394
 20
10.7807415291
 30
0.0
 10
11.7888178287
 20
10.7809201494
 30
0.0
 10
11.7880903552
 20
10.7810858169
 30
0.0
 10
11.7872246703
 20
10.7812383014
 30
0.0
 10
11.7862211944
 20
10.7813765955
 30
0.0
 10
11.7850813081
 20
10.7814996386
 30
0.0
 10
11.7838069477
 20
10.7816071932
 30
0.0
 10
11.7824006386
 20
10.7816991231
 30
0.0
 10
11.7802713247
 20
10.7818041609
 30
0.0
 10
11.777305669
 20
10.7818877512
 30
0.0
 10
11.7734047802
 20
10.7819178331
 30
0.0
 10
11.7690792056
 20
10.7818808305
 30
0.0
 10
11.764376091
 20
10.78177584
 30
0.0
 10
11.7593474291
 20
10.7816049322
 30
0.0
 10
11.7540486255
 20
10.7813709597
 30
0.0
 10
11.7485371338
 20
10.7810750516
 30
0.0
 10
11.7409269595
 20
10.7806030962
 30
0.0
 10
11.7351641827
 20
10.7801730363
 30
0.0
 10
11.7312973206
 20
10.7798576107
 30
0.0
  0
SPLINE
  5
314
100
AcDbEntity
  8
0
100
AcDbSpline
 62
9
  6
CONTINUOUS
 70
0
 71
3
 72
14
 73
10
 74
0
 42
0.0000001
 43
0.0000001
 44
0.0000000001
 40
0.0
 40
0.0
 40
0.0
 40
0.0
 40
0.1250096796
 40
0.2500109213
 40
0.3750129148
 40
0.5000106402
 40
0.6250050662
 40
0.7500062633
 40
1.0
 40
1.0
 40
1.0
 40
1.0
 10
11.4535710581
 20
9.0234638079
 30
0.0
 10
11.4566091446
 20
9.0233903254
 30
0.0
 10
11.4626836065
 20
9.0231720737
 30
0.0
 10
11.4717855807
 20
9.0226480425
 30
0.0
 10
11.4808774059
 20
9.0219775017
 30
0.0
 10
11.4899612115
 20
9.0212104584
 30
0.0
 10
11.4990417812
 20
9.020406216
 30
0.0
 10
11.5111519872
 20
9.019370385
 30
0.0
 10
11.5202477345
 20
9.0187284803
 30
0.0
 10
11.5263183383
 20
9.0184426916
 30
0.0
  0
SPLINE
  5
315
100
AcDbEntity
  8
0
100
AcDbSpline
 62
9
  6
CONTINUOUS
 70
0
 71
3
 72
14
 73
10
 74
0
 42
0.0000001
 43
0.0000001
 44
0.0000000001
 40
0.0
 40
0.0
 40
0.0
 40
0.0
 40
0.2499938286
 40
0.3749974933
 40
0.4999923966
 40
0.6249885239
 40
0.7499907894
 40
0.8749918328
 40
1.0
 40
1.0
 40
1.0
 40
1.0
 10
10.5683183383
 20
9.0184439788
 30
0.0
 10
10.5743889241
 20
9.0187304798
 30
0.0
 10
10.5834848737
 20
9.019370113
 30
0.0
 10
10.5955953048
 20
9.0204046656
 30
0.0
 10
10.604675878
 20
9.0212094278
 30
0.0
 10
10.6137595547
 20
9.0219780137
 30
0.0
 10
10.6228513548
 20
9.0226487095
 30
0.0
 10
10.6319533153
 20
9.0231727651
 30
0.0
 10
10.6380277703
 20
9.0233905082
 30
0.0
 10
10.6410658326
 20
9.0234637447
 30
0.0
  0
SPLINE
  5
316
100
AcDbEntity
  8
0
100
AcDbSpline
 62
9
  6
CONTINUOUS
 70
0
 71
3
 72
89
 73
85
 74
0
 42
0.0000001
 43
0.0000001
 44
0.0000000001
 40
0.0
 40
0.0
 40
0.0
 40
0.0
 40
0.0064253966
 40
0.012854865
 40
0.0192919166
 40
0.0257405061
 40
0.0322044271
 40
0.0386873529
 40
0.0451929179
 40
0.0517246636
 40
0.0582860195
 40
0.0648802992
 40
0.071510691
 40
0.0781802428
 40
0.0848918558
 40
0.0916482787
 40
0.1053041163
 40
0.1191681039
 40
0.1261839713
 40
0.1332575915
 40
0.147582674
 40
0.1621549896
 40
0.1695369016
 40
0.1769831401
 40
0.1920691885
 40
0.2074163105
 40
0.2230238756
 40
0.2388888385
 40
0.2550058799
 40
0.2713675524
 40
0.2879644331
 40
0.3047852759
 40
0.321817163
 40
0.3390456536
 40
0.3564549329
 40
0.3740279588
 40
0.3917466056
 40
0.409591804
 40
0.4275436804
 40
0.4455816949
 40
0.4636847761
 40
0.4818314556
 40
0.5
 40
0.5181685444
 40
0.5363152239
 40
0.5544183051
 40
0.5724563196
 40
0.590408196
 40
0.6082533944
 40
0.6259720412
 40
0.6435450671
 40
0.6609543464
 40
0.678182837
 40
0.6952147241
 40
0.7120355669
 40
0.7286324476
 40
0.7449941201
 40
0.7611111615
 40
0.7769761244
 40
0.7925836895
 40
0.8079308115
 40
0.8230168599
 40
0.8304630984
 40
0.8378450104
 40
0.852417326
 40
0.8667424085
 40
0.8738160287
 40
0.8808318961
 40
0.8946958837
 40
0.9083517213
 40
0.9151081442
 40
0.9218197572
 40
0.928489309
 40
0.9351197008
 40
0.9417139805
 40
0.9482753364
 40
0.9548070821
 40
0.9613126471
 40
0.9677955729
 40
0.9742594939
 40
0.9807080834
 40
0.987145135
 40
0.9935746034
 40
1.0
 40
1.0
 40
1.0
 40
1.0
 10
14.0023183383
 20
5.3378028904
 30
0.0
 10
14.0023183383
 20
5.3207075824
 30
0.0
 10
14.0017244626
 20
5.2865031648
 30
0.0
 10
13.999053268
 20
5.2352351602
 30
0.0
 10
13.994602862
 20
5.1840283329
 30
0.0
 10
13.9883761014
 20
5.1329149237
 30
0.0
 10
13.9803769041
 20
5.0819252436
 30
0.0
 10
13.9706099317
 20
5.0310902023
 30
0.0
 10
13.9590812591
 20
4.9804405333
 30
0.0
 10
13.9457979188
 20
4.9300067945
 30
0.0
 10
13.9307678791
 20
4.8798194547
 30
0.0
 10
13.9140004256
 20
4.8299087709
 30
0.0
 10
13.8955056268
 20
4.7803048466
 30
0.0
 10
13.8752948118
 20
4.731037717
 30
0.0
 10
13.8533800206
 20
4.6821365642
 30
0.0
 10
13.8217970707
 20
4.6172381093
 30
0.0
 10
13.7780589588
 20
4.5371458887
 30
0.0
 10
13.7291877292
 20
4.4592678024
 30
0.0
 10
13.6869274621
 20
4.3980576956
 30
0.0
 10
13.6421918497
 20
4.3371036552
 30
0.0
 10
13.5822855464
 20
4.2623995442
 30
0.0
 10
13.5178250939
 20
4.1904880286
 30
0.0
 10
13.4633428066
 20
4.1343486943
 30
0.0
 10
13.4064387135
 20
4.0786923744
 30
0.0
 10
13.3316905517
 20
4.0110241172
 30
0.0
 10
13.2368879601
 20
3.9333770708
 30
0.0
 10
13.1368182622
 20
3.8591161905
 30
0.0
 10
13.031724099
 20
3.7884204516
 30
0.0
 10
12.9218580311
 20
3.7214584727
 30
0.0
 10
12.8074845524
 20
3.6583904867
 30
0.0
 10
12.6888787471
 20
3.5993673458
 30
0.0
 10
12.5663258447
 20
3.5445303375
 30
0.0
 10
12.4401205066
 20
3.4940107979
 30
0.0
 10
12.3105661768
 20
3.4479297393
 30
0.0
 10
12.1779743443
 20
3.4063975725
 30
0.0
 10
12.0426637921
 20
3.3695138599
 30
0.0
 10
11.9049598403
 20
3.3373670674
 30
0.0
 10
11.765193581
 20
3.3100343072
 30
0.0
 10
11.6237010827
 20
3.2875811261
 30
0.0
 10
11.4808225696
 20
3.2700613989
 30
0.0
 10
11.3369016062
 20
3.2575171835
 30
0.0
 10
11.192284274
 20
3.2499786082
 30
0.0
 10
11.0473183383
 20
3.2474637397
 30
0.0
 10
10.9023524026
 20
3.2499786082
 30
0.0
 10
10.7577350704
 20
3.2575171835
 30
0.0
 10
10.613814107
 20
3.2700613989
 30
0.0
 10
10.4709355939
 20
3.2875811261
 30
0.0
 10
10.3294430956
 20
3.3100343072
 30
0.0
 10
10.1896768362
 20
3.3373670674
 30
0.0
 10
10.0519728845
 20
3.3695138599
 30
0.0
 10
9.9166623323
 20
3.4063975725
 30
0.0
 10
9.7840704998
 20
3.4479297393
 30
0.0
 10
9.65451617
 20
3.4940107979
 30
0.0
 10
9.5283108318
 20
3.5445303375
 30
0.0
 10
9.4057579295
 20
3.5993673458
 30
0.0
 10
9.2871521241
 20
3.6583904867
 30
0.0
 10
9.1727786455
 20
3.7214584727
 30
0.0
 10
9.0629125775
 20
3.7884204516
 30
0.0
 10
8.9578184144
 20
3.8591161905
 30
0.0
 10
8.8577487165
 20
3.9333770708
 30
0.0
 10
8.7629461248
 20
4.0110241172
 30
0.0
 10
8.6881979631
 20
4.0786923744
 30
0.0
 10
8.6312938699
 20
4.1343486943
 30
0.0
 10
8.5768115827
 20
4.1904880286
 30
0.0
 10
8.5123511302
 20
4.2623995442
 30
0.0
 10
8.4524448269
 20
4.3371036552
 30
0.0
 10
8.4077092145
 20
4.3980576956
 30
0.0
 10
8.3654489474
 20
4.4592678024
 30
0.0
 10
8.3165777177
 20
4.5371458887
 30
0.0
 10
8.2728396059
 20
4.6172381093
 30
0.0
 10
8.2412566559
 20
4.6821365642
 30
0.0
 10
8.2193418648
 20
4.731037717
 30
0.0
 10
8.1991310498
 20
4.7803048466
 30
0.0
 10
8.180636251
 20
4.8299087709
 30
0.0
 10
8.1638687975
 20
4.8798194547
 30
0.0
 10
8.1488387578
 20
4.9300067945
 30
0.0
 10
8.1355554174
 20
4.9804405333
 30
0.0
 10
8.1240267449
 20
5.0310902023
 30
0.0
 10
8.1142597725
 20
5.0819252436
 30
0.0
 10
8.1062605751
 20
5.1329149237
 30
0.0
 10
8.1000338145
 20
5.1840283329
 30
0.0
 10
8.0955834085
 20
5.2352351602
 30
0.0
 10
8.0929122139
 20
5.2865031648
 30
0.0
 10
8.0923183383
 20
5.3207075824
 30
0.0
 10
8.0923183383
 20
5.3378028904
 30
0.0
  0
SPLINE
  5
317
100
AcDbEntity
  8
0
100
AcDbSpline
 62
9
  6
CONTINUOUS
 70
0
 71
3
 72
38
 73
34
 74
0
 42
0.0000001
 43
0.0000001
 44
0.0000000001
 40
0.0
 40
0.0
 40
0.0
 40
0.0
 40
0.0262543281
 40
0.0525578978
 40
0.078959532
 40
0.1055065423
 40
0.1322445082
 40
0.1592165782
 40
0.1864630629
 40
0.2140210325
 40
0.2419240128
 40
0.2702017542
 40
0.298880076
 40
0.3279807792
 40
0.357521618
 40
0.3875163249
 40
0.4179746776
 40
0.448902601
 40
0.4803022976
 40
0.5121723973
 40
0.5445081237
 40
0.5773014707
 40
0.6105413863
 40
0.6442139602
 40
0.6783026132
 40
0.7127882873
 40
0.7476496343
 40
0.7828632034
 40
0.8184036255
 40
0.8542437956
 40
0.8903550523
 40
0.9267073547
 40
1.0
 40
1.0
 40
1.0
 40
1.0
 10
14.0023183383
 20
5.9591231177
 30
0.0
 10
14.0023183383
 20
5.9288848534
 30
0.0
 10
14.0004580121
 20
5.8683352035
 30
0.0
 10
13.9920945271
 20
5.777725252
 30
0.0
 10
13.9781736595
 20
5.6874572624
 30
0.0
 10
13.9587224769
 20
5.5977073225
 30
0.0
 10
13.9337789443
 20
5.5086447158
 30
0.0
 10
13.9033914632
 20
5.4204385645
 30
0.0
 10
13.8676188576
 20
5.3332556481
 30
0.0
 10
13.8265301059
 20
5.2472605874
 30
0.0
 10
13.7802041639
 20
5.1626154223
 30
0.0
 10
13.7287297464
 20
5.0794793834
 30
0.0
 10
13.672205119
 20
4.9980086298
 30
0.0
 10
13.6107378859
 20
4.9183560099
 30
0.0
 10
13.5444447781
 20
4.8406708199
 30
0.0
 10
13.4734514284
 20
4.7650985721
 30
0.0
 10
13.397892143
 20
4.69178076
 30
0.0
 10
13.3179096636
 20
4.6208546246
 30
0.0
 10
13.2336549162
 20
4.5524529209
 30
0.0
 10
13.1452867472
 20
4.4867036868
 30
0.0
 10
13.0529716435
 20
4.4237300142
 30
0.0
 10
12.9568834383
 20
4.363649825
 30
0.0
 10
12.8572030007
 20
4.3065756532
 30
0.0
 10
12.7541179103
 20
4.2526144334
 30
0.0
 10
12.6478221166
 20
4.201867298
 30
0.0
 10
12.5385155913
 20
4.1544293815
 30
0.0
 10
12.4264039361
 20
4.1103896375
 30
0.0
 10
12.3116980863
 20
4.0698306823
 30
0.0
 10
12.1946136041
 20
4.0328285753
 30
0.0
 10
12.0753714657
 20
3.9994528971
 30
0.0
 10
11.9541931596
 20
3.9697657639
 30
0.0
 10
11.7899205278
 20
3.9350854895
 30
0.0
 10
11.6651464787
 20
3.9149169938
 30
0.0
 10
11.5814359723
 20
3.9040387708
 30
0.0
  0
SPLINE
  5
318
100
AcDbEntity
  8
0
100
AcDbSpline
 62
9
  6
CONTINUOUS
 70
0
 71
3
 72
13
 73
9
 74
0
 42
0.0000001
 43
0.0000001
 44
0.0000000001
 40
0.0
 40
0.0
 40
0.0
 40
0.0
 40
0.2494685923
 40
0.3746696698
 40
0.5
 40
0.6253303302
 40
0.7505314077
 40
1.0
 40
1.0
 40
1.0
 40
1.0
 10
11.5814359723
 20
3.9040387708
 30
0.0
 10
11.4931118716
 20
3.8925610089
 30
0.0
 10
11.3598439601
 20
3.8796619764
 30
0.0
 10
11.1815180715
 20
3.8710591981
 30
0.0
 10
11.0473183383
 20
3.8689039197
 30
0.0
 10
10.913118605
 20
3.8710591981
 30
0.0
 10
10.7347927165
 20
3.8796619764
 30
0.0
 10
10.601524805
 20
3.8925610089
 30
0.0
 10
10.5132007042
 20
3.9040387708
 30
0.0
  0
SPLINE
  5
319
100
AcDbEntity
  8
0
100
AcDbSpline
 62
9
  6
CONTINUOUS
 70
0
 71
3
 72
38
 73
34
 74
0
 42
0.0000001
 43
0.0000001
 44
0.0000000001
 40
0.0
 40
0.0
 40
0.0
 40
0.0
 40
0.0732926453
 40
0.1096449477
 40
0.1457562044
 40
0.1815963745
 40
0.2171367966
 40
0.2523503657
 40
0.2872117127
 40
0.3216973868
 40
0.3557860398
 40
0.3894586137
 40
0.4226985293
 40
0.4554918763
 40
0.4878276027
 40
0.5196977024
 40
0.551097399
 40
0.5820253224
 40
0.6124836751
 40
0.642478382
 40
0.6720192208
 40
0.701119924
 40
0.7297982458
 40
0.7580759872
 40
0.7859789675
 40
0.8135369371
 40
0.8407834218
 40
0.8677554918
 40
0.8944934577
 40
0.921040468
 40
0.9474421022
 40
0.9737456719
 40
1.0
 40
1.0
 40
1.0
 40
1.0
 10
10.5132007042
 20
3.9040387708
 30
0.0
 10
10.4294901979
 20
3.9149169938
 30
0.0
 10
10.3047161487
 20
3.9350854895
 30
0.0
 10
10.1404435169
 20
3.9697657639
 30
0.0
 10
10.0192652108
 20
3.9994528971
 30
0.0
 10
9.9000230725
 20
4.0328285753
 30
0.0
 10
9.7829385903
 20
4.0698306823
 30
0.0
 10
9.6682327404
 20
4.1103896375
 30
0.0
 10
9.5561210853
 20
4.1544293815
 30
0.0
 10
9.4468145599
 20
4.201867298
 30
0.0
 10
9.3405187663
 20
4.2526144334
 30
0.0
 10
9.2374336759
 20
4.3065756532
 30
0.0
 10
9.1377532383
 20
4.363649825
 30
0.0
 10
9.0416650331
 20
4.4237300142
 30
0.0
 10
8.9493499294
 20
4.4867036868
 30
0.0
 10
8.8609817603
 20
4.5524529209
 30
0.0
 10
8.776727013
 20
4.6208546246
 30
0.0
 10
8.6967445335
 20
4.69178076
 30
0.0
 10
8.6211852482
 20
4.7650985721
 30
0.0
 10
8.5501918984
 20
4.8406708199
 30
0.0
 10
8.4838987907
 20
4.9183560099
 30
0.0
 10
8.4224315576
 20
4.9980086298
 30
0.0
 10
8.3659069302
 20
5.0794793834
 30
0.0
 10
8.3144325127
 20
5.1626154223
 30
0.0
 10
8.2681065707
 20
5.2472605874
 30
0.0
 10
8.227017819
 20
5.3332556481
 30
0.0
 10
8.1912452134
 20
5.4204385645
 30
0.0
 10
8.1608577323
 20
5.5086447158
 30
0.0
 10
8.1359141997
 20
5.5977073225
 30
0.0
 10
8.1164630171
 20
5.6874572624
 30
0.0
 10
8.1025421495
 20
5.777725252
 30
0.0
 10
8.0941786645
 20
5.8683352035
 30
0.0
 10
8.0923183383
 20
5.9288848534
 30
0.0
 10
8.0923183383
 20
5.9591231177
 30
0.0
  0
SPLINE
  5
31A
100
AcDbEntity
  8
0
100
AcDbSpline
 62
7
  6
CONTINUOUS
 70
0
 71
3
 72
35
 73
31
 74
0
 42
0.0000001
 43
0.0000001
 44
0.0000000001
 40
0.0
 40
0.0
 40
0.0
 40
0.0
 40
0.0276707678
 40
0.0549370937
 40
0.0818742649
 40
0.1085651041
 40
0.1350982559
 40
0.1615662222
 40
0.1880631404
 40
0.2146824191
 40
0.2415144382
 40
0.2686444796
 40
0.2961509262
 40
0.3241037183
 40
0.3525632971
 40
0.3815799569
 40
0.4111934595
 40
0.4414329457
 40
0.5038259757
 40
0.5360161629
 40
0.5688490794
 40
0.6023065541
 40
0.6363628062
 40
0.7061135718
 40
0.7417448727
 40
0.7778087382
 40
0.8509969122
 40
0.8880209031
 40
0.9252421061
 40
1.0
 40
1.0
 40
1.0
 40
1.0
 10
11.4449758741
 20
6.8462793113
 30
0.0
 10
11.4477515937
 20
6.8407292996
 30
0.0
 10
11.4528492208
 20
6.8294973716
 30
0.0
 10
11.4591090265
 20
6.8122166177
 30
0.0
 10
11.463898574
 20
6.794697889
 30
0.0
 10
11.4671992028
 20
6.7770056107
 30
0.0
 10
11.4689985208
 20
6.7592035599
 30
0.0
 10
11.4692896113
 20
6.7413565301
 30
0.0
 10
11.4680713707
 20
6.7235294546
 30
0.0
 10
11.4653484544
 20
6.7057871855
 30
0.0
 10
11.4611312346
 20
6.6881940992
 30
0.0
 10
11.4554356729
 20
6.6708137701
 30
0.0
 10
11.4482831469
 20
6.6537086856
 30
0.0
 10
11.4397002811
 20
6.6369400453
 30
0.0
 10
11.4297186732
 20
6.6205674995
 30
0.0
 10
11.4183750245
 20
6.6046492792
 30
0.0
 10
11.4057097412
 20
6.5892409404
 30
0.0
 10
11.3869314272
 20
6.5692458056
 30
0.0
 10
11.3658407279
 20
6.5507145516
 30
0.0
 10
11.3428202023
 20
6.5337698707
 30
0.0
 10
11.3243201604
 20
6.5216853579
 30
0.0
 10
11.30483607
 20
6.5104042201
 30
0.0
 10
11.2774230918
 20
6.4963765306
 30
0.0
 10
11.2485343273
 20
6.4842539198
 30
0.0
 10
11.2184881859
 20
6.4740580935
 30
0.0
 10
11.1872633728
 20
6.4650395961
 30
0.0
 10
11.1551551148
 20
6.4580784968
 30
0.0
 10
11.1224487435
 20
6.4531782664
 30
0.0
 10
11.0892129443
 20
6.4496468618
 30
0.0
 10
11.0640834747
 20
6.4485886284
 30
0.0
 10
11.0473183383
 20
6.4485886284
 30
0.0
  0
SPLINE
  5
31B
100
AcDbEntity
  8
0
100
AcDbSpline
 62
9
  6
CONTINUOUS
 70
0
 71
3
 72
27
 73
23
 74
0
 42
0.0000001
 43
0.0000001
 44
0.0000000001
 40
0.0
 40
0.0
 40
0.0
 40
0.0
 40
0.0266017327
 40
0.0532467059
 40
0.0799776635
 40
0.1068363836
 40
0.1338632397
 40
0.1610967518
 40
0.1885732531
 40
0.2163265778
 40
0.272766705
 40
0.3306483238
 40
0.3901318219
 40
0.4513250369
 40
0.5142844363
 40
0.5790178268
 40
0.6454880405
 40
0.7136172646
 40
0.7832915837
 40
0.8543656539
 40
0.9266662814
 40
1.0
 40
1.0
 40
1.0
 40
1.0
 10
10.5948183569
 20
7.0271790819
 30
0.0
 10
10.5948183569
 20
7.0228730346
 30
0.0
 10
10.5950646313
 20
7.0142519188
 30
0.0
 10
10.5961720479
 20
7.001346638
 30
0.0
 10
10.5980156752
 20
6.9884834128
 30
0.0
 10
10.600592344
 20
6.9756839232
 30
0.0
 10
10.6038978616
 20
6.9629690271
 30
0.0
 10
10.6079265525
 20
6.9503596735
 30
0.0
 10
10.6126719038
 20
6.9378761442
 30
0.0
 10
10.6199833216
 20
6.9213369812
 30
0.0
 10
10.630918835
 20
6.9010560667
 30
0.0
 10
10.6466774258
 20
6.8776986167
 30
0.0
 10
10.6650417833
 20
6.8553268237
 30
0.0
 10
10.6858887072
 20
6.8340857122
 30
0.0
 10
10.7090809753
 20
6.8141100975
 30
0.0
 10
10.7344667685
 20
6.7955274051
 30
0.0
 10
10.7618807071
 20
6.7784560124
 30
0.0
 10
10.7911447458
 20
6.7630049204
 30
0.0
 10
10.8220690156
 20
6.7492730059
 30
0.0
 10
10.8544534183
 20
6.737348263
 30
0.0
 10
10.8880866415
 20
6.7273073896
 30
0.0
 10
10.9110596348
 20
6.721944515
 30
0.0
 10
10.9226939025
 20
6.7195876321
 30
0.0
  0
SPLINE
  5
31C
100
AcDbEntity
  8
0
100
AcDbSpline
 62
9
  6
CONTINUOUS
 70
0
 71
3
 72
55
 73
51
 74
0
 42
0.0000001
 43
0.0000001
 44
0.0000000001
 40
0.0
 40
0.0
 40
0.0
 40
0.0
 40
0.0128545513
 40
0.0257401925
 40
0.0386868162
 40
0.0517240634
 40
0.0648796651
 40
0.0781796617
 40
0.0916478365
 40
0.1053055212
 40
0.1191713843
 40
0.1332613086
 40
0.1475883274
 40
0.1621626125
 40
0.176991507
 40
0.1920795938
 40
0.2230296095
 40
0.2388967184
 40
0.2550159383
 40
0.2879716074
 40
0.3218221431
 40
0.3564582765
 40
0.3917487445
 40
0.427544932
 40
0.463685351
 40
0.5
 40
0.536314649
 40
0.572455068
 40
0.6082512555
 40
0.6435417235
 40
0.6781778569
 40
0.7120283926
 40
0.7449840617
 40
0.7611032816
 40
0.7769703905
 40
0.8079204062
 40
0.823008493
 40
0.8378373875
 40
0.8524116726
 40
0.8667386914
 40
0.8808286157
 40
0.8946944788
 40
0.9083521635
 40
0.9218203383
 40
0.9351203349
 40
0.9482759366
 40
0.9613131838
 40
0.9742598075
 40
0.9871454487
 40
1.0
 40
1.0
 40
1.0
 40
1.0
 10
10.3473183383
 20
6.3657095168
 30
0.0
 10
10.3473183383
 20
6.3576089436
 30
0.0
 10
10.3478822969
 20
6.3413825907
 30
0.0
 10
10.3504167593
 20
6.3171167939
 30
0.0
 10
10.3546339193
 20
6.2929684088
 30
0.0
 10
10.360522902
 20
6.2689979543
 30
0.0
 10
10.368069108
 20
6.2452631803
 30
0.0
 10
10.3772535996
 20
6.2218217836
 30
0.0
 10
10.3880535992
 20
6.1987303903
 30
0.0
 10
10.4004423999
 20
6.1760446809
 30
0.0
 10
10.4143895235
 20
6.1538191983
 30
0.0
 10
10.4298607924
 20
6.1321072818
 30
0.0
 10
10.446818513
 20
6.1109608994
 30
0.0
 10
10.4652212655
 20
6.0904308038
 30
0.0
 10
10.4850251712
 20
6.0705654669
 30
0.0
 10
10.5134702722
 20
6.0448144496
 30
0.0
 10
10.5443227274
 20
6.0208238361
 30
0.0
 10
10.5772388246
 20
5.9986818075
 30
0.0
 10
10.6121949152
 20
5.9773764402
 30
0.0
 10
10.6585636154
 20
5.9531305458
 30
0.0
 10
10.717507271
 20
5.9282183838
 30
0.0
 10
10.7796052792
 20
5.907505484
 30
0.0
 10
10.8442614845
 20
5.8911888101
 30
0.0
 10
10.9108589235
 20
5.8794222293
 30
0.0
 10
10.9787608939
 20
5.8723173786
 30
0.0
 10
11.0473183383
 20
5.8699415835
 30
0.0
 10
11.1158757827
 20
5.8723173786
 30
0.0
 10
11.1837777531
 20
5.8794222293
 30
0.0
 10
11.2503751921
 20
5.8911888101
 30
0.0
 10
11.3150313973
 20
5.907505484
 30
0.0
 10
11.3771294055
 20
5.9282183838
 30
0.0
 10
11.4360730612
 20
5.9531305458
 30
0.0
 10
11.4824417614
 20
5.9773764402
 30
0.0
 10
11.5173978519
 20
5.9986818075
 30
0.0
 10
11.5503139492
 20
6.0208238361
 30
0.0
 10
11.5811664044
 20
6.0448144496
 30
0.0
 10
11.6096115054
 20
6.0705654669
 30
0.0
 10
11.6294154111
 20
6.0904308038
 30
0.0
 10
11.6478181635
 20
6.1109608994
 30
0.0
 10
11.6647758842
 20
6.1321072818
 30
0.0
 10
11.680247153
 20
6.1538191983
 30
0.0
 10
11.6941942767
 20
6.1760446809
 30
0.0
 10
11.7065830774
 20
6.1987303903
 30
0.0
 10
11.717383077
 20
6.2218217836
 30
0.0
 10
11.7265675685
 20
6.2452631803
 30
0.0
 10
11.7341137745
 20
6.2689979543
 30
0.0
 10
11.7400027573
 20
6.2929684088
 30
0.0
 10
11.7442199173
 20
6.3171167939
 30
0.0
 10
11.7467543797
 20
6.3413825907
 30
0.0
 10
11.7473183383
 20
6.3576089436
 30
0.0
 10
11.7473183383
 20
6.3657095168
 30
0.0
  0
SPLINE
  5
31D
100
AcDbEntity
  8
0
100
AcDbSpline
 62
7
  6
CONTINUOUS
 70
0
 71
3
 72
39
 73
35
 74
0
 42
0.0000001
 43
0.0000001
 44
0.0000000001
 40
0.0
 40
0.0
 40
0.0
 40
0.0
 40
0.0263912179
 40
0.0534387937
 40
0.0811936395
 40
0.1096872713
 40
0.1389333135
 40
0.1689283295
 40
0.1996531982
 40
0.2310745234
 40
0.263146181
 40
0.2958108264
 40
0.3290014191
 40
0.3626426627
 40
0.3966524862
 40
0.4309434161
 40
0.4654239704
 40
0.5
 40
0.5345760296
 40
0.5690565839
 40
0.6033475138
 40
0.6373573373
 40
0.6709985809
 40
0.7041891736
 40
0.736853819
 40
0.7689254766
 40
0.8003468018
 40
0.8310716705
 40
0.8610666865
 40
0.8903127287
 40
0.9188063605
 40
0.9465612063
 40
0.9736087821
 40
1.0
 40
1.0
 40
1.0
 40
1.0
 10
11.6973183383
 20
6.5631283412
 30
0.0
 10
11.6908008396
 20
6.5515983912
 30
0.0
 10
11.6765033225
 20
6.5288575801
 30
0.0
 10
11.651830287
 20
6.4963698482
 30
0.0
 10
11.6238175073
 20
6.4652783785
 30
0.0
 10
11.5926242792
 20
6.4357563344
 30
0.0
 10
11.5584239627
 20
6.4079628783
 30
0.0
 10
11.5214064176
 20
6.3820492187
 30
0.0
 10
11.4817762311
 20
6.3581561543
 30
0.0
 10
11.4397521236
 20
6.3364137232
 30
0.0
 10
11.3955657756
 20
6.3169403822
 30
0.0
 10
11.3494606196
 20
6.299842463
 30
0.0
 10
11.3016906377
 20
6.2852134301
 30
0.0
 10
11.2525189923
 20
6.2731332837
 30
0.0
 10
11.2022165725
 20
6.2636682187
 30
0.0
 10
11.151060529
 20
6.2568701561
 30
0.0
 10
11.0993327638
 20
6.2527763242
 30
0.0
 10
11.0473183383
 20
6.2514091957
 30
0.0
 10
10.9953039128
 20
6.2527763242
 30
0.0
 10
10.9435761476
 20
6.2568701561
 30
0.0
 10
10.892420104
 20
6.2636682187
 30
0.0
 10
10.8421176843
 20
6.2731332837
 30
0.0
 10
10.7929460389
 20
6.2852134301
 30
0.0
 10
10.745176057
 20
6.299842463
 30
0.0
 10
10.699070901
 20
6.3169403822
 30
0.0
 10
10.654884553
 20
6.3364137232
 30
0.0
 10
10.6128604455
 20
6.3581561543
 30
0.0
 10
10.5732302589
 20
6.3820492187
 30
0.0
 10
10.5362127139
 20
6.4079628783
 30
0.0
 10
10.5020123974
 20
6.4357563344
 30
0.0
 10
10.4708191693
 20
6.4652783785
 30
0.0
 10
10.4428063895
 20
6.4963698482
 30
0.0
 10
10.4181333541
 20
6.5288575801
 30
0.0
 10
10.403835837
 20
6.5515983912
 30
0.0
 10
10.3973183383
 20
6.5631283412
 30
0.0
  0
SPLINE
  5
31E
100
AcDbEntity
  8
0
100
AcDbSpline
 62
7
  6
CONTINUOUS
 70
0
 71
3
 72
15
 73
11
 74
0
 42
0.0000001
 43
0.0000001
 44
0.0000000001
 40
0.0
 40
0.0
 40
0.0
 40
0.0
 40
0.1222394899
 40
0.2447559009
 40
0.3678167753
 40
0.4916867591
 40
0.6166152966
 40
0.742836027
 40
0.8705671527
 40
1.0
 40
1.0
 40
1.0
 40
1.0
 10
11.7473183383
 20
6.4993526985
 30
0.0
 10
11.7473183383
 20
6.4915089852
 30
0.0
 10
11.7467896716
 20
6.4757986911
 30
0.0
 10
11.7444135843
 20
6.4523001341
 30
0.0
 10
11.7404595435
 20
6.4289081044
 30
0.0
 10
11.7349370627
 20
6.4056774789
 30
0.0
 10
11.7278589718
 20
6.3826608682
 30
0.0
 10
11.7192418143
 20
6.3599103261
 30
0.0
 10
11.7091060565
 20
6.3374785538
 30
0.0
 10
11.7014052865
 20
6.3228710894
 30
0.0
 10
11.6973183383
 20
6.3156409678
 30
0.0
  0
SPLINE
  5
31F
100
AcDbEntity
  8
0
100
AcDbSpline
 62
7
  6
CONTINUOUS
 70
0
 71
3
 72
15
 73
11
 74
0
 42
0.0000001
 43
0.0000001
 44
0.0000000001
 40
0.0
 40
0.0
 40
0.0
 40
0.0
 40
0.1294328473
 40
0.257163973
 40
0.3833847034
 40
0.5083132409
 40
0.6321832247
 40
0.7552440991
 40
0.8777605101
 40
1.0
 40
1.0
 40
1.0
 40
1.0
 10
10.3973183383
 20
6.3156409678
 30
0.0
 10
10.3932313901
 20
6.3228710894
 30
0.0
 10
10.38553062
 20
6.3374785538
 30
0.0
 10
10.3753948623
 20
6.3599103261
 30
0.0
 10
10.3667777047
 20
6.3826608682
 30
0.0
 10
10.3596996139
 20
6.4056774789
 30
0.0
 10
10.3541771331
 20
6.4289081044
 30
0.0
 10
10.3502230923
 20
6.4523001341
 30
0.0
 10
10.347847005
 20
6.4757986911
 30
0.0
 10
10.3473183383
 20
6.4915089852
 30
0.0
 10
10.3473183383
 20
6.4993526985
 30
0.0
  0
SPLINE
  5
320
100
AcDbEntity
  8
0
100
AcDbSpline
 62
7
  6
CONTINUOUS
 70
0
 71
3
 72
35
 73
31
 74
0
 42
0.0000001
 43
0.0000001
 44
0.0000000001
 40
0.0
 40
0.0
 40
0.0
 40
0.0
 40
0.074758328
 40
0.1119797299
 40
0.1490038969
 40
0.2221923256
 40
0.2582562598
 40
0.2938875828
 40
0.3636382356
 40
0.3976943515
 40
0.4311516355
 40
0.4639843084
 40
0.4961742025
 40
0.5585665161
 40
0.5888056009
 40
0.6184186861
 40
0.6474349263
 40
0.6758940988
 40
0.703846515
 40
0.7313526343
 40
0.7584824159
 40
0.7853142615
 40
0.8119334708
 40
0.8384304397
 40
0.8648985905
 40
0.8914320707
 40
0.9181233888
 40
0.9450611921
 40
0.9723283018
 40
1.0
 40
1.0
 40
1.0
 40
1.0
 10
11.0473183383
 20
6.4485886284
 30
0.0
 10
11.030552277
 20
6.4485886284
 30
0.0
 10
11.0054214231
 20
6.4496469783
 30
0.0
 10
10.9721838228
 20
6.4531787723
 30
0.0
 10
10.9394757375
 20
6.4580795382
 30
0.0
 10
10.9073658632
 20
6.465041394
 30
0.0
 10
10.8761395804
 20
6.4740608678
 30
0.0
 10
10.8460921562
 20
6.4842577754
 30
0.0
 10
10.8172022954
 20
6.4963816598
 30
0.0
 10
10.7897884651
 20
6.5104108076
 30
0.0
 10
10.7703039006
 20
6.5216930924
 30
0.0
 10
10.7518035382
 20
6.533778814
 30
0.0
 10
10.7287828223
 20
6.5507251447
 30
0.0
 10
10.7076922358
 20
6.5692581684
 30
0.0
 10
10.6889144077
 20
6.5892551484
 30
0.0
 10
10.6762496789
 20
6.6046648614
 30
0.0
 10
10.6649067741
 20
6.6205844576
 30
0.0
 10
10.6549261017
 20
6.63695837
 30
0.0
 10
10.6463443638
 20
6.653728356
 30
0.0
 10
10.639193158
 20
6.6708347538
 30
0.0
 10
10.6334991074
 20
6.6882163519
 30
0.0
 10
10.6292835864
 20
6.7058106509
 30
0.0
 10
10.6265625523
 20
6.7235540646
 30
0.0
 10
10.6253463715
 20
6.7413822047
 30
0.0
 10
10.6256396921
 20
6.7592302079
 30
0.0
 10
10.6274414017
 20
6.7770331302
 30
0.0
 10
10.6307445738
 20
6.7947261675
 30
0.0
 10
10.6355368052
 20
6.8122455335
 30
0.0
 10
10.6417994234
 20
6.8295267939
 30
0.0
 10
10.6468989755
 20
6.8407589394
 30
0.0
 10
10.6496756722
 20
6.8463090381
 30
0.0
  0
SPLINE
  5
321
100
AcDbEntity
  8
0
100
AcDbSpline
 62
9
  6
CONTINUOUS
 70
0
 71
3
 72
24
 73
20
 74
0
 42
0.0000001
 43
0.0000001
 44
0.0000000001
 40
0.0
 40
0.0
 40
0.0
 40
0.0
 40
0.1422595349
 40
0.2127333235
 40
0.2823928413
 40
0.3509927283
 40
0.4183099941
 40
0.4841500343
 40
0.5483527812
 40
0.6107989941
 40
0.6714164971
 40
0.7301863138
 40
0.7871483164
 40
0.8424055748
 40
0.896126717
 40
0.9224926297
 40
0.9485673026
 40
0.9743892254
 40
1.0
 40
1.0
 40
1.0
 40
1.0
 10
11.0473183383
 20
6.5721132582
 30
0.0
 10
11.0269748747
 20
6.5721132582
 30
0.0
 10
10.9965060372
 20
6.5740109472
 30
0.0
 10
10.9566047501
 20
6.5803508357
 30
0.0
 10
10.9274674931
 20
6.5869375625
 30
0.0
 10
10.8992664774
 20
6.5953182267
 30
0.0
 10
10.8722186592
 20
6.6054284271
 30
0.0
 10
10.8465354695
 20
6.6171902284
 30
0.0
 10
10.8224168984
 20
6.6305132894
 30
0.0
 10
10.8000511517
 20
6.6452954108
 30
0.0
 10
10.7796131318
 20
6.6614236029
 30
0.0
 10
10.7612635483
 20
6.678774626
 30
0.0
 10
10.7451474946
 20
6.6972166048
 30
0.0
 10
10.7313949891
 20
6.7166063217
 30
0.0
 10
10.721936302
 20
6.7335420261
 30
0.0
 10
10.7156908415
 20
6.7473870171
 30
0.0
 10
10.7116856844
 20
6.7578447706
 30
0.0
 10
10.7083396577
 20
6.768417909
 30
0.0
 10
10.7065462421
 20
6.7755564632
 30
0.0
 10
10.7057633621
 20
6.7791342139
 30
0.0
  0
SPLINE
  5
322
100
AcDbEntity
  8
0
100
AcDbSpline
 62
7
  6
CONTINUOUS
 70
0
 71
3
 72
28
 73
24
 74
0
 42
0.0000001
 43
0.0000001
 44
0.0000000001
 40
0.0
 40
0.0
 40
0.0
 40
0.0
 40
0.0726338057
 40
0.1449184729
 40
0.2165149502
 40
0.287099955
 40
0.3563761944
 40
0.4240811634
 40
0.4899962925
 40
0.5539565578
 40
0.6158601483
 40
0.6756779137
 40
0.7334620661
 40
0.7616435304
 40
0.7893768479
 40
0.8166937871
 40
0.8436316911
 40
0.8702332076
 40
0.8965459366
 40
0.9226218803
 40
0.9485167635
 40
0.9742892375
 40
1.0
 40
1.0
 40
1.0
 40
1.0
 10
11.0473183383
 20
6.9349920507
 30
0.0
 10
11.0325251014
 20
6.9349920507
 30
0.0
 10
11.0029993986
 20
6.9360150959
 30
0.0
 10
10.9591073677
 20
6.9406078832
 30
0.0
 10
10.9160565125
 20
6.9482141313
 30
0.0
 10
10.8742609217
 20
6.9587617111
 30
0.0
 10
10.8341192913
 20
6.9721509858
 30
0.0
 10
10.7960152849
 20
6.9882555179
 30
0.0
 10
10.7603129403
 20
7.006923963
 30
0.0
 10
10.7273539528
 20
7.0279810331
 30
0.0
 10
10.6974539618
 20
7.051230854
 30
0.0
 10
10.6709035179
 20
7.0764537931
 30
0.0
 10
10.6516197686
 20
7.0991176747
 30
0.0
 10
10.638175264
 20
7.1179857194
 30
0.0
 10
10.6291592173
 20
7.1323531589
 30
0.0
 10
10.6211507912
 20
7.1470177773
 30
0.0
 10
10.6141693404
 20
7.1619447282
 30
0.0
 10
10.6082322339
 20
7.1770979183
 30
0.0
 10
10.6033541642
 20
7.1924407501
 30
0.0
 10
10.5995473161
 20
7.2079359497
 30
0.0
 10
10.5968212587
 20
7.2235461227
 30
0.0
 10
10.5951828904
 20
7.2392322327
 30
0.0
 10
10.5948183584
 20
7.2497213902
 30
0.0
 10
10.5948183584
 20
7.2549578692
 30
0.0
  0
SPLINE
  5
323
100
AcDbEntity
  8
0
100
AcDbSpline
 62
7
  6
CONTINUOUS
 70
0
 71
3
 72
28
 73
24
 74
0
 42
0.0000001
 43
0.0000001
 44
0.0000000001
 40
0.0
 40
0.0
 40
0.0
 40
0.0
 40
0.0726338057
 40
0.1449184729
 40
0.2165149502
 40
0.287099955
 40
0.3563761944
 40
0.4240811634
 40
0.4899962925
 40
0.5539565578
 40
0.6158601483
 40
0.6756779137
 40
0.7334620661
 40
0.7616435304
 40
0.7893768479
 40
0.8166937871
 40
0.8436316911
 40
0.8702332076
 40
0.8965459366
 40
0.9226218803
 40
0.9485167635
 40
0.9742892375
 40
1.0
 40
1.0
 40
1.0
 40
1.0
 10
11.0473183383
 20
6.9349920507
 30
0.0
 10
11.0621115752
 20
6.9349920507
 30
0.0
 10
11.091637278
 20
6.9360150959
 30
0.0
 10
11.1355293089
 20
6.9406078832
 30
0.0
 10
11.1785801641
 20
6.9482141313
 30
0.0
 10
11.2203757548
 20
6.9587617111
 30
0.0
 10
11.2605173853
 20
6.9721509858
 30
0.0
 10
11.2986213917
 20
6.9882555179
 30
0.0
 10
11.3343237363
 20
7.006923963
 30
0.0
 10
11.3672827238
 20
7.0279810331
 30
0.0
 10
11.3971827147
 20
7.051230854
 30
0.0
 10
11.4237331587
 20
7.0764537931
 30
0.0
 10
11.443016908
 20
7.0991176747
 30
0.0
 10
11.4564614126
 20
7.1179857194
 30
0.0
 10
11.4654774592
 20
7.1323531589
 30
0.0
 10
11.4734858854
 20
7.1470177773
 30
0.0
 10
11.4804673362
 20
7.1619447282
 30
0.0
 10
11.4864044426
 20
7.1770979183
 30
0.0
 10
11.4912825124
 20
7.1924407501
 30
0.0
 10
11.4950893604
 20
7.2079359497
 30
0.0
 10
11.4978154179
 20
7.2235461227
 30
0.0
 10
11.4994537862
 20
7.2392322327
 30
0.0
 10
11.4998183181
 20
7.2497213902
 30
0.0
 10
11.4998183181
 20
7.2549578692
 30
0.0
  0
SPLINE
  5
324
100
AcDbEntity
  8
0
100
AcDbSpline
 62
9
  6
CONTINUOUS
 70
0
 71
3
 72
27
 73
23
 74
0
 42
0.0000001
 43
0.0000001
 44
0.0000000001
 40
0.0
 40
0.0
 40
0.0
 40
0.0
 40
0.0733337186
 40
0.1456343462
 40
0.2167084164
 40
0.2863827355
 40
0.3545119595
 40
0.4209821732
 40
0.4857155637
 40
0.5486749631
 40
0.6098681781
 40
0.6693516762
 40
0.727233295
 40
0.7836734222
 40
0.8114267469
 40
0.8389032482
 40
0.8661367603
 40
0.8931636164
 40
0.9200223365
 40
0.9467532941
 40
0.9733982673
 40
1.0
 40
1.0
 40
1.0
 40
1.0
 10
11.1719427741
 20
6.7195876321
 30
0.0
 10
11.1835770418
 20
6.721944515
 30
0.0
 10
11.2065500351
 20
6.7273073896
 30
0.0
 10
11.2401832583
 20
6.737348263
 30
0.0
 10
11.272567661
 20
6.7492730059
 30
0.0
 10
11.3034919308
 20
6.7630049204
 30
0.0
 10
11.3327559695
 20
6.7784560124
 30
0.0
 10
11.3601699081
 20
6.7955274051
 30
0.0
 10
11.3855557013
 20
6.8141100975
 30
0.0
 10
11.4087479693
 20
6.8340857122
 30
0.0
 10
11.4295948933
 20
6.8553268237
 30
0.0
 10
11.4479592508
 20
6.8776986167
 30
0.0
 10
11.4637178416
 20
6.9010560667
 30
0.0
 10
11.474653355
 20
6.9213369812
 30
0.0
 10
11.4819647727
 20
6.9378761442
 30
0.0
 10
11.4867101241
 20
6.9503596735
 30
0.0
 10
11.4907388149
 20
6.9629690271
 30
0.0
 10
11.4940443325
 20
6.9756839232
 30
0.0
 10
11.4966210013
 20
6.9884834129
 30
0.0
 10
11.4984646287
 20
7.001346638
 30
0.0
 10
11.4995720453
 20
7.0142519188
 30
0.0
 10
11.4998183197
 20
7.0228730346
 30
0.0
 10
11.4998183197
 20
7.0271790819
 30
0.0
  0
SPLINE
  5
325
100
AcDbEntity
  8
0
100
AcDbSpline
 62
7
  6
CONTINUOUS
 70
0
 71
3
 72
31
 73
27
 74
0
 42
0.0000001
 43
0.0000001
 44
0.0000000001
 40
0.0
 40
0.0
 40
0.0
 40
0.0
 40
0.0689005469
 40
0.13771902
 40
0.2063523158
 40
0.2747046768
 40
0.3426584116
 40
0.4100743921
 40
0.4767850707
 40
0.5425836032
 40
0.607212898
 40
0.6389984959
 40
0.6703674755
 40
0.7012716293
 40
0.7316566745
 40
0.7614676335
 40
0.7906503532
 40
0.8191534648
 40
0.8469377245
 40
0.8739824178
 40
0.8872324573
 40
0.9003043226
 40
0.9259357649
 40
0.950984757
 40
0.9756068624
 40
1.0
 40
1.0
 40
1.0
 40
1.0
 10
11.0473183383
 20
6.6635798201
 30
0.0
 10
11.0439374322
 20
6.6635798201
 30
0.0
 10
11.0371790279
 20
6.6636995667
 30
0.0
 10
11.02706582
 20
6.6642406465
 30
0.0
 10
11.0170057546
 20
6.6651496623
 30
0.0
 10
11.0070296398
 20
6.6664368822
 30
0.0
 10
10.9971724239
 20
6.6681175069
 30
0.0
 10
10.9874765201
 20
6.6702112801
 30
0.0
 10
10.97799407
 20
6.672742582
 30
0.0
 10
10.968791504
 20
6.675740354
 30
0.0
 10
10.9613839454
 20
6.6786715304
 30
0.0
 10
10.9556873631
 20
6.6812949328
 30
0.0
 10
10.9515741756
 20
6.6833916536
 30
0.0
 10
10.9476161512
 20
6.6856323616
 30
0.0
 10
10.9438355125
 20
6.6880212941
 30
0.0
 10
10.9402573751
 20
6.6905614753
 30
0.0
 10
10.9369101514
 20
6.6932548642
 30
0.0
 10
10.9338253817
 20
6.6961016419
 30
0.0
 10
10.9310377757
 20
6.6990991114
 30
0.0
 10
10.9289789455
 20
6.7017364407
 30
0.0
 10
10.9275227393
 20
6.7039141267
 30
0.0
 10
10.9262161991
 20
6.706104265
 30
0.0
 10
10.9248331316
 20
6.7089183083
 30
0.0
 10
10.923609479
 20
6.7124151299
 30
0.0
 10
10.9228618973
 20
6.7159822959
 30
0.0
 10
10.9226939025
 20
6.7183906763
 30
0.0
 10
10.9226939025
 20
6.7195876321
 30
0.0
  0
SPLINE
  5
326
100
AcDbEntity
  8
0
100
AcDbSpline
 62
7
  6
CONTINUOUS
 70
0
 71
3
 72
31
 73
27
 74
0
 42
0.0000001
 43
0.0000001
 44
0.0000000001
 40
0.0
 40
0.0
 40
0.0
 40
0.0
 40
0.0243932192
 40
0.0490154965
 40
0.0740645384
 40
0.099696078
 40
0.1127680114
 40
0.1260181188
 40
0.1530628766
 40
0.1808471813
 40
0.2093503741
 40
0.2385331267
 40
0.2683440015
 40
0.2987290388
 40
0.3296330897
 40
0.361002049
 40
0.3927875582
 40
0.4574168113
 40
0.5232152805
 40
0.5899258976
 40
0.6573418441
 40
0.7252955328
 40
0.7936478228
 40
0.8622810331
 40
0.9310994453
 40
1.0
 40
1.0
 40
1.0
 40
1.0
 10
11.1719427741
 20
6.7195876321
 30
0.0
 10
11.1719427741
 20
6.7183906723
 30
0.0
 10
11.1717747766
 20
6.7159822795
 30
0.0
 10
11.1710271877
 20
6.7124150996
 30
0.0
 10
11.1698035263
 20
6.7089182647
 30
0.0
 10
11.1684204512
 20
6.7061042129
 30
0.0
 10
11.1671138971
 20
6.7039140698
 30
0.0
 10
11.1656576886
 20
6.7017363735
 30
0.0
 10
11.1635988418
 20
6.6990990457
 30
0.0
 10
11.1608112253
 20
6.6961015738
 30
0.0
 10
11.1577264466
 20
6.693254794
 30
0.0
 10
11.1543792146
 20
6.6905614132
 30
0.0
 10
11.1508010793
 20
6.6880212341
 30
0.0
 10
11.1470204429
 20
6.685632316
 30
0.0
 10
11.1430624248
 20
6.6833916101
 30
0.0
 10
11.1389492429
 20
6.6812949011
 30
0.0
 10
11.1332526677
 20
6.6786715015
 30
0.0
 10
11.1258451159
 20
6.6757403333
 30
0.0
 10
11.1166425571
 20
6.672742566
 30
0.0
 10
11.1071601136
 20
6.6702112696
 30
0.0
 10
11.0974642161
 20
6.6681175005
 30
0.0
 10
11.0876070071
 20
6.6664368793
 30
0.0
 10
11.0776309025
 20
6.6651496592
 30
0.0
 10
11.0675708475
 20
6.6642406472
 30
0.0
 10
11.0574576465
 20
6.6636995662
 30
0.0
 10
11.0506992448
 20
6.6635798201
 30
0.0
 10
11.0473183383
 20
6.6635798201
 30
0.0
  0
SPLINE
  5
327
100
AcDbEntity
  8
0
100
AcDbSpline
 62
7
  6
CONTINUOUS
 70
0
 71
3
 72
23
 73
19
 74
0
 42
0.0000001
 43
0.0000001
 44
0.0000000001
 40
0.0
 40
0.0
 40
0.0
 40
0.0
 40
0.1171446059
 40
0.1475216274
 40
0.1782792216
 40
0.2408181275
 40
0.3045369267
 40
0.3691676733
 40
0.43441935
 40
0.4999855438
 40
0.5655522569
 40
0.6308054747
 40
0.6954387504
 40
0.7591610004
 40
0.8217041921
 40
0.8524642056
 40
0.8828438074
 40
1.0
 40
1.0
 40
1.0
 40
1.0
 10
10.7759673127
 20
7.246596113
 30
0.0
 10
10.7942688402
 20
7.233668919
 30
0.0
 10
10.8189238208
 20
7.2195433816
 30
0.0
 10
10.8500519106
 20
7.2056261966
 30
0.0
 10
10.8720220132
 20
7.1968375874
 30
0.0
 10
10.9005430386
 20
7.1873302365
 30
0.0
 10
10.9359771351
 20
7.1783921089
 30
0.0
 10
10.9724745019
 20
7.1719452762
 30
0.0
 10
11.0096858864
 20
7.1680508565
 30
0.0
 10
11.0472564913
 20
7.1667457906
 30
0.0
 10
11.0848276864
 20
7.1680423106
 30
0.0
 10
11.1220408359
 20
7.1719282685
 30
0.0
 10
11.1585411262
 20
7.1783667944
 30
0.0
 10
11.1939792741
 20
7.187296863
 30
0.0
 10
11.2225045158
 20
7.1967976843
 30
0.0
 10
11.2444785433
 20
7.2055812562
 30
0.0
 10
11.2756132278
 20
7.2194914656
 30
0.0
 10
11.3002745003
 20
7.2336113509
 30
0.0
 10
11.3185817661
 20
7.2465342606
 30
0.0
  0
SPLINE
  5
328
100
AcDbEntity
  8
0
100
AcDbSpline
 62
7
  6
CONTINUOUS
 70
0
 71
3
 72
23
 73
19
 74
0
 42
0.0000001
 43
0.0000001
 44
0.0000000001
 40
0.0
 40
0.0
 40
0.0
 40
0.0
 40
0.0571302417
 40
0.1160007942
 40
0.1764701902
 40
0.2383567967
 40
0.3014461887
 40
0.3654977438
 40
0.4302513676
 40
0.4954338705
 40
0.5607650252
 40
0.6259639205
 40
0.6907547776
 40
0.7548733029
 40
0.8180726389
 40
0.8492620101
 40
0.8801403514
 40
1.0
 40
1.0
 40
1.0
 40
1.0
 10
10.7834149848
 20
7.1991047697
 30
0.0
 10
10.7921139588
 20
7.1934794298
 30
0.0
 10
10.8102882481
 20
7.1828312359
 30
0.0
 10
10.8391526197
 20
7.1689454555
 30
0.0
 10
10.869805915
 20
7.1570146923
 30
0.0
 10
10.901982706
 20
7.1471477952
 30
0.0
 10
10.935408097
 20
7.1394342182
 30
0.0
 10
10.9697954642
 20
7.1339457505
 30
0.0
 10
11.0048502162
 20
7.1307353272
 30
0.0
 10
11.0402719236
 20
7.1298365919
 30
0.0
 10
11.0757570768
 20
7.1312633764
 30
0.0
 10
11.1110015627
 20
7.1350098726
 30
0.0
 10
11.1457037123
 20
7.141050528
 30
0.0
 10
11.179565533
 20
7.14933996
 30
0.0
 10
11.2069645229
 20
7.158107638
 30
0.0
 10
11.2281957603
 20
7.1661978461
 30
0.0
 10
11.2585673642
 20
7.1790709483
 30
0.0
 10
11.282784782
 20
7.1920846748
 30
0.0
 10
11.3009838171
 20
7.2039658977
 30
0.0
  0
SPLINE
  5
329
100
AcDbEntity
  8
0
100
AcDbSpline
 62
7
  6
CONTINUOUS
 70
0
 71
3
 72
22
 73
18
 74
0
 42
0.0000001
 43
0.0000001
 44
0.0000000001
 40
0.0
 40
0.0
 40
0.0
 40
0.0
 40
0.0576421426
 40
0.1168623709
 40
0.1775217514
 40
0.2394505078
 40
0.3024532394
 40
0.3663143894
 40
0.430803194
 40
0.4956786204
 40
0.5606942878
 40
0.6256029883
 40
0.6901616912
 40
0.7541360191
 40
0.8173051916
 40
0.8794668764
 40
1.0
 40
1.0
 40
1.0
 40
1.0
 10
10.7971052489
 20
7.1417993942
 30
0.0
 10
10.8055676662
 20
7.1368067621
 30
0.0
 10
10.8231371714
 20
7.1273702509
 30
0.0
 10
10.850814877
 20
7.1150772184
 30
0.0
 10
10.8799854578
 20
7.1045388535
 30
0.0
 10
10.9104256927
 20
7.0958406376
 30
0.0
 10
10.9419056012
 20
7.0890527154
 30
0.0
 10
10.9741865055
 20
7.0842313765
 30
0.0
 10
11.0070238807
 20
7.0814180898
 30
0.0
 10
11.0401689147
 20
7.0806393095
 30
0.0
 10
11.0733705024
 20
7.0819060987
 30
0.0
 10
11.1063770497
 20
7.0852140674
 30
0.0
 10
11.1389388856
 20
7.0905436985
 30
0.0
 10
11.1708082576
 20
7.0978595984
 30
0.0
 10
11.2017483411
 20
7.1071139441
 30
0.0
 10
11.2410227839
 20
7.1217904682
 30
0.0
 10
11.2690464024
 20
7.1357008787
 30
0.0
 10
11.2866832722
 20
7.1462393694
 30
0.0
  0
SPLINE
  5
32A
100
AcDbEntity
  8
0
100
AcDbSpline
 62
7
  6
CONTINUOUS
 70
0
 71
3
 72
39
 73
35
 74
0
 42
0.0000001
 43
0.0000001
 44
0.0000000001
 40
0.0
 40
0.0
 40
0.0
 40
0.0
 40
0.0248343483
 40
0.0498052692
 40
0.0750449863
 40
0.1006749287
 40
0.1268029937
 40
0.1535202278
 40
0.1808992337
 40
0.2089932989
 40
0.2233226761
 40
0.2378420102
 40
0.2674498906
 40
0.2978204114
 40
0.3289354239
 40
0.3607620588
 40
0.3932543049
 40
0.4263546019
 40
0.4599953014
 40
0.4941002652
 40
0.5285863041
 40
0.5633645836
 40
0.5983421224
 40
0.6334230903
 40
0.668510212
 40
0.7035061618
 40
0.7383148339
 40
0.7728428004
 40
0.8070006572
 40
0.8407043911
 40
0.8738769133
 40
0.906449401
 40
0.9383630181
 40
1.0
 40
1.0
 40
1.0
 40
1.0
 10
10.6410683385
 20
7.4295766922
 30
0.0
 10
10.6410683462
 20
7.4224324394
 30
0.0
 10
10.6418266802
 20
7.4080932591
 30
0.0
 10
10.6452291999
 20
7.386736638
 30
0.0
 10
10.6508766397
 20
7.3656228766
 30
0.0
 10
10.6587348831
 20
7.3448746597
 30
0.0
 10
10.6687568541
 20
7.324607601
 30
0.0
 10
10.6808839035
 20
7.3049343716
 30
0.0
 10
10.6950453428
 20
7.2859639624
 30
0.0
 10
10.708388333
 20
7.2709249772
 30
0.0
 10
10.7199742046
 20
7.2593395875
 30
0.0
 10
10.7323231688
 20
7.2479190938
 30
0.0
 10
10.7488824874
 20
7.2342805739
 30
0.0
 10
10.770275888
 20
7.2191100222
 30
0.0
 10
10.7932034586
 20
7.2051100545
 30
0.0
 10
10.8175373065
 20
7.1923578794
 30
0.0
 10
10.8431429048
 20
7.1809231037
 30
0.0
 10
10.8698784792
 20
7.1708684664
 30
0.0
 10
10.8975961152
 20
7.1622491471
 30
0.0
 10
10.9261424408
 20
7.1551125259
 30
0.0
 10
10.9553594877
 20
7.1494978579
 30
0.0
 10
10.9850855612
 20
7.1454360534
 30
0.0
 10
11.0151561259
 20
7.1429494874
 30
0.0
 10
11.0454047304
 20
7.1420518618
 30
0.0
 10
11.0756639299
 20
7.1427481261
 30
0.0
 10
11.1057662164
 20
7.145034445
 30
0.0
 10
11.135544957
 20
7.1488982178
 30
0.0
 10
11.1648353411
 20
7.1543181734
 30
0.0
 10
11.1934751969
 20
7.1612644234
 30
0.0
 10
11.2213062864
 20
7.1696988919
 30
0.0
 10
11.2481737224
 20
7.179574686
 30
0.0
 10
11.2739320747
 20
7.19083952
 30
0.0
 10
11.3062164761
 20
7.207426607
 30
0.0
 10
11.3289515656
 20
7.2220319871
 30
0.0
 10
11.3431286757
 20
7.2326816608
 30
0.0
  0
SPLINE
  5
32B
100
AcDbEntity
  8
0
100
AcDbSpline
 62
7
  6
CONTINUOUS
 70
0
 71
3
 72
30
 73
26
 74
0
 42
0.0000001
 43
0.0000001
 44
0.0000000001
 40
0.0
 40
0.0
 40
0.0
 40
0.0
 40
0.0259980847
 40
0.0521161596
 40
0.0784040612
 40
0.1049091225
 40
0.1316755938
 40
0.1587441186
 40
0.1861512812
 40
0.2139293071
 40
0.2421058455
 40
0.2707038173
 40
0.2997414126
 40
0.3292321123
 40
0.3591847016
 40
0.3896034236
 40
0.4518193444
 40
0.5158472918
 40
0.5815779511
 40
0.6488499468
 40
0.7174574495
 40
0.7871580586
 40
0.8576800785
 40
0.9287296222
 40
1.0
 40
1.0
 40
1.0
 40
1.0
 10
11.4528085246
 20
7.3858814139
 30
0.0
 10
11.4524174106
 20
7.38123735
 30
0.0
 10
11.451331467
 20
7.3719504447
 30
0.0
 10
11.4488047269
 20
7.358115218
 30
0.0
 10
11.4453831289
 20
7.3443796121
 30
0.0
 10
11.4410746564
 20
7.3307743159
 30
0.0
 10
11.4358891314
 20
7.3173287038
 30
0.0
 10
11.4298383564
 20
7.3040720021
 30
0.0
 10
11.4229361574
 20
7.2910328306
 30
0.0
 10
11.4151981712
 20
7.2782393119
 30
0.0
 10
11.406641806
 20
7.265719015
 30
0.0
 10
11.3972863664
 20
7.2534988053
 30
0.0
 10
11.387152851
 20
7.2416048332
 30
0.0
 10
11.3762639805
 20
7.2300626321
 30
0.0
 10
11.3646438098
 20
7.2188966532
 30
0.0
 10
11.3480879733
 20
7.204435509
 30
0.0
 10
11.3256716667
 20
7.1874493484
 30
0.0
 10
11.2965167535
 20
7.1690915319
 30
0.0
 10
11.2651590003
 20
7.152755158
 30
0.0
 10
11.2318774894
 20
7.1385767204
 30
0.0
 10
11.1969657144
 20
7.1266726942
 30
0.0
 10
11.1607323911
 20
7.1171402316
 30
0.0
 10
11.1234970181
 20
7.1100559578
 30
0.0
 10
11.0855906686
 20
7.1054750849
 30
0.0
 10
11.0600919277
 20
7.1041123504
 30
0.0
 10
11.0473183383
 20
7.1038556774
 30
0.0
  0
SPLINE
  5
32C
100
AcDbEntity
  8
0
100
AcDbSpline
 62
9
  6
CONTINUOUS
 70
0
 71
3
 72
28
 73
24
 74
0
 42
0.0000001
 43
0.0000001
 44
0.0000000001
 40
0.0
 40
0.0
 40
0.0
 40
0.0
 40
0.0257107607
 40
0.0514832389
 40
0.0773781205
 40
0.1034540618
 40
0.1297667904
 40
0.1563683101
 40
0.183306215
 40
0.210623152
 40
0.2383564631
 40
0.2665379328
 40
0.3243220864
 40
0.3841398537
 40
0.4460434386
 40
0.5100037108
 40
0.5759188373
 40
0.6436238054
 40
0.7129000444
 40
0.7834850526
 40
0.8550815436
 40
0.9273661242
 40
1.0
 40
1.0
 40
1.0
 40
1.0
 10
11.4535683171
 20
8.2377112983
 30
0.0
 10
11.4535683171
 20
8.2330100398
 30
0.0
 10
11.4532410475
 20
8.2235929781
 30
0.0
 10
11.4517701385
 20
8.2095101439
 30
0.0
 10
11.449322699
 20
8.195495488
 30
0.0
 10
11.445904954
 20
8.181584052
 30
0.0
 10
11.4415254868
 20
8.1678094051
 30
0.0
 10
11.4361952019
 20
8.1542050242
 30
0.0
 10
11.4299273067
 20
8.1408037646
 30
0.0
 10
11.4227374349
 20
8.1276380112
 30
0.0
 10
11.414642939
 20
8.1147390535
 30
0.0
 10
11.4025725688
 20
8.0977995301
 30
0.0
 10
11.3852598221
 20
8.0774521128
 30
0.0
 10
11.3614230945
 20
8.0548072115
 30
0.0
 10
11.3345791805
 20
8.0339337526
 30
0.0
 10
11.3049889291
 20
8.0150289254
 30
0.0
 10
11.2729357195
 20
7.9982685793
 30
0.0
 10
11.2387263211
 20
7.9838100938
 30
0.0
 10
11.2026875656
 20
7.9717893317
 30
0.0
 10
11.1651638957
 20
7.9623198236
 30
0.0
 10
11.1265132791
 20
7.9554910107
 30
0.0
 10
11.0871074514
 20
7.9513676474
 30
0.0
 10
11.060599572
 20
7.9504491684
 30
0.0
 10
11.0473183383
 20
7.9504491684
 30
0.0
  0
SPLINE
  5
32D
100
AcDbEntity
  8
0
100
AcDbSpline
 62
9
  6
CONTINUOUS
 70
0
 71
3
 72
8
 73
4
 74
0
 42
0.0000001
 43
0.0000001
 44
0.0000000001
 40
0.0
 40
0.0
 40
0.0
 40
0.0
 40
1.0
 40
1.0
 40
1.0
 40
1.0
 10
10.1156936546
 20
11.0021488136
 30
0.0
 10
10.1810575848
 20
10.127159644
 30
0.0
 10
10.2463074353
 20
9.2521619348
 30
0.0
 10
10.3113789201
 20
8.3771509678
 30
0.0
  0
SPLINE
  5
32E
100
AcDbEntity
  8
0
100
AcDbSpline
 62
9
  6
CONTINUOUS
 70
0
 71
3
 72
8
 73
4
 74
0
 42
0.0000001
 43
0.0000001
 44
0.0000000001
 40
0.0
 40
0.0
 40
0.0
 40
0.0
 40
1.0
 40
1.0
 40
1.0
 40
1.0
 10
11.7832578375
 20
8.3771510889
 30
0.0
 10
11.8483292205
 20
9.2521620114
 30
0.0
 10
11.9135783269
 20
10.1271597241
 30
0.0
 10
11.9789426477
 20
11.0021488126
 30
0.0
  0
LINE
  5
32F
100
AcDbEntity
  8
0
100
AcDbLine
 62
9
  6
CONTINUOUS
 10
10.1853109356
 20
8.3771426245
 11
10.178156651
 21
8.5090806427
  0
LINE
  5
330
100
AcDbEntity
  8
0
100
AcDbLine
 62
9
  6
CONTINUOUS
 10
10.178156651
 20
8.5090806427
 11
10.165137342
 21
8.7520968566
  0
LINE
  5
331
100
AcDbEntity
  8
0
100
AcDbLine
 62
9
  6
CONTINUOUS
 10
10.1205756804
 20
9.612069034
 11
10.1051556129
 21
9.9196495637
  0
LINE
  5
332
100
AcDbEntity
  8
0
100
AcDbLine
 62
9
  6
CONTINUOUS
 10
10.0559470932
 20
11.0021496311
 11
10.2517071088
 21
8.37715415
  0
LINE
  5
333
100
AcDbEntity
  8
0
100
AcDbLine
 62
9
  6
CONTINUOUS
 10
11.8429295662
 20
8.3771540659
 11
12.0386895794
 21
11.0021496331
  0
LINE
  5
334
100
AcDbEntity
  8
0
100
AcDbLine
 62
9
  6
CONTINUOUS
 10
11.9876108158
 20
9.8820750637
 11
11.9706390305
 21
9.5444986143
  0
LINE
  5
335
100
AcDbEntity
  8
0
100
AcDbLine
 62
9
  6
CONTINUOUS
 10
11.9304888862
 20
8.7707205942
 11
11.9097036426
 21
8.3840795683
  0
ENDSEC
  0
SECTION
  2
OBJECTS
  0
DICTIONARY
  5
C
100
AcDbDictionary
280
0
281
1
  3
ACAD_GROUP
350
D
  3
ACAD_MLINESTYLE
350
17
  3
ACAD_LAYOUT
350
1A
  3
ACAD_PLOTSETTINGS
350
19
  3
ACAD_PLOTSTYLENAME
350
E
  0
DICTIONARY
  5
D
102
{ACAD_REACTORS
330
C
102
}
100
AcDbDictionary
280
0
281
1
  0
ACDBDICTIONARYWDFLT
  5
E
102
{ACAD_REACTORS
330
C
102
}
100
AcDbDictionary
281
1
  3
Normal
350
F
100
AcDbDictionaryWithDefault
340
F
  0
DICTIONARY
  5
17
102
{ACAD_REACTORS
330
C
102
}
100
AcDbDictionary
280
0
281
1
  3
Standard
350
18
  0
DICTIONARY
  5
19
102
{ACAD_REACTORS
330
C
102
}
100
AcDbDictionary
281
1
  0
DICTIONARY
  5
1A
102
{ACAD_REACTORS
330
C
102
}
100
AcDbDictionary
281
1
  3
Model
350
336
  3
Layout1
350
337
  0
ACDBPLACEHOLDER
  5
F
102
{ACAD_REACTORS
330
E
102
}
  0
MLINESTYLE
  5
18
102
{ACAD_REACTORS
330
17
102
}
100
AcDbMlineStyle
  2
STANDARD
 70
0
  3

 62
256
 51
90.0
 52
90.0
 71
2
 49
0.5
 62
256
  6
BYLAYER
 49
-0.5
 62
256
  6
BYLAYER
  0
LAYOUT
  5
336
102
{ACAD_REACTORS
330
1A
102
}
100
AcDbPlotSettings
  1

  2
none_device
  4
ANSI_C_(22.00_x_17.00_Inches)
  6

 40
0.0
 41
0.0
 42
0.0
 43
0.0
 44
558.8
 45
431.8
 46
0.0
 47
0.0
 48
0.0
 49
0.0
140
0.0
141
0.0
142
1.0
143
1.0
 70
1024
 72
0
 73
0
 74
0
  7

 75
0
147
1.0
148
0.0
149
0.0
100
AcDbLayout
  1
Model
 70
0
 71
0
 10
0.0
 20
0.0
 11
22.0
 21
17.0
 12
0.0
 22
0.0
 32
0.0
 14
0.0
 24
0.0
 34
0.0
 15
0.0
 25
0.0
 35
0.0
146
0.0
 13
0.0
 23
0.0
 33
0.0
 16
1.0
 26
0.0
 36
0.0
 17
0.0
 27
1.0
 37
0.0
 76
0
330
205
345
0
346
0
  0
LAYOUT
  5
337
102
{ACAD_REACTORS
330
1A
102
}
100
AcDbPlotSettings
  1

  2
none_device
  4
ANSI_C_(22.00_x_17.00_Inches)
  6

 40
0.0
 41
0.0
 42
0.0
 43
0.0
 44
558.8
 45
431.8
 46
0.0
 47
0.0
 48
0.0
 49
0.0
140
0.0
141
0.0
142
1.0
143
1.0
 70
0
 72
0
 73
0
 74
0
  7

 75
0
147
1.0
148
0.0
149
0.0
100
AcDbLayout
  1
Layout1
 70
0
 71
1
 10
0.0
 20
0.0
 11
22.0
 21
17.0
 12
0.0
 22
0.0
 32
0.0
 14
0.0
 24
0.0
 34
0.0
 15
0.0
 25
0.0
 35
0.0
146
0.0
 13
0.0
 23
0.0
 33
0.0
 16
1.0
 26
0.0
 36
0.0
 17
0.0
 27
1.0
 37
0.0
 76
0
330
206
345
0
346
0
  0
ENDSEC
  0
EOF
