999
DXF file: E:\BT Custom\CADOUTPUT\_RIGHT.dxf
999
Pro/ENGINEER 2018400 by Parametric Technology Corporation
  0
SECTION
  2
HEADER
  9
$ACADVER
  1
AC1018
  9
$DWGCODEPAGE
  3
ANSI_1252
  9
$EXTMAX
 10
22.0
 20
17.0
 30
0.0
  9
$EXTMIN
 10
0.0
 20
0.0
 30
0.0
  9
$LIMMIN
 10
0.0
 20
0.0
  9
$LIMMAX
 10
22.0
 20
17.0
  9
$VIEWCTR
 10
11.0
 20
8.5
  9
$VIEWSIZE
 40
17.0
  9
$CLAYER
  8
0
  9
$LTSCALE
 40
1.21
  9
$CELTYPE
  6
BYLAYER
  9
$DIMSCALE
 40
1.0
  9
$DIMASZ
 40
0.1
  9
$DIMEXO
 40
0.0625
  9
$DIMDLI
 40
0.836
  9
$DIMEXE
 40
0.125
  9
$DIMCEN
 40
0.198
  9
$DIMLFAC
 40
1.0
  9
$DIMBLK
  1
_FILLED
  9
$DIMALT
 70
1
  9
$DIMALTD
 70
2
  9
$DIMALTTD
 70
2
  9
$DIMALTF
 40
25.4
  9
$DIMTXT
 40
0.08
  9
$DIMTOL
 70
1
  9
$DIMLIM
 70
0
  9
$DIMTFAC
 40
1.0
  9
$DIMTP
 40
0.001
  9
$DIMTM
 40
0.001
  9
$DIMGAP
 40
0.09
  9
$DIMDSEP
 70
46
  9
$AUNITS
 70
0
  9
$PDMODE
 70
3
  9
$PDSIZE
 40
0.06
  9
$HANDSEED
  5
57E
  9
$TILEMODE
 70
1
  9
$MEASUREMENT
 70
0
  9
$INSUNITS
 70
1
  0
ENDSEC
  0
SECTION
  2
CLASSES
  0
CLASS
  1
ACDBDICTIONARYWDFLT
  2
AcDbDictionaryWithDefault
  3
AutoCAD 2000
 90
0
 91
1
280
0
281
0
  0
CLASS
  1
ACDBPLACEHOLDER
  2
AcDbPlaceHolder
  3
AutoCAD 2000
 90
0
 91
1
280
0
281
0
  0
CLASS
  1
LAYOUT
  2
AcDbLayout
  3
AutoCAD 2000
 90
0
 91
0
280
0
281
0
  0
ENDSEC
  0
SECTION
  2
TABLES
  0
TABLE
  2
VPORT
  5
8
100
AcDbSymbolTable
 70
2
  0
VPORT
  5
1F4
100
AcDbSymbolTableRecord
100
AcDbViewportTableRecord
  2
*ACTIVE
 70
0
 10
0.0
 20
0.0
 11
1.0
 21
1.0
 12
11.0
 22
8.5
 13
0.0
 23
0.0
 14
1.0
 24
1.0
 15
0.0
 25
0.0
 16
0.0
 26
0.0
 36
1.0
 17
0.0
 27
0.0
 37
0.0
 40
17.0
 41
1.2941176471
 42
50.0
 43
0.0
 44
0.0
 50
0.0
 51
0.0
 71
0
 72
100
 73
1
 74
1
 75
0
 76
0
 77
0
 78
0
  0
ENDTAB
  0
TABLE
  2
LTYPE
  5
5
100
AcDbSymbolTable
 70
6
  0
LTYPE
  5
14
100
AcDbSymbolTableRecord
100
AcDbLinetypeTableRecord
  2
BYBLOCK
 70
0
  3

 72
65
 73
0
 40
0.0
  0
LTYPE
  5
15
100
AcDbSymbolTableRecord
100
AcDbLinetypeTableRecord
  2
BYLAYER
 70
0
  3

 72
65
 73
0
 40
0.0
  0
LTYPE
  5
16
100
AcDbSymbolTableRecord
100
AcDbLinetypeTableRecord
  2
CONTINUOUS
 70
64
  3
Solid line
 72
65
 73
0
 40
0.0
  0
LTYPE
  5
1F5
100
AcDbSymbolTableRecord
100
AcDbLinetypeTableRecord
  2
CENTER
 70
64
  3
____ _ ____ _ ____ _ ____ _ ____ _ ____ _ ____
 72
65
 73
4
 40
0.6
 49
0.375
 74
0
 49
-0.075
 74
0
 49
0.075
 74
0
 49
-0.075
 74
0
  0
LTYPE
  5
1F6
100
AcDbSymbolTableRecord
100
AcDbLinetypeTableRecord
  2
HIDDEN
 70
64
  3
- - - - - - - - - - - - - - - - - - - -
 72
65
 73
2
 40
0.2
 49
0.1
 74
0
 49
-0.1
 74
0
  0
LTYPE
  5
1F7
100
AcDbSymbolTableRecord
100
AcDbLinetypeTableRecord
  2
PHANTOM
 70
64
  3
_____ _ _ _____ _ _ _____ _ _ _____
 72
65
 73
6
 40
0.8
 49
0.45
 74
0
 49
-0.05
 74
0
 49
0.1
 74
0
 49
-0.05
 74
0
 49
0.1
 74
0
 49
-0.05
 74
0
  0
LTYPE
  5
1F8
100
AcDbSymbolTableRecord
100
AcDbLinetypeTableRecord
  2
DOT
 70
64
  3
. . . . . . . . . . . . . . . . . . . .
 72
65
 73
2
 40
0.2
 49
0.1
 74
0
 49
-0.1
 74
0
  0
LTYPE
  5
1F9
100
AcDbSymbolTableRecord
100
AcDbLinetypeTableRecord
  2
DASHED
 70
64
  3
- - - - - - - - - - - - - - - - - - - -
 72
65
 73
2
 40
0.2
 49
0.1
 74
0
 49
-0.1
 74
0
  0
ENDTAB
  0
TABLE
  2
LAYER
  5
2
100
AcDbSymbolTable
 70
36
  0
LAYER
  5
10
100
AcDbSymbolTableRecord
100
AcDbLayerTableRecord
  2
0
 70
0
 62
7
  6
CONTINUOUS
370
-3
390
F
  0
LAYER
  5
1FA
100
AcDbSymbolTableRecord
100
AcDbLayerTableRecord
  2
DEFAULT_1
 70
0
 62
7
  6
CENTER
370
-3
390
F
  0
LAYER
  5
1FB
100
AcDbSymbolTableRecord
100
AcDbLayerTableRecord
  2
DEFAULT_2
 70
0
 62
8
  6
HIDDEN
370
-3
390
F
  0
LAYER
  5
1FC
100
AcDbSymbolTableRecord
100
AcDbLayerTableRecord
  2
DEFAULT_3
 70
0
 62
7
  6
PHANTOM
370
-3
390
F
  0
LAYER
  5
1FD
100
AcDbSymbolTableRecord
100
AcDbLayerTableRecord
  2
ALL_FEATURES
 70
0
 62
7
  6
CONTINUOUS
370
-3
390
F
  0
LAYER
  5
1FE
100
AcDbSymbolTableRecord
100
AcDbLayerTableRecord
  2
AXES_FEATURES
 70
0
 62
7
  6
CONTINUOUS
370
-3
390
F
  0
LAYER
  5
1FF
100
AcDbSymbolTableRecord
100
AcDbLayerTableRecord
  2
DEFAULT_COORDINATE_SYSTEM
 70
0
 62
7
  6
CONTINUOUS
370
-3
390
F
  0
LAYER
  5
200
100
AcDbSymbolTableRecord
100
AcDbLayerTableRecord
  2
DEFAULT_DATUM_AXES
 70
0
 62
7
  6
CONTINUOUS
370
-3
390
F
  0
LAYER
  5
201
100
AcDbSymbolTableRecord
100
AcDbLayerTableRecord
  2
DEFAULT_DATUM_PLANES
 70
0
 62
7
  6
CONTINUOUS
370
-3
390
F
  0
LAYER
  5
202
100
AcDbSymbolTableRecord
100
AcDbLayerTableRecord
  2
DIMENSIONS
 70
0
 62
7
  6
CONTINUOUS
370
-3
390
F
  0
ENDTAB
  0
TABLE
  2
STYLE
  5
3
100
AcDbSymbolTable
 70
1
  0
STYLE
  5
11
100
AcDbSymbolTableRecord
100
AcDbTextStyleTableRecord
  2
STANDARD
 70
0
 40
0.0
 41
0.8
 50
0.0
 71
0
 42
0.2
  3
txt
  4

  0
STYLE
  5
203
100
AcDbSymbolTableRecord
100
AcDbTextStyleTableRecord
  2
TEXTSTYLE_1
 70
0
 40
0.0
 41
0.8
 50
0.0
 71
0
 42
0.2
  3
gdt
  4

  0
ENDTAB
  0
TABLE
  2
VIEW
  5
6
100
AcDbSymbolTable
 70
0
  0
ENDTAB
  0
TABLE
  2
UCS
  5
7
100
AcDbSymbolTable
 70
0
  0
ENDTAB
  0
TABLE
  2
APPID
  5
9
100
AcDbSymbolTable
 70
1
  0
APPID
  5
204
100
AcDbSymbolTableRecord
100
AcDbRegAppTableRecord
  2
ACAD
 70
0
  0
ENDTAB
  0
TABLE
  2
BLOCK_RECORD
  5
1
100
AcDbSymbolTable
 70
0
  0
BLOCK_RECORD
  5
205
100
AcDbSymbolTableRecord
100
AcDbBlockTableRecord
  2
*Model_Space
  0
BLOCK_RECORD
  5
206
100
AcDbSymbolTableRecord
100
AcDbBlockTableRecord
  2
*Paper_Space
  0
BLOCK_RECORD
  5
207
100
AcDbSymbolTableRecord
100
AcDbBlockTableRecord
  2
_FILLED
  0
ENDTAB
  0
TABLE
  2
DIMSTYLE
  5
A
100
AcDbSymbolTable
 70
1
100
AcDbDimStyleTable
 71
0
  0
DIMSTYLE
105
208
100
AcDbSymbolTableRecord
100
AcDbDimStyleTableRecord
  2
STANDARD
 70
0
  3

  4

 40
1.0
 41
0.1
 42
0.0625
 43
0.38
 44
0.125
 45
0.0
 46
0.0
 47
0.001
 48
0.001
140
0.08
141
0.09
142
0.0
143
25.4
144
1.0
145
0.0
146
1.0
147
0.09
 71
1.0
 72
0.0
 73
1
 74
1
 75
0
 76
0
 77
0
 78
4
 79
1
170
1
171
2
172
0
173
0
174
0
175
0
176
0
177
0
178
0
270
2
179
3
271
3
272
3
273
2
274
2
275
0
280
0
281
0
282
0
283
1
284
4
285
0
286
0
287
3
288
0
340
11
278
46
341
207
342
207
343
207
344
207
  0
ENDTAB
  0
ENDSEC
  0
SECTION
  2
BLOCKS
  0
BLOCK
  5
20
100
AcDbEntity
  8
0
100
AcDbBlockBegin
  2
*Model_Space
 70
0
 10
0.0
 20
0.0
 30
0.0
  3
*Model_Space
  1

  0
ENDBLK
  5
21
100
AcDbEntity
  8
0
100
AcDbBlockEnd
  0
BLOCK
  5
1C
100
AcDbEntity
  8
0
100
AcDbBlockBegin
  2
*Paper_Space
 70
0
 10
0.0
 20
0.0
 30
0.0
  3
*Paper_Space
  1

  0
ENDBLK
  5
1D
100
AcDbEntity
  8
0
100
AcDbBlockEnd
  0
BLOCK
  5
209
100
AcDbEntity
  8
0
100
AcDbBlockBegin
  2
_FILLED
 70
64
 10
0.0
 20
0.0
  3
_FILLED
  1

  0
SOLID
  5
20A
100
AcDbEntity
  8
0
  6
BYBLOCK
 62
0
100
AcDbTrace
 10
0.0
 20
0.0
 11
-1.0
 21
0.2
 12
-1.0
 22
-0.2
 13
-1.0
 23
-0.2
  0
ENDBLK
  5
20B
100
AcDbEntity
  8
0
  6
BYBLOCK
 62
0
100
AcDbBlockEnd
  0
ENDSEC
  0
SECTION
  2
ENTITIES
  0
LINE
  5
20C
100
AcDbEntity
  8
0
100
AcDbLine
 62
7
  6
CONTINUOUS
 10
14.7647997941
 20
0.772391804
 11
14.9527997941
 21
0.772391804
  0
LINE
  5
20D
100
AcDbEntity
  8
0
100
AcDbLine
 62
7
  6
CONTINUOUS
 10
6.4759539808
 20
14.6994208017
 11
7.097274208
 21
15.3207410289
  0
LINE
  5
20E
100
AcDbEntity
  8
0
100
AcDbLine
 62
7
  6
CONTINUOUS
 10
6.7821109715
 20
14.1019512727
 11
6.7608841282
 21
14.0772822387
  0
LINE
  5
20F
100
AcDbEntity
  8
0
100
AcDbLine
 62
7
  6
CONTINUOUS
 10
6.8517222141
 20
14.0320017699
 11
6.8306518162
 21
14.0075145507
  0
LINE
  5
210
100
AcDbEntity
  8
0
100
AcDbLine
 62
7
  6
CONTINUOUS
 10
6.9265457977
 20
13.9425791467
 11
6.9099055623
 21
13.9282608046
  0
LINE
  5
211
100
AcDbEntity
  8
0
100
AcDbLine
 62
7
  6
CONTINUOUS
 10
11.5747997941
 20
2.584891804
 11
11.1347997941
 21
2.584891804
  0
LINE
  5
212
100
AcDbEntity
  8
0
100
AcDbLine
 62
9
  6
CONTINUOUS
 10
11.6047997941
 20
2.614891804
 11
11.1047997941
 21
2.614891804
  0
LINE
  5
213
100
AcDbEntity
  8
0
100
AcDbLine
 62
7
  6
CONTINUOUS
 10
14.2597997941
 20
2.827391804
 11
14.3629544281
 21
2.827391804
  0
LINE
  5
214
100
AcDbEntity
  8
0
100
AcDbLine
 62
7
  6
CONTINUOUS
 10
14.4604223716
 20
2.877391804
 11
14.6397997941
 21
2.877391804
  0
LINE
  5
215
100
AcDbEntity
  8
0
100
AcDbLine
 62
9
  6
CONTINUOUS
 10
14.2297997941
 20
2.887391804
 11
14.3602839412
 21
2.887391804
  0
LINE
  5
216
100
AcDbEntity
  8
0
100
AcDbLine
 62
7
  6
CONTINUOUS
 10
6.987902636
 20
13.895160221
 11
6.9671380093
 21
13.8710283576
  0
LINE
  5
217
100
AcDbEntity
  8
0
100
AcDbLine
 62
7
  6
CONTINUOUS
 10
7.0510727831
 20
13.7801356972
 11
7.0313982236
 21
13.7572706686
  0
LINE
  5
218
100
AcDbEntity
  8
0
100
AcDbLine
 62
7
  6
CONTINUOUS
 10
7.0953070504
 20
13.7356877248
 11
7.0757313295
 21
13.7129375627
  0
LINE
  5
219
100
AcDbEntity
  8
0
100
AcDbLine
 62
7
  6
CONTINUOUS
 10
7.1847010131
 20
13.6974078555
 11
7.1643776061
 21
13.6737887609
  0
LINE
  5
21A
100
AcDbEntity
  8
0
100
AcDbLine
 62
7
  6
CONTINUOUS
 10
7.2195246669
 20
13.5990150309
 11
7.2057094193
 21
13.5829594729
  0
LINE
  5
21B
100
AcDbEntity
  8
0
100
AcDbLine
 62
7
  6
CONTINUOUS
 10
8.1968252527
 20
14.3060427979
 11
8.3601669192
 21
14.4693844644
  0
LINE
  5
21C
100
AcDbEntity
  8
0
100
AcDbLine
 62
7
  6
CONTINUOUS
 10
7.0633782673
 20
13.8063909124
 11
7.0463917554
 21
13.7917746115
  0
LINE
  5
21D
100
AcDbEntity
  8
0
100
AcDbLine
 62
7
  6
CONTINUOUS
 10
7.171296223
 20
13.6477189899
 11
7.1549850756
 21
13.6336838166
  0
LINE
  5
21E
100
AcDbEntity
  8
0
100
AcDbLine
 62
7
  6
CONTINUOUS
 10
7.2611190135
 20
13.6095825373
 11
7.2436313522
 21
13.5945350147
  0
LINE
  5
21F
100
AcDbEntity
  8
0
100
AcDbLine
 62
7
  6
CONTINUOUS
 10
7.3016037907
 20
13.5180244043
 11
7.2849631654
 21
13.5037057268
  0
LINE
  5
220
100
AcDbEntity
  8
0
100
AcDbLine
 62
9
  6
CONTINUOUS
 10
14.3629544281
 20
2.9373918598
 11
14.6397997941
 21
2.937391804
  0
LINE
  5
221
100
AcDbEntity
  8
0
100
AcDbLine
 62
7
  6
CONTINUOUS
 10
14.0622997941
 20
3.149891804
 11
14.2197997941
 21
3.149891804
  0
LINE
  5
222
100
AcDbEntity
  8
0
100
AcDbLine
 62
9
  6
CONTINUOUS
 10
14.0322997941
 20
3.209891804
 11
14.2197997941
 21
3.209891804
  0
LINE
  5
223
100
AcDbEntity
  8
0
100
AcDbLine
 62
7
  6
CONTINUOUS
 10
14.2297997941
 20
3.272391804
 11
14.2197997941
 21
3.272391804
  0
LINE
  5
224
100
AcDbEntity
  8
0
100
AcDbLine
 62
9
  6
CONTINUOUS
 10
14.0322997941
 20
3.3384128218
 11
14.0075092394
 21
3.3384128218
  0
LINE
  5
225
100
AcDbEntity
  8
0
100
AcDbLine
 62
7
  6
CONTINUOUS
 10
12.1242997941
 20
3.483391804
 11
12.2512252473
 21
3.483391804
  0
LINE
  5
226
100
AcDbEntity
  8
0
100
AcDbLine
 62
9
  6
CONTINUOUS
 10
14.2297997941
 20
3.502391804
 11
14.2197997941
 21
3.502391804
  0
LINE
  5
227
100
AcDbEntity
  8
0
100
AcDbLine
 62
9
  6
CONTINUOUS
 10
14.3613724204
 20
2.8955733991
 11
14.3870634631
 21
2.8935271637
  0
LINE
  5
228
100
AcDbEntity
  8
0
100
AcDbLine
 62
7
  6
CONTINUOUS
 10
7.3492009382
 20
13.4398805082
 11
7.3293879187
 21
13.4168545666
  0
LINE
  5
229
100
AcDbEntity
  8
0
100
AcDbLine
 62
7
  6
CONTINUOUS
 10
7.4335169669
 20
13.4473881618
 11
7.4137502896
 21
13.4244160773
  0
LINE
  5
22A
100
AcDbEntity
  8
0
100
AcDbLine
 62
7
  6
CONTINUOUS
 10
7.4263178048
 20
13.3922821227
 11
7.412474701
 21
13.3761941912
  0
LINE
  5
22B
100
AcDbEntity
  8
0
100
AcDbLine
 62
7
  6
CONTINUOUS
 10
7.4582505409
 20
13.3105523286
 11
7.4478163632
 21
13.2984261221
  0
LINE
  5
22C
100
AcDbEntity
  8
0
100
AcDbLine
 62
7
  6
CONTINUOUS
 10
7.6223568724
 20
13.1355306845
 11
7.6006191825
 21
13.1102679638
  0
LINE
  5
22D
100
AcDbEntity
  8
0
100
AcDbLine
 62
7
  6
CONTINUOUS
 10
7.7234767274
 20
13.1560289917
 11
7.704357277
 21
13.1338090899
  0
LINE
  5
22E
100
AcDbEntity
  8
0
100
AcDbLine
 62
7
  6
CONTINUOUS
 10
7.7001645849
 20
13.1279164643
 11
7.6819364623
 21
13.1067324299
  0
LINE
  5
22F
100
AcDbEntity
  8
0
100
AcDbLine
 62
7
  6
CONTINUOUS
 10
7.6811405699
 20
13.0883484795
 11
7.670389034
 21
13.0758534513
  0
LINE
  5
230
100
AcDbEntity
  8
0
100
AcDbLine
 62
7
  6
CONTINUOUS
 10
7.7007699677
 20
13.02592502
 11
7.693458841
 21
13.0174283052
  0
LINE
  5
231
100
AcDbEntity
  8
0
100
AcDbLine
 62
7
  6
CONTINUOUS
 10
7.4208965239
 20
13.3481456993
 11
7.4086416648
 21
13.3376008205
  0
LINE
  5
232
100
AcDbEntity
  8
0
100
AcDbLine
 62
7
  6
CONTINUOUS
 10
7.5111265571
 20
13.3607561287
 11
7.4930040357
 21
13.3451623312
  0
LINE
  5
233
100
AcDbEntity
  8
0
100
AcDbLine
 62
7
  6
CONTINUOUS
 10
7.5088939745
 20
13.3117107826
 11
7.4917284471
 21
13.2969404451
  0
LINE
  5
234
100
AcDbEntity
  8
0
100
AcDbLine
 62
7
  6
CONTINUOUS
 10
7.5453639769
 20
13.2349136109
 11
7.5270701093
 21
13.219172376
  0
LINE
  5
235
100
AcDbEntity
  8
0
100
AcDbLine
 62
7
  6
CONTINUOUS
 10
7.6883270887
 20
13.0382887276
 11
7.6798729286
 21
13.0310142177
  0
LINE
  5
236
100
AcDbEntity
  8
0
100
AcDbLine
 62
7
  6
CONTINUOUS
 10
7.8024751472
 20
13.0707872645
 11
7.7836110231
 21
13.0545553438
  0
LINE
  5
237
100
AcDbEntity
  8
0
100
AcDbLine
 62
7
  6
CONTINUOUS
 10
7.7790412403
 20
13.042838874
 11
7.7611902084
 21
13.0274786838
  0
LINE
  5
238
100
AcDbEntity
  8
0
100
AcDbLine
 62
7
  6
CONTINUOUS
 10
7.7685033192
 20
13.0128285411
 11
7.7496427802
 21
12.9965997052
  0
LINE
  5
239
100
AcDbEntity
  8
0
100
AcDbLine
 62
7
  6
CONTINUOUS
 10
7.7946458736
 20
12.957047387
 11
7.7727125872
 21
12.9381745591
  0
LWPOLYLINE
  5
23A
100
AcDbEntity
  8
0
100
AcDbPolyline
 62
7
  6
CONTINUOUS
 90
5
 70
0
 10
11.6903365215
 20
3.678891804
 10
11.6968190479
 20
3.679600563
 10
11.7029952723
 20
3.6816933511
 10
11.7085733637
 20
3.6850712833
 10
11.7129909219
 20
3.6892251431
  0
LINE
  5
23B
100
AcDbEntity
  8
0
100
AcDbLine
 62
9
  6
CONTINUOUS
 10
12.0942997941
 20
3.543391804
 11
12.2460954675
 21
3.543391804
  0
LINE
  5
23C
100
AcDbEntity
  8
0
100
AcDbLine
 62
9
  6
CONTINUOUS
 10
11.1047997941
 20
3.618891804
 11
11.6047997941
 21
3.618891804
  0
LINE
  5
23D
100
AcDbEntity
  8
0
100
AcDbLine
 62
9
  6
CONTINUOUS
 10
12.2798463954
 20
3.6251457183
 11
12.2512253843
 21
3.6251464317
  0
LINE
  5
23E
100
AcDbEntity
  8
0
100
AcDbLine
 62
7
  6
CONTINUOUS
 10
11.6903482794
 20
3.678891804
 11
11.0412997941
 21
3.678891804
  0
LINE
  5
23F
100
AcDbEntity
  8
0
100
AcDbLine
 62
9
  6
CONTINUOUS
 10
11.6982997941
 20
3.708891804
 11
11.0112997941
 21
3.708891804
  0
LINE
  5
240
100
AcDbEntity
  8
0
100
AcDbLine
 62
7
  6
CONTINUOUS
 10
11.7582997941
 20
3.709891804
 11
12.0632997941
 21
3.709891804
  0
LINE
  5
241
100
AcDbEntity
  8
0
100
AcDbLine
 62
9
  6
CONTINUOUS
 10
11.5747997944
 20
3.712391804
 11
11.1347997938
 21
3.712391804
  0
LINE
  5
242
100
AcDbEntity
  8
0
100
AcDbLine
 62
7
  6
CONTINUOUS
 10
12.0942997941
 20
3.769391804
 11
12.0632997941
 21
3.769391804
  0
LINE
  5
243
100
AcDbEntity
  8
0
100
AcDbLine
 62
7
  6
CONTINUOUS
 10
11.1347997941
 20
3.772391804
 11
11.5747997941
 21
3.772391804
  0
LINE
  5
244
100
AcDbEntity
  8
0
100
AcDbLine
 62
9
  6
CONTINUOUS
 10
11.0447997941
 20
3.802391804
 11
11.6647997941
 21
3.802391804
  0
LINE
  5
245
100
AcDbEntity
  8
0
100
AcDbLine
 62
9
  6
CONTINUOUS
 10
11.6982997941
 20
3.821210294
 11
11.6682997941
 21
3.821210294
  0
LINE
  5
246
100
AcDbEntity
  8
0
100
AcDbLine
 62
9
  6
CONTINUOUS
 10
12.2759994081
 20
3.5419785945
 11
12.2460954675
 21
3.5433918042
  0
LINE
  5
247
100
AcDbEntity
  8
0
100
AcDbLine
 62
9
  6
CONTINUOUS
 10
14.3602839412
 20
2.887391804
 11
14.3867451791
 21
2.8827414543
  0
LINE
  5
248
100
AcDbEntity
  8
0
100
AcDbLine
 62
7
  6
CONTINUOUS
 10
14.0075092394
 20
3.2793243566
 11
12.3813381301
 21
3.5660621984
  0
LINE
  5
249
100
AcDbEntity
  8
0
100
AcDbLine
 62
9
  6
CONTINUOUS
 10
14.0075092394
 20
3.3384128218
 11
12.3813381301
 21
3.6251506636
  0
LINE
  5
24A
100
AcDbEntity
  8
0
100
AcDbLine
 62
7
  6
CONTINUOUS
 10
7.9680683399
 20
12.7881525029
 11
7.9471015052
 21
12.763785641
  0
LINE
  5
24B
100
AcDbEntity
  8
0
100
AcDbLine
 62
7
  6
CONTINUOUS
 10
7.9886517376
 20
12.7973558405
 11
7.9702603822
 21
12.7759821031
  0
LINE
  5
24C
100
AcDbEntity
  8
0
100
AcDbLine
 62
7
  6
CONTINUOUS
 10
8.0132647316
 20
12.8133142192
 11
7.9957313295
 21
12.7929375627
  0
LINE
  5
24D
100
AcDbEntity
  8
0
100
AcDbLine
 62
7
  6
CONTINUOUS
 10
8.0419082497
 20
12.8360648226
 11
8.0234976485
 21
12.8146687184
  0
LINE
  5
24E
100
AcDbEntity
  8
0
100
AcDbLine
 62
7
  6
CONTINUOUS
 10
9.4795169538
 20
14.5139321916
 11
9.0983863987
 21
14.1328016365
  0
LINE
  5
24F
100
AcDbEntity
  8
0
100
AcDbLine
 62
7
  6
CONTINUOUS
 10
8.9399944798
 20
13.9744097175
 11
9.0701021275
 21
14.1045173653
  0
LINE
  5
250
100
AcDbEntity
  8
0
100
AcDbLine
 62
7
  6
CONTINUOUS
 10
10.0866297005
 20
14.7710270816
 11
10.1626436795
 21
14.8470410606
  0
LINE
  5
251
100
AcDbEntity
  8
0
100
AcDbLine
 62
7
  6
CONTINUOUS
 10
10.0866297005
 20
14.7462783443
 11
9.8912314489
 21
14.5508800926
  0
LINE
  5
252
100
AcDbEntity
  8
0
100
AcDbLine
 62
7
  6
CONTINUOUS
 10
11.1781007971
 20
15.797090801
 11
10.4007979289
 21
15.0197879327
  0
LINE
  5
253
100
AcDbEntity
  8
0
100
AcDbLine
 62
7
  6
CONTINUOUS
 10
10.3699661911
 20
14.9889561949
 11
10.3635115589
 21
14.9825015627
  0
LINE
  5
254
100
AcDbEntity
  8
0
100
AcDbLine
 62
7
  6
CONTINUOUS
 10
10.3315073061
 20
14.95049731
 11
10.3137340082
 21
14.932724012
  0
LINE
  5
255
100
AcDbEntity
  8
0
100
AcDbLine
 62
7
  6
CONTINUOUS
 10
10.280267559
 20
14.8992575629
 11
10.2640865173
 21
14.8830765211
  0
LINE
  5
256
100
AcDbEntity
  8
0
100
AcDbLine
 62
7
  6
CONTINUOUS
 10
10.2288977633
 20
14.8478877671
 11
10.2142778574
 21
14.8332678612
  0
LINE
  5
257
100
AcDbEntity
  8
0
100
AcDbLine
 62
7
  6
CONTINUOUS
 10
10.3948316929
 20
14.9822935038
 11
10.40746062
 21
14.9949224309
  0
LINE
  5
258
100
AcDbEntity
  8
0
100
AcDbLine
 62
7
  6
CONTINUOUS
 10
10.3706097431
 20
14.9560408706
 11
10.357980816
 21
14.9434119435
  0
LINE
  5
259
100
AcDbEntity
  8
0
100
AcDbLine
 62
7
  6
CONTINUOUS
 10
10.3213666809
 20
14.9042651722
 11
10.3087377538
 21
14.8916362451
  0
LINE
  5
25A
100
AcDbEntity
  8
0
100
AcDbLine
 62
7
  6
CONTINUOUS
 10
10.2723484957
 20
14.852263819
 11
10.2597195686
 21
14.8396348919
  0
LINE
  5
25B
100
AcDbEntity
  8
0
100
AcDbLine
 62
7
  6
CONTINUOUS
 10
10.2230541146
 20
14.8005447879
 11
10.2160970334
 21
14.7935877067
  0
LINE
  5
25C
100
AcDbEntity
  8
0
100
AcDbLine
 62
7
  6
CONTINUOUS
 10
9.5432925965
 20
13.955181802
 11
9.7907799699
 21
14.2026691755
  0
LINE
  5
25D
100
AcDbEntity
  8
0
100
AcDbLine
 62
7
  6
CONTINUOUS
 10
8.0367777462
 20
12.6935000882
 11
8.0263552514
 21
12.6845318949
  0
LINE
  5
25E
100
AcDbEntity
  8
0
100
AcDbLine
 62
7
  6
CONTINUOUS
 10
8.0650550425
 20
12.7101007716
 11
8.0495141283
 21
12.696728357
  0
LINE
  5
25F
100
AcDbEntity
  8
0
100
AcDbLine
 62
7
  6
CONTINUOUS
 10
8.0936364537
 20
12.7297326768
 11
8.0749850756
 21
12.7136838166
  0
LINE
  5
260
100
AcDbEntity
  8
0
100
AcDbLine
 62
7
  6
CONTINUOUS
 10
8.1224321356
 20
12.7523495635
 11
8.1027513946
 21
12.7354149723
  0
LINE
  5
261
100
AcDbEntity
  8
0
100
AcDbLine
 62
7
  6
CONTINUOUS
 10
8.0489213592
 20
12.6849579631
 11
8.0289616667
 21
12.667783344
  0
LINE
  5
262
100
AcDbEntity
  8
0
100
AcDbLine
 62
9
  6
CONTINUOUS
 10
14.0075092394
 20
4.7063707863
 11
12.3813381301
 21
4.4196329445
  0
LINE
  5
263
100
AcDbEntity
  8
0
100
AcDbLine
 62
7
  6
CONTINUOUS
 10
14.0075092394
 20
4.7654592515
 11
12.3813381301
 21
4.4787214097
  0
LINE
  5
264
100
AcDbEntity
  8
0
100
AcDbLine
 62
9
  6
CONTINUOUS
 10
14.360283902
 20
5.1573918037
 11
14.3867451739
 21
5.1620419072
  0
LINE
  5
265
100
AcDbEntity
  8
0
100
AcDbLine
 62
9
  6
CONTINUOUS
 10
12.2759994684
 20
4.5028019504
 11
12.2460955208
 21
4.5013918041
  0
LINE
  5
266
100
AcDbEntity
  8
0
100
AcDbLine
 62
9
  6
CONTINUOUS
 10
11.6982997941
 20
4.2235733141
 11
11.6682997941
 21
4.2235733141
  0
LINE
  5
267
100
AcDbEntity
  8
0
100
AcDbLine
 62
9
  6
CONTINUOUS
 10
11.0447997941
 20
4.242391804
 11
11.6647997941
 21
4.242391804
  0
LINE
  5
268
100
AcDbEntity
  8
0
100
AcDbLine
 62
7
  6
CONTINUOUS
 10
11.5747997941
 20
4.272391804
 11
11.1347997941
 21
4.272391804
  0
LINE
  5
269
100
AcDbEntity
  8
0
100
AcDbLine
 62
7
  6
CONTINUOUS
 10
12.0942997941
 20
4.275391804
 11
12.0632997941
 21
4.275391804
  0
LINE
  5
26A
100
AcDbEntity
  8
0
100
AcDbLine
 62
9
  6
CONTINUOUS
 10
11.1347997938
 20
4.332391804
 11
11.5747997944
 21
4.332391804
  0
LINE
  5
26B
100
AcDbEntity
  8
0
100
AcDbLine
 62
7
  6
CONTINUOUS
 10
11.7582997941
 20
4.334891804
 11
12.0632997941
 21
4.334891804
  0
LINE
  5
26C
100
AcDbEntity
  8
0
100
AcDbLine
 62
9
  6
CONTINUOUS
 10
11.0112997941
 20
4.335891804
 11
11.6982997941
 21
4.335891804
  0
LINE
  5
26D
100
AcDbEntity
  8
0
100
AcDbLine
 62
7
  6
CONTINUOUS
 10
11.0412997941
 20
4.365891804
 11
11.6903365687
 21
4.365891804
  0
LINE
  5
26E
100
AcDbEntity
  8
0
100
AcDbLine
 62
9
  6
CONTINUOUS
 10
12.3813381301
 20
4.4196344785
 11
12.2512255769
 21
4.4196308686
  0
LINE
  5
26F
100
AcDbEntity
  8
0
100
AcDbLine
 62
9
  6
CONTINUOUS
 10
11.6047997941
 20
4.425891804
 11
11.1047997941
 21
4.425891804
  0
LINE
  5
270
100
AcDbEntity
  8
0
100
AcDbLine
 62
9
  6
CONTINUOUS
 10
12.0942997941
 20
4.501391804
 11
12.2460955208
 21
4.501391804
  0
LINE
  5
271
100
AcDbEntity
  8
0
100
AcDbLine
 62
9
  6
CONTINUOUS
 10
14.2297997941
 20
4.542391804
 11
14.2197997941
 21
4.542391804
  0
LINE
  5
272
100
AcDbEntity
  8
0
100
AcDbLine
 62
7
  6
CONTINUOUS
 10
12.1242997941
 20
4.561391804
 11
12.2512255474
 21
4.561391804
  0
LINE
  5
273
100
AcDbEntity
  8
0
100
AcDbLine
 62
9
  6
CONTINUOUS
 10
14.0322997941
 20
4.7063707863
 11
14.0075092394
 21
4.7063707863
  0
LINE
  5
274
100
AcDbEntity
  8
0
100
AcDbLine
 62
7
  6
CONTINUOUS
 10
8.3044284041
 20
12.4310531339
 11
8.2865127602
 21
12.4102322505
  0
LINE
  5
275
100
AcDbEntity
  8
0
100
AcDbLine
 62
7
  6
CONTINUOUS
 10
8.3137821694
 20
12.4407770663
 11
8.293583828
 21
12.4173033183
  0
LINE
  5
276
100
AcDbEntity
  8
0
100
AcDbLine
 62
7
  6
CONTINUOUS
 10
8.3288996881
 20
12.4554794255
 11
8.3112614976
 21
12.4349809878
  0
LINE
  5
277
100
AcDbEntity
  8
0
100
AcDbLine
 62
7
  6
CONTINUOUS
 10
8.3492647248
 20
12.4757069217
 11
8.332474701
 21
12.4561941912
  0
LINE
  5
278
100
AcDbEntity
  8
0
100
AcDbLine
 62
7
  6
CONTINUOUS
 10
8.3748949418
 20
12.5014800812
 11
8.3572234383
 21
12.4809429286
  0
LINE
  5
279
100
AcDbEntity
  8
0
100
AcDbLine
 62
7
  6
CONTINUOUS
 10
9.9107160579
 20
13.5877583406
 11
10.1582034313
 21
13.835245714
  0
LINE
  5
27A
100
AcDbEntity
  8
0
100
AcDbLine
 62
7
  6
CONTINUOUS
 10
10.7693846465
 20
14.2794651312
 11
10.7820135736
 21
14.2920940583
  0
LINE
  5
27B
100
AcDbEntity
  8
0
100
AcDbLine
 62
7
  6
CONTINUOUS
 10
10.8212228038
 20
14.3286474524
 11
10.8338517309
 21
14.3412763795
  0
LINE
  5
27C
100
AcDbEntity
  8
0
100
AcDbLine
 62
7
  6
CONTINUOUS
 10
10.8730309736
 20
14.3778523897
 11
10.8856599008
 21
14.3904813168
  0
LINE
  5
27D
100
AcDbEntity
  8
0
100
AcDbLine
 62
7
  6
CONTINUOUS
 10
10.924881154
 20
14.4270201982
 11
10.9370976531
 21
14.4392366972
  0
LINE
  5
27E
100
AcDbEntity
  8
0
100
AcDbLine
 62
7
  6
CONTINUOUS
 10
10.9380293242
 20
14.4394990016
 11
10.9504566868
 21
14.4519263641
  0
LINE
  5
27F
100
AcDbEntity
  8
0
100
AcDbLine
 62
7
  6
CONTINUOUS
 10
11.7526250569
 20
15.2225665413
 11
10.9753221886
 21
14.445263673
  0
LINE
  5
280
100
AcDbEntity
  8
0
100
AcDbLine
 62
7
  6
CONTINUOUS
 10
10.9316788613
 20
14.4016203457
 11
10.9131628413
 21
14.3831043257
  0
LINE
  5
281
100
AcDbEntity
  8
0
100
AcDbLine
 62
7
  6
CONTINUOUS
 10
10.8803958884
 20
14.3503373728
 11
10.8634057246
 21
14.333347209
  0
LINE
  5
282
100
AcDbEntity
  8
0
100
AcDbLine
 62
7
  6
CONTINUOUS
 10
10.8291357242
 20
14.2990772086
 11
10.8136637443
 21
14.2836052287
  0
LINE
  5
283
100
AcDbEntity
  8
0
100
AcDbLine
 62
7
  6
CONTINUOUS
 10
10.7778604533
 20
14.2478019377
 11
10.7698716278
 21
14.2398131122
  0
LINE
  5
284
100
AcDbEntity
  8
0
100
AcDbLine
 62
7
  6
CONTINUOUS
 10
10.5064143485
 20
13.935697193
 11
10.7018126001
 21
14.1310954446
  0
LINE
  5
285
100
AcDbEntity
  8
0
100
AcDbLine
 62
7
  6
CONTINUOUS
 10
8.4570143371
 20
12.4193606859
 11
8.4364771844
 21
12.4016891825
  0
LINE
  5
286
100
AcDbEntity
  8
0
100
AcDbLine
 62
7
  6
CONTINUOUS
 10
8.4312411775
 20
12.393730469
 11
8.4117284471
 21
12.3769404451
  0
LINE
  5
287
100
AcDbEntity
  8
0
100
AcDbLine
 62
7
  6
CONTINUOUS
 10
8.4110136813
 20
12.3733654322
 11
8.3905152437
 21
12.3557272417
  0
LINE
  5
288
100
AcDbEntity
  8
0
100
AcDbLine
 62
7
  6
CONTINUOUS
 10
8.3963113222
 20
12.3582479135
 11
8.3728375741
 21
12.3380495722
  0
LINE
  5
289
100
AcDbEntity
  8
0
100
AcDbLine
 62
7
  6
CONTINUOUS
 10
8.3865873898
 20
12.3488941482
 11
8.3657665063
 21
12.3309785043
  0
LINE
  5
28A
100
AcDbEntity
  8
0
100
AcDbLine
 62
9
  6
CONTINUOUS
 10
14.3613724158
 20
5.149210267
 11
14.3870638114
 21
5.1512573786
  0
LINE
  5
28B
100
AcDbEntity
  8
0
100
AcDbLine
 62
7
  6
CONTINUOUS
 10
14.2297997941
 20
4.772391804
 11
14.2197997941
 21
4.772391804
  0
LINE
  5
28C
100
AcDbEntity
  8
0
100
AcDbLine
 62
9
  6
CONTINUOUS
 10
14.0322997941
 20
4.834891804
 11
14.2197997941
 21
4.834891804
  0
LINE
  5
28D
100
AcDbEntity
  8
0
100
AcDbLine
 62
7
  6
CONTINUOUS
 10
14.0622997941
 20
4.894891804
 11
14.2197997941
 21
4.894891804
  0
LINE
  5
28E
100
AcDbEntity
  8
0
100
AcDbLine
 62
9
  6
CONTINUOUS
 10
14.6397997941
 20
5.107391804
 11
14.3629544281
 21
5.107391743
  0
LINE
  5
28F
100
AcDbEntity
  8
0
100
AcDbLine
 62
9
  6
CONTINUOUS
 10
14.2297997941
 20
5.157391804
 11
14.3602839019
 21
5.157391804
  0
LINE
  5
290
100
AcDbEntity
  8
0
100
AcDbLine
 62
7
  6
CONTINUOUS
 10
14.4604223716
 20
5.167391804
 11
14.6397997941
 21
5.167391804
  0
LINE
  5
291
100
AcDbEntity
  8
0
100
AcDbLine
 62
7
  6
CONTINUOUS
 10
14.2597997941
 20
5.217391804
 11
14.3629544281
 21
5.217391804
  0
LINE
  5
292
100
AcDbEntity
  8
0
100
AcDbLine
 62
7
  6
CONTINUOUS
 10
8.640492219
 20
12.0933871033
 11
8.6233175999
 21
12.0734274108
  0
LINE
  5
293
100
AcDbEntity
  8
0
100
AcDbLine
 62
7
  6
CONTINUOUS
 10
8.7078838193
 20
12.1668978797
 11
8.6909492282
 21
12.1472171387
  0
LINE
  5
294
100
AcDbEntity
  8
0
100
AcDbLine
 62
7
  6
CONTINUOUS
 10
8.6852669327
 20
12.1381021978
 11
8.6692180725
 21
12.1194508197
  0
LINE
  5
295
100
AcDbEntity
  8
0
100
AcDbLine
 62
7
  6
CONTINUOUS
 10
8.6656350274
 20
12.1095207867
 11
8.6522626129
 21
12.0939798725
  0
LINE
  5
296
100
AcDbEntity
  8
0
100
AcDbLine
 62
7
  6
CONTINUOUS
 10
8.6490343441
 20
12.0812434903
 11
8.6400661508
 21
12.0708209955
  0
LINE
  5
297
100
AcDbEntity
  8
0
100
AcDbLine
 62
7
  6
CONTINUOUS
 10
8.9125816429
 20
11.8391116177
 11
8.893708815
 21
11.8171783313
  0
LINE
  5
298
100
AcDbEntity
  8
0
100
AcDbLine
 62
7
  6
CONTINUOUS
 10
8.968362797
 20
11.8129690633
 11
8.9521339611
 21
11.7941085243
  0
LINE
  5
299
100
AcDbEntity
  8
0
100
AcDbLine
 62
7
  6
CONTINUOUS
 10
8.9983731299
 20
11.8235069844
 11
8.9830129397
 21
11.8056559525
  0
LINE
  5
29A
100
AcDbEntity
  8
0
100
AcDbLine
 62
7
  6
CONTINUOUS
 10
9.0263215204
 20
11.8469408913
 11
9.0100895997
 21
11.8280767672
  0
LINE
  5
29B
100
AcDbEntity
  8
0
100
AcDbLine
 62
7
  6
CONTINUOUS
 10
8.9938229835
 20
11.7327928328
 11
8.9865484736
 21
11.7243386727
  0
LINE
  5
29C
100
AcDbEntity
  8
0
100
AcDbLine
 62
7
  6
CONTINUOUS
 10
10.9380354318
 20
14.4395052787
 11
10.9380293242
 21
14.4394990016
  0
LINE
  5
29D
100
AcDbEntity
  8
0
100
AcDbLine
 62
7
  6
CONTINUOUS
 10
10.7265613375
 20
14.1310954446
 11
10.8025753164
 21
14.2071094236
  0
LINE
  5
29E
100
AcDbEntity
  8
0
100
AcDbLine
 62
7
  6
CONTINUOUS
 10
10.4694664475
 20
13.5239826979
 11
10.0883358924
 21
13.1428521429
  0
LINE
  5
29F
100
AcDbEntity
  8
0
100
AcDbLine
 62
7
  6
CONTINUOUS
 10
9.9299439734
 20
12.9844602239
 11
10.0600516212
 21
13.1145678716
  0
LINE
  5
2A0
100
AcDbEntity
  8
0
100
AcDbLine
 62
7
  6
CONTINUOUS
 10
8.7915990785
 20
12.0863739938
 11
8.7702029743
 21
12.0679633926
  0
LINE
  5
2A1
100
AcDbEntity
  8
0
100
AcDbLine
 62
7
  6
CONTINUOUS
 10
8.7688484751
 20
12.0577304757
 11
8.7484718186
 21
12.0401970736
  0
LINE
  5
2A2
100
AcDbEntity
  8
0
100
AcDbLine
 62
7
  6
CONTINUOUS
 10
8.7528900964
 20
12.0331174818
 11
8.731516359
 21
12.0147261263
  0
LINE
  5
2A3
100
AcDbEntity
  8
0
100
AcDbLine
 62
7
  6
CONTINUOUS
 10
8.7436867588
 20
12.012534084
 11
8.7193198969
 21
11.9915672494
  0
LINE
  5
2A4
100
AcDbEntity
  8
0
100
AcDbLine
 62
7
  6
CONTINUOUS
 10
8.9814592759
 20
11.7452357118
 11
8.9729625611
 21
11.7379245852
  0
LINE
  5
2A5
100
AcDbEntity
  8
0
100
AcDbLine
 62
7
  6
CONTINUOUS
 10
9.0438827354
 20
11.7256063141
 11
9.0313877072
 21
11.7148547782
  0
LINE
  5
2A6
100
AcDbEntity
  8
0
100
AcDbLine
 62
7
  6
CONTINUOUS
 10
9.0834507202
 20
11.744630329
 11
9.0622666858
 21
11.7264022064
  0
LINE
  5
2A7
100
AcDbEntity
  8
0
100
AcDbLine
 62
7
  6
CONTINUOUS
 10
9.1115632476
 20
11.7679424715
 11
9.0893433458
 21
11.7488230211
  0
LINE
  5
2A8
100
AcDbEntity
  8
0
100
AcDbLine
 62
7
  6
CONTINUOUS
 10
9.0910649404
 20
11.6668226165
 11
9.0658022197
 21
11.6450849266
  0
LINE
  5
2A9
100
AcDbEntity
  8
0
100
AcDbLine
 62
9
  6
CONTINUOUS
 10
11.1047997941
 20
5.429891804
 11
11.6047997941
 21
5.429891804
  0
LINE
  5
2AA
100
AcDbEntity
  8
0
100
AcDbLine
 62
7
  6
CONTINUOUS
 10
11.1347997941
 20
5.459891804
 11
11.5747997941
 21
5.459891804
  0
LINE
  5
2AB
100
AcDbEntity
  8
0
100
AcDbLine
 62
7
  6
CONTINUOUS
 10
9.1904478668
 20
11.5898297211
 11
9.1747066319
 21
11.5715358535
  0
LINE
  5
2AC
100
AcDbEntity
  8
0
100
AcDbLine
 62
7
  6
CONTINUOUS
 10
9.2672450385
 20
11.5533597186
 11
9.252474701
 21
11.5361941912
  0
LINE
  5
2AD
100
AcDbEntity
  8
0
100
AcDbLine
 62
7
  6
CONTINUOUS
 10
9.3162903846
 20
11.5555923013
 11
9.3006965871
 21
11.5374697798
  0
LINE
  5
2AE
100
AcDbEntity
  8
0
100
AcDbLine
 62
7
  6
CONTINUOUS
 10
9.3036799552
 20
11.465362268
 11
9.2931350764
 21
11.4531074089
  0
LINE
  5
2AF
100
AcDbEntity
  8
0
100
AcDbLine
 62
7
  6
CONTINUOUS
 10
9.4735586602
 20
11.3460695348
 11
9.4592399827
 21
11.3294289095
  0
LINE
  5
2B0
100
AcDbEntity
  8
0
100
AcDbLine
 62
7
  6
CONTINUOUS
 10
10.2615770538
 20
12.2412909969
 11
10.4249187202
 21
12.4046326633
  0
LINE
  5
2B1
100
AcDbEntity
  8
0
100
AcDbLine
 62
7
  6
CONTINUOUS
 10
9.2662152371
 20
11.5028269861
 11
9.253960378
 21
11.4922821074
  0
LINE
  5
2B2
100
AcDbEntity
  8
0
100
AcDbLine
 62
7
  6
CONTINUOUS
 10
9.3478163786
 20
11.470783549
 11
9.3317284471
 21
11.4569404451
  0
LINE
  5
2B3
100
AcDbEntity
  8
0
100
AcDbLine
 62
7
  6
CONTINUOUS
 10
9.4029224177
 20
11.477982711
 11
9.3799503332
 21
11.4582160337
  0
LINE
  5
2B4
100
AcDbEntity
  8
0
100
AcDbLine
 62
7
  6
CONTINUOUS
 10
9.3954147641
 20
11.3936666823
 11
9.3723888225
 21
11.3738536628
  0
LINE
  5
2B5
100
AcDbEntity
  8
0
100
AcDbLine
 62
7
  6
CONTINUOUS
 10
9.5545492868
 20
11.263990411
 11
9.5384937288
 21
11.2501751634
  0
LINE
  5
2B6
100
AcDbEntity
  8
0
100
AcDbLine
 62
7
  6
CONTINUOUS
 10
6.5536238576
 20
14.3515973254
 11
6.4681894094
 21
14.6704430269
  0
LINE
  5
2B7
100
AcDbEntity
  8
0
100
AcDbLine
 62
7
  6
CONTINUOUS
 10
9.5651167932
 20
11.3055847576
 11
9.5500692706
 21
11.2880970963
  0
LINE
  5
2B8
100
AcDbEntity
  8
0
100
AcDbLine
 62
7
  6
CONTINUOUS
 10
9.6032532458
 20
11.2157619671
 11
9.5892180725
 21
11.1994508197
  0
LINE
  5
2B9
100
AcDbEntity
  8
0
100
AcDbLine
 62
7
  6
CONTINUOUS
 10
9.7619251683
 20
11.1078440114
 11
9.7473088674
 21
11.0908574995
  0
LINE
  5
2BA
100
AcDbEntity
  8
0
100
AcDbLine
 62
7
  6
CONTINUOUS
 10
9.8981134026
 20
10.9710115418
 11
9.8837950605
 21
10.9543713064
  0
LINE
  5
2BB
100
AcDbEntity
  8
0
100
AcDbLine
 62
7
  6
CONTINUOUS
 10
9.6529421113
 20
11.2291667572
 11
9.6293230167
 21
11.2088433502
  0
LINE
  5
2BC
100
AcDbEntity
  8
0
100
AcDbLine
 62
7
  6
CONTINUOUS
 10
9.6912219807
 20
11.1397727945
 11
9.6684718186
 21
11.1201970736
  0
LINE
  5
2BD
100
AcDbEntity
  8
0
100
AcDbLine
 62
7
  6
CONTINUOUS
 10
9.735669953
 20
11.0955385272
 11
9.7128049245
 21
11.0758639677
  0
LINE
  5
2BE
100
AcDbEntity
  8
0
100
AcDbLine
 62
7
  6
CONTINUOUS
 10
9.8506944769
 20
11.0323683801
 11
9.8265626135
 21
11.0116037534
  0
LINE
  5
2BF
100
AcDbEntity
  8
0
100
AcDbLine
 62
7
  6
CONTINUOUS
 10
9.9875360258
 20
10.8961879582
 11
9.9630488066
 21
10.8751175603
  0
LINE
  5
2C0
100
AcDbEntity
  8
0
100
AcDbLine
 62
7
  6
CONTINUOUS
 10
10.0574855285
 20
10.8265767156
 11
10.0328164945
 21
10.8053498724
  0
LINE
  5
2C1
100
AcDbEntity
  8
0
100
AcDbLine
 62
7
  6
CONTINUOUS
 10
14.7647997941
 20
7.272391804
 11
14.9527997941
 21
7.272391804
  0
LINE
  5
2C2
100
AcDbEntity
  8
0
100
AcDbLine
 62
7
  6
CONTINUOUS
 10
9.879800967
 20
14.4130100336
 11
9.879800967
 21
14.4863261984
  0
LINE
  5
2C3
100
AcDbEntity
  8
0
100
AcDbLine
 62
7
  6
CONTINUOUS
 10
10.0866297005
 20
14.7462783443
 11
10.0866297005
 21
14.7710270816
  0
LINE
  5
2C4
100
AcDbEntity
  8
0
100
AcDbLine
 62
7
  6
CONTINUOUS
 10
10.2640352111
 20
14.8823655456
 11
10.2640865173
 21
14.8830765211
  0
LINE
  5
2C5
100
AcDbEntity
  8
0
100
AcDbLine
 62
7
  6
CONTINUOUS
 10
10.2142269831
 20
14.8325638425
 11
10.2142778574
 21
14.8332678612
  0
LINE
  5
2C6
100
AcDbEntity
  8
0
100
AcDbLine
 62
7
  6
CONTINUOUS
 10
10.3136829484
 20
14.9320175524
 11
10.3137340082
 21
14.932724012
  0
LINE
  5
2C7
100
AcDbEntity
  8
0
100
AcDbLine
 62
7
  6
CONTINUOUS
 10
10.6549550576
 20
10.5204197249
 11
11.2762752848
 21
11.1417399521
  0
LINE
  5
2C8
100
AcDbEntity
  8
0
100
AcDbLine
 62
7
  6
CONTINUOUS
 10
10.7778604533
 20
14.2478019377
 11
10.7779145952
 21
14.2485508226
  0
LINE
  5
2C9
100
AcDbEntity
  8
0
100
AcDbLine
 62
7
  6
CONTINUOUS
 10
10.8291903037
 20
14.299831738
 11
10.8291357242
 21
14.2990772086
  0
LINE
  5
2CA
100
AcDbEntity
  8
0
100
AcDbLine
 62
7
  6
CONTINUOUS
 10
10.8804499224
 20
14.3510848369
 11
10.8803958884
 21
14.3503373728
  0
LINE
  5
2CB
100
AcDbEntity
  8
0
100
AcDbLine
 62
7
  6
CONTINUOUS
 10
10.9317329971
 20
14.4023691252
 11
10.9316788613
 21
14.4016203457
  0
LINE
  5
2CC
100
AcDbEntity
  8
0
100
AcDbLine
 62
7
  6
CONTINUOUS
 10
11.0112997941
 20
4.335891804
 11
11.0112997941
 21
3.708891804
  0
LINE
  5
2CD
100
AcDbEntity
  8
0
100
AcDbLine
 62
9
  6
CONTINUOUS
 10
11.0412997941
 20
3.678891804
 11
11.0412997941
 21
4.365891804
  0
LINE
  5
2CE
100
AcDbEntity
  8
0
100
AcDbLine
 62
9
  6
CONTINUOUS
 10
11.0447997941
 20
3.8023918037
 11
11.0447997941
 21
4.2423918043
  0
LINE
  5
2CF
100
AcDbEntity
  8
0
100
AcDbLine
 62
7
  6
CONTINUOUS
 10
11.1047997941
 20
5.429891804
 11
11.1047997941
 21
4.425891804
  0
LINE
  5
2D0
100
AcDbEntity
  8
0
100
AcDbLine
 62
7
  6
CONTINUOUS
 10
11.1047997941
 20
4.242391804
 11
11.1047997941
 21
3.802391804
  0
LINE
  5
2D1
100
AcDbEntity
  8
0
100
AcDbLine
 62
7
  6
CONTINUOUS
 10
11.1047997941
 20
3.618891804
 11
11.1047997941
 21
2.614891804
  0
LINE
  5
2D2
100
AcDbEntity
  8
0
100
AcDbLine
 62
9
  6
CONTINUOUS
 10
11.1347997941
 20
2.584891804
 11
11.1347997941
 21
3.678891804
  0
LINE
  5
2D3
100
AcDbEntity
  8
0
100
AcDbLine
 62
9
  6
CONTINUOUS
 10
11.1347997941
 20
3.712391804
 11
11.1347997941
 21
4.332391804
  0
LINE
  5
2D4
100
AcDbEntity
  8
0
100
AcDbLine
 62
9
  6
CONTINUOUS
 10
11.1347997941
 20
4.365891804
 11
11.1347997941
 21
5.459891804
  0
LINE
  5
2D5
100
AcDbEntity
  8
0
100
AcDbLine
 62
7
  6
CONTINUOUS
 10
8.6821811155
 20
11.9949372261
 11
8.6240811612
 21
12.0530371804
  0
LINE
  5
2D6
100
AcDbEntity
  8
0
100
AcDbLine
 62
7
  6
CONTINUOUS
 10
8.3453762759
 20
12.3317420657
 11
8.2872763216
 21
12.38984202
  0
LINE
  5
2D7
100
AcDbEntity
  8
0
100
AcDbLine
 62
7
  6
CONTINUOUS
 10
8.0085714363
 20
12.6685469054
 11
7.950471482
 21
12.7266468596
  0
LINE
  5
2D8
100
AcDbEntity
  8
0
100
AcDbLine
 62
7
  6
CONTINUOUS
 10
9.0454119893
 20
11.645848488
 11
8.987312035
 21
11.7039484423
  0
LINE
  5
2D9
100
AcDbEntity
  8
0
100
AcDbLine
 62
7
  6
CONTINUOUS
 10
8.9525723307
 20
11.7386881466
 11
8.8944723764
 21
11.7967881008
  0
LINE
  5
2DA
100
AcDbEntity
  8
0
100
AcDbLine
 62
7
  6
CONTINUOUS
 10
8.6989296665
 20
11.9923308108
 11
8.6408297122
 21
12.050430765
  0
LINE
  5
2DB
100
AcDbEntity
  8
0
100
AcDbLine
 62
7
  6
CONTINUOUS
 10
8.3524473437
 20
12.3388131335
 11
8.2943473894
 21
12.3969130878
  0
LINE
  5
2DC
100
AcDbEntity
  8
0
100
AcDbLine
 62
7
  6
CONTINUOUS
 10
8.0059650209
 20
12.6852954563
 11
7.9478650666
 21
12.7433954106
  0
LINE
  5
2DD
100
AcDbEntity
  8
0
100
AcDbLine
 62
7
  6
CONTINUOUS
 10
7.7523223567
 20
12.9389381205
 11
7.6942224024
 21
12.9970380748
  0
LINE
  5
2DE
100
AcDbEntity
  8
0
100
AcDbLine
 62
7
  6
CONTINUOUS
 10
7.6594826981
 20
13.0317777791
 11
7.6013827439
 21
13.0898777334
  0
LINE
  5
2DF
100
AcDbEntity
  8
0
100
AcDbLine
 62
9
  6
CONTINUOUS
 10
8.6364815905
 20
12.0602634202
 11
8.6233175999
 21
12.0734274108
  0
LINE
  5
2E0
100
AcDbEntity
  8
0
100
AcDbLine
 62
9
  6
CONTINUOUS
 10
8.3657665063
 20
12.3309785043
 11
8.3622799988
 21
12.3344650119
  0
LINE
  5
2E1
100
AcDbEntity
  8
0
100
AcDbLine
 62
9
  6
CONTINUOUS
 10
8.2899992677
 20
12.4067457429
 11
8.2865127602
 21
12.4102322505
  0
LINE
  5
2E2
100
AcDbEntity
  8
0
100
AcDbLine
 62
9
  6
CONTINUOUS
 10
8.0289616667
 20
12.667783344
 11
8.015797676
 21
12.6809473346
  0
LINE
  5
2E3
100
AcDbEntity
  8
0
100
AcDbLine
 62
7
  6
CONTINUOUS
 10
7.6190546067
 20
13.1391275685
 11
7.6223568724
 21
13.1355306845
  0
LINE
  5
2E4
100
AcDbEntity
  8
0
100
AcDbLine
 62
7
  6
CONTINUOUS
 10
7.0501299775
 20
13.7812381759
 11
7.0510727831
 21
13.7801356972
  0
LINE
  5
2E5
100
AcDbEntity
  8
0
100
AcDbLine
 62
7
  6
CONTINUOUS
 10
8.2107562271
 20
12.5168514802
 11
8.1849826311
 21
12.5471597204
  0
LINE
  5
2E6
100
AcDbEntity
  8
0
100
AcDbLine
 62
9
  6
CONTINUOUS
 10
11.5747997941
 20
5.459891804
 11
11.5747997941
 21
4.365891804
  0
LINE
  5
2E7
100
AcDbEntity
  8
0
100
AcDbLine
 62
9
  6
CONTINUOUS
 10
11.5747997941
 20
2.584891804
 11
11.5747997941
 21
3.678891804
  0
LINE
  5
2E8
100
AcDbEntity
  8
0
100
AcDbLine
 62
9
  6
CONTINUOUS
 10
11.5747997941
 20
3.712391804
 11
11.5747997941
 21
4.332391804
  0
LINE
  5
2E9
100
AcDbEntity
  8
0
100
AcDbLine
 62
7
  6
CONTINUOUS
 10
11.6047997941
 20
5.429891804
 11
11.6047997941
 21
4.425891804
  0
LINE
  5
2EA
100
AcDbEntity
  8
0
100
AcDbLine
 62
7
  6
CONTINUOUS
 10
11.6047997941
 20
3.618891804
 11
11.6047997941
 21
2.614891804
  0
LINE
  5
2EB
100
AcDbEntity
  8
0
100
AcDbLine
 62
7
  6
CONTINUOUS
 10
11.6047997941
 20
3.802391804
 11
11.6047997941
 21
4.242391804
  0
LINE
  5
2EC
100
AcDbEntity
  8
0
100
AcDbLine
 62
9
  6
CONTINUOUS
 10
11.6647997941
 20
4.2423918044
 11
11.6647997941
 21
3.8023918038
  0
LINE
  5
2ED
100
AcDbEntity
  8
0
100
AcDbLine
 62
9
  6
CONTINUOUS
 10
11.6682997941
 20
4.365891804
 11
11.6682997941
 21
4.2235733141
  0
LINE
  5
2EE
100
AcDbEntity
  8
0
100
AcDbLine
 62
9
  6
CONTINUOUS
 10
11.6682997941
 20
3.821210294
 11
11.6682997941
 21
3.678891804
  0
LINE
  5
2EF
100
AcDbEntity
  8
0
100
AcDbLine
 62
7
  6
CONTINUOUS
 10
11.6982997941
 20
4.335891804
 11
11.6982997941
 21
4.2235733147
  0
LINE
  5
2F0
100
AcDbEntity
  8
0
100
AcDbLine
 62
7
  6
CONTINUOUS
 10
11.6982997941
 20
3.8212102935
 11
11.6982997941
 21
3.708891804
  0
LINE
  5
2F1
100
AcDbEntity
  8
0
100
AcDbLine
 62
9
  6
CONTINUOUS
 10
11.7582997941
 20
4.334891804
 11
11.7582997941
 21
3.709891804
  0
LINE
  5
2F2
100
AcDbEntity
  8
0
100
AcDbLine
 62
7
  6
CONTINUOUS
 10
8.4723857361
 20
12.2552219712
 11
8.5026939763
 21
12.2294483752
  0
LINE
  5
2F3
100
AcDbEntity
  8
0
100
AcDbLine
 62
7
  6
CONTINUOUS
 10
9.7367724318
 20
11.0945957216
 11
9.735669953
 21
11.0955385272
  0
LINE
  5
2F4
100
AcDbEntity
  8
0
100
AcDbLine
 62
7
  6
CONTINUOUS
 10
9.0946618244
 20
11.6635203509
 11
9.0910649404
 21
11.6668226165
  0
LINE
  5
2F5
100
AcDbEntity
  8
0
100
AcDbLine
 62
9
  6
CONTINUOUS
 10
9.0658022197
 20
11.6450849266
 11
8.9865484736
 21
11.7243386727
  0
LINE
  5
2F6
100
AcDbEntity
  8
0
100
AcDbLine
 62
9
  6
CONTINUOUS
 10
8.9729625611
 20
11.7379245852
 11
8.893708815
 21
11.8171783313
  0
LINE
  5
2F7
100
AcDbEntity
  8
0
100
AcDbLine
 62
9
  6
CONTINUOUS
 10
8.7193198969
 20
11.9915672494
 11
8.6400661508
 21
12.0708209955
  0
LINE
  5
2F8
100
AcDbEntity
  8
0
100
AcDbLine
 62
9
  6
CONTINUOUS
 10
8.3728375741
 20
12.3380495722
 11
8.293583828
 21
12.4173033183
  0
LINE
  5
2F9
100
AcDbEntity
  8
0
100
AcDbLine
 62
9
  6
CONTINUOUS
 10
8.0263552514
 20
12.6845318949
 11
7.9471015052
 21
12.763785641
  0
LINE
  5
2FA
100
AcDbEntity
  8
0
100
AcDbLine
 62
9
  6
CONTINUOUS
 10
7.7727125872
 20
12.9381745591
 11
7.693458841
 21
13.0174283052
  0
LINE
  5
2FB
100
AcDbEntity
  8
0
100
AcDbLine
 62
9
  6
CONTINUOUS
 10
7.6798729286
 20
13.0310142177
 11
7.6006191825
 21
13.1102679638
  0
LINE
  5
2FC
100
AcDbEntity
  8
0
100
AcDbLine
 62
7
  6
CONTINUOUS
 10
9.3519985921
 20
11.3746172242
 11
9.2938986378
 21
11.4327171785
  0
LINE
  5
2FD
100
AcDbEntity
  8
0
100
AcDbLine
 62
7
  6
CONTINUOUS
 10
9.2335701476
 20
11.4930456687
 11
9.1754701933
 21
11.551145623
  0
LINE
  5
2FE
100
AcDbEntity
  8
0
100
AcDbLine
 62
7
  6
CONTINUOUS
 10
9.0109974767
 20
11.7156183396
 11
8.9528975225
 21
11.7737182938
  0
LINE
  5
2FF
100
AcDbEntity
  8
0
100
AcDbLine
 62
7
  6
CONTINUOUS
 10
8.7111261286
 20
12.0154896877
 11
8.6530261743
 21
12.073589642
  0
LINE
  5
300
100
AcDbEntity
  8
0
100
AcDbLine
 62
7
  6
CONTINUOUS
 10
8.3701250132
 20
12.3564908031
 11
8.3120250589
 21
12.4145907574
  0
LINE
  5
301
100
AcDbEntity
  8
0
100
AcDbLine
 62
7
  6
CONTINUOUS
 10
8.0291238979
 20
12.6974919184
 11
7.9710239436
 21
12.7555918727
  0
LINE
  5
302
100
AcDbEntity
  8
0
100
AcDbLine
 62
7
  6
CONTINUOUS
 10
7.7292525497
 20
12.9973632666
 11
7.6711525954
 21
13.0554632209
  0
LINE
  5
303
100
AcDbEntity
  8
0
100
AcDbLine
 62
7
  6
CONTINUOUS
 10
7.5066798789
 20
13.2199359374
 11
7.4485799246
 21
13.2780358917
  0
LINE
  5
304
100
AcDbEntity
  8
0
100
AcDbLine
 62
7
  6
CONTINUOUS
 10
7.3882514344
 20
13.3383643819
 11
7.3301514801
 21
13.3964643362
  0
LINE
  5
305
100
AcDbEntity
  8
0
100
AcDbLine
 62
7
  6
CONTINUOUS
 10
8.2107562271
 20
12.5168514802
 11
8.3007867574
 21
12.4268209499
  0
LINE
  5
306
100
AcDbEntity
  8
0
100
AcDbLine
 62
7
  6
CONTINUOUS
 10
8.4723857361
 20
12.2552219712
 11
8.3823552058
 21
12.3452525015
  0
LINE
  5
307
100
AcDbEntity
  8
0
100
AcDbLine
 62
7
  6
CONTINUOUS
 10
8.0480528738
 20
12.6840894777
 11
8.3027588109
 21
12.4293835406
  0
LINE
  5
308
100
AcDbEntity
  8
0
100
AcDbLine
 62
7
  6
CONTINUOUS
 10
8.3849177965
 20
12.347224555
 11
8.6396237336
 21
12.0925186179
  0
LINE
  5
309
100
AcDbEntity
  8
0
100
AcDbLine
 62
9
  6
CONTINUOUS
 10
8.0481709676
 20
12.6842075715
 11
8.3028769046
 21
12.4295016344
  0
LINE
  5
30A
100
AcDbEntity
  8
0
100
AcDbLine
 62
9
  6
CONTINUOUS
 10
8.3850358903
 20
12.3473426487
 11
8.6397418274
 21
12.0926367117
  0
LINE
  5
30B
100
AcDbEntity
  8
0
100
AcDbLine
 62
9
  6
CONTINUOUS
 10
8.7816582646
 20
11.9559320199
 11
8.7336728337
 21
12.0039174508
  0
LINE
  5
30C
100
AcDbEntity
  8
0
100
AcDbLine
 62
9
  6
CONTINUOUS
 10
8.6489393186
 20
12.0886509658
 11
8.3871905109
 21
12.3503997735
  0
LINE
  5
30D
100
AcDbEntity
  8
0
100
AcDbLine
 62
9
  6
CONTINUOUS
 10
8.3059340294
 20
12.431656255
 11
8.0441852217
 21
12.6934050627
  0
LINE
  5
30E
100
AcDbEntity
  8
0
100
AcDbLine
 62
9
  6
CONTINUOUS
 10
7.9594517066
 20
12.7781385778
 11
7.9114662758
 21
12.8261240087
  0
LINE
  5
30F
100
AcDbEntity
  8
0
100
AcDbLine
 62
9
  6
CONTINUOUS
 10
9.3723888225
 20
11.3738536628
 11
9.2931350764
 21
11.4531074089
  0
LINE
  5
310
100
AcDbEntity
  8
0
100
AcDbLine
 62
9
  6
CONTINUOUS
 10
9.253960378
 20
11.4922821074
 11
9.1747066319
 21
11.5715358535
  0
LINE
  5
311
100
AcDbEntity
  8
0
100
AcDbLine
 62
9
  6
CONTINUOUS
 10
9.0313877072
 20
11.7148547782
 11
8.9521339611
 21
11.7941085243
  0
LINE
  5
312
100
AcDbEntity
  8
0
100
AcDbLine
 62
9
  6
CONTINUOUS
 10
8.731516359
 20
12.0147261263
 11
8.6522626129
 21
12.0939798725
  0
LINE
  5
313
100
AcDbEntity
  8
0
100
AcDbLine
 62
9
  6
CONTINUOUS
 10
8.3905152437
 20
12.3557272417
 11
8.3112614976
 21
12.4349809878
  0
LINE
  5
314
100
AcDbEntity
  8
0
100
AcDbLine
 62
9
  6
CONTINUOUS
 10
8.0495141283
 20
12.696728357
 11
7.9702603822
 21
12.7759821031
  0
LINE
  5
315
100
AcDbEntity
  8
0
100
AcDbLine
 62
9
  6
CONTINUOUS
 10
7.7496427802
 20
12.9965997052
 11
7.670389034
 21
13.0758534513
  0
LINE
  5
316
100
AcDbEntity
  8
0
100
AcDbLine
 62
9
  6
CONTINUOUS
 10
7.5270701093
 20
13.219172376
 11
7.4478163632
 21
13.2984261221
  0
LINE
  5
317
100
AcDbEntity
  8
0
100
AcDbLine
 62
9
  6
CONTINUOUS
 10
7.4086416648
 20
13.3376008205
 11
7.3293879187
 21
13.4168545666
  0
LINE
  5
318
100
AcDbEntity
  8
0
100
AcDbLine
 62
7
  6
CONTINUOUS
 10
7.7940637886
 20
12.956465302
 11
7.9654359045
 21
12.7850931861
  0
LINE
  5
319
100
AcDbEntity
  8
0
100
AcDbLine
 62
7
  6
CONTINUOUS
 10
8.051657431
 20
12.6988716596
 11
8.3117670968
 21
12.4387619938
  0
LINE
  5
31A
100
AcDbEntity
  8
0
100
AcDbLine
 62
7
  6
CONTINUOUS
 10
8.3942962497
 20
12.356232841
 11
8.6544059155
 21
12.0961231751
  0
LINE
  5
31B
100
AcDbEntity
  8
0
100
AcDbLine
 62
7
  6
CONTINUOUS
 10
8.740627442
 20
12.0099016486
 11
8.9119995579
 21
11.8385295327
  0
LINE
  5
31C
100
AcDbEntity
  8
0
100
AcDbLine
 62
9
  6
CONTINUOUS
 10
7.7945747794
 20
12.9569762928
 11
7.9657334546
 21
12.7858176176
  0
LINE
  5
31D
100
AcDbEntity
  8
0
100
AcDbLine
 62
9
  6
CONTINUOUS
 10
8.0521684218
 20
12.6993826504
 11
8.3122780876
 21
12.4392729846
  0
LINE
  5
31E
100
AcDbEntity
  8
0
100
AcDbLine
 62
9
  6
CONTINUOUS
 10
8.3948072404
 20
12.3567438318
 11
8.6549169063
 21
12.0966341659
  0
LINE
  5
31F
100
AcDbEntity
  8
0
100
AcDbLine
 62
9
  6
CONTINUOUS
 10
8.7413518735
 20
12.0101991987
 11
8.9125105487
 21
11.8390405235
  0
LINE
  5
320
100
AcDbEntity
  8
0
100
AcDbLine
 62
9
  6
CONTINUOUS
 10
9.0946618244
 20
11.6635203509
 11
9.0373575521
 21
11.7208246231
  0
LINE
  5
321
100
AcDbEntity
  8
0
100
AcDbLine
 62
9
  6
CONTINUOUS
 10
8.9576560676
 20
11.8005261076
 11
8.7379339423
 21
12.0202482329
  0
LINE
  5
322
100
AcDbEntity
  8
0
100
AcDbLine
 62
9
  6
CONTINUOUS
 10
8.6577847195
 20
12.1003974558
 11
8.396932827
 21
12.3612493482
  0
LINE
  5
323
100
AcDbEntity
  8
0
100
AcDbLine
 62
9
  6
CONTINUOUS
 10
8.3167836041
 20
12.4413985711
 11
8.0559317116
 21
12.7022504636
  0
LINE
  5
324
100
AcDbEntity
  8
0
100
AcDbLine
 62
9
  6
CONTINUOUS
 10
7.9762302272
 20
12.7819519481
 11
7.7560603634
 21
13.0021218118
  0
LINE
  5
325
100
AcDbEntity
  8
0
100
AcDbLine
 62
9
  6
CONTINUOUS
 10
7.676358879
 20
13.0818232962
 11
7.6190546067
 21
13.1391275685
  0
LINE
  5
326
100
AcDbEntity
  8
0
100
AcDbLine
 62
7
  6
CONTINUOUS
 10
9.6924146941
 20
11.0766275291
 11
9.652247891
 21
11.1167943322
  0
LINE
  5
327
100
AcDbEntity
  8
0
100
AcDbLine
 62
7
  6
CONTINUOUS
 10
9.6480815881
 20
11.120960635
 11
9.5899816339
 21
11.1790605893
  0
LINE
  5
328
100
AcDbEntity
  8
0
100
AcDbLine
 62
7
  6
CONTINUOUS
 10
9.5181034983
 20
11.2509387248
 11
9.4600035441
 21
11.3090386791
  0
LINE
  5
329
100
AcDbEntity
  8
0
100
AcDbLine
 62
7
  6
CONTINUOUS
 10
9.3113382167
 20
11.4577040065
 11
9.2532382624
 21
11.5158039608
  0
LINE
  5
32A
100
AcDbEntity
  8
0
100
AcDbLine
 62
7
  6
CONTINUOUS
 10
9.0418764554
 20
11.7271657678
 11
8.9837765011
 21
11.7852657221
  0
LINE
  5
32B
100
AcDbEntity
  8
0
100
AcDbLine
 62
7
  6
CONTINUOUS
 10
8.7280815881
 20
12.040960635
 11
8.6699816339
 21
12.0990605893
  0
LINE
  5
32C
100
AcDbEntity
  8
0
100
AcDbLine
 62
7
  6
CONTINUOUS
 10
8.3913382167
 20
12.3777040065
 11
8.3332382624
 21
12.4358039608
  0
LINE
  5
32D
100
AcDbEntity
  8
0
100
AcDbLine
 62
7
  6
CONTINUOUS
 10
8.0545948452
 20
12.714447378
 11
7.9964948909
 21
12.7725473323
  0
LINE
  5
32E
100
AcDbEntity
  8
0
100
AcDbLine
 62
7
  6
CONTINUOUS
 10
7.740799978
 20
13.0282422452
 11
7.6827000237
 21
13.0863421995
  0
LINE
  5
32F
100
AcDbEntity
  8
0
100
AcDbLine
 62
7
  6
CONTINUOUS
 10
7.4713382167
 20
13.2977040065
 11
7.4132382624
 21
13.3558039608
  0
LINE
  5
330
100
AcDbEntity
  8
0
100
AcDbLine
 62
7
  6
CONTINUOUS
 10
7.264572935
 20
13.5044692882
 11
7.2064729807
 21
13.5625692425
  0
LINE
  5
331
100
AcDbEntity
  8
0
100
AcDbLine
 62
7
  6
CONTINUOUS
 10
7.1345948452
 20
13.634447378
 11
7.032161785
 21
13.7368804382
  0
LINE
  5
332
100
AcDbEntity
  8
0
100
AcDbLine
 62
7
  6
CONTINUOUS
 10
7.5440779467
 20
13.2336275807
 11
7.6785584661
 21
13.0991470614
  0
LINE
  5
333
100
AcDbEntity
  8
0
100
AcDbLine
 62
7
  6
CONTINUOUS
 10
7.7666901528
 20
13.0110153747
 11
7.9848120392
 21
12.7928934883
  0
LINE
  5
334
100
AcDbEntity
  8
0
100
AcDbLine
 62
7
  6
CONTINUOUS
 10
8.0673997071
 20
12.7103058204
 11
8.3258131545
 21
12.4518923729
  0
LINE
  5
335
100
AcDbEntity
  8
0
100
AcDbLine
 62
7
  6
CONTINUOUS
 10
8.4074266288
 20
12.3702788987
 11
8.6658400763
 21
12.1118654512
  0
LINE
  5
336
100
AcDbEntity
  8
0
100
AcDbLine
 62
7
  6
CONTINUOUS
 10
8.7484277441
 20
12.0292777833
 11
8.9665496306
 21
11.8111558969
  0
LINE
  5
337
100
AcDbEntity
  8
0
100
AcDbLine
 62
7
  6
CONTINUOUS
 10
9.0546813173
 20
11.7230242102
 11
9.1891618366
 21
11.5885436909
  0
LINE
  5
338
100
AcDbEntity
  8
0
100
AcDbLine
 62
9
  6
CONTINUOUS
 10
7.5451696572
 20
13.2347192912
 11
7.6789384533
 21
13.1009504951
  0
LINE
  5
339
100
AcDbEntity
  8
0
100
AcDbLine
 62
9
  6
CONTINUOUS
 10
8.0692031408
 20
12.7106858076
 11
8.3266546055
 21
12.4532343429
  0
LINE
  5
33A
100
AcDbEntity
  8
0
100
AcDbLine
 62
9
  6
CONTINUOUS
 10
8.4087685988
 20
12.3711203497
 11
8.6662200635
 21
12.113668885
  0
LINE
  5
33B
100
AcDbEntity
  8
0
100
AcDbLine
 62
9
  6
CONTINUOUS
 10
9.056484751
 20
11.7234041974
 11
9.1902535471
 21
11.5896354013
  0
LINE
  5
33C
100
AcDbEntity
  8
0
100
AcDbLine
 62
9
  6
CONTINUOUS
 10
9.7128049245
 20
11.0758639677
 11
9.5892180725
 21
11.1994508197
  0
LINE
  5
33D
100
AcDbEntity
  8
0
100
AcDbLine
 62
9
  6
CONTINUOUS
 10
9.5384937288
 20
11.2501751634
 11
9.4592399827
 21
11.3294289095
  0
LINE
  5
33E
100
AcDbEntity
  8
0
100
AcDbLine
 62
9
  6
CONTINUOUS
 10
9.3317284471
 20
11.4569404451
 11
9.252474701
 21
11.5361941912
  0
LINE
  5
33F
100
AcDbEntity
  8
0
100
AcDbLine
 62
9
  6
CONTINUOUS
 10
9.0622666858
 20
11.7264022064
 11
8.9830129397
 21
11.8056559525
  0
LINE
  5
340
100
AcDbEntity
  8
0
100
AcDbLine
 62
9
  6
CONTINUOUS
 10
8.7484718186
 20
12.0401970736
 11
8.6692180725
 21
12.1194508197
  0
LINE
  5
341
100
AcDbEntity
  8
0
100
AcDbLine
 62
9
  6
CONTINUOUS
 10
8.4117284471
 20
12.3769404451
 11
8.332474701
 21
12.4561941912
  0
LINE
  5
342
100
AcDbEntity
  8
0
100
AcDbLine
 62
9
  6
CONTINUOUS
 10
8.0749850756
 20
12.7136838166
 11
7.9957313295
 21
12.7929375627
  0
LINE
  5
343
100
AcDbEntity
  8
0
100
AcDbLine
 62
9
  6
CONTINUOUS
 10
7.7611902084
 20
13.0274786838
 11
7.6819364623
 21
13.1067324299
  0
LINE
  5
344
100
AcDbEntity
  8
0
100
AcDbLine
 62
9
  6
CONTINUOUS
 10
7.4917284471
 20
13.2969404451
 11
7.412474701
 21
13.3761941912
  0
LINE
  5
345
100
AcDbEntity
  8
0
100
AcDbLine
 62
9
  6
CONTINUOUS
 10
7.2849631654
 20
13.5037057268
 11
7.2057094193
 21
13.5829594729
  0
LINE
  5
346
100
AcDbEntity
  8
0
100
AcDbLine
 62
9
  6
CONTINUOUS
 10
7.1549850756
 20
13.6336838166
 11
7.0313982236
 21
13.7572706686
  0
LINE
  5
347
100
AcDbEntity
  8
0
100
AcDbLine
 62
9
  6
CONTINUOUS
 10
9.4130277357
 20
11.3764028434
 11
9.3321092906
 21
11.4573212886
  0
LINE
  5
348
100
AcDbEntity
  8
0
100
AcDbLine
 62
9
  6
CONTINUOUS
 10
9.2528555445
 20
11.5365750347
 11
9.0626475293
 21
11.7267830499
  0
LINE
  5
349
100
AcDbEntity
  8
0
100
AcDbLine
 62
9
  6
CONTINUOUS
 10
8.9833937831
 20
11.806036796
 11
8.748852662
 21
12.0405779171
  0
LINE
  5
34A
100
AcDbEntity
  8
0
100
AcDbLine
 62
9
  6
CONTINUOUS
 10
8.6695989159
 20
12.1198316632
 11
8.4121092906
 21
12.3773212886
  0
LINE
  5
34B
100
AcDbEntity
  8
0
100
AcDbLine
 62
9
  6
CONTINUOUS
 10
8.3328555445
 20
12.4565750347
 11
8.0753659191
 21
12.7140646601
  0
LINE
  5
34C
100
AcDbEntity
  8
0
100
AcDbLine
 62
9
  6
CONTINUOUS
 10
7.996112173
 20
12.7933184062
 11
7.7615710519
 21
13.0278595273
  0
LINE
  5
34D
100
AcDbEntity
  8
0
100
AcDbLine
 62
9
  6
CONTINUOUS
 10
7.6823173058
 20
13.1071132734
 11
7.4921092906
 21
13.2973212886
  0
LINE
  5
34E
100
AcDbEntity
  8
0
100
AcDbLine
 62
9
  6
CONTINUOUS
 10
7.4128555445
 20
13.3765750347
 11
7.3319370993
 21
13.4574934799
  0
LINE
  5
34F
100
AcDbEntity
  8
0
100
AcDbLine
 62
7
  6
CONTINUOUS
 10
7.1771296333
 20
13.6379720826
 11
7.2179346003
 21
13.5971671157
  0
LINE
  5
350
100
AcDbEntity
  8
0
100
AcDbLine
 62
7
  6
CONTINUOUS
 10
7.2993405512
 20
13.5157611648
 11
7.424699882
 21
13.390401834
  0
LINE
  5
351
100
AcDbEntity
  8
0
100
AcDbLine
 62
7
  6
CONTINUOUS
 10
7.5061424539
 20
13.3089592621
 11
7.6941616433
 21
13.1209400727
  0
LINE
  5
352
100
AcDbEntity
  8
0
100
AcDbLine
 62
7
  6
CONTINUOUS
 10
7.7756520411
 20
13.0394496749
 11
8.0079565105
 21
12.8071452055
  0
LINE
  5
353
100
AcDbEntity
  8
0
100
AcDbLine
 62
7
  6
CONTINUOUS
 10
8.0891927184
 20
12.7259089976
 11
8.344699882
 21
12.470401834
  0
LINE
  5
354
100
AcDbEntity
  8
0
100
AcDbLine
 62
7
  6
CONTINUOUS
 10
8.4259360899
 20
12.3891656261
 11
8.6814432535
 21
12.1336584625
  0
LINE
  5
355
100
AcDbEntity
  8
0
100
AcDbLine
 62
7
  6
CONTINUOUS
 10
8.7626794614
 20
12.0524222546
 11
8.9949839307
 21
11.8201177853
  0
LINE
  5
356
100
AcDbEntity
  8
0
100
AcDbLine
 62
7
  6
CONTINUOUS
 10
9.0764743286
 20
11.7386273874
 11
9.264493518
 21
11.550608198
  0
LINE
  5
357
100
AcDbEntity
  8
0
100
AcDbLine
 62
7
  6
CONTINUOUS
 10
9.3459360899
 20
11.4691656261
 11
9.4712954207
 21
11.3438062953
  0
LINE
  5
358
100
AcDbEntity
  8
0
100
AcDbLine
 62
7
  6
CONTINUOUS
 10
9.5527013716
 20
11.2624003444
 11
9.5935063385
 21
11.2215953775
  0
LINE
  5
359
100
AcDbEntity
  8
0
100
AcDbLine
 62
7
  6
CONTINUOUS
 10
10.0124262641
 20
10.8061134338
 11
9.9543263098
 21
10.864213388
  0
LINE
  5
35A
100
AcDbEntity
  8
0
100
AcDbLine
 62
7
  6
CONTINUOUS
 10
9.9426585762
 20
10.8758811217
 11
9.8845586219
 21
10.933981076
  0
LINE
  5
35B
100
AcDbEntity
  8
0
100
AcDbLine
 62
7
  6
CONTINUOUS
 10
9.806172383
 20
11.0123673148
 11
9.7480724288
 21
11.0704672691
  0
LINE
  5
35C
100
AcDbEntity
  8
0
100
AcDbLine
 62
7
  6
CONTINUOUS
 10
9.6089327863
 20
11.2096069116
 11
9.550832832
 21
11.2677068658
  0
LINE
  5
35D
100
AcDbEntity
  8
0
100
AcDbLine
 62
7
  6
CONTINUOUS
 10
9.3595601028
 20
11.4589795951
 11
9.3014601485
 21
11.5170795494
  0
LINE
  5
35E
100
AcDbEntity
  8
0
100
AcDbLine
 62
7
  6
CONTINUOUS
 10
9.0689531153
 20
11.7495865825
 11
9.0108531611
 21
11.8076865368
  0
LINE
  5
35F
100
AcDbEntity
  8
0
100
AcDbLine
 62
7
  6
CONTINUOUS
 10
8.7498127439
 20
12.068726954
 11
8.6917127896
 21
12.1268269083
  0
LINE
  5
360
100
AcDbEntity
  8
0
100
AcDbLine
 62
7
  6
CONTINUOUS
 10
8.416086954
 20
12.4024527438
 11
8.3579869997
 21
12.4605526981
  0
LINE
  5
361
100
AcDbEntity
  8
0
100
AcDbLine
 62
7
  6
CONTINUOUS
 10
8.0823611641
 20
12.7361785337
 11
8.0242612099
 21
12.794278488
  0
LINE
  5
362
100
AcDbEntity
  8
0
100
AcDbLine
 62
7
  6
CONTINUOUS
 10
7.7632207927
 20
13.0553189052
 11
7.7051208384
 21
13.1134188595
  0
LINE
  5
363
100
AcDbEntity
  8
0
100
AcDbLine
 62
7
  6
CONTINUOUS
 10
7.4726138053
 20
13.3459258926
 11
7.414513851
 21
13.4040258469
  0
LINE
  5
364
100
AcDbEntity
  8
0
100
AcDbLine
 62
7
  6
CONTINUOUS
 10
7.2232411217
 20
13.5952985761
 11
7.1651411674
 21
13.6533985304
  0
LINE
  5
365
100
AcDbEntity
  8
0
100
AcDbLine
 62
7
  6
CONTINUOUS
 10
7.026001525
 20
13.7925381729
 11
6.9679015707
 21
13.8506381272
  0
LINE
  5
366
100
AcDbEntity
  8
0
100
AcDbLine
 62
7
  6
CONTINUOUS
 10
6.8895153319
 20
13.929024366
 11
6.8314153776
 21
13.9871243203
  0
LINE
  5
367
100
AcDbEntity
  8
0
100
AcDbLine
 62
7
  6
CONTINUOUS
 10
6.8197476439
 20
13.9987920539
 11
6.7616476896
 21
14.0568920082
  0
LINE
  5
368
100
AcDbEntity
  8
0
100
AcDbLine
 62
9
  6
CONTINUOUS
 10
7.3012313621
 20
13.5176519758
 11
7.4133145244
 21
13.4055688135
  0
LINE
  5
369
100
AcDbEntity
  8
0
100
AcDbLine
 62
9
  6
CONTINUOUS
 10
7.5080332649
 20
13.310850073
 11
7.6959106434
 21
13.1229726944
  0
LINE
  5
36A
100
AcDbEntity
  8
0
100
AcDbLine
 62
9
  6
CONTINUOUS
 10
7.7775428521
 20
13.0413404858
 11
8.0097055106
 21
12.8091778272
  0
LINE
  5
36B
100
AcDbEntity
  8
0
100
AcDbLine
 62
9
  6
CONTINUOUS
 10
8.0913935574
 20
12.7274897805
 11
8.3462205705
 21
12.4726627673
  0
LINE
  5
36C
100
AcDbEntity
  8
0
100
AcDbLine
 62
9
  6
CONTINUOUS
 10
8.4281970232
 20
12.3906863146
 11
8.6830240364
 21
12.1358593015
  0
LINE
  5
36D
100
AcDbEntity
  8
0
100
AcDbLine
 62
9
  6
CONTINUOUS
 10
8.7647120831
 20
12.0541712547
 11
8.9968747417
 21
11.8220085962
  0
LINE
  5
36E
100
AcDbEntity
  8
0
100
AcDbLine
 62
9
  6
CONTINUOUS
 10
9.0785069503
 20
11.7403763875
 11
9.2663843289
 21
11.552499009
  0
LINE
  5
36F
100
AcDbEntity
  8
0
100
AcDbLine
 62
9
  6
CONTINUOUS
 10
9.3611030694
 20
11.4577802685
 11
9.4731862316
 21
11.3456971062
  0
LINE
  5
370
100
AcDbEntity
  8
0
100
AcDbLine
 62
9
  6
CONTINUOUS
 10
9.7367724318
 20
11.0945957216
 11
9.6250091775
 21
11.2063589759
  0
LINE
  5
371
100
AcDbEntity
  8
0
100
AcDbLine
 62
9
  6
CONTINUOUS
 10
9.5475848963
 20
11.2837832571
 11
9.375636494
 21
11.4557316594
  0
LINE
  5
372
100
AcDbEntity
  8
0
100
AcDbLine
 62
9
  6
CONTINUOUS
 10
9.2972974803
 20
11.534070673
 11
9.0850942723
 21
11.7462738811
  0
LINE
  5
373
100
AcDbEntity
  8
0
100
AcDbLine
 62
9
  6
CONTINUOUS
 10
9.0076052254
 20
11.823762928
 11
8.7658891351
 21
12.0654790183
  0
LINE
  5
374
100
AcDbEntity
  8
0
100
AcDbLine
 62
9
  6
CONTINUOUS
 10
8.6884648539
 20
12.1429032995
 11
8.4321633452
 21
12.3992048081
  0
LINE
  5
375
100
AcDbEntity
  8
0
100
AcDbLine
 62
9
  6
CONTINUOUS
 10
8.354739064
 20
12.4766290893
 11
8.0984375553
 21
12.732930598
  0
LINE
  5
376
100
AcDbEntity
  8
0
100
AcDbLine
 62
9
  6
CONTINUOUS
 10
8.0210132741
 20
12.8103548792
 11
7.7792971839
 21
13.0520709695
  0
LINE
  5
377
100
AcDbEntity
  8
0
100
AcDbLine
 62
9
  6
CONTINUOUS
 10
7.701808137
 20
13.1295600164
 11
7.4896049289
 21
13.3417632244
  0
LINE
  5
378
100
AcDbEntity
  8
0
100
AcDbLine
 62
9
  6
CONTINUOUS
 10
7.4112659153
 20
13.4201022381
 11
7.2402322454
 21
13.591135908
  0
LINE
  5
379
100
AcDbEntity
  8
0
100
AcDbLine
 62
9
  6
CONTINUOUS
 10
7.1618932317
 20
13.6694749216
 11
7.0501299775
 21
13.7812381759
  0
LINE
  5
37A
100
AcDbEntity
  8
0
100
AcDbLine
 62
9
  6
CONTINUOUS
 10
10.0328164945
 20
10.8053498724
 11
9.8837950605
 21
10.9543713064
  0
LINE
  5
37B
100
AcDbEntity
  8
0
100
AcDbLine
 62
9
  6
CONTINUOUS
 10
9.8265626135
 20
11.0116037534
 11
9.7473088674
 21
11.0908574995
  0
LINE
  5
37C
100
AcDbEntity
  8
0
100
AcDbLine
 62
9
  6
CONTINUOUS
 10
9.6293230167
 20
11.2088433502
 11
9.5500692706
 21
11.2880970963
  0
LINE
  5
37D
100
AcDbEntity
  8
0
100
AcDbLine
 62
9
  6
CONTINUOUS
 10
9.3799503332
 20
11.4582160337
 11
9.3006965871
 21
11.5374697798
  0
LINE
  5
37E
100
AcDbEntity
  8
0
100
AcDbLine
 62
9
  6
CONTINUOUS
 10
9.0893433458
 20
11.7488230211
 11
9.0100895997
 21
11.8280767672
  0
LINE
  5
37F
100
AcDbEntity
  8
0
100
AcDbLine
 62
9
  6
CONTINUOUS
 10
8.7702029743
 20
12.0679633926
 11
8.6909492282
 21
12.1472171387
  0
LINE
  5
380
100
AcDbEntity
  8
0
100
AcDbLine
 62
9
  6
CONTINUOUS
 10
8.4364771844
 20
12.4016891825
 11
8.3572234383
 21
12.4809429286
  0
LINE
  5
381
100
AcDbEntity
  8
0
100
AcDbLine
 62
9
  6
CONTINUOUS
 10
8.1027513946
 20
12.7354149723
 11
8.0234976485
 21
12.8146687184
  0
LINE
  5
382
100
AcDbEntity
  8
0
100
AcDbLine
 62
9
  6
CONTINUOUS
 10
7.7836110231
 20
13.0545553438
 11
7.704357277
 21
13.1338090899
  0
LINE
  5
383
100
AcDbEntity
  8
0
100
AcDbLine
 62
9
  6
CONTINUOUS
 10
7.4930040357
 20
13.3451623312
 11
7.4137502896
 21
13.4244160773
  0
LINE
  5
384
100
AcDbEntity
  8
0
100
AcDbLine
 62
9
  6
CONTINUOUS
 10
7.2436313522
 20
13.5945350147
 11
7.1643776061
 21
13.6737887609
  0
LINE
  5
385
100
AcDbEntity
  8
0
100
AcDbLine
 62
9
  6
CONTINUOUS
 10
7.0463917554
 20
13.7917746115
 11
6.9671380093
 21
13.8710283576
  0
LINE
  5
386
100
AcDbEntity
  8
0
100
AcDbLine
 62
9
  6
CONTINUOUS
 10
6.9099055623
 20
13.9282608046
 11
6.7608841282
 21
14.0772822387
  0
LINE
  5
387
100
AcDbEntity
  8
0
100
AcDbLine
 62
9
  6
CONTINUOUS
 10
9.8490877588
 20
11.011404906
 11
9.8385629986
 21
11.0219296662
  0
LINE
  5
388
100
AcDbEntity
  8
0
100
AcDbLine
 62
9
  6
CONTINUOUS
 10
9.7572869108
 20
11.1032057539
 11
9.6413234018
 21
11.2191692629
  0
LINE
  5
389
100
AcDbEntity
  8
0
100
AcDbLine
 62
9
  6
CONTINUOUS
 10
9.5600123502
 20
11.3004803146
 11
9.3919507183
 21
11.4685419465
  0
LINE
  5
38A
100
AcDbEntity
  8
0
100
AcDbLine
 62
9
  6
CONTINUOUS
 10
9.3105953741
 20
11.5498972907
 11
9.1013437309
 21
11.7591489339
  0
LINE
  5
38B
100
AcDbEntity
  8
0
100
AcDbLine
 62
9
  6
CONTINUOUS
 10
9.0199366469
 20
11.8405560178
 11
8.7822033594
 21
12.0782893053
  0
LINE
  5
38C
100
AcDbEntity
  8
0
100
AcDbLine
 62
9
  6
CONTINUOUS
 10
8.701275141
 20
12.1592175238
 11
8.4484775695
 21
12.4120150952
  0
LINE
  5
38D
100
AcDbEntity
  8
0
100
AcDbLine
 62
9
  6
CONTINUOUS
 10
8.3675493511
 20
12.4929433137
 11
8.1147517797
 21
12.7457408851
  0
LINE
  5
38E
100
AcDbEntity
  8
0
100
AcDbLine
 62
9
  6
CONTINUOUS
 10
8.0338235612
 20
12.8266691035
 11
7.7960902737
 21
13.0644023911
  0
LINE
  5
38F
100
AcDbEntity
  8
0
100
AcDbLine
 62
9
  6
CONTINUOUS
 10
7.7146831898
 20
13.145809475
 11
7.5054315466
 21
13.3550611182
  0
LINE
  5
390
100
AcDbEntity
  8
0
100
AcDbLine
 62
9
  6
CONTINUOUS
 10
7.4240762023
 20
13.4364164624
 11
7.2560145705
 21
13.6044780943
  0
LINE
  5
391
100
AcDbEntity
  8
0
100
AcDbLine
 62
9
  6
CONTINUOUS
 10
7.1747035188
 20
13.685789146
 11
7.0587400098
 21
13.8017526549
  0
LINE
  5
392
100
AcDbEntity
  8
0
100
AcDbLine
 62
9
  6
CONTINUOUS
 10
6.9774639221
 20
13.8830287427
 11
6.9669391619
 21
13.8935535029
  0
LINE
  5
393
100
AcDbEntity
  8
0
100
AcDbLine
 62
7
  6
CONTINUOUS
 10
6.9233578129
 20
13.9393911619
 11
6.9785074655
 21
13.8842415093
  0
LINE
  5
394
100
AcDbEntity
  8
0
100
AcDbLine
 62
7
  6
CONTINUOUS
 10
7.0598681648
 20
13.80288081
 11
7.1757470622
 21
13.6870019126
  0
LINE
  5
395
100
AcDbEntity
  8
0
100
AcDbLine
 62
7
  6
CONTINUOUS
 10
7.2571427255
 20
13.6056062493
 11
7.4251197457
 21
13.4376292291
  0
LINE
  5
396
100
AcDbEntity
  8
0
100
AcDbLine
 62
7
  6
CONTINUOUS
 10
7.5065597016
 20
13.3561892732
 11
7.7157267331
 21
13.1470222417
  0
LINE
  5
397
100
AcDbEntity
  8
0
100
AcDbLine
 62
7
  6
CONTINUOUS
 10
7.7972184287
 20
13.0655305461
 11
8.0348671046
 21
12.8278818702
  0
LINE
  5
398
100
AcDbEntity
  8
0
100
AcDbLine
 62
7
  6
CONTINUOUS
 10
8.1159645463
 20
12.7467844285
 11
8.3685928945
 21
12.4941560803
  0
LINE
  5
399
100
AcDbEntity
  8
0
100
AcDbLine
 62
7
  6
CONTINUOUS
 10
8.4496903362
 20
12.4130586386
 11
8.7018674572
 21
12.1608815176
  0
LINE
  5
39A
100
AcDbEntity
  8
0
100
AcDbLine
 62
7
  6
CONTINUOUS
 10
8.7834161261
 20
12.0793328487
 11
9.0210648019
 21
11.8416841729
  0
LINE
  5
39B
100
AcDbEntity
  8
0
100
AcDbLine
 62
7
  6
CONTINUOUS
 10
9.1025564975
 20
11.7601924773
 11
9.3117235291
 21
11.5510254457
  0
LINE
  5
39C
100
AcDbEntity
  8
0
100
AcDbLine
 62
7
  6
CONTINUOUS
 10
9.3931634849
 20
11.4695854899
 11
9.5611405052
 21
11.3016084696
  0
LINE
  5
39D
100
AcDbEntity
  8
0
100
AcDbLine
 62
7
  6
CONTINUOUS
 10
9.6425361685
 20
11.2202128063
 11
9.7584150658
 21
11.104333909
  0
LINE
  5
39E
100
AcDbEntity
  8
0
100
AcDbLine
 62
7
  6
CONTINUOUS
 10
9.8397757652
 20
11.0229732096
 11
9.8949254178
 21
10.967823557
  0
LINE
  5
39F
100
AcDbEntity
  8
0
100
AcDbLine
 62
9
  6
CONTINUOUS
 10
6.9262667743
 20
13.9423001233
 11
6.9811982547
 21
13.8873686428
  0
LINE
  5
3A0
100
AcDbEntity
  8
0
100
AcDbLine
 62
9
  6
CONTINUOUS
 10
7.0627771262
 20
13.8057897713
 11
7.1784378515
 21
13.6901290461
  0
LINE
  5
3A1
100
AcDbEntity
  8
0
100
AcDbLine
 62
9
  6
CONTINUOUS
 10
7.2600516869
 20
13.6085152107
 11
7.427810535
 21
13.4407563625
  0
LINE
  5
3A2
100
AcDbEntity
  8
0
100
AcDbLine
 62
9
  6
CONTINUOUS
 10
7.509468663
 20
13.3590982346
 11
7.7183751761
 21
13.1501917214
  0
LINE
  5
3A3
100
AcDbEntity
  8
0
100
AcDbLine
 62
9
  6
CONTINUOUS
 10
7.8001273901
 20
13.0684395074
 11
8.0375578939
 21
12.8310090037
  0
LINE
  5
3A4
100
AcDbEntity
  8
0
100
AcDbLine
 62
9
  6
CONTINUOUS
 10
8.1193247348
 20
12.7492421627
 11
8.3712836838
 21
12.4972832138
  0
LINE
  5
3A5
100
AcDbEntity
  8
0
100
AcDbLine
 62
9
  6
CONTINUOUS
 10
8.4528174697
 20
12.4157494279
 11
8.7047764186
 21
12.163790479
  0
LINE
  5
3A6
100
AcDbEntity
  8
0
100
AcDbLine
 62
9
  6
CONTINUOUS
 10
8.7865432595
 20
12.082023638
 11
9.0239737633
 21
11.8445931342
  0
LINE
  5
3A7
100
AcDbEntity
  8
0
100
AcDbLine
 62
9
  6
CONTINUOUS
 10
9.1057278044
 20
11.7628390931
 11
9.3146324904
 21
11.5539344071
  0
LINE
  5
3A8
100
AcDbEntity
  8
0
100
AcDbLine
 62
9
  6
CONTINUOUS
 10
9.3962906184
 20
11.4722762791
 11
9.5640494665
 21
11.304517431
  0
LINE
  5
3A9
100
AcDbEntity
  8
0
100
AcDbLine
 62
9
  6
CONTINUOUS
 10
9.6456633019
 20
11.2229035956
 11
9.7613240272
 21
11.1072428703
  0
LINE
  5
3AA
100
AcDbEntity
  8
0
100
AcDbLine
 62
9
  6
CONTINUOUS
 10
9.8429028987
 20
11.0256639988
 11
9.8978343792
 21
10.9707325184
  0
LINE
  5
3AB
100
AcDbEntity
  8
0
100
AcDbLine
 62
7
  6
CONTINUOUS
 10
6.5570939458
 20
14.3435708258
 11
10.2991050816
 21
10.6015596899
  0
LINE
  5
3AC
100
AcDbEntity
  8
0
100
AcDbLine
 62
9
  6
CONTINUOUS
 10
10.3071315813
 20
10.5980896018
 11
6.5536238576
 21
14.3515973254
  0
LINE
  5
3AD
100
AcDbEntity
  8
0
100
AcDbLine
 62
9
  6
CONTINUOUS
 10
10.6259772828
 20
10.5126551535
 11
6.4681894094
 21
14.6704430269
  0
LINE
  5
3AE
100
AcDbEntity
  8
0
100
AcDbLine
 62
9
  6
CONTINUOUS
 10
10.6549550576
 20
10.5204197249
 11
6.4759539808
 21
14.6994208017
  0
LINE
  5
3AF
100
AcDbEntity
  8
0
100
AcDbLine
 62
7
  6
CONTINUOUS
 10
10.40746062
 20
14.9949224309
 11
10.4007979289
 21
15.0197879327
  0
LINE
  5
3B0
100
AcDbEntity
  8
0
100
AcDbLine
 62
7
  6
CONTINUOUS
 10
10.2142269831
 20
14.8325638425
 11
10.2228060008
 21
14.8004784552
  0
LINE
  5
3B1
100
AcDbEntity
  8
0
100
AcDbLine
 62
7
  6
CONTINUOUS
 10
10.2640352082
 20
14.8823655427
 11
10.2721014021
 21
14.8521977594
  0
LINE
  5
3B2
100
AcDbEntity
  8
0
100
AcDbLine
 62
7
  6
CONTINUOUS
 10
10.3136829491
 20
14.932017553
 11
10.321121066
 21
14.9041995054
  0
LINE
  5
3B3
100
AcDbEntity
  8
0
100
AcDbLine
 62
7
  6
CONTINUOUS
 10
10.3634606931
 20
14.9817976776
 11
10.3703652639
 21
14.9559755055
  0
LINE
  5
3B4
100
AcDbEntity
  8
0
100
AcDbLine
 62
7
  6
CONTINUOUS
 10
12.0632997941
 20
4.334891804
 11
12.0632997941
 21
3.709891804
  0
LINE
  5
3B5
100
AcDbEntity
  8
0
100
AcDbLine
 62
7
  6
CONTINUOUS
 10
12.0942997941
 20
3.513391804
 11
12.0942997941
 21
4.531391804
  0
LINE
  5
3B6
100
AcDbEntity
  8
0
100
AcDbLine
 62
9
  6
CONTINUOUS
 10
12.1242997941
 20
3.483391804
 11
12.1242997941
 21
4.561391804
  0
LINE
  5
3B7
100
AcDbEntity
  8
0
100
AcDbLine
 62
9
  6
CONTINUOUS
 10
12.2512255769
 20
4.4196308686
 11
12.2512253843
 21
3.6251464317
  0
LINE
  5
3B8
100
AcDbEntity
  8
0
100
AcDbLine
 62
9
  6
CONTINUOUS
 10
12.2798464137
 20
4.4196309546
 11
12.2798463954
 21
3.6251450049
  0
LINE
  5
3B9
100
AcDbEntity
  8
0
100
AcDbLine
 62
9
  6
CONTINUOUS
 10
12.3813381301
 20
3.6251506636
 11
12.3813381301
 21
4.4196329445
  0
LINE
  5
3BA
100
AcDbEntity
  8
0
100
AcDbLine
 62
7
  6
CONTINUOUS
 10
10.3071315813
 20
10.5980896018
 11
10.6259772828
 21
10.5126551535
  0
LINE
  5
3BB
100
AcDbEntity
  8
0
100
AcDbLine
 62
9
  6
CONTINUOUS
 10
11.2762752848
 20
11.1417399521
 11
7.097274208
 21
15.3207410289
  0
LINE
  5
3BC
100
AcDbEntity
  8
0
100
AcDbLine
 62
7
  6
CONTINUOUS
 10
10.7779145952
 20
14.2485508225
 11
10.7696320891
 21
14.2795312758
  0
LINE
  5
3BD
100
AcDbEntity
  8
0
100
AcDbLine
 62
7
  6
CONTINUOUS
 10
10.8291903043
 20
14.2998317386
 11
10.8214689837
 21
14.3287132597
  0
LINE
  5
3BE
100
AcDbEntity
  8
0
100
AcDbLine
 62
7
  6
CONTINUOUS
 10
10.8804499224
 20
14.3510848368
 11
10.8732760194
 21
14.3779178968
  0
LINE
  5
3BF
100
AcDbEntity
  8
0
100
AcDbLine
 62
7
  6
CONTINUOUS
 10
10.931732997
 20
14.4023691251
 11
10.9251249819
 21
14.4270853809
  0
LINE
  5
3C0
100
AcDbEntity
  8
0
100
AcDbLine
 62
9
  6
CONTINUOUS
 10
12.7027997941
 20
15.616141804
 11
12.7027997941
 21
16.428641804
  0
LINE
  5
3C1
100
AcDbEntity
  8
0
100
AcDbLine
 62
7
  6
CONTINUOUS
 10
7.1397006149
 20
15.3207410289
 11
11.2762752848
 21
11.184166359
  0
LINE
  5
3C2
100
AcDbEntity
  8
0
100
AcDbLine
 62
9
  6
CONTINUOUS
 10
8.1968252527
 20
14.3060427979
 11
10.2615770538
 21
12.2412909969
  0
LINE
  5
3C3
100
AcDbEntity
  8
0
100
AcDbLine
 62
9
  6
CONTINUOUS
 10
10.4249187202
 20
12.4046326633
 11
8.3601669192
 21
14.4693844644
  0
LINE
  5
3C4
100
AcDbEntity
  8
0
100
AcDbLine
 62
7
  6
CONTINUOUS
 10
8.4025933261
 20
14.4693844644
 11
10.4249187202
 21
12.4470590702
  0
LINE
  5
3C5
100
AcDbEntity
  8
0
100
AcDbLine
 62
9
  6
CONTINUOUS
 10
8.9399944798
 20
13.9744097175
 11
9.9299439734
 21
12.9844602239
  0
LINE
  5
3C6
100
AcDbEntity
  8
0
100
AcDbLine
 62
9
  6
CONTINUOUS
 10
10.0600516212
 20
13.1145678716
 11
9.0701021275
 21
14.1045173653
  0
LINE
  5
3C7
100
AcDbEntity
  8
0
100
AcDbLine
 62
7
  6
CONTINUOUS
 10
9.0983863987
 20
14.1045173653
 11
10.0600516212
 21
13.1428521429
  0
LINE
  5
3C8
100
AcDbEntity
  8
0
100
AcDbLine
 62
9
  6
CONTINUOUS
 10
9.0983863987
 20
14.1328016365
 11
10.0883358924
 21
13.1428521429
  0
LINE
  5
3C9
100
AcDbEntity
  8
0
100
AcDbLine
 62
7
  6
CONTINUOUS
 10
9.9107160579
 20
13.5877583406
 11
9.5432925965
 21
13.955181802
  0
LINE
  5
3CA
100
AcDbEntity
  8
0
100
AcDbLine
 62
7
  6
CONTINUOUS
 10
10.4694664475
 20
13.5239826979
 11
9.4795169538
 21
14.5139321916
  0
LINE
  5
3CB
100
AcDbEntity
  8
0
100
AcDbLine
 62
9
  6
CONTINUOUS
 10
9.7997648869
 20
14.3330100417
 11
10.2885442976
 21
13.844230631
  0
LINE
  5
3CC
100
AcDbEntity
  8
0
100
AcDbLine
 62
9
  6
CONTINUOUS
 10
14.0075092394
 20
3.3384128218
 11
14.0075092394
 21
4.7063707863
  0
LINE
  5
3CD
100
AcDbEntity
  8
0
100
AcDbLine
 62
7
  6
CONTINUOUS
 10
14.0322997941
 20
3.179891804
 11
14.0322997941
 21
4.864891804
  0
LINE
  5
3CE
100
AcDbEntity
  8
0
100
AcDbLine
 62
9
  6
CONTINUOUS
 10
14.0622997941
 20
3.149891804
 11
14.0622997941
 21
4.894891804
  0
LINE
  5
3CF
100
AcDbEntity
  8
0
100
AcDbLine
 62
7
  6
CONTINUOUS
 10
14.2197997941
 20
3.149891804
 11
14.2197997941
 21
4.894891804
  0
LINE
  5
3D0
100
AcDbEntity
  8
0
100
AcDbLine
 62
7
  6
CONTINUOUS
 10
14.2297997941
 20
2.857391804
 11
14.2297997941
 21
5.187391804
  0
LINE
  5
3D1
100
AcDbEntity
  8
0
100
AcDbLine
 62
9
  6
CONTINUOUS
 10
14.2597997941
 20
2.827391804
 11
14.2597997941
 21
5.217391804
  0
LINE
  5
3D2
100
AcDbEntity
  8
0
100
AcDbLine
 62
9
  6
CONTINUOUS
 10
14.3629544281
 20
2.9373918598
 11
14.3629544281
 21
5.107391743
  0
LINE
  5
3D3
100
AcDbEntity
  8
0
100
AcDbLine
 62
9
  6
CONTINUOUS
 10
14.387321414
 20
2.937391804
 11
14.387321414
 21
5.1073918958
  0
LINE
  5
3D4
100
AcDbEntity
  8
0
100
AcDbLine
 62
9
  6
CONTINUOUS
 10
14.4604223716
 20
2.937391804
 11
14.4604223716
 21
5.107391804
  0
LINE
  5
3D5
100
AcDbEntity
  8
0
100
AcDbLine
 62
9
  6
CONTINUOUS
 10
9.879800967
 20
14.4130100336
 11
10.3685442895
 21
13.9242667111
  0
LINE
  5
3D6
100
AcDbEntity
  8
0
100
AcDbLine
 62
9
  6
CONTINUOUS
 10
9.879800967
 20
14.4863261984
 11
10.4418604542
 21
13.9242667111
  0
LINE
  5
3D7
100
AcDbEntity
  8
0
100
AcDbLine
 62
9
  6
CONTINUOUS
 10
9.9472392608
 20
14.6068879046
 11
10.5624221604
 21
13.9917050049
  0
LINE
  5
3D8
100
AcDbEntity
  8
0
100
AcDbLine
 62
7
  6
CONTINUOUS
 10
10.1626436795
 20
14.8470410606
 11
10.8025753164
 21
14.2071094236
  0
LINE
  5
3D9
100
AcDbEntity
  8
0
100
AcDbLine
 62
7
  6
CONTINUOUS
 10
14.6027997941
 20
14.837391804
 11
14.6027997941
 21
17.207391804
  0
LINE
  5
3DA
100
AcDbEntity
  8
0
100
AcDbLine
 62
7
  6
CONTINUOUS
 10
14.6397997941
 20
0.887391804
 11
14.6397997941
 21
7.157391804
  0
LINE
  5
3DB
100
AcDbEntity
  8
0
100
AcDbLine
 62
9
  6
CONTINUOUS
 10
14.6427997941
 20
14.797391804
 11
14.6427997941
 21
17.247391804
  0
LINE
  5
3DC
100
AcDbEntity
  8
0
100
AcDbLine
 62
7
  6
CONTINUOUS
 10
14.7647997941
 20
0.772391804
 11
14.7647997941
 21
7.272391804
  0
LINE
  5
3DD
100
AcDbEntity
  8
0
100
AcDbLine
 62
7
  6
CONTINUOUS
 10
14.9527997941
 20
0.772391804
 11
14.9527997941
 21
7.272391804
  0
LINE
  5
3DE
100
AcDbEntity
  8
0
100
AcDbLine
 62
7
  6
CONTINUOUS
 10
14.9527997941
 20
14.797391804
 11
14.9527997941
 21
17.247391804
  0
LINE
  5
3DF
100
AcDbEntity
  8
0
100
AcDbLine
 62
7
  6
CONTINUOUS
 10
10.3699661911
 20
14.9889561949
 11
10.4603332896
 21
14.8985890965
  0
LINE
  5
3E0
100
AcDbEntity
  8
0
100
AcDbLine
 62
7
  6
CONTINUOUS
 10
10.9377376633
 20
14.4393875334
 11
10.3948316929
 21
14.9822935038
  0
LINE
  5
3E1
100
AcDbEntity
  8
0
100
AcDbLine
 62
7
  6
CONTINUOUS
 10
10.9504566868
 20
14.4519263641
 11
10.40746062
 21
14.9949224309
  0
LINE
  5
3E2
100
AcDbEntity
  8
0
100
AcDbLine
 62
7
  6
CONTINUOUS
 10
10.9753221886
 20
14.445263673
 11
10.4007979289
 21
15.0197879327
  0
LINE
  5
3E3
100
AcDbEntity
  8
0
100
AcDbLine
 62
7
  6
CONTINUOUS
 10
10.3685442895
 20
13.9242667111
 11
10.4418604542
 21
13.9242667111
  0
LINE
  5
3E4
100
AcDbEntity
  8
0
100
AcDbLine
 62
7
  6
CONTINUOUS
 10
10.8129599533
 20
14.2835543685
 11
10.8136637443
 21
14.2836052287
  0
LINE
  5
3E5
100
AcDbEntity
  8
0
100
AcDbLine
 62
7
  6
CONTINUOUS
 10
10.8627077328
 20
14.3332967496
 11
10.8634057246
 21
14.333347209
  0
LINE
  5
3E6
100
AcDbEntity
  8
0
100
AcDbLine
 62
7
  6
CONTINUOUS
 10
10.9124576067
 20
14.3830533646
 11
10.9131628413
 21
14.3831043257
  0
LINE
  5
3E7
100
AcDbEntity
  8
0
100
AcDbLine
 62
7
  6
CONTINUOUS
 10
10.9377376633
 20
14.4393875334
 11
10.937553999
 21
14.4393760953
  0
LINE
  5
3E8
100
AcDbEntity
  8
0
100
AcDbLine
 62
7
  6
CONTINUOUS
 10
10.7265613375
 20
14.1310954446
 11
10.7018126001
 21
14.1310954446
  0
LINE
  5
3E9
100
AcDbEntity
  8
0
100
AcDbLine
 62
7
  6
CONTINUOUS
 10
10.7812329445
 20
14.2920375917
 11
10.8129599532
 21
14.2835543685
  0
LINE
  5
3EA
100
AcDbEntity
  8
0
100
AcDbLine
 62
7
  6
CONTINUOUS
 10
10.8330750405
 20
14.3412202085
 11
10.8627077298
 21
14.3332967467
  0
LINE
  5
3EB
100
AcDbEntity
  8
0
100
AcDbLine
 62
7
  6
CONTINUOUS
 10
10.8848868402
 20
14.3904254048
 11
10.9124576067
 21
14.3830533646
  0
LINE
  5
3EC
100
AcDbEntity
  8
0
100
AcDbLine
 62
7
  6
CONTINUOUS
 10
10.2604988477
 20
14.8396912968
 11
10.2296403251
 21
14.8479413733
  0
LINE
  5
3ED
100
AcDbEntity
  8
0
100
AcDbLine
 62
7
  6
CONTINUOUS
 10
10.3095123559
 20
14.8916923089
 11
10.2810136366
 21
14.8993115048
  0
LINE
  5
3EE
100
AcDbEntity
  8
0
100
AcDbLine
 62
7
  6
CONTINUOUS
 10
10.3587518208
 20
14.9434677454
 11
10.3322561222
 21
14.9505514453
  0
LINE
  5
3EF
100
AcDbEntity
  8
0
100
AcDbLine
 62
7
  6
CONTINUOUS
 10
10.9504566868
 20
14.4519263641
 11
10.9753221886
 21
14.445263673
  0
LINE
  5
3F0
100
AcDbEntity
  8
0
100
AcDbLine
 62
9
  6
CONTINUOUS
 10
11.7526250569
 20
15.2225665413
 11
11.1781007971
 21
15.797090801
  0
LINE
  5
3F1
100
AcDbEntity
  8
0
100
AcDbLine
 62
7
  6
CONTINUOUS
 10
10.2296403281
 20
14.8479413763
 11
10.2288977633
 21
14.8478877671
  0
LINE
  5
3F2
100
AcDbEntity
  8
0
100
AcDbLine
 62
7
  6
CONTINUOUS
 10
10.2810136359
 20
14.8993115041
 11
10.280267559
 21
14.8992575629
  0
LINE
  5
3F3
100
AcDbEntity
  8
0
100
AcDbLine
 62
7
  6
CONTINUOUS
 10
10.3322561222
 20
14.9505514454
 11
10.3315073061
 21
14.95049731
  0
LINE
  5
3F4
100
AcDbEntity
  8
0
100
AcDbLine
 62
7
  6
CONTINUOUS
 10
14.6427997941
 20
14.797391804
 11
14.9527997941
 21
14.797391804
  0
LINE
  5
3F5
100
AcDbEntity
  8
0
100
AcDbLine
 62
9
  6
CONTINUOUS
 10
14.6027997941
 20
14.837391804
 11
14.9527997941
 21
14.837391804
  0
LINE
  5
3F6
100
AcDbEntity
  8
0
100
AcDbLine
 62
7
  6
CONTINUOUS
 10
10.3699661911
 20
14.9889561949
 11
10.3948316929
 21
14.9822935038
  0
LINE
  5
3F7
100
AcDbEntity
  8
0
100
AcDbLine
 62
7
  6
CONTINUOUS
 10
14.6027997941
 20
15.616141804
 11
12.7027997941
 21
15.616141804
  0
LINE
  5
3F8
100
AcDbEntity
  8
0
100
AcDbLine
 62
7
  6
CONTINUOUS
 10
14.6027997941
 20
16.428641804
 11
12.7027997941
 21
16.428641804
  0
LINE
  5
3F9
100
AcDbEntity
  8
0
100
AcDbLine
 62
9
  6
CONTINUOUS
 10
14.6027997941
 20
17.207391804
 11
14.9527997941
 21
17.207391804
  0
LINE
  5
3FA
100
AcDbEntity
  8
0
100
AcDbLine
 62
7
  6
CONTINUOUS
 10
14.6427997941
 20
17.247391804
 11
14.9527997941
 21
17.247391804
  0
ARC
  5
3FB
100
AcDbEntity
  8
0
100
AcDbCircle
 62
7
  6
CONTINUOUS
 10
5.8539506604
 20
7.5118052163
 40
5.2548569731
100
AcDbArc
 50
48.2619861889
 51
48.5883170268
  0
ARC
  5
3FC
100
AcDbEntity
  8
0
100
AcDbCircle
 62
7
  6
CONTINUOUS
 10
7.0416403998
 20
7.2873416726
 40
4.6500649506
100
AcDbArc
 50
50.2880982153
 51
50.7738018068
  0
ARC
  5
3FD
100
AcDbEntity
  8
0
100
AcDbCircle
 62
7
  6
CONTINUOUS
 10
3.761674063
 20
10.1595077796
 40
4.8614104071
100
AcDbArc
 50
41.398521983
 51
41.7512204672
  0
ARC
  5
3FE
100
AcDbEntity
  8
0
100
AcDbCircle
 62
7
  6
CONTINUOUS
 10
3.2493999176
 20
11.0914934954
 40
4.6416041344
100
AcDbArc
 50
39.2242865696
 51
39.7121986077
  0
ARC
  5
3FF
100
AcDbEntity
  8
0
100
AcDbCircle
 62
7
  6
CONTINUOUS
 10
6.0790910049
 20
11.9873059251
 40
1.9260209483
100
AcDbArc
 50
42.1199329168
 51
42.751186696
  0
ARC
  5
400
100
AcDbEntity
  8
0
100
AcDbCircle
 62
7
  6
CONTINUOUS
 10
7.9884469062
 20
10.1734402746
 40
1.8584325186
100
AcDbArc
 50
47.2373367094
 51
47.8915461164
  0
ARC
  5
401
100
AcDbEntity
  8
0
100
AcDbCircle
 62
7
  6
CONTINUOUS
 10
8.0467674702
 20
11.4403100005
 40
0.8827643521
100
AcDbArc
 50
47.0026211169
 51
47.2028622791
  0
ARC
  5
402
100
AcDbEntity
  8
0
100
AcDbCircle
 62
7
  6
CONTINUOUS
 10
7.4416538477
 20
12.1337980331
 40
0.8202322035
100
AcDbArc
 50
42.7895023193
 51
43.0050148236
  0
ARC
  5
403
100
AcDbEntity
  8
0
100
AcDbCircle
 62
7
  6
CONTINUOUS
 10
8.2436501697
 20
11.652796195
 40
0.5930866606
100
AcDbArc
 50
47.2126475606
 51
47.3718028872
  0
ARC
  5
404
100
AcDbEntity
  8
0
100
AcDbCircle
 62
7
  6
CONTINUOUS
 10
7.6312886861
 20
12.3093069412
 40
0.5618434498
100
AcDbArc
 50
42.6237154876
 51
42.7917736669
  0
ARC
  5
405
100
AcDbEntity
  8
0
100
AcDbCircle
 62
7
  6
CONTINUOUS
 10
8.7380738287
 20
11.5156574363
 40
0.3767591007
100
AcDbArc
 50
49.8403767085
 51
50.2943724048
  0
ARC
  5
406
100
AcDbEntity
  8
0
100
AcDbCircle
 62
7
  6
CONTINUOUS
 10
8.6928142776
 20
12.0065747979
 40
0.0924496739
100
AcDbArc
 50
38.2821157343
 51
39.0605309207
  0
ARC
  5
407
100
AcDbEntity
  8
0
100
AcDbCircle
 62
7
  6
CONTINUOUS
 10
8.7071000742
 20
12.0178324975
 40
0.0742612282
100
AcDbArc
 50
37.5666028276
 51
38.2925957374
  0
ARC
  5
408
100
AcDbEntity
  8
0
100
AcDbCircle
 62
7
  6
CONTINUOUS
 10
8.6927877172
 20
12.0055438278
 40
0.015
100
AcDbArc
 50
225.0
 51
295.7234362441
  0
ARC
  5
409
100
AcDbEntity
  8
0
100
AcDbCircle
 62
7
  6
CONTINUOUS
 10
8.634687763
 20
12.0636437821
 40
0.015
100
AcDbArc
 50
139.2891533288
 51
225.0
  0
ARC
  5
40A
100
AcDbEntity
  8
0
100
AcDbCircle
 62
7
  6
CONTINUOUS
 10
8.3559828776
 20
12.3423486674
 40
0.015
100
AcDbArc
 50
225.0
 51
310.7108466712
  0
ARC
  5
40B
100
AcDbEntity
  8
0
100
AcDbCircle
 62
7
  6
CONTINUOUS
 10
8.2978829233
 20
12.4004486217
 40
0.015
100
AcDbArc
 50
139.2891533288
 51
225.0
  0
ARC
  5
40C
100
AcDbEntity
  8
0
100
AcDbCircle
 62
7
  6
CONTINUOUS
 10
8.7095362682
 20
12.0029374125
 40
0.015
100
AcDbArc
 50
225.0
 51
310.7108466712
  0
ARC
  5
40D
100
AcDbEntity
  8
0
100
AcDbCircle
 62
7
  6
CONTINUOUS
 10
8.6514363139
 20
12.0610373668
 40
0.015
100
AcDbArc
 50
139.2891533288
 51
225.0
  0
ARC
  5
40E
100
AcDbEntity
  8
0
100
AcDbCircle
 62
7
  6
CONTINUOUS
 10
8.3630539454
 20
12.3494197353
 40
0.015
100
AcDbArc
 50
225.0
 51
310.7108466712
  0
ARC
  5
40F
100
AcDbEntity
  8
0
100
AcDbCircle
 62
7
  6
CONTINUOUS
 10
8.3049539911
 20
12.4075196895
 40
0.015
100
AcDbArc
 50
139.2891533288
 51
225.0
  0
ARC
  5
410
100
AcDbEntity
  8
0
100
AcDbCircle
 62
7
  6
CONTINUOUS
 10
8.7217327303
 20
12.0260962895
 40
0.015
100
AcDbArc
 50
225.0
 51
310.7108466712
  0
ARC
  5
411
100
AcDbEntity
  8
0
100
AcDbCircle
 62
7
  6
CONTINUOUS
 10
8.663632776
 20
12.0841962437
 40
0.015
100
AcDbArc
 50
139.2891533288
 51
225.0
  0
ARC
  5
412
100
AcDbEntity
  8
0
100
AcDbCircle
 62
7
  6
CONTINUOUS
 10
8.3807316149
 20
12.3670974048
 40
0.015
100
AcDbArc
 50
225.0
 51
310.7108466712
  0
ARC
  5
413
100
AcDbEntity
  8
0
100
AcDbCircle
 62
7
  6
CONTINUOUS
 10
8.7386881899
 20
12.0515672367
 40
0.015
100
AcDbArc
 50
225.0
 51
310.7108466712
  0
ARC
  5
414
100
AcDbEntity
  8
0
100
AcDbCircle
 62
7
  6
CONTINUOUS
 10
8.6805882356
 20
12.109667191
 40
0.015
100
AcDbArc
 50
139.2891533288
 51
225.0
  0
ARC
  5
415
100
AcDbEntity
  8
0
100
AcDbCircle
 62
7
  6
CONTINUOUS
 10
8.4019448184
 20
12.3883106082
 40
0.015
100
AcDbArc
 50
225.0
 51
310.7108466712
  0
ARC
  5
416
100
AcDbEntity
  8
0
100
AcDbCircle
 62
7
  6
CONTINUOUS
 10
8.7604193456
 20
12.0793335557
 40
0.015
100
AcDbArc
 50
225.0
 51
310.7108466712
  0
ARC
  5
417
100
AcDbEntity
  8
0
100
AcDbCircle
 62
7
  6
CONTINUOUS
 10
8.7023193913
 20
12.13743351
 40
0.015
100
AcDbArc
 50
139.2891533288
 51
225.0
  0
ARC
  5
418
100
AcDbEntity
  8
0
100
AcDbCircle
 62
7
  6
CONTINUOUS
 10
8.4266935557
 20
12.4130593456
 40
0.015
100
AcDbArc
 50
225.0
 51
310.7108466712
  0
ARC
  5
419
100
AcDbEntity
  8
0
100
AcDbCircle
 62
7
  6
CONTINUOUS
 10
7.484146743
 20
12.7933842224
 40
0.3598642768
100
AcDbArc
 50
39.6949394046
 51
40.1702832166
  0
ARC
  5
41A
100
AcDbEntity
  8
0
100
AcDbCircle
 62
7
  6
CONTINUOUS
 10
7.5172864806
 20
13.2305425391
 40
0.015
100
AcDbArc
 50
225.0
 51
310.7108466712
  0
ARC
  5
41B
100
AcDbEntity
  8
0
100
AcDbCircle
 62
7
  6
CONTINUOUS
 10
7.4591865263
 20
13.2886424934
 40
0.015
100
AcDbArc
 50
139.2891533288
 51
225.0
  0
ARC
  5
41C
100
AcDbEntity
  8
0
100
AcDbCircle
 62
7
  6
CONTINUOUS
 10
7.3988580361
 20
13.3489709836
 40
0.015
100
AcDbArc
 50
225.0
 51
310.7108466712
  0
ARC
  5
41D
100
AcDbEntity
  8
0
100
AcDbCircle
 62
7
  6
CONTINUOUS
 10
7.3407580818
 20
13.4070709379
 40
0.015
100
AcDbArc
 50
139.2891533288
 51
225.0
  0
ARC
  5
41E
100
AcDbEntity
  8
0
100
AcDbCircle
 62
7
  6
CONTINUOUS
 10
7.4819448184
 20
13.3083106082
 40
0.015
100
AcDbArc
 50
225.0
 51
310.7108466712
  0
ARC
  5
41F
100
AcDbEntity
  8
0
100
AcDbCircle
 62
7
  6
CONTINUOUS
 10
7.4238448641
 20
13.3664105625
 40
0.015
100
AcDbArc
 50
139.2891533288
 51
225.0
  0
ARC
  5
420
100
AcDbEntity
  8
0
100
AcDbCircle
 62
7
  6
CONTINUOUS
 10
7.2751795367
 20
13.5150758899
 40
0.015
100
AcDbArc
 50
225.0
 51
310.7108466712
  0
ARC
  5
421
100
AcDbEntity
  8
0
100
AcDbCircle
 62
7
  6
CONTINUOUS
 10
7.483220407
 20
13.3565324943
 40
0.015
100
AcDbArc
 50
225.0
 51
310.7108466712
  0
ARC
  5
422
100
AcDbEntity
  8
0
100
AcDbCircle
 62
7
  6
CONTINUOUS
 10
7.4251204527
 20
13.4146324486
 40
0.015
100
AcDbArc
 50
139.2891533288
 51
225.0
  0
ARC
  5
423
100
AcDbEntity
  8
0
100
AcDbCircle
 62
7
  6
CONTINUOUS
 10
6.5671343548
 20
13.6792832462
 40
0.4459370014
100
AcDbArc
 50
37.6929739548
 51
37.8185419315
  0
ARC
  5
424
100
AcDbEntity
  8
0
100
AcDbCircle
 62
7
  6
CONTINUOUS
 10
6.8615382238
 20
13.8263549742
 40
0.125
100
AcDbArc
 50
32.5196096022
 51
37.3821196857
  0
ARC
  5
425
100
AcDbEntity
  8
0
100
AcDbCircle
 62
7
  6
CONTINUOUS
 10
6.5826016324
 20
14.3593618968
 40
0.03
100
AcDbArc
 50
195.0
 51
211.7604517071
  0
ARC
  5
426
100
AcDbEntity
  8
0
100
AcDbCircle
 62
7
  6
CONTINUOUS
 10
6.4971671842
 20
14.6782075983
 40
0.03
100
AcDbArc
 50
135.0
 51
195.0
  0
ARC
  5
427
100
AcDbEntity
  8
0
100
AcDbCircle
 62
7
  6
CONTINUOUS
 10
7.2170795824
 20
13.5731758442
 40
0.015
100
AcDbArc
 50
139.2891533288
 51
225.0
  0
ARC
  5
428
100
AcDbEntity
  8
0
100
AcDbCircle
 62
7
  6
CONTINUOUS
 10
7.1452014469
 20
13.6450539797
 40
0.015
100
AcDbArc
 50
225.0
 51
310.7108466712
  0
ARC
  5
429
100
AcDbEntity
  8
0
100
AcDbCircle
 62
7
  6
CONTINUOUS
 10
7.0871014926
 20
13.703153934
 40
0.015
100
AcDbArc
 50
139.2891533288
 51
225.0
  0
ARC
  5
42A
100
AcDbEntity
  8
0
100
AcDbCircle
 62
7
  6
CONTINUOUS
 10
7.0427683867
 20
13.7474870399
 40
0.015
100
AcDbArc
 50
139.2891533288
 51
225.0
  0
ARC
  5
42B
100
AcDbEntity
  8
0
100
AcDbCircle
 62
7
  6
CONTINUOUS
 10
7.2338477234
 20
13.6059051778
 40
0.015
100
AcDbArc
 50
225.0
 51
310.7108466712
  0
ARC
  5
42C
100
AcDbEntity
  8
0
100
AcDbCircle
 62
7
  6
CONTINUOUS
 10
7.1757477692
 20
13.6640051321
 40
0.015
100
AcDbArc
 50
139.2891533288
 51
225.0
  0
ARC
  5
42D
100
AcDbEntity
  8
0
100
AcDbCircle
 62
7
  6
CONTINUOUS
 10
7.0366081267
 20
13.8031447746
 40
0.015
100
AcDbArc
 50
225.0
 51
310.7108466712
  0
ARC
  5
42E
100
AcDbEntity
  8
0
100
AcDbCircle
 62
7
  6
CONTINUOUS
 10
6.9785081724
 20
13.8612447289
 40
0.015
100
AcDbArc
 50
139.2891533288
 51
225.0
  0
ARC
  5
42F
100
AcDbEntity
  8
0
100
AcDbCircle
 62
7
  6
CONTINUOUS
 10
6.9001219336
 20
13.9396309677
 40
0.015
100
AcDbArc
 50
225.0
 51
310.7108466712
  0
ARC
  5
430
100
AcDbEntity
  8
0
100
AcDbCircle
 62
7
  6
CONTINUOUS
 10
6.8420219793
 20
13.997730922
 40
0.015
100
AcDbArc
 50
139.2891533288
 51
225.0
  0
ARC
  5
431
100
AcDbEntity
  8
0
100
AcDbCircle
 62
7
  6
CONTINUOUS
 10
6.8303542456
 20
14.0093986557
 40
0.015
100
AcDbArc
 50
225.0
 51
258.6490239625
  0
ARC
  5
432
100
AcDbEntity
  8
0
100
AcDbCircle
 62
7
  6
CONTINUOUS
 10
6.7722542913
 20
14.0674986099
 40
0.015
100
AcDbArc
 50
139.2891533288
 51
225.0
  0
ARC
  5
433
100
AcDbEntity
  8
0
100
AcDbCircle
 62
7
  6
CONTINUOUS
 10
8.6361807465
 20
13.5151733073
 40
1.0
100
AcDbArc
 50
217.3648233597
 51
223.5548996513
  0
ARC
  5
434
100
AcDbEntity
  8
0
100
AcDbCircle
 62
7
  6
CONTINUOUS
 10
7.9598052868
 20
12.7344016058
 40
0.0961364101
100
AcDbArc
 50
50.9536189178
 51
51.7018358236
  0
ARC
  5
435
100
AcDbEntity
  8
0
100
AcDbCircle
 62
7
  6
CONTINUOUS
 10
7.9716005571
 20
12.7493008252
 40
0.0771333978
100
AcDbArc
 50
51.7189462171
 51
52.3944758157
  0
ARC
  5
436
100
AcDbEntity
  8
0
100
AcDbCircle
 62
7
  6
CONTINUOUS
 10
8.019178038
 20
12.6791535071
 40
0.015
100
AcDbArc
 50
225.0
 51
310.7108466712
  0
ARC
  5
437
100
AcDbEntity
  8
0
100
AcDbCircle
 62
7
  6
CONTINUOUS
 10
7.9610780837
 20
12.7372534614
 40
0.015
100
AcDbArc
 50
154.2765637559
 51
225.0
  0
ARC
  5
438
100
AcDbEntity
  8
0
100
AcDbCircle
 62
7
  6
CONTINUOUS
 10
8.0165716226
 20
12.695902058
 40
0.015
100
AcDbArc
 50
225.0
 51
310.7108466712
  0
ARC
  5
439
100
AcDbEntity
  8
0
100
AcDbCircle
 62
7
  6
CONTINUOUS
 10
7.9584716684
 20
12.7540020123
 40
0.015
100
AcDbArc
 50
139.2891533288
 51
225.0
  0
ARC
  5
43A
100
AcDbEntity
  8
0
100
AcDbCircle
 62
7
  6
CONTINUOUS
 10
7.7629289584
 20
12.9495447222
 40
0.015
100
AcDbArc
 50
225.0
 51
310.7108466712
  0
ARC
  5
43B
100
AcDbEntity
  8
0
100
AcDbCircle
 62
7
  6
CONTINUOUS
 10
7.7048290042
 20
13.0076446765
 40
0.015
100
AcDbArc
 50
139.2891533288
 51
225.0
  0
ARC
  5
43C
100
AcDbEntity
  8
0
100
AcDbCircle
 62
7
  6
CONTINUOUS
 10
7.6700892999
 20
13.0423843808
 40
0.015
100
AcDbArc
 50
225.0
 51
310.7108466712
  0
ARC
  5
43D
100
AcDbEntity
  8
0
100
AcDbCircle
 62
7
  6
CONTINUOUS
 10
7.6119893456
 20
13.1004843351
 40
0.015
100
AcDbArc
 50
139.2891533288
 51
225.0
  0
ARC
  5
43E
100
AcDbEntity
  8
0
100
AcDbCircle
 62
7
  6
CONTINUOUS
 10
8.3226316607
 20
12.4251973591
 40
0.015
100
AcDbArc
 50
139.2891533288
 51
225.0
  0
ARC
  5
43F
100
AcDbEntity
  8
0
100
AcDbCircle
 62
7
  6
CONTINUOUS
 10
8.0397304996
 20
12.7080985201
 40
0.015
100
AcDbArc
 50
225.0
 51
310.7108466712
  0
ARC
  5
440
100
AcDbEntity
  8
0
100
AcDbCircle
 62
7
  6
CONTINUOUS
 10
7.9816305453
 20
12.7661984744
 40
0.015
100
AcDbArc
 50
139.2891533288
 51
225.0
  0
ARC
  5
441
100
AcDbEntity
  8
0
100
AcDbCircle
 62
7
  6
CONTINUOUS
 10
7.7398591514
 20
13.0079698683
 40
0.015
100
AcDbArc
 50
225.0
 51
310.7108466712
  0
ARC
  5
442
100
AcDbEntity
  8
0
100
AcDbCircle
 62
7
  6
CONTINUOUS
 10
7.6817591971
 20
13.0660698226
 40
0.015
100
AcDbArc
 50
139.2891533288
 51
225.0
  0
ARC
  5
443
100
AcDbEntity
  8
0
100
AcDbCircle
 62
7
  6
CONTINUOUS
 10
8.3438448641
 20
12.4464105625
 40
0.015
100
AcDbArc
 50
139.2891533288
 51
225.0
  0
ARC
  5
444
100
AcDbEntity
  8
0
100
AcDbCircle
 62
7
  6
CONTINUOUS
 10
8.0652014469
 20
12.7250539797
 40
0.015
100
AcDbArc
 50
225.0
 51
310.7108466712
  0
ARC
  5
445
100
AcDbEntity
  8
0
100
AcDbCircle
 62
7
  6
CONTINUOUS
 10
8.0071014926
 20
12.783153934
 40
0.015
100
AcDbArc
 50
139.2891533288
 51
225.0
  0
ARC
  5
446
100
AcDbEntity
  8
0
100
AcDbCircle
 62
7
  6
CONTINUOUS
 10
7.7514065797
 20
13.0388488469
 40
0.015
100
AcDbArc
 50
225.0
 51
310.7108466712
  0
ARC
  5
447
100
AcDbEntity
  8
0
100
AcDbCircle
 62
7
  6
CONTINUOUS
 10
7.6933066254
 20
13.0969488012
 40
0.015
100
AcDbArc
 50
139.2891533288
 51
225.0
  0
ARC
  5
448
100
AcDbEntity
  8
0
100
AcDbCircle
 62
7
  6
CONTINUOUS
 10
8.3685936014
 20
12.4711592998
 40
0.015
100
AcDbArc
 50
139.2891533288
 51
225.0
  0
ARC
  5
449
100
AcDbEntity
  8
0
100
AcDbCircle
 62
7
  6
CONTINUOUS
 10
8.0929677659
 20
12.7467851354
 40
0.015
100
AcDbArc
 50
225.0
 51
310.7108466712
  0
ARC
  5
44A
100
AcDbEntity
  8
0
100
AcDbCircle
 62
7
  6
CONTINUOUS
 10
8.0348678116
 20
12.8048850897
 40
0.015
100
AcDbArc
 50
139.2891533288
 51
225.0
  0
ARC
  5
44B
100
AcDbEntity
  8
0
100
AcDbCircle
 62
7
  6
CONTINUOUS
 10
7.7738273944
 20
13.0659255069
 40
0.015
100
AcDbArc
 50
225.0
 51
310.7108466712
  0
ARC
  5
44C
100
AcDbEntity
  8
0
100
AcDbCircle
 62
7
  6
CONTINUOUS
 10
7.7157274401
 20
13.1240254612
 40
0.015
100
AcDbArc
 50
139.2891533288
 51
225.0
  0
ARC
  5
44D
100
AcDbEntity
  8
0
100
AcDbCircle
 62
7
  6
CONTINUOUS
 10
8.3557536885
 20
13.815348289
 40
1.0
100
AcDbArc
 50
215.6146107376
 51
222.549018051
  0
ARC
  5
44E
100
AcDbEntity
  8
0
100
AcDbCircle
 62
7
  6
CONTINUOUS
 10
8.0804038088
 20
14.1206658442
 40
1.0
100
AcDbArc
 50
217.7862094089
 51
221.542266468
  0
ARC
  5
44F
100
AcDbEntity
  8
0
100
AcDbCircle
 62
7
  6
CONTINUOUS
 10
7.8101466664
 20
14.4311417323
 40
1.0
100
AcDbArc
 50
219.9285306353
 51
220.5343308342
  0
ARC
  5
450
100
AcDbEntity
  8
0
100
AcDbCircle
 62
7
  6
CONTINUOUS
 10
7.8101466664
 20
14.4311417323
 40
1.0
100
AcDbArc
 50
212.5196096022
 51
213.3992494667
  0
ARC
  5
451
100
AcDbEntity
  8
0
100
AcDbCircle
 62
7
  6
CONTINUOUS
 10
7.8832557763
 20
14.3460595021
 40
1.0
100
AcDbArc
 50
224.442736359
 51
225.0
  0
ARC
  5
452
100
AcDbEntity
  8
0
100
AcDbCircle
 62
7
  6
CONTINUOUS
 10
8.3813801226
 20
14.4481712609
 40
0.03
100
AcDbArc
 50
45.0
 51
135.0
  0
ARC
  5
453
100
AcDbEntity
  8
0
100
AcDbCircle
 62
7
  6
CONTINUOUS
 10
8.1756120493
 20
14.3272560014
 40
0.03
100
AcDbArc
 50
225.0
 51
315.0
  0
ARC
  5
454
100
AcDbEntity
  8
0
100
AcDbCircle
 62
7
  6
CONTINUOUS
 10
11.5747997941
 20
2.614891804
 40
0.03
100
AcDbArc
 50
270.0
 51
360.0
  0
ARC
  5
455
100
AcDbEntity
  8
0
100
AcDbCircle
 62
7
  6
CONTINUOUS
 10
11.1347997941
 20
2.614891804
 40
0.03
100
AcDbArc
 50
180.0
 51
270.0
  0
ARC
  5
456
100
AcDbEntity
  8
0
100
AcDbCircle
 62
7
  6
CONTINUOUS
 10
11.0447997941
 20
3.618891804
 40
0.06
100
AcDbArc
 50
0.0
 51
90.0
  0
ARC
  5
457
100
AcDbEntity
  8
0
100
AcDbCircle
 62
7
  6
CONTINUOUS
 10
11.0412997941
 20
3.708891804
 40
0.03
100
AcDbArc
 50
180.0
 51
270.0
  0
ARC
  5
458
100
AcDbEntity
  8
0
100
AcDbCircle
 62
9
  6
CONTINUOUS
 10
11.1347997941
 20
3.802391804
 40
0.09
100
AcDbArc
 50
180.0000002049
 51
269.9999998169
  0
ARC
  5
459
100
AcDbEntity
  8
0
100
AcDbCircle
 62
7
  6
CONTINUOUS
 10
11.1347997941
 20
3.802391804
 40
0.03
100
AcDbArc
 50
180.0
 51
270.0
  0
ARC
  5
45A
100
AcDbEntity
  8
0
100
AcDbCircle
 62
7
  6
CONTINUOUS
 10
11.6647997941
 20
3.618891804
 40
0.06
100
AcDbArc
 50
90.0
 51
180.0
  0
ARC
  5
45B
100
AcDbEntity
  8
0
100
AcDbCircle
 62
7
  6
CONTINUOUS
 10
11.6682997941
 20
3.708891804
 40
0.03
100
AcDbArc
 50
270.0
 51
360.0
  0
ARC
  5
45C
100
AcDbEntity
  8
0
100
AcDbCircle
 62
9
  6
CONTINUOUS
 10
11.5747997941
 20
3.802391804
 40
0.09
100
AcDbArc
 50
270.0000002049
 51
359.9999998169
  0
ARC
  5
45D
100
AcDbEntity
  8
0
100
AcDbCircle
 62
7
  6
CONTINUOUS
 10
11.5747997941
 20
3.802391804
 40
0.03
100
AcDbArc
 50
270.0
 51
360.0
  0
ARC
  5
45E
100
AcDbEntity
  8
0
100
AcDbCircle
 62
7
  6
CONTINUOUS
 10
12.3657097941
 20
3.4774295492
 40
0.0899999713
100
AcDbArc
 50
79.9999946318
 51
162.5612911559
  0
ARC
  5
45F
100
AcDbEntity
  8
0
100
AcDbCircle
 62
7
  6
CONTINUOUS
 10
11.7582997941
 20
3.649891804
 40
0.06
100
AcDbArc
 50
90.0
 51
139.0382420891
  0
ARC
  5
460
100
AcDbEntity
  8
0
100
AcDbCircle
 62
7
  6
CONTINUOUS
 10
12.2512252417
 20
3.513391804
 40
0.03
100
AcDbArc
 50
270.0000107216
 51
342.5612700751
  0
ARC
  5
461
100
AcDbEntity
  8
0
100
AcDbCircle
 62
7
  6
CONTINUOUS
 10
12.1242997941
 20
3.513391804
 40
0.03
100
AcDbArc
 50
180.0
 51
270.0
  0
ARC
  5
462
100
AcDbEntity
  8
0
100
AcDbCircle
 62
9
  6
CONTINUOUS
 10
12.2460768537
 20
3.5133710423
 40
0.029980904
100
AcDbArc
 50
270.0330419634
 51
356.332100281
  0
ARC
  5
463
100
AcDbEntity
  8
0
100
AcDbCircle
 62
9
  6
CONTINUOUS
 10
11.5747997941
 20
4.242391804
 40
0.09
100
AcDbArc
 50
0.0000002049
 51
89.9999998169
  0
ARC
  5
464
100
AcDbEntity
  8
0
100
AcDbCircle
 62
9
  6
CONTINUOUS
 10
11.1347997941
 20
4.242391804
 40
0.09
100
AcDbArc
 50
90.0000002049
 51
179.9999998169
  0
ARC
  5
465
100
AcDbEntity
  8
0
100
AcDbCircle
 62
7
  6
CONTINUOUS
 10
11.0447997941
 20
4.425891804
 40
0.06
100
AcDbArc
 50
270.0
 51
360.0
  0
ARC
  5
466
100
AcDbEntity
  8
0
100
AcDbCircle
 62
7
  6
CONTINUOUS
 10
11.6647997941
 20
4.425891804
 40
0.06
100
AcDbArc
 50
180.0
 51
270.0
  0
ARC
  5
467
100
AcDbEntity
  8
0
100
AcDbCircle
 62
7
  6
CONTINUOUS
 10
11.0412997941
 20
4.335891804
 40
0.03
100
AcDbArc
 50
90.0
 51
180.0
  0
ARC
  5
468
100
AcDbEntity
  8
0
100
AcDbCircle
 62
7
  6
CONTINUOUS
 10
11.1347997941
 20
4.242391804
 40
0.03
100
AcDbArc
 50
90.0
 51
180.0
  0
ARC
  5
469
100
AcDbEntity
  8
0
100
AcDbCircle
 62
7
  6
CONTINUOUS
 10
11.5747997941
 20
4.242391804
 40
0.03
100
AcDbArc
 50
0.0
 51
90.0
  0
ARC
  5
46A
100
AcDbEntity
  8
0
100
AcDbCircle
 62
7
  6
CONTINUOUS
 10
11.6682997941
 20
4.335891804
 40
0.03
100
AcDbArc
 50
0.0
 51
90.0
  0
ARC
  5
46B
100
AcDbEntity
  8
0
100
AcDbCircle
 62
7
  6
CONTINUOUS
 10
11.6903365687
 20
4.335891804
 40
0.03
100
AcDbArc
 50
40.9617885792
 51
90.0
  0
ARC
  5
46C
100
AcDbEntity
  8
0
100
AcDbCircle
 62
7
  6
CONTINUOUS
 10
11.5747997941
 20
5.429891804
 40
0.03
100
AcDbArc
 50
0.0
 51
90.0
  0
ARC
  5
46D
100
AcDbEntity
  8
0
100
AcDbCircle
 62
7
  6
CONTINUOUS
 10
11.1347997941
 20
5.429891804
 40
0.03
100
AcDbArc
 50
90.0
 51
180.0
  0
ARC
  5
46E
100
AcDbEntity
  8
0
100
AcDbCircle
 62
7
  6
CONTINUOUS
 10
12.3657097941
 20
4.5673533735
 40
0.0899995663
100
AcDbArc
 50
197.4388007452
 51
280.0000811385
  0
ARC
  5
46F
100
AcDbEntity
  8
0
100
AcDbCircle
 62
7
  6
CONTINUOUS
 10
11.7582997941
 20
4.394891804
 40
0.06
100
AcDbArc
 50
220.9617885523
 51
270.0
  0
ARC
  5
470
100
AcDbEntity
  8
0
100
AcDbCircle
 62
7
  6
CONTINUOUS
 10
12.1242997941
 20
4.531391804
 40
0.03
100
AcDbArc
 50
90.0
 51
180.0
  0
ARC
  5
471
100
AcDbEntity
  8
0
100
AcDbCircle
 62
7
  6
CONTINUOUS
 10
12.2512255474
 20
4.531391804
 40
0.03
100
AcDbArc
 50
17.4387176728
 51
89.9999999662
  0
ARC
  5
472
100
AcDbEntity
  8
0
100
AcDbCircle
 62
9
  6
CONTINUOUS
 10
12.2460770914
 20
4.5314123762
 40
0.0299810875
100
AcDbArc
 50
3.6748483334
 51
89.9670724795
  0
ARC
  5
473
100
AcDbEntity
  8
0
100
AcDbCircle
 62
7
  6
CONTINUOUS
 10
14.0022997941
 20
3.249780124
 40
0.03
100
AcDbArc
 50
0.0
 51
79.9999999999
  0
ARC
  5
474
100
AcDbEntity
  8
0
100
AcDbCircle
 62
7
  6
CONTINUOUS
 10
14.0622997941
 20
3.179891804
 40
0.03
100
AcDbArc
 50
180.0
 51
270.0
  0
ARC
  5
475
100
AcDbEntity
  8
0
100
AcDbCircle
 62
7
  6
CONTINUOUS
 10
14.2597997941
 20
2.857391804
 40
0.03
100
AcDbArc
 50
180.0
 51
270.0
  0
ARC
  5
476
100
AcDbEntity
  8
0
100
AcDbCircle
 62
7
  6
CONTINUOUS
 10
14.3629544281
 20
2.857391804
 40
0.03
100
AcDbArc
 50
270.0000000001
 51
324.3146652873
  0
ARC
  5
477
100
AcDbEntity
  8
0
100
AcDbCircle
 62
9
  6
CONTINUOUS
 10
14.3613531734
 20
2.8572791053
 40
0.0298881715
100
AcDbArc
 50
270.0368887496
 51
329.3396097277
  0
ARC
  5
478
100
AcDbEntity
  8
0
100
AcDbCircle
 62
7
  6
CONTINUOUS
 10
14.0022997941
 20
4.7950034841
 40
0.03
100
AcDbArc
 50
280.0
 51
360.0
  0
ARC
  5
479
100
AcDbEntity
  8
0
100
AcDbCircle
 62
7
  6
CONTINUOUS
 10
14.0622997941
 20
4.864891804
 40
0.03
100
AcDbArc
 50
90.0
 51
180.0
  0
ARC
  5
47A
100
AcDbEntity
  8
0
100
AcDbCircle
 62
7
  6
CONTINUOUS
 10
14.2597997941
 20
5.187391804
 40
0.03
100
AcDbArc
 50
90.0
 51
180.0
  0
ARC
  5
47B
100
AcDbEntity
  8
0
100
AcDbCircle
 62
7
  6
CONTINUOUS
 10
14.3629544281
 20
5.187391804
 40
0.03
100
AcDbArc
 50
35.6853347125
 51
89.9999999998
  0
ARC
  5
47C
100
AcDbEntity
  8
0
100
AcDbCircle
 62
9
  6
CONTINUOUS
 10
14.361353237
 20
5.1875044798
 40
0.0298881911
100
AcDbArc
 50
30.6619970455
 51
89.9632242754
  0
ARC
  5
47D
100
AcDbEntity
  8
0
100
AcDbCircle
 62
7
  6
CONTINUOUS
 10
9.629986284
 20
10.6053614
 40
0.4538276257
100
AcDbArc
 50
52.1828219574
 51
52.3085190105
  0
ARC
  5
47E
100
AcDbEntity
  8
0
100
AcDbCircle
 62
7
  6
CONTINUOUS
 10
9.3626051938
 20
11.3852238259
 40
0.015
100
AcDbArc
 50
225.0
 51
310.7108466712
  0
ARC
  5
47F
100
AcDbEntity
  8
0
100
AcDbCircle
 62
7
  6
CONTINUOUS
 10
9.3045052395
 20
11.4433237802
 40
0.015
100
AcDbArc
 50
139.2891533288
 51
225.0
  0
ARC
  5
480
100
AcDbEntity
  8
0
100
AcDbCircle
 62
7
  6
CONTINUOUS
 10
9.7030212958
 20
11.0872341308
 40
0.015
100
AcDbArc
 50
225.0
 51
310.7108466712
  0
ARC
  5
481
100
AcDbEntity
  8
0
100
AcDbCircle
 62
7
  6
CONTINUOUS
 10
9.6586881899
 20
11.1315672367
 40
0.015
100
AcDbArc
 50
225.0
 51
310.7108466712
  0
ARC
  5
482
100
AcDbEntity
  8
0
100
AcDbCircle
 62
7
  6
CONTINUOUS
 10
9.6005882356
 20
11.189667191
 40
0.015
100
AcDbArc
 50
139.2891533288
 51
225.0
  0
ARC
  5
483
100
AcDbEntity
  8
0
100
AcDbCircle
 62
7
  6
CONTINUOUS
 10
9.5287101001
 20
11.2615453265
 40
0.015
100
AcDbArc
 50
225.0
 51
310.7108466712
  0
ARC
  5
484
100
AcDbEntity
  8
0
100
AcDbCircle
 62
7
  6
CONTINUOUS
 10
9.4706101458
 20
11.3196452808
 40
0.015
100
AcDbArc
 50
139.2891533288
 51
225.0
  0
ARC
  5
485
100
AcDbEntity
  8
0
100
AcDbCircle
 62
7
  6
CONTINUOUS
 10
9.3219448184
 20
11.4683106082
 40
0.015
100
AcDbArc
 50
225.0
 51
310.7108466712
  0
ARC
  5
486
100
AcDbEntity
  8
0
100
AcDbCircle
 62
7
  6
CONTINUOUS
 10
9.7586790305
 20
11.0810738708
 40
0.015
100
AcDbArc
 50
139.2891533288
 51
225.0
  0
ARC
  5
487
100
AcDbEntity
  8
0
100
AcDbCircle
 62
7
  6
CONTINUOUS
 10
9.619539388
 20
11.2202135133
 40
0.015
100
AcDbArc
 50
225.0
 51
310.7108466712
  0
ARC
  5
488
100
AcDbEntity
  8
0
100
AcDbCircle
 62
7
  6
CONTINUOUS
 10
9.5614394337
 20
11.2783134676
 40
0.015
100
AcDbArc
 50
139.2891533288
 51
225.0
  0
ARC
  5
489
100
AcDbEntity
  8
0
100
AcDbCircle
 62
7
  6
CONTINUOUS
 10
9.3701667045
 20
11.4695861968
 40
0.015
100
AcDbArc
 50
225.0
 51
310.7108466712
  0
ARC
  5
48A
100
AcDbEntity
  8
0
100
AcDbCircle
 62
7
  6
CONTINUOUS
 10
9.056018591
 20
11.6564550897
 40
0.015
100
AcDbArc
 50
225.0
 51
310.7108466712
  0
ARC
  5
48B
100
AcDbEntity
  8
0
100
AcDbCircle
 62
7
  6
CONTINUOUS
 10
8.9979186367
 20
11.714555044
 40
0.015
100
AcDbArc
 50
139.2891533288
 51
225.0
  0
ARC
  5
48C
100
AcDbEntity
  8
0
100
AcDbCircle
 62
7
  6
CONTINUOUS
 10
8.9631789324
 20
11.7492947483
 40
0.015
100
AcDbArc
 50
225.0
 51
310.7108466712
  0
ARC
  5
48D
100
AcDbEntity
  8
0
100
AcDbCircle
 62
7
  6
CONTINUOUS
 10
8.9050789781
 20
11.8073947026
 40
0.015
100
AcDbArc
 50
139.2891533288
 51
225.0
  0
ARC
  5
48E
100
AcDbEntity
  8
0
100
AcDbCircle
 62
7
  6
CONTINUOUS
 10
9.2441767493
 20
11.5036522705
 40
0.015
100
AcDbArc
 50
225.0
 51
310.7108466712
  0
ARC
  5
48F
100
AcDbEntity
  8
0
100
AcDbCircle
 62
7
  6
CONTINUOUS
 10
9.186076795
 20
11.5617522247
 40
0.015
100
AcDbArc
 50
139.2891533288
 51
225.0
  0
ARC
  5
490
100
AcDbEntity
  8
0
100
AcDbCircle
 62
7
  6
CONTINUOUS
 10
9.0216040785
 20
11.7262249413
 40
0.015
100
AcDbArc
 50
225.0
 51
310.7108466712
  0
ARC
  5
491
100
AcDbEntity
  8
0
100
AcDbCircle
 62
7
  6
CONTINUOUS
 10
8.9635041242
 20
11.7843248956
 40
0.015
100
AcDbArc
 50
139.2891533288
 51
225.0
  0
ARC
  5
492
100
AcDbEntity
  8
0
100
AcDbCircle
 62
7
  6
CONTINUOUS
 10
9.2638448641
 20
11.5264105625
 40
0.015
100
AcDbArc
 50
139.2891533288
 51
225.0
  0
ARC
  5
493
100
AcDbEntity
  8
0
100
AcDbCircle
 62
7
  6
CONTINUOUS
 10
9.0524830571
 20
11.7377723695
 40
0.015
100
AcDbArc
 50
225.0
 51
310.7108466712
  0
ARC
  5
494
100
AcDbEntity
  8
0
100
AcDbCircle
 62
7
  6
CONTINUOUS
 10
8.9943831028
 20
11.7958723238
 40
0.015
100
AcDbArc
 50
139.2891533288
 51
225.0
  0
ARC
  5
495
100
AcDbEntity
  8
0
100
AcDbCircle
 62
7
  6
CONTINUOUS
 10
9.3120667502
 20
11.5276861511
 40
0.015
100
AcDbArc
 50
139.2891533288
 51
225.0
  0
ARC
  5
496
100
AcDbEntity
  8
0
100
AcDbCircle
 62
7
  6
CONTINUOUS
 10
9.0795597171
 20
11.7601931842
 40
0.015
100
AcDbArc
 50
225.0
 51
310.7108466712
  0
ARC
  5
497
100
AcDbEntity
  8
0
100
AcDbCircle
 62
7
  6
CONTINUOUS
 10
9.0214597628
 20
11.8182931385
 40
0.015
100
AcDbArc
 50
139.2891533288
 51
225.0
  0
ARC
  5
498
100
AcDbEntity
  8
0
100
AcDbCircle
 62
7
  6
CONTINUOUS
 10
9.7818892301
 20
10.9060039679
 40
0.125
100
AcDbArc
 50
52.6178803143
 51
57.4803903978
  0
ARC
  5
499
100
AcDbEntity
  8
0
100
AcDbCircle
 62
7
  6
CONTINUOUS
 10
10.3148961526
 20
10.6270673765
 40
0.03
100
AcDbArc
 50
238.2395482929
 51
255.0
  0
ARC
  5
49A
100
AcDbEntity
  8
0
100
AcDbCircle
 62
7
  6
CONTINUOUS
 10
10.6337418541
 20
10.5416329283
 40
0.03
100
AcDbArc
 50
255.0
 51
315.0
  0
ARC
  5
49B
100
AcDbEntity
  8
0
100
AcDbCircle
 62
7
  6
CONTINUOUS
 10
10.0230328658
 20
10.8167200355
 40
0.015
100
AcDbArc
 50
225.0
 51
310.7108466712
  0
ARC
  5
49C
100
AcDbEntity
  8
0
100
AcDbCircle
 62
7
  6
CONTINUOUS
 10
9.9649329115
 20
10.8748199898
 40
0.015
100
AcDbArc
 50
191.3509760375
 51
225.0
  0
ARC
  5
49D
100
AcDbEntity
  8
0
100
AcDbCircle
 62
7
  6
CONTINUOUS
 10
9.9532651779
 20
10.8864877234
 40
0.015
100
AcDbArc
 50
225.0
 51
310.7108466712
  0
ARC
  5
49E
100
AcDbEntity
  8
0
100
AcDbCircle
 62
7
  6
CONTINUOUS
 10
9.8951652236
 20
10.9445876777
 40
0.015
100
AcDbArc
 50
139.2891533288
 51
225.0
  0
ARC
  5
49F
100
AcDbEntity
  8
0
100
AcDbCircle
 62
7
  6
CONTINUOUS
 10
9.8167789848
 20
11.0229739165
 40
0.015
100
AcDbArc
 50
225.0
 51
310.7108466712
  0
ARC
  5
4A0
100
AcDbEntity
  8
0
100
AcDbCircle
 62
7
  6
CONTINUOUS
 10
9.7708825449
 20
12.4002194327
 40
1.0
100
AcDbArc
 50
227.450981949
 51
234.3853892624
  0
ARC
  5
4A1
100
AcDbEntity
  8
0
100
AcDbCircle
 62
7
  6
CONTINUOUS
 10
10.0762001
 20
12.1248695529
 40
1.0
100
AcDbArc
 50
228.457733532
 51
232.2137905911
  0
ARC
  5
4A2
100
AcDbEntity
  8
0
100
AcDbCircle
 62
7
  6
CONTINUOUS
 10
10.3866759882
 20
11.8546124105
 40
1.0
100
AcDbArc
 50
229.4656691658
 51
230.0714693647
  0
ARC
  5
4A3
100
AcDbEntity
  8
0
100
AcDbCircle
 62
7
  6
CONTINUOUS
 10
10.3866759882
 20
11.8546124105
 40
1.0
100
AcDbArc
 50
236.6007505333
 51
237.4803903978
  0
ARC
  5
4A4
100
AcDbEntity
  8
0
100
AcDbCircle
 62
7
  6
CONTINUOUS
 10
10.301593758
 20
11.9277215204
 40
1.0
100
AcDbArc
 50
225.0
 51
225.557263641
  0
ARC
  5
4A5
100
AcDbEntity
  8
0
100
AcDbCircle
 62
7
  6
CONTINUOUS
 10
10.4037055168
 20
12.4258458667
 40
0.03
100
AcDbArc
 50
315.0
 51
45.0
  0
ARC
  5
4A6
100
AcDbEntity
  8
0
100
AcDbCircle
 62
7
  6
CONTINUOUS
 10
10.2827902572
 20
12.2200777934
 40
0.03
100
AcDbArc
 50
135.0
 51
225.0
  0
ARC
  5
4A7
100
AcDbEntity
  8
0
100
AcDbCircle
 62
7
  6
CONTINUOUS
 10
9.4707075631
 20
12.6806464906
 40
1.0
100
AcDbArc
 50
226.4451003487
 51
232.6351766403
  0
ARC
  5
4A8
100
AcDbEntity
  8
0
100
AcDbCircle
 62
7
  6
CONTINUOUS
 10
9.7995443473
 20
13.8440100915
 40
0.489
100
AcDbArc
 50
89.9741595356
 51
104.605106454
  0
ARC
  5
4A9
100
AcDbEntity
  8
0
100
AcDbCircle
 62
7
  6
CONTINUOUS
 10
9.7995443473
 20
13.8440100915
 40
0.489
100
AcDbArc
 50
345.394893546
 51
0.0258404644
  0
ARC
  5
4AA
100
AcDbEntity
  8
0
100
AcDbCircle
 62
7
  6
CONTINUOUS
 10
10.4418604542
 20
14.1122667111
 40
0.188
100
AcDbArc
 50
270.0
 51
290.0824346829
  0
ARC
  5
4AB
100
AcDbEntity
  8
0
100
AcDbCircle
 62
7
  6
CONTINUOUS
 10
10.067800967
 20
14.4863261984
 40
0.188
100
AcDbArc
 50
159.9175653171
 51
180.0
  0
ARC
  5
4AC
100
AcDbEntity
  8
0
100
AcDbCircle
 62
7
  6
CONTINUOUS
 10
9.799800967
 20
14.4130100336
 40
0.08
100
AcDbArc
 50
269.9741595356
 51
360.0
  0
ARC
  5
4AD
100
AcDbEntity
  8
0
100
AcDbCircle
 62
7
  6
CONTINUOUS
 10
10.3685442895
 20
13.8442667111
 40
0.08
100
AcDbArc
 50
90.0
 51
180.0258404644
  0
ARC
  5
4AE
100
AcDbEntity
  8
0
100
AcDbCircle
 62
7
  6
CONTINUOUS
 10
9.9511571769
 20
12.9632470204
 40
0.03
100
AcDbArc
 50
135.0
 51
225.0
  0
ARC
  5
4AF
100
AcDbEntity
  8
0
100
AcDbCircle
 62
7
  6
CONTINUOUS
 10
8.9187812763
 20
13.995622921
 40
0.03
100
AcDbArc
 50
225.0
 51
315.0
  0
ARC
  5
4B0
100
AcDbEntity
  8
0
100
AcDbCircle
 62
7
  6
CONTINUOUS
 10
9.1125285344
 20
14.1186595009
 40
0.02
100
AcDbArc
 50
135.0
 51
225.0
  0
ARC
  5
4B1
100
AcDbEntity
  8
0
100
AcDbCircle
 62
7
  6
CONTINUOUS
 10
10.0741937568
 20
13.1569942785
 40
0.02
100
AcDbArc
 50
225.0
 51
315.0
  0
ARC
  5
4B2
100
AcDbEntity
  8
0
100
AcDbCircle
 62
7
  6
CONTINUOUS
 10
10.0459094855
 20
13.1287100072
 40
0.02
100
AcDbArc
 50
315.0
 51
45.0
  0
ARC
  5
4B3
100
AcDbEntity
  8
0
100
AcDbCircle
 62
7
  6
CONTINUOUS
 10
9.0842442631
 20
14.0903752297
 40
0.02
100
AcDbArc
 50
45.0
 51
135.0
  0
ARC
  5
4B4
100
AcDbEntity
  8
0
100
AcDbCircle
 62
7
  6
CONTINUOUS
 10
11.2550620814
 20
11.1629531555
 40
0.03
100
AcDbArc
 50
315.0
 51
45.0
  0
ARC
  5
4B5
100
AcDbEntity
  8
0
100
AcDbCircle
 62
7
  6
CONTINUOUS
 10
12.7027997941
 20
14.272391804
 40
2.15625
100
AcDbArc
 50
90.0
 51
135.0
  0
ARC
  5
4B6
100
AcDbEntity
  8
0
100
AcDbCircle
 62
7
  6
CONTINUOUS
 10
12.7027997941
 20
14.272391804
 40
1.34375
100
AcDbArc
 50
90.0
 51
135.0
  0
ARC
  5
4B7
100
AcDbEntity
  8
0
100
AcDbCircle
 62
7
  6
CONTINUOUS
 10
7.1184874114
 20
15.2995278255
 40
0.03
100
AcDbArc
 50
45.0
 51
135.0
  0
ARC
  5
4B8
100
AcDbEntity
  8
0
100
AcDbCircle
 62
7
  6
CONTINUOUS
 10
14.6397997941
 20
0.7619570214
 40
0.1254347826
100
AcDbArc
 50
4.7718880608
 51
90.0
  0
ARC
  5
4B9
100
AcDbEntity
  8
0
100
AcDbCircle
 62
7
  6
CONTINUOUS
 10
14.6397997941
 20
7.2828265867
 40
0.1254347826
100
AcDbArc
 50
270.0
 51
355.2281119392
  0
ARC
  5
4BA
100
AcDbEntity
  8
0
100
AcDbCircle
 62
7
  6
CONTINUOUS
 10
14.4604223716
 20
2.787391804
 40
0.09
100
AcDbArc
 50
90.0
 51
144.3146652873
  0
ARC
  5
4BB
100
AcDbEntity
  8
0
100
AcDbCircle
 62
7
  6
CONTINUOUS
 10
14.4604223716
 20
5.257391804
 40
0.09
100
AcDbArc
 50
215.6853347127
 51
270.0
  0
ARC
  5
4BC
100
AcDbEntity
  8
0
100
AcDbCircle
 62
7
  6
CONTINUOUS
 10
14.6427997941
 20
14.837391804
 40
0.04
100
AcDbArc
 50
180.0
 51
270.0
  0
ARC
  5
4BD
100
AcDbEntity
  8
0
100
AcDbCircle
 62
7
  6
CONTINUOUS
 10
25.5937228826
 20
29.6381886268
 40
24.3989285714
100
AcDbArc
 50
223.5548996513
 51
223.7145570226
  0
ARC
  5
4BE
100
AcDbEntity
  8
0
100
AcDbCircle
 62
7
  6
CONTINUOUS
 10
25.5937228826
 20
29.6381886268
 40
24.3989285714
100
AcDbArc
 50
221.542266468
 51
221.6001155292
  0
ARC
  5
4BF
100
AcDbEntity
  8
0
100
AcDbCircle
 62
7
  6
CONTINUOUS
 10
25.5937228826
 20
29.6381886268
 40
24.3989285714
100
AcDbArc
 50
226.2854429774
 51
226.4451003487
  0
ARC
  5
4C0
100
AcDbEntity
  8
0
100
AcDbCircle
 62
7
  6
CONTINUOUS
 10
25.5937228826
 20
29.6381886268
 40
24.3989285714
100
AcDbArc
 50
228.3998844708
 51
228.457733532
  0
ARC
  5
4C1
100
AcDbEntity
  8
0
100
AcDbCircle
 62
7
  6
CONTINUOUS
 10
25.5937228826
 20
29.6381886268
 40
24.3989285714
100
AcDbArc
 50
219.2464514784
 51
219.5528034327
  0
ARC
  5
4C2
100
AcDbEntity
  8
0
100
AcDbCircle
 62
7
  6
CONTINUOUS
 10
25.5937228826
 20
29.6381886268
 40
24.3989285714
100
AcDbArc
 50
230.4471965673
 51
230.7535485216
  0
ARC
  5
4C3
100
AcDbEntity
  8
0
100
AcDbCircle
 62
7
  6
CONTINUOUS
 10
14.6427997941
 20
17.207391804
 40
0.04
100
AcDbArc
 50
90.0
 51
180.0
  0
LINE
  5
4C4
100
AcDbEntity
  8
0
100
AcDbLine
 62
7
  6
CONTINUOUS
 10
10.363511622
 20
14.9825014999
 11
10.3634607563
 21
14.9817976141
  0
SPLINE
  5
4C5
100
AcDbEntity
  8
0
100
AcDbSpline
 62
7
  6
CONTINUOUS
 70
0
 71
3
 72
27
 73
23
 74
0
 42
0.0000001
 43
0.0000001
 44
0.0000000001
 40
0.0
 40
0.0
 40
0.0
 40
0.0
 40
0.1939508967
 40
0.3802967927
 40
0.5519912672
 40
0.6302870747
 40
0.702549607
 40
0.7680992033
 40
0.8263207722
 40
0.8766724119
 40
0.8987513651
 40
0.9186950753
 40
0.9364658263
 40
0.9520304042
 40
0.9653605952
 40
0.9764452492
 40
0.9853013118
 40
0.9919869677
 40
0.9945666105
 40
0.996692487
 40
0.9984528386
 40
1.0
 40
1.0
 40
1.0
 40
1.0
 10
9.6113804931
 20
11.2701545727
 30
0.0
 10
9.6085230138
 20
11.2726392167
 30
0.0
 10
9.6028907476
 20
11.277477462
 30
0.0
 10
9.5946285637
 20
11.2843972873
 30
0.0
 10
9.5880218654
 20
11.2897759424
 30
0.0
 10
9.5830901423
 20
11.2936827345
 30
0.0
 10
9.5797565413
 20
11.2962691768
 30
0.0
 10
9.5767046998
 20
11.2985790298
 30
0.0
 10
9.5739638751
 20
11.3005903818
 30
0.0
 10
9.5718789482
 20
11.3020604282
 30
0.0
 10
9.5703838173
 20
11.3030690795
 30
0.0
 10
9.5694054898
 20
11.3037061225
 30
0.0
 10
9.5685225345
 20
11.3042561967
 30
0.0
 10
9.5677370823
 20
11.3047181532
 30
0.0
 10
9.5670511382
 20
11.3050909249
 30
0.0
 10
9.566466108
 20
11.3053743055
 30
0.0
 10
9.5659833868
 20
11.3055678497
 30
0.0
 10
9.5656409439
 20
11.3056639778
 30
0.0
 10
9.5654190852
 20
11.3056867989
 30
0.0
 10
9.5652922981
 20
11.3056792835
 30
0.0
 10
9.5651894829
 20
11.3056478157
 30
0.0
 10
9.5651366228
 20
11.3056075431
 30
0.0
 10
9.5651169259
 20
11.3055846421
 30
0.0
  0
SPLINE
  5
4C6
100
AcDbEntity
  8
0
100
AcDbSpline
 62
7
  6
CONTINUOUS
 70
0
 71
3
 72
28
 73
24
 74
0
 42
0.0000001
 43
0.0000001
 44
0.0000000001
 40
0.0
 40
0.0
 40
0.0
 40
0.0
 40
0.0005676646
 40
0.0015785509
 40
0.0052821499
 40
0.011334426
 40
0.0197456396
 40
0.0305043224
 40
0.0435929193
 40
0.0589816832
 40
0.0766310732
 40
0.0965007121
 40
0.1185477556
 40
0.1689468882
 40
0.2273460586
 40
0.2931833931
 40
0.3658303926
 40
0.4445876173
 40
0.5287057245
 40
0.6173652786
 40
0.7097135199
 40
0.8048923062
 40
1.0
 40
1.0
 40
1.0
 40
1.0
 10
7.7946456154
 20
12.9570476639
 30
0.0
 10
7.7946539797
 20
12.9570548671
 30
0.0
 10
7.7946587309
 20
12.9570900037
 30
0.0
 10
7.7946248019
 20
12.9571853402
 30
0.0
 10
7.7945202124
 20
12.9573698828
 30
0.0
 10
7.7943211949
 20
12.9576603668
 30
0.0
 10
7.7940285094
 20
12.9580547021
 30
0.0
 10
7.793642368
 20
12.9585488231
 30
0.0
 10
7.793163129
 20
12.9591426166
 30
0.0
 10
7.7925918836
 20
12.9598341265
 30
0.0
 10
7.7919299605
 20
12.9606217532
 30
0.0
 10
7.7911788958
 20
12.9615035378
 30
0.0
 10
7.7900075869
 20
12.9628638785
 30
0.0
 10
7.7883344087
 20
12.9647807264
 30
0.0
 10
7.7860855244
 20
12.9673252368
 30
0.0
 10
7.7835363859
 20
12.970181686
 30
0.0
 10
7.7807114397
 20
12.973322539
 30
0.0
 10
7.7776376949
 20
12.9767176914
 30
0.0
 10
7.7743447208
 20
12.9803343598
 30
0.0
 10
7.7708642553
 20
12.9841377133
 30
0.0
 10
7.7672294952
 20
12.9880913952
 30
0.0
 10
7.7621820943
 20
12.9935581012
 30
0.0
 10
7.7583401658
 20
12.9976936797
 30
0.0
 10
7.7557525624
 20
13.0004682805
 30
0.0
  0
SPLINE
  5
4C7
100
AcDbEntity
  8
0
100
AcDbSpline
 62
7
  6
CONTINUOUS
 70
0
 71
3
 72
27
 73
23
 74
0
 42
0.0000001
 43
0.0000001
 44
0.0000000001
 40
0.0
 40
0.0
 40
0.0
 40
0.0
 40
0.1943280142
 40
0.3810454263
 40
0.4693297405
 40
0.553110257
 40
0.6315836778
 40
0.7040124075
 40
0.76970889
 40
0.8280489648
 40
0.8784782699
 40
0.9205207361
 40
0.938273459
 40
0.9537955938
 40
0.9670524971
 40
0.9780232916
 40
0.9867082402
 40
0.9902011537
 40
0.9931370654
 40
0.9955323679
 40
0.9974210919
 40
1.0
 40
1.0
 40
1.0
 40
1.0
 10
9.8079656284
 20
11.0722605145
 30
0.0
 10
9.8050844749
 20
11.0747087516
 30
0.0
 10
9.799413466
 20
11.0794840587
 30
0.0
 10
9.7923742772
 20
11.0853007313
 30
0.0
 10
9.7869576664
 20
11.0897039229
 30
0.0
 10
9.7831574488
 20
11.0927566792
 30
0.0
 10
9.779579154
 20
11.095592968
 30
0.0
 10
9.7762570237
 20
11.098185842
 30
0.0
 10
9.773222758
 20
11.1005106548
 30
0.0
 10
9.7705056522
 20
11.1025453752
 30
0.0
 10
9.7681320088
 20
11.1042704797
 30
0.0
 10
9.7663730756
 20
11.10549778
 30
0.0
 10
9.7651520601
 20
11.1063081301
 30
0.0
 10
9.7643881488
 20
11.1067941054
 30
0.0
 10
9.7637251666
 20
11.1071925627
 30
0.0
 10
9.7631646528
 20
11.1075024935
 30
0.0
 10
9.7627593959
 20
11.1076999048
 30
0.0
 10
9.7624861209
 20
11.1078091643
 30
0.0
 10
9.7623231341
 20
11.1078627858
 30
0.0
 10
9.7621849925
 20
11.1078936683
 30
0.0
 10
9.762054136
 20
11.1079061278
 30
0.0
 10
9.7619580228
 20
11.1078819361
 30
0.0
 10
9.7619253057
 20
11.1078438945
 30
0.0
  0
LINE
  5
4C8
100
AcDbEntity
  8
0
100
AcDbLine
 62
7
  6
CONTINUOUS
 10
9.547492966
 20
11.2834045603
 11
9.5466188926
 21
11.2842233722
  0
SPLINE
  5
4C9
100
AcDbEntity
  8
0
100
AcDbSpline
 62
7
  6
CONTINUOUS
 70
0
 71
3
 72
10
 73
6
 74
0
 42
0.0000001
 43
0.0000001
 44
0.0000000001
 40
0.0
 40
0.0
 40
0.0
 40
0.0
 40
0.2218130338
 40
0.4676152474
 40
1.0
 40
1.0
 40
1.0
 40
1.0
 10
9.5466188926
 20
11.2842233722
 30
0.0
 10
9.544579537
 20
11.2861303609
 30
0.0
 10
9.5402563575
 20
11.2901250367
 30
0.0
 10
9.5309373423
 20
11.2985868046
 30
0.0
 10
9.5236119709
 20
11.3050903916
 30
0.0
 10
9.5185729342
 20
11.309508115
 30
0.0
  0
SPLINE
  5
4CA
100
AcDbEntity
  8
0
100
AcDbSpline
 62
7
  6
CONTINUOUS
 70
0
 71
3
 72
11
 73
7
 74
0
 42
0.0000001
 43
0.0000001
 44
0.0000000001
 40
0.0
 40
0.0
 40
0.0
 40
0.0
 40
0.2854858639
 40
0.5561466926
 40
0.7984100657
 40
1.0
 40
1.0
 40
1.0
 40
1.0
 10
9.9437147007
 20
10.9350372005
 30
0.0
 10
9.9403779987
 20
10.9378280362
 30
0.0
 10
9.9338606293
 20
10.9432442101
 30
0.0
 10
9.9244527218
 20
10.9509573572
 30
0.0
 10
9.9159799875
 20
10.9577943565
 30
0.0
 10
9.91067447
 20
10.9619888241
 30
0.0
 10
9.9082479358
 20
10.9638721628
 30
0.0
  0
SPLINE
  5
4CB
100
AcDbEntity
  8
0
100
AcDbSpline
 62
7
  6
CONTINUOUS
 70
0
 71
3
 72
18
 73
14
 74
0
 42
0.0000001
 43
0.0000001
 44
0.0000000001
 40
0.0
 40
0.0
 40
0.0
 40
0.0
 40
0.2262167854
 40
0.4254454659
 40
0.5963902368
 40
0.7380017049
 40
0.8494013675
 40
0.9299486963
 40
0.9585822592
 40
0.9794868009
 40
0.987102728
 40
0.9929173589
 40
1.0
 40
1.0
 40
1.0
 40
1.0
 10
9.9074607561
 20
10.9644817576
 30
0.0
 10
9.9067772975
 20
10.9650097974
 30
0.0
 10
9.9054889263
 20
10.9659990195
 30
0.0
 10
9.9036719498
 20
10.9673713766
 30
0.0
 10
9.9021004179
 20
10.9685325725
 30
0.0
 10
9.9007850183
 20
10.9694759914
 30
0.0
 10
9.8997337061
 20
10.9701948712
 30
0.0
 10
9.8990230304
 20
10.9706473607
 30
0.0
 10
9.8985870304
 20
10.9708863815
 30
0.0
 10
9.8983898475
 20
10.9709790178
 30
0.0
 10
9.8982638613
 20
10.9710202362
 30
0.0
 10
9.8981898358
 20
10.9710361049
 30
0.0
 10
9.8981311751
 20
10.9710319262
 30
0.0
 10
9.8981135434
 20
10.9710114241
 30
0.0
  0
LINE
  5
4CC
100
AcDbEntity
  8
0
100
AcDbLine
 62
7
  6
CONTINUOUS
 10
9.9822651013
 20
10.8895396697
 11
9.9809079021
 21
10.8906446217
  0
SPLINE
  5
4CD
100
AcDbEntity
  8
0
100
AcDbSpline
 62
7
  6
CONTINUOUS
 70
0
 71
3
 72
25
 73
21
 74
0
 42
0.0000001
 43
0.0000001
 44
0.0000000001
 40
0.0
 40
0.0
 40
0.0
 40
0.0
 40
0.1935157603
 40
0.3794944112
 40
0.4673949757
 40
0.5507634581
 40
0.6287955295
 40
0.7007573528
 40
0.7659793184
 40
0.8238621288
 40
0.8738974259
 40
0.9156685146
 40
0.9333637166
 40
0.9489015624
 40
0.9622728593
 40
0.9734973557
 40
0.9826379742
 40
0.9898321987
 40
0.9953906769
 40
1.0
 40
1.0
 40
1.0
 40
1.0
 10
8.4198195736
 20
12.4642853177
 30
0.0
 10
8.4171317641
 20
12.4669731271
 30
0.0
 10
8.4118127421
 20
12.4721962067
 30
0.0
 10
8.4051416648
 20
12.4785046338
 30
0.0
 10
8.399965054
 20
12.4832423863
 30
0.0
 10
8.3963138494
 20
12.4865057606
 30
0.0
 10
8.3928559102
 20
12.4895149939
 30
0.0
 10
8.3896248478
 20
12.4922412822
 30
0.0
 10
8.3866518495
 20
12.4946587765
 30
0.0
 10
8.383965542
 20
12.4967450682
 30
0.0
 10
8.381591758
 20
12.4984808181
 30
0.0
 10
8.3798064899
 20
12.4996822934
 30
0.0
 10
8.3785469099
 20
12.5004470133
 30
0.0
 10
8.3777464664
 20
12.5008917721
 30
0.0
 10
8.3770385454
 20
12.501239672
 30
0.0
 10
8.3764244223
 20
12.501490391
 30
0.0
 10
8.3759040596
 20
12.5016447399
 30
0.0
 10
8.3754757464
 20
12.5017026915
 30
0.0
 10
8.375130418
 20
12.501662429
 30
0.0
 10
8.3749541215
 20
12.5015485834
 30
0.0
 10
8.374895073
 20
12.5014799502
 30
0.0
  0
SPLINE
  5
4CE
100
AcDbEntity
  8
0
100
AcDbSpline
 62
7
  6
CONTINUOUS
 70
0
 71
3
 72
14
 73
10
 74
0
 42
0.0000001
 43
0.0000001
 44
0.0000000001
 40
0.0
 40
0.0
 40
0.0
 40
0.0
 40
0.0952264126
 40
0.1766018469
 40
0.2848607103
 40
0.4210455236
 40
0.5855537812
 40
0.7785309543
 40
1.0
 40
1.0
 40
1.0
 40
1.0
 10
8.3963111987
 20
12.358248037
 30
0.0
 10
8.3963546084
 20
12.3582854133
 30
0.0
 10
8.3963525287
 20
12.35841665
 30
0.0
 10
8.396300065
 20
12.3585721862
 30
0.0
 10
8.3962190109
 20
12.3587538202
 30
0.0
 10
8.3961007877
 20
12.3589686335
 30
0.0
 10
8.3959454608
 20
12.3592222222
 30
0.0
 10
8.3957528622
 20
12.3595123199
 30
0.0
 10
8.395609519
 20
12.3597163672
 30
0.0
 10
8.3955318723
 20
12.3598246252
 30
0.0
  0
SPLINE
  5
4CF
100
AcDbEntity
  8
0
100
AcDbSpline
 62
7
  6
CONTINUOUS
 70
0
 71
3
 72
32
 73
28
 74
0
 42
0.0000001
 43
0.0000001
 44
0.0000000001
 40
0.0
 40
0.0
 40
0.0
 40
0.0
 40
0.0003645673
 40
0.0012714405
 40
0.0027685439
 40
0.0048637476
 40
0.0075586506
 40
0.0108518691
 40
0.0147413486
 40
0.0192247777
 40
0.0299635857
 40
0.0430477427
 40
0.05844684
 40
0.0761187454
 40
0.0960204748
 40
0.1181081085
 40
0.1423266074
 40
0.1686131978
 40
0.2271368414
 40
0.2931104133
 40
0.3658876566
 40
0.4447612507
 40
0.5289683048
 40
0.6176830307
 40
0.7100390379
 40
0.8051683827
 40
1.0
 40
1.0
 40
1.0
 40
1.0
 10
9.3954146186
 20
11.3936668121
 30
0.0
 10
9.3954199997
 20
11.3936714373
 30
0.0
 10
9.3954067724
 20
11.3937022354
 30
0.0
 10
9.3953789702
 20
11.3937398835
 30
0.0
 10
9.3953216072
 20
11.3938112108
 30
0.0
 10
9.3952407743
 20
11.3939008186
 30
0.0
 10
9.3951328156
 20
11.39401618
 30
0.0
 10
9.3949991563
 20
11.3941540411
 30
0.0
 10
9.3948393335
 20
11.3943154446
 30
0.0
 10
9.3945753972
 20
11.3945775118
 30
0.0
 10
9.39418063
 20
11.3949618561
 30
0.0
 10
9.3936294604
 20
11.395490025
 30
0.0
 10
9.3929773228
 20
11.3961078577
 30
0.0
 10
9.3922258707
 20
11.3968137742
 30
0.0
 10
9.3913769146
 20
11.3976060219
 30
0.0
 10
9.3904324659
 20
11.3984826896
 30
0.0
 10
9.3893948341
 20
11.3994416285
 30
0.0
 10
9.3878337337
 20
11.400879001
 30
0.0
 10
9.3856699444
 20
11.4028615947
 30
0.0
 10
9.3828328274
 20
11.4054487161
 30
0.0
 10
9.3796975184
 20
11.4082966387
 30
0.0
 10
9.3762945089
 20
11.4113776452
 30
0.0
 10
9.3726569127
 20
11.4146617129
 30
0.0
 10
9.3688202064
 20
11.4181168187
 30
0.0
 10
9.3648214122
 20
11.4217096022
 30
0.0
 10
9.3592809509
 20
11.4266768171
 30
0.0
 10
9.3550731296
 20
11.4304376722
 30
0.0
 10
9.3522433528
 20
11.4329619392
 30
0.0
  0
SPLINE
  5
4D0
100
AcDbEntity
  8
0
100
AcDbSpline
 62
7
  6
CONTINUOUS
 70
0
 71
3
 72
32
 73
28
 74
0
 42
0.0000001
 43
0.0000001
 44
0.0000000001
 40
0.0
 40
0.0
 40
0.0
 40
0.0
 40
0.1944781787
 40
0.2894835259
 40
0.3817557021
 40
0.4704280276
 40
0.5546327607
 40
0.6335406163
 40
0.7063824258
 40
0.7724429268
 40
0.8310660815
 40
0.8574040752
 40
0.8816732164
 40
0.903809346
 40
0.923756447
 40
0.9414694222
 40
0.9569040092
 40
0.9700169726
 40
0.9807775363
 40
0.9852689443
 40
0.9891643145
 40
0.9924612092
 40
0.9951574323
 40
0.9972515129
 40
0.9987450865
 40
0.9996456269
 40
1.0
 40
1.0
 40
1.0
 40
1.0
 10
6.8200167463
 20
14.0571611106
 30
0.0
 10
6.8175872362
 20
14.060088948
 30
0.0
 10
6.8139668003
 20
14.0644436965
 30
0.0
 10
6.8091838881
 20
14.0701794503
 30
0.0
 10
6.8057223096
 20
14.074321935
 30
0.0
 10
6.8023918197
 20
14.0782986056
 30
0.0
 10
6.7992246324
 20
14.0820710132
 30
0.0
 10
6.7962517678
 20
14.0856021954
 30
0.0
 10
6.7935024015
 20
14.0888575344
 30
0.0
 10
6.7910035669
 20
14.0918050352
 30
0.0
 10
6.7890878585
 20
14.0940542015
 30
0.0
 10
6.7876984624
 20
14.0956777127
 30
0.0
 10
6.7867712517
 20
14.09675726
 30
0.0
 10
6.7859234208
 20
14.0977401725
 30
0.0
 10
6.785157088
 20
14.0986239993
 30
0.0
 10
6.7844741416
 20
14.0994065983
 30
0.0
 10
6.7838763183
 20
14.1000860335
 30
0.0
 10
6.783365178
 20
14.1006605441
 30
0.0
 10
6.782993146
 20
14.1010723038
 30
0.0
 10
6.7827394231
 20
14.1013478179
 30
0.0
 10
6.7825831492
 20
14.1015147406
 30
0.0
 10
6.782449688
 20
14.1016544267
 30
0.0
 10
6.7823379184
 20
14.1017674253
 30
0.0
 10
6.7822513002
 20
14.1018520504
 30
0.0
 10
6.7821818852
 20
14.1019125589
 30
0.0
 10
6.7821460541
 20
14.1019416439
 30
0.0
 10
6.78211562
 20
14.1019563747
 30
0.0
 10
6.7821110985
 20
14.1019511196
 30
0.0
  0
SPLINE
  5
4D1
100
AcDbEntity
  8
0
100
AcDbSpline
 62
7
  6
CONTINUOUS
 70
0
 71
3
 72
27
 73
23
 74
0
 42
0.0000001
 43
0.0000001
 44
0.0000000001
 40
0.0
 40
0.0
 40
0.0
 40
0.0
 40
0.194649145
 40
0.3820541968
 40
0.4707616325
 40
0.5549766378
 40
0.6338654561
 40
0.7066567265
 40
0.7726342904
 40
0.8311439456
 40
0.8816112508
 40
0.9235368698
 40
0.9565228608
 40
0.9695615116
 40
0.9802585182
 40
0.9847251818
 40
0.988602828
 40
0.9918919713
 40
0.9945952299
 40
0.9967198133
 40
0.9982853753
 40
1.0
 40
1.0
 40
1.0
 40
1.0
 10
6.8905714564
 20
13.9881804449
 30
0.0
 10
6.8881301417
 20
13.9910992623
 30
0.0
 10
6.8833224325
 20
13.9968149611
 30
0.0
 10
6.8773580792
 20
14.0038236215
 30
0.0
 10
6.8727662896
 20
14.009165359
 30
0.0
 10
6.8695439466
 20
14.0128868078
 30
0.0
 10
6.8665112027
 20
14.0163608032
 30
0.0
 10
6.8636979961
 20
14.0195531295
 30
0.0
 10
6.8611321451
 20
14.022432356
 30
0.0
 10
6.8588391006
 20
14.0249700342
 30
0.0
 10
6.8568419612
 20
14.0271412754
 30
0.0
 10
6.8551604444
 20
14.0289246111
 30
0.0
 10
6.8539588922
 20
14.030154713
 30
0.0
 10
6.8531640228
 20
14.0309279378
 30
0.0
 10
6.8527600217
 20
14.0313032032
 30
0.0
 10
6.8524800837
 20
14.031548654
 30
0.0
 10
6.8523056376
 20
14.031694457
 30
0.0
 10
6.8521532591
 20
14.0318133679
 30
0.0
 10
6.8520248767
 20
14.0319053334
 30
0.0
 10
6.8519155727
 20
14.0319707963
 30
0.0
 10
6.851826468
 20
14.0320151868
 30
0.0
 10
6.8517442027
 20
14.0320270267
 30
0.0
 10
6.8517223422
 20
14.0320016169
 30
0.0
  0
SPLINE
  5
4D2
100
AcDbEntity
  8
0
100
AcDbSpline
 62
7
  6
CONTINUOUS
 70
0
 71
3
 72
15
 73
11
 74
0
 42
0.0000001
 43
0.0000001
 44
0.0000000001
 40
0.0
 40
0.0
 40
0.0
 40
0.0
 40
0.0482125746
 40
0.1097301033
 40
0.1928173575
 40
0.3007778884
 40
0.4349989915
 40
0.5961149042
 40
0.784423135
 40
1.0
 40
1.0
 40
1.0
 40
1.0
 10
8.4110135892
 20
12.3733655245
 30
0.0
 10
8.41104465
 20
12.3733922031
 30
0.0
 10
8.4110936517
 20
12.3734785307
 30
0.0
 10
8.411096947
 20
12.3736454768
 30
0.0
 10
8.4110518225
 20
12.3738559024
 30
0.0
 10
8.4109562473
 20
12.3741158034
 30
0.0
 10
8.4108104689
 20
12.3744259801
 30
0.0
 10
8.4106136858
 20
12.3747867381
 30
0.0
 10
8.4103658885
 20
12.3751977538
 30
0.0
 10
8.4101792616
 20
12.3754856118
 30
0.0
 10
8.410077843
 20
12.3756380368
 30
0.0
  0
SPLINE
  5
4D3
100
AcDbEntity
  8
0
100
AcDbSpline
 62
7
  6
CONTINUOUS
 70
0
 71
3
 72
28
 73
24
 74
0
 42
0.0000001
 43
0.0000001
 44
0.0000000001
 40
0.0
 40
0.0
 40
0.0
 40
0.0
 40
0.1946067376
 40
0.3819211582
 40
0.5546787922
 40
0.6334538821
 40
0.7061114122
 40
0.7719391
 40
0.8302892841
 40
0.8805978795
 40
0.9025824256
 40
0.922381207
 40
0.9399544481
 40
0.9552649076
 40
0.9682791943
 40
0.978981571
 40
0.9873769613
 40
0.9907196444
 40
0.9935041213
 40
0.9957509288
 40
0.9975033773
 40
0.9988546673
 40
1.0
 40
1.0
 40
1.0
 40
1.0
 10
7.0277947704
 20
13.8524313726
 30
0.0
 10
7.0253307479
 20
13.8553311028
 30
0.0
 10
7.0204693897
 20
13.8610001799
 30
0.0
 10
7.0133323442
 20
13.8691671506
 30
0.0
 10
7.0076185225
 20
13.8755694525
 30
0.0
 10
7.0033503994
 20
13.8802563776
 30
0.0
 10
7.0004662259
 20
13.8833755289
 30
0.0
 10
6.9978277522
 20
13.886177737
 30
0.0
 10
6.9954611102
 20
13.8886353837
 30
0.0
 10
6.9936627341
 20
13.8904498357
 30
0.0
 10
6.992374983
 20
13.8917085715
 30
0.0
 10
6.9915348454
 20
13.8925093887
 30
0.0
 10
6.9907782239
 20
13.8932085294
 30
0.0
 10
6.9901070069
 20
13.8938043722
 30
0.0
 10
6.9895229159
 20
13.8942957181
 30
0.0
 10
6.9890273396
 20
13.8946814881
 30
0.0
 10
6.9886662774
 20
13.8949317537
 30
0.0
 10
6.9884206987
 20
13.8950746718
 30
0.0
 10
6.988273513
 20
13.8951468122
 30
0.0
 10
6.9881486171
 20
13.895192652
 30
0.0
 10
6.9880452644
 20
13.8952123436
 30
0.0
 10
6.9879605
 20
13.8952051601
 30
0.0
 10
6.9879173701
 20
13.8951770472
 30
0.0
 10
6.9879027641
 20
13.8951600705
 30
0.0
  0
LINE
  5
4D4
100
AcDbEntity
  8
0
100
AcDbLine
 62
7
  6
CONTINUOUS
 10
9.0910648093
 20
11.6668227374
 11
9.0480113913
 21
11.7065478443
  0
SPLINE
  5
4D5
100
AcDbEntity
  8
0
100
AcDbSpline
 62
7
  6
CONTINUOUS
 70
0
 71
3
 72
25
 73
21
 74
0
 42
0.0000001
 43
0.0000001
 44
0.0000000001
 40
0.0
 40
0.0
 40
0.0
 40
0.0
 40
0.1944486523
 40
0.3815511197
 40
0.554031376
 40
0.7051339137
 40
0.770791766
 40
0.8289811201
 40
0.8791517965
 40
0.9208378457
 40
0.938387203
 40
0.9536962955
 40
0.9667392243
 40
0.977511679
 40
0.9860380823
 40
0.9923910908
 40
0.9948152347
 40
0.9968068884
 40
0.9984752071
 40
1.0
 40
1.0
 40
1.0
 40
1.0
 10
7.2256888286
 20
13.6558462373
 30
0.0
 10
7.2231921667
 20
13.6587175378
 30
0.0
 10
7.2182590482
 20
13.6643221032
 30
0.0
 10
7.2109944478
 20
13.6723697737
 30
0.0
 10
7.2041942012
 20
13.6796926378
 30
0.0
 10
7.1989164199
 20
13.6851851423
 30
0.0
 10
7.1951166624
 20
13.68899433
 30
0.0
 10
7.1926755832
 20
13.6913686828
 30
0.0
 10
7.1905311589
 20
13.6933744631
 30
0.0
 10
7.1889291424
 20
13.6947953305
 30
0.0
 10
7.1878071521
 20
13.6957276579
 30
0.0
 10
7.1871010966
 20
13.696283114
 30
0.0
 10
7.1864827891
 20
13.6967348201
 30
0.0
 10
7.1859534216
 20
13.697082661
 30
0.0
 10
7.1855142337
 20
13.6973261198
 30
0.0
 10
7.1851987608
 20
13.6974552408
 30
0.0
 10
7.1849912389
 20
13.6974960457
 30
0.0
 10
7.1848712111
 20
13.697497077
 30
0.0
 10
7.1847715917
 20
13.6974697663
 30
0.0
 10
7.1847206005
 20
13.6974303266
 30
0.0
 10
7.184701141
 20
13.6974077086
 30
0.0
  0
SPLINE
  5
4D6
100
AcDbEntity
  8
0
100
AcDbSpline
 62
7
  6
CONTINUOUS
 70
0
 71
3
 72
28
 73
24
 74
0
 42
0.0000001
 43
0.0000001
 44
0.0000000001
 40
0.0
 40
0.0
 40
0.0
 40
0.0
 40
0.1942057058
 40
0.3810099539
 40
0.4693467334
 40
0.5531444522
 40
0.6315770103
 40
0.7038863443
 40
0.7693773743
 40
0.8274243777
 40
0.8774922346
 40
0.8993915635
 40
0.9191363505
 40
0.9366944632
 40
0.9520388613
 40
0.9651508812
 40
0.9760371988
 40
0.984740131
 40
0.991364786
 40
0.9939787033
 40
0.9962067792
 40
0.9981601348
 40
1.0
 40
1.0
 40
1.0
 40
1.0
 10
7.4756040097
 20
13.4070160513
 30
0.0
 10
7.473066379
 20
13.4098505307
 30
0.0
 10
7.468046971
 20
13.4153750278
 30
0.0
 10
7.4617611552
 20
13.4220857359
 30
0.0
 10
7.4568870251
 20
13.427153932
 30
0.0
 10
7.4534509109
 20
13.4306593397
 30
0.0
 10
7.4501995949
 20
13.4339058871
 30
0.0
 10
7.4471652333
 20
13.4368617357
 30
0.0
 10
7.444377751
 20
13.4394981918
 30
0.0
 10
7.4418645021
 20
13.4417897206
 30
0.0
 10
7.4399424189
 20
13.443461415
 30
0.0
 10
7.4385568618
 20
13.4446052746
 30
0.0
 10
7.4376475956
 20
13.4453253503
 30
0.0
 10
7.4368231945
 20
13.4459452738
 30
0.0
 10
7.436085596
 20
13.4464638298
 30
0.0
 10
7.4354365815
 20
13.4468799458
 30
0.0
 10
7.4348771884
 20
13.4471936094
 30
0.0
 10
7.4344085732
 20
13.4474047022
 30
0.0
 10
7.4340686466
 20
13.4475047115
 30
0.0
 10
7.4338437738
 20
13.4475220987
 30
0.0
 10
7.4337104057
 20
13.4475071593
 30
0.0
 10
7.4335988686
 20
13.4474640043
 30
0.0
 10
7.4335406027
 20
13.4474153402
 30
0.0
 10
7.4335170956
 20
13.4473880183
 30
0.0
  0
SPLINE
  5
4D7
100
AcDbEntity
  8
0
100
AcDbSpline
 62
7
  6
CONTINUOUS
 70
0
 71
3
 72
32
 73
28
 74
0
 42
0.0000001
 43
0.0000001
 44
0.0000000001
 40
0.0
 40
0.0
 40
0.0
 40
0.0
 40
0.0003543698
 40
0.0012549077
 40
0.0027484827
 40
0.0048425702
 40
0.0075387986
 40
0.0108356949
 40
0.0147310645
 40
0.0192224712
 40
0.0299830359
 40
0.0430960129
 40
0.0585306086
 40
0.0762435883
 40
0.0961906974
 40
0.118326842
 40
0.1425959944
 40
0.1689339961
 40
0.2275571623
 40
0.2936176682
 40
0.3664595081
 40
0.4453674116
 40
0.529572183
 40
0.6182445395
 40
0.7105167237
 40
0.8055220107
 40
1.0
 40
1.0
 40
1.0
 40
1.0
 10
10.0574853753
 20
10.8265768427
 30
0.0
 10
10.0574906305
 20
10.8265813641
 30
0.0
 10
10.0574759
 20
10.8266117983
 30
0.0
 10
10.0574468149
 20
10.8266476291
 30
0.0
 10
10.0573863063
 20
10.8267170444
 30
0.0
 10
10.0573016811
 20
10.8268036627
 30
0.0
 10
10.0571886822
 20
10.8269154324
 30
0.0
 10
10.057048996
 20
10.8270488937
 30
0.0
 10
10.0568820733
 20
10.8272051676
 30
0.0
 10
10.0566065593
 20
10.8274588905
 30
0.0
 10
10.0561947994
 20
10.8278309227
 30
0.0
 10
10.0556202885
 20
10.8283420632
 30
0.0
 10
10.0549408528
 20
10.8289398869
 30
0.0
 10
10.0541582535
 20
10.8296228336
 30
0.0
 10
10.0532744263
 20
10.8303891667
 30
0.0
 10
10.0522915133
 20
10.8312369981
 30
0.0
 10
10.0512119654
 20
10.8321642091
 30
0.0
 10
10.0495884538
 20
10.8335536057
 30
0.0
 10
10.0473392871
 20
10.8354693143
 30
0.0
 10
10.0443917857
 20
10.8379681495
 30
0.0
 10
10.0411364454
 20
10.8407175169
 30
0.0
 10
10.0376052614
 20
10.8436903829
 30
0.0
 10
10.0338328521
 20
10.8468575717
 30
0.0
 10
10.0298561803
 20
10.8501880626
 30
0.0
 10
10.0257136959
 20
10.8536496407
 30
0.0
 10
10.0199779457
 20
10.8584325499
 30
0.0
 10
10.015623201
 20
10.8620529826
 30
0.0
 10
10.0126953665
 20
10.8644824904
 30
0.0
  0
LINE
  5
4D8
100
AcDbEntity
  8
0
100
AcDbLine
 62
7
  6
CONTINUOUS
 10
8.3865873151
 20
12.3488942229
 11
8.3863685799
 21
12.3493536617
  0
SPLINE
  5
4D9
100
AcDbEntity
  8
0
100
AcDbSpline
 62
7
  6
CONTINUOUS
 70
0
 71
3
 72
28
 73
24
 74
0
 42
0.0000001
 43
0.0000001
 44
0.0000000001
 40
0.0
 40
0.0
 40
0.0
 40
0.0
 40
0.1939340872
 40
0.3804143927
 40
0.4685754828
 40
0.5521943626
 40
0.6304520797
 40
0.7025993543
 40
0.7679513952
 40
0.8258938094
 40
0.8759047934
 40
0.897798697
 40
0.9175565773
 40
0.935149276
 40
0.9505537482
 40
0.9637570331
 40
0.9747741079
 40
0.9836604479
 40
0.9905431043
 40
0.9933243114
 40
0.9957490045
 40
0.9979252437
 40
1.0
 40
1.0
 40
1.0
 40
1.0
 10
7.7666170825
 20
13.1168151493
 30
0.0
 10
7.764032257
 20
13.1196056688
 30
0.0
 10
7.7589164203
 20
13.1250374677
 30
0.0
 10
7.7525008842
 20
13.1316188478
 30
0.0
 10
7.7475215477
 20
13.1365769524
 30
0.0
 10
7.7440092192
 20
13.1399996587
 30
0.0
 10
7.7406832411
 20
13.1431631044
 30
0.0
 10
7.7375763558
 20
13.1460364807
 30
0.0
 10
7.7347190178
 20
13.1485921658
 30
0.0
 10
7.7321390563
 20
13.1508056702
 30
0.0
 10
7.7301626374
 20
13.1524126204
 30
0.0
 10
7.7287353964
 20
13.1535060561
 30
0.0
 10
7.7277969915
 20
13.1541915563
 30
0.0
 10
7.7269445334
 20
13.154778306
 30
0.0
 10
7.7261799789
 20
13.1552651935
 30
0.0
 10
7.7255051103
 20
13.1556512784
 30
0.0
 10
7.7249208709
 20
13.1559365492
 30
0.0
 10
7.7244282851
 20
13.1561211164
 30
0.0
 10
7.7240693582
 20
13.1561977368
 30
0.0
 10
7.7238312863
 20
13.1561971819
 30
0.0
 10
7.7236879568
 20
13.1561700674
 30
0.0
 10
7.723567398
 20
13.1561152993
 30
0.0
 10
7.7235033977
 20
13.1560596989
 30
0.0
 10
7.7234768575
 20
13.1560288516
 30
0.0
  0
SPLINE
  5
4DA
100
AcDbEntity
  8
0
100
AcDbSpline
 62
7
  6
CONTINUOUS
 70
0
 71
3
 72
27
 73
23
 74
0
 42
0.0000001
 43
0.0000001
 44
0.0000000001
 40
0.0
 40
0.0
 40
0.0
 40
0.0
 40
0.0017146081
 40
0.0032801755
 40
0.0054047855
 40
0.0081080601
 40
0.0113972016
 40
0.015274835
 40
0.0197414816
 40
0.030438471
 40
0.0434771588
 40
0.07646312
 40
0.1183887626
 40
0.1688560426
 40
0.2273657118
 40
0.2933432342
 40
0.3661345166
 40
0.4450233407
 40
0.5292383776
 40
0.6179458009
 40
0.8053508757
 40
1.0
 40
1.0
 40
1.0
 40
1.0
 10
9.9875358728
 20
10.8961880863
 30
0.0
 10
9.9875612829
 20
10.8962099459
 30
0.0
 10
9.9875494442
 20
10.8962922117
 30
0.0
 10
9.9875050529
 20
10.8963813162
 30
0.0
 10
9.987439589
 20
10.8964906208
 30
0.0
 10
9.9873476229
 20
10.8966190037
 30
0.0
 10
9.987228712
 20
10.8967713824
 30
0.0
 10
9.9870829095
 20
10.896945828
 30
0.0
 10
9.9868374595
 20
10.8972257655
 30
0.0
 10
9.9864621941
 20
10.8976297668
 30
0.0
 10
9.985688969
 20
10.8984246356
 30
0.0
 10
9.9844588673
 20
10.8996261887
 30
0.0
 10
9.9826755316
 20
10.9013077047
 30
0.0
 10
9.9805042904
 20
10.9033048446
 30
0.0
 10
9.9779666128
 20
10.9055978883
 30
0.0
 10
9.9750873867
 20
10.9081637392
 30
0.0
 10
9.9718950606
 20
10.9109769454
 30
0.0
 10
9.9684210645
 20
10.9140096901
 30
0.0
 10
9.9646996152
 20
10.9172320333
 30
0.0
 10
9.9593578772
 20
10.9218238236
 30
0.0
 10
9.9523492168
 20
10.9277881768
 30
0.0
 10
9.9466335179
 20
10.932595886
 30
0.0
 10
9.9437147007
 20
10.9350372005
 30
0.0
  0
SPLINE
  5
4DB
100
AcDbEntity
  8
0
100
AcDbSpline
 62
7
  6
CONTINUOUS
 70
0
 71
3
 72
11
 73
7
 74
0
 42
0.0000001
 43
0.0000001
 44
0.0000000001
 40
0.0
 40
0.0
 40
0.0
 40
0.0
 40
0.1619867207
 40
0.365955573
 40
0.6413375465
 40
1.0
 40
1.0
 40
1.0
 40
1.0
 10
9.083450591
 20
11.7446304489
 30
0.0
 10
9.0834896925
 20
11.7446640822
 30
0.0
 10
9.0835515147
 20
11.744771907
 30
0.0
 10
9.0835528219
 20
11.744980638
 30
0.0
 10
9.083490185
 20
11.745240925
 30
0.0
 10
9.0834145859
 20
11.7454288163
 30
0.0
 10
9.0833678437
 20
11.7455330099
 30
0.0
  0
SPLINE
  5
4DC
100
AcDbEntity
  8
0
100
AcDbSpline
 62
7
  6
CONTINUOUS
 70
0
 71
3
 72
25
 73
21
 74
0
 42
0.0000001
 43
0.0000001
 44
0.0000000001
 40
0.0
 40
0.0
 40
0.0
 40
0.0
 40
0.1936969712
 40
0.3798938486
 40
0.4679054162
 40
0.5513773995
 40
0.6294985462
 40
0.7015280042
 40
0.7667899647
 40
0.8246792136
 40
0.8746834118
 40
0.9163824445
 40
0.9340256481
 40
0.9495003601
 40
0.9627968869
 40
0.9739347662
 40
0.9829763529
 40
0.9900591056
 40
0.9954980944
 40
1.0
 40
1.0
 40
1.0
 40
1.0
 10
8.086008733
 20
12.7979260569
 30
0.0
 10
8.0833729589
 20
12.8006670531
 30
0.0
 10
8.0781555116
 20
12.8059970156
 30
0.0
 10
8.0716094099
 20
12.8124423416
 30
0.0
 10
8.0665276452
 20
12.8172886007
 30
0.0
 10
8.0629425201
 20
12.8206293624
 30
0.0
 10
8.0595466446
 20
12.8237124393
 30
0.0
 10
8.0563732498
 20
12.8265080821
 30
0.0
 10
8.0534531916
 20
12.8289895699
 30
0.0
 10
8.0508147793
 20
12.8311337088
 30
0.0
 10
8.0484835433
 20
12.8329204941
 30
0.0
 10
8.0467300658
 20
12.8341606188
 30
0.0
 10
8.0454928045
 20
12.8349526982
 30
0.0
 10
8.0447070178
 20
12.8354145911
 30
0.0
 10
8.0440121876
 20
12.8357776312
 30
0.0
 10
8.0434095856
 20
12.8360415037
 30
0.0
 10
8.0428991044
 20
12.8362070904
 30
0.0
 10
8.0424790384
 20
12.8362744783
 30
0.0
 10
8.042139461
 20
12.8362421176
 30
0.0
 10
8.0419660241
 20
12.8361316835
 30
0.0
 10
8.0419083813
 20
12.836064686
 30
0.0
  0
SPLINE
  5
4DD
100
AcDbEntity
  8
0
100
AcDbSpline
 62
7
  6
CONTINUOUS
 70
0
 71
3
 72
29
 73
25
 74
0
 42
0.0000001
 43
0.0000001
 44
0.0000000001
 40
0.0
 40
0.0
 40
0.0
 40
0.0
 40
0.2231891464
 40
0.4216017825
 40
0.5108473947
 40
0.5931505783
 40
0.6683013213
 40
0.7360987155
 40
0.7963763386
 40
0.8489810961
 40
0.8937874863
 40
0.9132348615
 40
0.9306960431
 40
0.9461635644
 40
0.9596347439
 40
0.9711100191
 40
0.9805953189
 40
0.9881083571
 40
0.9911397585
 40
0.9937013498
 40
0.9958127633
 40
0.9975095474
 40
0.9988606609
 40
1.0
 40
1.0
 40
1.0
 40
1.0
 10
10.4603332896
 20
14.8985890965
 30
0.0
 10
10.453322121
 20
14.9050890979
 30
0.0
 10
10.4400573015
 20
14.9173451244
 30
0.0
 10
10.4239134526
 20
14.9321183282
 30
0.0
 10
10.4121656034
 20
14.9427553093
 30
0.0
 10
10.4043023605
 20
14.9498156337
 30
0.0
 10
10.397090227
 20
14.9562257464
 30
0.0
 10
10.3905469438
 20
14.961967919
 30
0.0
 10
10.3846889436
 20
14.9670264571
 30
0.0
 10
10.3795303262
 20
14.9713874868
 30
0.0
 10
10.3756621631
 20
14.9745653089
 30
0.0
 10
10.3729220082
 20
14.9767435754
 30
0.0
 10
10.3711477907
 20
14.9781170006
 30
0.0
 10
10.3695565189
 20
14.9793081903
 30
0.0
 10
10.3681490763
 20
14.9803164789
 30
0.0
 10
10.3669262531
 20
14.9811417706
 30
0.0
 10
10.3658887355
 20
14.981783593
 30
0.0
 10
10.3651331553
 20
14.9821924335
 30
0.0
 10
10.3646192384
 20
14.9824192726
 30
0.0
 10
10.36430828
 20
14.9825309161
 30
0.0
 10
10.3640429005
 20
14.9825972059
 30
0.0
 10
10.3638217047
 20
14.982618033
 30
0.0
 10
10.3636414798
 20
14.9825923895
 30
0.0
 10
10.3635461501
 20
14.9825359931
 30
0.0
 10
10.363511622
 20
14.9825014999
 30
0.0
  0
SPLINE
  5
4DE
100
AcDbEntity
  8
0
100
AcDbSpline
 62
7
  6
CONTINUOUS
 70
0
 71
3
 72
28
 73
24
 74
0
 42
0.0000001
 43
0.0000001
 44
0.0000000001
 40
0.0
 40
0.0
 40
0.0
 40
0.0
 40
0.0011453275
 40
0.0024966042
 40
0.0042490641
 40
0.0064959289
 40
0.0092804403
 40
0.0126231179
 40
0.0210184375
 40
0.0317207742
 40
0.0447351512
 40
0.0600456094
 40
0.0776187853
 40
0.0974175508
 40
0.1194021688
 40
0.1697107004
 40
0.2280609344
 40
0.2938885487
 40
0.3665461051
 40
0.4453211871
 40
0.6180788661
 40
0.805393319
 40
1.0
 40
1.0
 40
1.0
 40
1.0
 10
9.8506943263
 20
11.0323685083
 30
0.0
 10
9.8507113036
 20
11.0323831135
 30
0.0
 10
9.8507394182
 20
11.032426242
 30
0.0
 10
9.8507466027
 20
11.0325110066
 30
0.0
 10
9.85072691
 20
11.0326143602
 30
0.0
 10
9.8506810669
 20
11.0327392571
 30
0.0
 10
9.8506089253
 20
11.032886444
 30
0.0
 10
9.850466008
 20
11.0331320222
 30
0.0
 10
9.8502157449
 20
11.0334930833
 30
0.0
 10
9.8498299754
 20
11.0339886597
 30
0.0
 10
9.8493386275
 20
11.0345727503
 30
0.0
 10
9.8487427848
 20
11.035243968
 30
0.0
 10
9.8480436457
 20
11.0360005888
 30
0.0
 10
9.8472428286
 20
11.0368407264
 30
0.0
 10
9.8459840921
 20
11.0381284766
 30
0.0
 10
9.8441696403
 20
11.0399268546
 30
0.0
 10
9.8417119938
 20
11.0422934946
 30
0.0
 10
9.8389097863
 20
11.0449319692
 30
0.0
 10
9.8357906352
 20
11.0478161415
 30
0.0
 10
9.8311037094
 20
11.0520842661
 30
0.0
 10
9.8247014061
 20
11.0577980886
 30
0.0
 10
9.8165344349
 20
11.0649351346
 30
0.0
 10
9.8108653579
 20
11.0697964926
 30
0.0
 10
9.8079656284
 20
11.0722605145
 30
0.0
  0
SPLINE
  5
4DF
100
AcDbEntity
  8
0
100
AcDbSpline
 62
7
  6
CONTINUOUS
 70
0
 71
3
 72
25
 73
21
 74
0
 42
0.0000001
 43
0.0000001
 44
0.0000000001
 40
0.0
 40
0.0
 40
0.0
 40
0.0
 40
0.0015247915
 40
0.0031930998
 40
0.0051847631
 40
0.0076089597
 40
0.013961989
 40
0.0224883164
 40
0.0332607417
 40
0.0463038002
 40
0.0616129444
 40
0.0791622829
 40
0.1208483991
 40
0.1710189778
 40
0.2292085108
 40
0.2948665212
 40
0.4459688741
 40
0.6184492877
 40
0.8055515109
 40
1.0
 40
1.0
 40
1.0
 40
1.0
 10
9.6529419638
 20
11.2291668857
 30
0.0
 10
9.6529645824
 20
11.2291863445
 30
0.0
 10
9.6530040238
 20
11.2292373342
 30
0.0
 10
9.653031336
 20
11.2293369534
 30
0.0
 10
9.6530303037
 20
11.2294569824
 30
0.0
 10
9.6529894937
 20
11.2296645049
 30
0.0
 10
9.6528603747
 20
11.229979978
 30
0.0
 10
9.652616918
 20
11.2304191655
 30
0.0
 10
9.6522690774
 20
11.2309485337
 30
0.0
 10
9.6518173672
 20
11.231566842
 30
0.0
 10
9.6512619095
 20
11.2322729002
 30
0.0
 10
9.6503295817
 20
11.2333948928
 30
0.0
 10
9.6489087137
 20
11.2349969076
 30
0.0
 10
9.6469029327
 20
11.2371413352
 30
0.0
 10
9.6445285749
 20
11.2395824162
 30
0.0
 10
9.6407193858
 20
11.2433821767
 30
0.0
 10
9.6352268788
 20
11.2486599595
 30
0.0
 10
9.6279040181
 20
11.2554602023
 30
0.0
 10
9.619856351
 20
11.2627247995
 30
0.0
 10
9.6142517913
 20
11.2676579129
 30
0.0
 10
9.6113804931
 20
11.2701545727
 30
0.0
  0
SPLINE
  5
4E0
100
AcDbEntity
  8
0
100
AcDbSpline
 62
7
  6
CONTINUOUS
 70
0
 71
3
 72
28
 73
24
 74
0
 42
0.0000001
 43
0.0000001
 44
0.0000000001
 40
0.0
 40
0.0
 40
0.0
 40
0.0
 40
0.0018398631
 40
0.0037932054
 40
0.006021298
 40
0.0086352991
 40
0.0152600097
 40
0.0239628459
 40
0.0348491129
 40
0.0479612868
 40
0.0633056833
 40
0.0808636849
 40
0.100608441
 40
0.1225078898
 40
0.1725756315
 40
0.2306227275
 40
0.2961136427
 40
0.3684230364
 40
0.4468555515
 40
0.5306532767
 40
0.6189898878
 40
0.8057943248
 40
1.0
 40
1.0
 40
1.0
 40
1.0
 10
9.4029222737
 20
11.4779828402
 30
0.0
 10
9.4029495965
 20
11.4780063461
 30
0.0
 10
9.4029982633
 20
11.4780646096
 30
0.0
 10
9.4030414206
 20
11.4781761462
 30
0.0
 10
9.4030563585
 20
11.4783095165
 30
0.0
 10
9.4030389618
 20
11.4785343916
 30
0.0
 10
9.402938955
 20
11.4788743186
 30
0.0
 10
9.4027278655
 20
11.479342934
 30
0.0
 10
9.4024142031
 20
11.4799023279
 30
0.0
 10
9.4019980819
 20
11.4805513416
 30
0.0
 10
9.4014795266
 20
11.4812889415
 30
0.0
 10
9.400859606
 20
11.4821133413
 30
0.0
 10
9.4001395307
 20
11.4830226073
 30
0.0
 10
9.3989956688
 20
11.484408162
 30
0.0
 10
9.3973239761
 20
11.4863302493
 30
0.0
 10
9.3950324465
 20
11.488843494
 30
0.0
 10
9.3923959918
 20
11.4916309789
 30
0.0
 10
9.3894401429
 20
11.4946653378
 30
0.0
 10
9.3861935962
 20
11.4979166553
 30
0.0
 10
9.3826881903
 20
11.501352766
 30
0.0
 10
9.3776199947
 20
11.5062268977
 30
0.0
 10
9.3709092856
 20
11.5125127128
 30
0.0
 10
9.3653847862
 20
11.5175321235
 30
0.0
 10
9.3625503072
 20
11.5200697538
 30
0.0
  0
SPLINE
  5
4E1
100
AcDbEntity
  8
0
100
AcDbSpline
 62
7
  6
CONTINUOUS
 70
0
 71
3
 72
28
 73
24
 74
0
 42
0.0000001
 43
0.0000001
 44
0.0000000001
 40
0.0
 40
0.0
 40
0.0
 40
0.0
 40
0.0020747554
 40
0.004250986
 40
0.0066756919
 40
0.0094569616
 40
0.016339663
 40
0.0252259356
 40
0.0362429775
 40
0.0494463867
 40
0.0648508665
 40
0.0824434871
 40
0.1022013465
 40
0.1240953415
 40
0.1741062313
 40
0.2320487107
 40
0.2974006555
 40
0.3695479703
 40
0.4478056542
 40
0.5314245646
 40
0.6195855467
 40
0.806065953
 40
1.0
 40
1.0
 40
1.0
 40
1.0
 10
9.1115631069
 20
11.7679426021
 30
0.0
 10
9.1115939551
 20
11.7679691413
 30
0.0
 10
9.1116495574
 20
11.7680331398
 30
0.0
 10
9.1117043274
 20
11.7681536981
 30
0.0
 10
9.111731441
 20
11.7682970294
 30
0.0
 10
9.1117319881
 20
11.7685351036
 30
0.0
 10
9.1116553695
 20
11.7688940307
 30
0.0
 10
9.1114708052
 20
11.7693866169
 30
0.0
 10
9.1111855351
 20
11.7699708572
 30
0.0
 10
9.1107994456
 20
11.7706457254
 30
0.0
 10
9.1103125584
 20
11.7714102813
 30
0.0
 10
9.1097258108
 20
11.7722627388
 30
0.0
 10
9.1090403108
 20
11.7732011437
 30
0.0
 10
9.107946873
 20
11.7746283826
 30
0.0
 10
9.1063399246
 20
11.7766048046
 30
0.0
 10
9.1041264194
 20
11.7791847623
 30
0.0
 10
9.1015707359
 20
11.7820421021
 30
0.0
 10
9.0986973594
 20
11.785148985
 30
0.0
 10
9.0955339141
 20
11.7884749646
 30
0.0
 10
9.0921112083
 20
11.7919872909
 30
0.0
 10
9.0871531042
 20
11.7969666288
 30
0.0
 10
9.0805717239
 20
11.8033821637
 30
0.0
 10
9.0751399242
 20
11.8084980016
 30
0.0
 10
9.0723494051
 20
11.8110828266
 30
0.0
  0
SPLINE
  5
4E2
100
AcDbEntity
  8
0
100
AcDbSpline
 62
7
  6
CONTINUOUS
 70
0
 71
3
 72
25
 73
21
 74
0
 42
0.0000001
 43
0.0000001
 44
0.0000000001
 40
0.0
 40
0.0
 40
0.0
 40
0.0
 40
0.0045018687
 40
0.0099408875
 40
0.0170236252
 40
0.0260650907
 40
0.0372028913
 40
0.0504995087
 40
0.0659742139
 40
0.0836173373
 40
0.1253164374
 40
0.1753205585
 40
0.2332098742
 40
0.29847175
 40
0.3705012372
 40
0.448622354
 40
0.5320944183
 40
0.620105961
 40
0.8063029962
 40
1.0
 40
1.0
 40
1.0
 40
1.0
 10
8.7915989428
 20
12.0863741245
 30
0.0
 10
8.7916659411
 20
12.0864317653
 30
0.0
 10
8.7917763794
 20
12.0866052009
 30
0.0
 10
8.7918087305
 20
12.0869447797
 30
0.0
 10
8.7917413455
 20
12.0873648426
 30
0.0
 10
8.791575764
 20
12.0878753216
 30
0.0
 10
8.791311894
 20
12.0884779224
 30
0.0
 10
8.7909488505
 20
12.089172751
 30
0.0
 10
8.790486959
 20
12.0899585385
 30
0.0
 10
8.7896948823
 20
12.0911958012
 30
0.0
 10
8.7884547563
 20
12.0929492757
 30
0.0
 10
8.7866679732
 20
12.0952805148
 30
0.0
 10
8.7845238335
 20
12.0979189243
 30
0.0
 10
8.7820423475
 20
12.1008389845
 30
0.0
 10
8.7792467046
 20
12.1040123771
 30
0.0
 10
8.7761636277
 20
12.1074082549
 30
0.0
 10
8.7728228648
 20
12.1109933798
 30
0.0
 10
8.7679766037
 20
12.1160751486
 30
0.0
 10
8.7615312746
 20
12.1226212523
 30
0.0
 10
8.7562013095
 20
12.1278387025
 30
0.0
 10
8.7534603128
 20
12.1304744771
 30
0.0
  0
SPLINE
  5
4E3
100
AcDbEntity
  8
0
100
AcDbSpline
 62
7
  6
CONTINUOUS
 70
0
 71
3
 72
25
 73
21
 74
0
 42
0.0000001
 43
0.0000001
 44
0.0000000001
 40
0.0
 40
0.0
 40
0.0
 40
0.0
 40
0.0046092839
 40
0.0101677464
 40
0.0173619142
 40
0.0265024249
 40
0.0377268465
 40
0.0510981713
 40
0.0666360084
 40
0.0843311721
 40
0.1261022896
 40
0.1761375379
 40
0.2340203857
 40
0.2992423325
 40
0.3712041576
 40
0.4492361859
 40
0.5326047126
 40
0.6205053007
 40
0.8064841243
 40
1.0
 40
1.0
 40
1.0
 40
1.0
 10
8.4570142076
 20
12.4193608155
 30
0.0
 10
8.4570828407
 20
12.4194198631
 30
0.0
 10
8.4571966868
 20
12.4195961585
 30
0.0
 10
8.4572369456
 20
12.4199414852
 30
0.0
 10
8.4571789971
 20
12.4203697946
 30
0.0
 10
8.4570246524
 20
12.420890154
 30
0.0
 10
8.4567739359
 20
12.4215042748
 30
0.0
 10
8.4564260351
 20
12.4222121942
 30
0.0
 10
8.4559812776
 20
12.423012638
 30
0.0
 10
8.4552165597
 20
12.4242722189
 30
0.0
 10
8.4540150846
 20
12.4260574859
 30
0.0
 10
8.4522793361
 20
12.4284312714
 30
0.0
 10
8.450193044
 20
12.4311175778
 30
0.0
 10
8.4477755506
 20
12.4340905775
 30
0.0
 10
8.4450492626
 20
12.4373216389
 30
0.0
 10
8.44204003
 20
12.4407795787
 30
0.0
 10
8.4387766549
 20
12.4444307835
 30
0.0
 10
8.4340388999
 20
12.4496073986
 30
0.0
 10
8.4277304682
 20
12.4562784803
 30
0.0
 10
8.4225073847
 20
12.4615975066
 30
0.0
 10
8.4198195736
 20
12.4642853177
 30
0.0
  0
SPLINE
  5
4E4
100
AcDbEntity
  8
0
100
AcDbSpline
 62
7
  6
CONTINUOUS
 70
0
 71
3
 72
40
 73
36
 74
0
 42
0.0000001
 43
0.0000001
 44
0.0000000001
 40
0.0
 40
0.0
 40
0.0
 40
0.0
 40
0.0608119154
 40
0.1302000034
 40
0.2065629435
 40
0.2881318745
 40
0.3730194002
 40
0.4592615027
 40
0.5448634505
 40
0.6278460458
 40
0.706291676
 40
0.7432418785
 40
0.7783889787
 40
0.8115301045
 40
0.842474404
 40
0.8710428727
 40
0.8970715504
 40
0.920411129
 40
0.9409275272
 40
0.9585051205
 40
0.9661602484
 40
0.9730457143
 40
0.9791518273
 40
0.984471258
 40
0.9889987279
 40
0.9927302927
 40
0.9942975876
 40
0.9956666597
 40
0.9968388271
 40
0.9978164743
 40
0.9986040909
 40
0.9992108638
 40
0.9994527955
 40
0.9996595885
 40
1.0
 40
1.0
 40
1.0
 40
1.0
 10
10.279752052
 20
14.7299326881
 30
0.0
 10
10.2897287506
 20
14.7208423679
 30
0.0
 10
10.3110052296
 20
14.7012876641
 30
0.0
 10
10.3446044683
 20
14.6700956218
 30
0.0
 10
10.3814664695
 20
14.6356472999
 30
0.0
 10
10.4207642064
 20
14.5987673504
 30
0.0
 10
10.4616140894
 20
14.5603372596
 30
0.0
 10
10.5030974967
 20
14.5212742614
 30
0.0
 10
10.5442814519
 20
14.4825099727
 30
0.0
 10
10.5842403335
 20
14.4449688481
 30
0.0
 10
10.6163820655
 20
14.4148773673
 30
0.0
 10
10.6408228923
 20
14.3920949534
 30
0.0
 10
10.6579369376
 20
14.376199274
 30
0.0
 10
10.6741073825
 20
14.3612464463
 30
0.0
 10
10.6892440838
 20
14.3473264109
 30
0.0
 10
10.7032629309
 20
14.3345230136
 30
0.0
 10
10.7160861906
 20
14.3229135773
 30
0.0
 10
10.7276428775
 20
14.3125682154
 30
0.0
 10
10.7378695781
 20
14.303549888
 30
0.0
 10
10.7455529462
 20
14.2969111533
 30
0.0
 10
10.7510009387
 20
14.2923137409
 30
0.0
 10
10.754530682
 20
14.2893913032
 30
0.0
 10
10.7576915656
 20
14.2868366403
 30
0.0
 10
10.7604793307
 20
14.2846534127
 30
0.0
 10
10.7628902938
 20
14.2828448526
 30
0.0
 10
10.7646726179
 20
14.2815869274
 30
0.0
 10
10.7659118342
 20
14.2807776164
 30
0.0
 10
10.7666901273
 20
14.2803020877
 30
0.0
 10
10.7673724568
 20
14.2799216356
 30
0.0
 10
10.7679590008
 20
14.2796356567
 30
0.0
 10
10.7684499248
 20
14.2794441391
 30
0.0
 10
10.7688041871
 20
14.2793546912
 30
0.0
 10
10.7690390723
 20
14.2793404949
 30
0.0
 10
10.7692133997
 20
14.2793574623
 30
0.0
 10
10.7693310948
 20
14.2794118348
 30
0.0
 10
10.769384511
 20
14.2794652668
 30
0.0
  0
SPLINE
  5
4E5
100
AcDbEntity
  8
0
100
AcDbSpline
 62
7
  6
CONTINUOUS
 70
0
 71
3
 72
25
 73
21
 74
0
 42
0.0000001
 43
0.0000001
 44
0.0000000001
 40
0.0
 40
0.0
 40
0.0
 40
0.0
 40
0.0045290925
 40
0.010061092
 40
0.0172641293
 40
0.0264329135
 40
0.0376959239
 40
0.0511108436
 40
0.066693668
 40
0.0844330128
 40
0.1262844338
 40
0.1763819652
 40
0.2343051985
 40
0.299543932
 40
0.3715001722
 40
0.4495070452
 40
0.5328355198
 40
0.6206864258
 40
0.8065607468
 40
1.0
 40
1.0
 40
1.0
 40
1.0
 10
8.1224320107
 20
12.7523496934
 30
0.0
 10
8.1224994369
 20
12.7524077019
 30
0.0
 10
8.1226106624
 20
12.7525832541
 30
0.0
 10
8.122648557
 20
12.7529265025
 30
0.0
 10
8.1225911794
 20
12.7533548626
 30
0.0
 10
8.1224393279
 20
12.7538773276
 30
0.0
 10
8.1221931594
 20
12.7544954327
 30
0.0
 10
8.1218518158
 20
12.7552091102
 30
0.0
 10
8.1214156821
 20
12.756017027
 30
0.0
 10
8.1206662324
 20
12.7572892647
 30
0.0
 10
8.1194892629
 20
12.7590945929
 30
0.0
 10
8.1177892813
 20
12.7614977954
 30
0.0
 10
8.1157465485
 20
12.7642194495
 30
0.0
 10
8.1133799902
 20
12.7672334732
 30
0.0
 10
8.1107114629
 20
12.7705109699
 30
0.0
 10
8.1077661309
 20
12.7740205042
 30
0.0
 10
8.1045719975
 20
12.7777281864
 30
0.0
 10
8.0999343956
 20
12.7829877946
 30
0.0
 10
8.0937575705
 20
12.7897723188
 30
0.0
 10
8.0886418822
 20
12.7951877904
 30
0.0
 10
8.086008733
 20
12.7979260569
 30
0.0
  0
SPLINE
  5
4E6
100
AcDbEntity
  8
0
100
AcDbSpline
 62
7
  6
CONTINUOUS
 70
0
 71
3
 72
26
 73
22
 74
0
 42
0.0000001
 43
0.0000001
 44
0.0000000001
 40
0.0
 40
0.0
 40
0.0
 40
0.0
 40
0.0042664835
 40
0.00677
 40
0.009649827
 40
0.0167591283
 40
0.0258820231
 40
0.0371299887
 40
0.050550449
 40
0.0661523869
 40
0.0839200623
 40
0.125844833
 40
0.1760226483
 40
0.2340233056
 40
0.2993293052
 40
0.3713399669
 40
0.4493871685
 40
0.532743597
 40
0.620612756
 40
0.8065142321
 40
1.0
 40
1.0
 40
1.0
 40
1.0
 10
7.8024750269
 20
13.0707873944
 30
0.0
 10
7.8025384769
 20
13.0708419806
 30
0.0
 10
7.8026112411
 20
13.0709625608
 30
0.0
 10
7.8026499539
 20
13.0711481838
 30
0.0
 10
7.8026599859
 20
13.0713941694
 30
0.0
 10
7.8026005555
 20
13.0717671153
 30
0.0
 10
7.802443084
 20
13.072283396
 30
0.0
 10
7.8021925399
 20
13.0728979481
 30
0.0
 10
7.8018490751
 20
13.0736097377
 30
0.0
 10
7.8014127741
 20
13.0744176286
 30
0.0
 10
7.8006660268
 20
13.0756923334
 30
0.0
 10
7.7994985228
 20
13.0775051794
 30
0.0
 10
7.7978176638
 20
13.0799234453
 30
0.0
 10
7.7958024234
 20
13.0826664562
 30
0.0
 10
7.7934715737
 20
13.0857079413
 30
0.0
 10
7.7908466635
 20
13.0890187786
 30
0.0
 10
7.7879523994
 20
13.0925673579
 30
0.0
 10
7.7848161833
 20
13.0963195865
 30
0.0
 10
7.780265712
 20
13.1016468502
 30
0.0
 10
7.7742091057
 20
13.1085282408
 30
0.0
 10
7.7691965062
 20
13.1140304613
 30
0.0
 10
7.7666170825
 20
13.1168151493
 30
0.0
  0
SPLINE
  5
4E7
100
AcDbEntity
  8
0
100
AcDbSpline
 62
7
  6
CONTINUOUS
 70
0
 71
3
 72
20
 73
16
 74
0
 42
0.0000001
 43
0.0000001
 44
0.0000000001
 40
0.0
 40
0.0
 40
0.0
 40
0.0
 40
0.0083754873
 40
0.0143979607
 40
0.0220634029
 40
0.0427923145
 40
0.0710586323
 40
0.1069975678
 40
0.1506483921
 40
0.2020117982
 40
0.2610648914
 40
0.4019524338
 40
0.5726320386
 40
0.7723290269
 40
1.0
 40
1.0
 40
1.0
 40
1.0
 10
8.7436866413
 20
12.012534197
 30
0.0
 10
8.7437067519
 20
12.0125514684
 30
0.0
 10
8.743719726
 20
12.0126022892
 30
0.0
 10
8.7437091562
 20
12.0126704546
 30
0.0
 10
8.7436779024
 20
12.0127755742
 30
0.0
 10
8.7435990984
 20
12.0129372269
 30
0.0
 10
8.7434610557
 20
12.0131680523
 30
0.0
 10
8.7432690127
 20
12.0134504711
 30
0.0
 10
8.7430235408
 20
12.013784502
 30
0.0
 10
8.7427243713
 20
12.0141696452
 30
0.0
 10
8.7422240151
 20
12.0147880022
 30
0.0
 10
8.7414645889
 20
12.0156822346
 30
0.0
 10
8.7403936168
 20
12.0168953969
 30
0.0
 10
8.7391210566
 20
12.0182967439
 30
0.0
 10
8.7382011893
 20
12.0192885067
 30
0.0
 10
8.7377090817
 20
12.0198149056
 30
0.0
  0
SPLINE
  5
4E8
100
AcDbEntity
  8
0
100
AcDbSpline
 62
7
  6
CONTINUOUS
 70
0
 71
3
 72
26
 73
22
 74
0
 42
0.0000001
 43
0.0000001
 44
0.0000000001
 40
0.0
 40
0.0
 40
0.0
 40
0.0
 40
0.0018530185
 40
0.0038778066
 40
0.0062177996
 40
0.0089674499
 40
0.0158948063
 40
0.0249066662
 40
0.03609055
 40
0.0494797867
 40
0.065073941
 40
0.0828513669
 40
0.1248334415
 40
0.1750984898
 40
0.2332021075
 40
0.2986156162
 40
0.3707321467
 40
0.4488790358
 40
0.6202798701
 40
0.8063414888
 40
1.0
 40
1.0
 40
1.0
 40
1.0
 10
7.5111264402
 20
13.3607562593
 30
0.0
 10
7.5111539443
 20
13.3607799196
 30
0.0
 10
7.5112033265
 20
13.3608396337
 30
0.0
 10
7.5112494541
 20
13.3609538043
 30
0.0
 10
7.5112707709
 20
13.3610923701
 30
0.0
 10
7.5112670129
 20
13.3613283907
 30
0.0
 10
7.5111926252
 20
13.3616891462
 30
0.0
 10
7.5110207503
 20
13.3621920682
 30
0.0
 10
7.5107576447
 20
13.3627953957
 30
0.0
 10
7.5104034694
 20
13.363497828
 30
0.0
 10
7.509958398
 20
13.3642981403
 30
0.0
 10
7.509201862
 20
13.3655649664
 30
0.0
 10
7.5080286411
 20
13.3673724393
 30
0.0
 10
7.5063496789
 20
13.3697907668
 30
0.0
 10
7.5043449031
 20
13.3725402636
 30
0.0
 10
7.502033152
 20
13.3755945363
 30
0.0
 10
7.4994359484
 20
13.3789243289
 30
0.0
 10
7.4955019708
 20
13.3838425936
 30
0.0
 10
7.4900670899
 20
13.3904163269
 30
0.0
 10
7.4830518044
 20
13.3986156843
 30
0.0
 10
7.4781331229
 20
13.4041910857
 30
0.0
 10
7.4756040097
 20
13.4070160513
 30
0.0
  0
SPLINE
  5
4E9
100
AcDbEntity
  8
0
100
AcDbSpline
 62
7
  6
CONTINUOUS
 70
0
 71
3
 72
17
 73
13
 74
0
 42
0.0000001
 43
0.0000001
 44
0.0000000001
 40
0.0
 40
0.0
 40
0.0
 40
0.0
 40
0.0193779047
 40
0.040859508
 40
0.0665701173
 40
0.0977800286
 40
0.1790674166
 40
0.2874526607
 40
0.4237660332
 40
0.5881654622
 40
0.7803804683
 40
1.0
 40
1.0
 40
1.0
 40
1.0
 10
8.7688483386
 20
12.0577306071
 30
0.0
 10
8.768879138
 20
12.0577570989
 30
0.0
 10
8.7689330351
 20
12.0578270005
 30
0.0
 10
8.7689723922
 20
12.0579632712
 30
0.0
 10
8.768975614
 20
12.0581288272
 30
0.0
 10
8.7689299666
 20
12.0584159475
 30
0.0
 10
8.7687727798
 20
12.0588546089
 30
0.0
 10
8.7684695953
 20
12.0594674478
 30
0.0
 10
8.7680329065
 20
12.060206459
 30
0.0
 10
8.7674638136
 20
12.0610693016
 30
0.0
 10
8.7667630757
 20
12.0620536236
 30
0.0
 10
8.7662435507
 20
12.0627433369
 30
0.0
 10
8.7659628771
 20
12.0631083239
 30
0.0
  0
SPLINE
  5
4EA
100
AcDbEntity
  8
0
100
AcDbSpline
 62
7
  6
CONTINUOUS
 70
0
 71
3
 72
27
 73
23
 74
0
 42
0.0000001
 43
0.0000001
 44
0.0000000001
 40
0.0
 40
0.0
 40
0.0
 40
0.0
 40
0.0015471771
 40
0.0033075449
 40
0.0054333865
 40
0.0080129315
 40
0.0146985571
 40
0.0235547087
 40
0.0346393493
 40
0.0479693138
 40
0.0635338038
 40
0.0813045152
 40
0.1012480774
 40
0.1233267714
 40
0.1736780936
 40
0.2318992799
 40
0.2974486694
 40
0.3697110701
 40
0.4480069122
 40
0.6197019624
 40
0.8060485473
 40
1.0
 40
1.0
 40
1.0
 40
1.0
 10
7.2611188977
 20
13.6095826704
 30
0.0
 10
7.2611417978
 20
13.6096023688
 30
0.0
 10
7.261182068
 20
13.6096552313
 30
0.0
 10
7.2612135344
 20
13.6097580463
 30
0.0
 10
7.2612210526
 20
13.6098848308
 30
0.0
 10
7.2611982393
 20
13.6101066872
 30
0.0
 10
7.2611021076
 20
13.6104491291
 30
0.0
 10
7.2609085613
 20
13.6109318499
 30
0.0
 10
7.2606251815
 20
13.6115168773
 30
0.0
 10
7.2602524164
 20
13.6122028177
 30
0.0
 10
7.2597904625
 20
13.6129882633
 30
0.0
 10
7.2592403907
 20
13.6138712137
 30
0.0
 10
7.258603353
 20
13.6148495341
 30
0.0
 10
7.2575947116
 20
13.6163446546
 30
0.0
 10
7.2561246754
 20
13.6184295656
 30
0.0
 10
7.254113336
 20
13.6211703774
 30
0.0
 10
7.2518034918
 20
13.6242222078
 30
0.0
 10
7.2492170546
 20
13.627555805
 30
0.0
 10
7.2453102576
 20
13.6324875358
 30
0.0
 10
7.2399315877
 20
13.6390942542
 30
0.0
 10
7.2330117404
 20
13.6473564654
 30
0.0
 10
7.2281734796
 20
13.6529887499
 30
0.0
 10
7.2256888286
 20
13.6558462373
 30
0.0
  0
LINE
  5
4EB
100
AcDbEntity
  8
0
100
AcDbLine
 62
7
  6
CONTINUOUS
 10
9.2523729993
 20
11.5358863584
 11
9.2502538728
 21
11.5378502589
  0
SPLINE
  5
4EC
100
AcDbEntity
  8
0
100
AcDbSpline
 62
7
  6
CONTINUOUS
 70
0
 71
3
 72
27
 73
23
 74
0
 42
0.0000001
 43
0.0000001
 44
0.0000000001
 40
0.0
 40
0.0
 40
0.0
 40
0.0
 40
0.0025789364
 40
0.0044676476
 40
0.0068629071
 40
0.0097988079
 40
0.0132917399
 40
0.0219767561
 40
0.0329475558
 40
0.0462043398
 40
0.061726419
 40
0.0794791133
 40
0.121521395
 40
0.171950575
 40
0.2302904189
 40
0.2959867193
 40
0.3684153827
 40
0.4468888609
 40
0.5306694811
 40
0.6189539559
 40
0.8056717824
 40
1.0
 40
1.0
 40
1.0
 40
1.0
 10
7.0633781505
 20
13.8063910497
 30
0.0
 10
7.0634161914
 20
13.8064237685
 30
0.0
 10
7.0634403811
 20
13.8065198816
 30
0.0
 10
7.0634279233
 20
13.8066507377
 30
0.0
 10
7.0633970427
 20
13.8067888785
 30
0.0
 10
7.0633434213
 20
13.8069518646
 30
0.0
 10
7.0632341608
 20
13.8072251407
 30
0.0
 10
7.0630367476
 20
13.8076303987
 30
0.0
 10
7.0627268173
 20
13.8081909117
 30
0.0
 10
7.062328363
 20
13.8088538918
 30
0.0
 10
7.0618423895
 20
13.8096177996
 30
0.0
 10
7.0610320419
 20
13.8108388104
 30
0.0
 10
7.0598047461
 20
13.8125977387
 30
0.0
 10
7.0580796476
 20
13.8149713734
 30
0.0
 10
7.0560449343
 20
13.8176884714
 30
0.0
 10
7.0537201273
 20
13.8207227297
 30
0.0
 10
7.0511272559
 20
13.8240448573
 30
0.0
 10
7.0482909664
 20
13.8276231537
 30
0.0
 10
7.0452382065
 20
13.8314233764
 30
0.0
 10
7.0408350067
 20
13.8368399975
 30
0.0
 10
7.0350183248
 20
13.843879198
 30
0.0
 10
7.03024301
 20
13.8495502161
 30
0.0
 10
7.0277947704
 20
13.8524313726
 30
0.0
  0
SPLINE
  5
4ED
100
AcDbEntity
  8
0
100
AcDbSpline
 62
7
  6
CONTINUOUS
 70
0
 71
3
 72
18
 73
14
 74
0
 42
0.0000001
 43
0.0000001
 44
0.0000000001
 40
0.0
 40
0.0
 40
0.0
 40
0.0
 40
0.0070788795
 40
0.0128926188
 40
0.0205080495
 40
0.0414125553
 40
0.0700472184
 40
0.1505986204
 40
0.2620031644
 40
0.4036194171
 40
0.5745662281
 40
0.7737924908
 40
1.0
 40
1.0
 40
1.0
 40
1.0
 10
6.9265456793
 20
13.9425792883
 30
0.0
 10
6.9265662063
 20
13.9425969423
 30
0.0
 10
6.9265703537
 20
13.9426556982
 30
0.0
 10
6.9265544342
 20
13.9427298242
 30
0.0
 10
6.9265131042
 20
13.9428560168
 30
0.0
 10
6.9264202589
 20
13.943053526
 30
0.0
 10
6.9261807283
 20
13.9434902716
 30
0.0
 10
6.9257273328
 20
13.9442021772
 30
0.0
 10
6.9250070555
 20
13.9452553227
 30
0.0
 10
6.9240618458
 20
13.9465730102
 30
0.0
 10
6.9228984901
 20
13.9481472575
 30
0.0
 10
6.9215236313
 20
13.9499673371
 30
0.0
 10
6.9205326258
 20
13.951257899
 30
0.0
 10
6.9200036427
 20
13.9519425113
 30
0.0
  0
SPLINE
  5
4EE
100
AcDbEntity
  8
0
100
AcDbSpline
 62
7
  6
CONTINUOUS
 70
0
 71
3
 72
11
 73
7
 74
0
 42
0.0000001
 43
0.0000001
 44
0.0000000001
 40
0.0
 40
0.0
 40
0.0
 40
0.0
 40
0.2015957072
 40
0.4438598798
 40
0.7145181477
 40
1.0
 40
1.0
 40
1.0
 40
1.0
 10
6.9194052427
 20
13.9527151952
 30
0.0
 10
6.9175219194
 20
13.9551416896
 30
0.0
 10
6.9133275536
 20
13.9604470533
 30
0.0
 10
6.9064907926
 20
13.9689194715
 30
0.0
 10
6.8987780195
 20
13.9783269117
 30
0.0
 10
6.8933621358
 20
13.9848439297
 30
0.0
 10
6.8905714564
 20
13.9881804449
 30
0.0
  0
LINE
  5
4EF
100
AcDbEntity
  8
0
100
AcDbLine
 62
7
  6
CONTINUOUS
 10
6.8461789947
 20
14.0253735021
 11
6.8451416285
 21
14.0266477485
  0
SPLINE
  5
4F0
100
AcDbEntity
  8
0
100
AcDbSpline
 62
7
  6
CONTINUOUS
 70
0
 71
3
 72
17
 73
13
 74
0
 42
0.0000001
 43
0.0000001
 44
0.0000000001
 40
0.0
 40
0.0
 40
0.0
 40
0.0
 40
0.0219756544
 40
0.0457761154
 40
0.0733057108
 40
0.1058158068
 40
0.1883639857
 40
0.2966159027
 40
0.4317007293
 40
0.5940324964
 40
0.7835534232
 40
1.0
 40
1.0
 40
1.0
 40
1.0
 10
8.4312410658
 20
12.3937305808
 30
0.0
 10
8.4312693927
 20
12.3937549348
 30
0.0
 10
8.4313198897
 20
12.3938164255
 30
0.0
 10
8.4313645177
 20
12.3939345351
 30
0.0
 10
8.4313808551
 20
12.3940771632
 30
0.0
 10
8.4313653209
 20
12.3943199214
 30
0.0
 10
8.4312672876
 20
12.3946894549
 30
0.0
 10
8.431057618
 20
12.3952026835
 30
0.0
 10
8.43074451
 20
12.3958178832
 30
0.0
 10
8.4303282238
 20
12.3965336134
 30
0.0
 10
8.4298090434
 20
12.3973485595
 30
0.0
 10
8.4294205803
 20
12.3979190642
 30
0.0
 10
8.4292100719
 20
12.3982208378
 30
0.0
  0
SPLINE
  5
4F1
100
AcDbEntity
  8
0
100
AcDbSpline
 62
9
  6
CONTINUOUS
 70
0
 71
3
 72
27
 73
23
 74
0
 42
0.0000001
 43
0.0000001
 44
0.0000000001
 40
0.0
 40
0.0
 40
0.0
 40
0.0
 40
0.0624945349
 40
0.1250072206
 40
0.1874984948
 40
0.2499858708
 40
0.3124723915
 40
0.3749812854
 40
0.406234957
 40
0.4374836216
 40
0.4687382137
 40
0.5000002877
 40
0.531261918
 40
0.5625155842
 40
0.593764639
 40
0.6250192784
 40
0.6875274306
 40
0.7500135024
 40
0.8125015274
 40
0.8749928688
 40
0.9375054422
 40
1.0
 40
1.0
 40
1.0
 40
1.0
 10
11.6682997941
 20
4.2235733141
 30
0.0
 10
11.6682998196
 20
4.2151313145
 30
0.0
 10
11.6689909167
 20
4.1982413066
 30
0.0
 10
11.6715747981
 20
4.1730360125
 30
0.0
 10
11.6751985813
 20
4.1479651256
 30
0.0
 10
11.6793770855
 20
4.1229884712
 30
0.0
 10
11.6835704248
 20
4.098012303
 30
0.0
 10
11.6865987229
 20
4.0771192511
 30
0.0
 10
11.6884706063
 20
4.0603346626
 30
0.0
 10
11.6895336402
 20
4.0477123714
 30
0.0
 10
11.6901811781
 20
4.0350602822
 30
0.0
 10
11.6903960468
 20
4.0223917478
 30
0.0
 10
11.690182607
 20
4.0097232831
 30
0.0
 10
11.6895333459
 20
3.9970714003
 30
0.0
 10
11.6884697529
 20
3.9844491181
 30
0.0
 10
11.6865986848
 20
3.967664359
 30
0.0
 10
11.6835712431
 20
3.9467711999
 30
0.0
 10
11.6793771582
 20
3.9217952272
 30
0.0
 10
11.6751985471
 20
3.896818554
 30
0.0
 10
11.6715747463
 20
3.8717475865
 30
0.0
 10
11.6689908779
 20
3.846542294
 30
0.0
 10
11.668299805
 20
3.8296522967
 30
0.0
 10
11.6682997941
 20
3.821210294
 30
0.0
  0
SPLINE
  5
4F2
100
AcDbEntity
  8
0
100
AcDbSpline
 62
7
  6
CONTINUOUS
 70
0
 71
3
 72
14
 73
10
 74
0
 42
0.0000001
 43
0.0000001
 44
0.0000000001
 40
0.0
 40
0.0
 40
0.0
 40
0.0
 40
0.0626309017
 40
0.1343898897
 40
0.2225959081
 40
0.3312810209
 40
0.4625315402
 40
0.617414322
 40
1.0
 40
1.0
 40
1.0
 40
1.0
 10
8.0936363469
 20
12.729732788
 30
0.0
 10
8.0936704113
 20
12.7297621201
 30
0.0
 10
8.0937293218
 20
12.729842751
 30
0.0
 10
8.0937677179
 20
12.7300005236
 30
0.0
 10
8.0937650754
 20
12.7301945555
 30
0.0
 10
8.0937232605
 20
12.7304270334
 30
0.0
 10
8.0936425793
 20
12.7306990888
 30
0.0
 10
8.0934703719
 20
12.7311474469
 30
0.0
 10
8.0932999686
 20
12.731494388
 30
0.0
 10
8.0931721099
 20
12.7317374024
 30
0.0
  0
SPLINE
  5
4F3
100
AcDbEntity
  8
0
100
AcDbSpline
 62
9
  6
CONTINUOUS
 70
0
 71
3
 72
34
 73
30
 74
0
 42
0.0000001
 43
0.0000001
 44
0.0000000001
 40
0.0
 40
0.0
 40
0.0
 40
0.0
 40
0.0819365897
 40
0.1638024101
 40
0.246421844
 40
0.3296767094
 40
0.4128944503
 40
0.49524995
 40
0.5756863104
 40
0.6529557705
 40
0.7257009197
 40
0.7926064391
 40
0.8523284176
 40
0.8790609259
 40
0.9034697184
 40
0.9253759193
 40
0.9446461728
 40
0.9611922259
 40
0.9749271688
 40
0.9807131798
 40
0.9857635858
 40
0.9900673809
 40
0.9936135303
 40
0.9963909707
 40
0.9983886117
 40
0.9990915344
 40
0.9995953361
 40
0.9998986231
 40
1.0
 40
1.0
 40
1.0
 40
1.0
 10
11.6982997941
 20
4.335891804
 30
0.0
 10
11.698299799
 20
4.3365856786
 30
0.0
 10
11.6984341923
 20
4.337975544
 30
0.0
 10
11.6989832384
 20
4.3399966682
 30
0.0
 10
11.6998087909
 20
4.3419312924
 30
0.0
 10
11.7008461071
 20
4.3437717896
 30
0.0
 10
11.702038245
 20
4.3455120202
 30
0.0
 10
11.7033394979
 20
4.3471409597
 30
0.0
 10
11.7047036612
 20
4.3486496648
 30
0.0
 10
11.7060852836
 20
4.3500289607
 30
0.0
 10
11.7074398278
 20
4.3512704981
 30
0.0
 10
11.7087252315
 20
4.3523656641
 30
0.0
 10
11.7097391242
 20
4.3531775432
 30
0.0
 10
11.7104831188
 20
4.3537501856
 30
0.0
 10
11.7109773871
 20
4.3541221744
 30
0.0
 10
11.7114240829
 20
4.3544522391
 30
0.0
 10
11.7118194154
 20
4.3547397485
 30
0.0
 10
11.7121606295
 20
4.3549839953
 30
0.0
 10
11.7124102765
 20
4.3551599766
 30
0.0
 10
11.7125810074
 20
4.3552789101
 30
0.0
 10
11.7126864886
 20
4.3553518336
 30
0.0
 10
11.7127764981
 20
4.3554136377
 30
0.0
 10
11.712851042
 20
4.3554643651
 30
0.0
 10
11.7129089617
 20
4.3555037271
 30
0.0
 10
11.7129483964
 20
4.3555298636
 30
0.0
 10
11.7129697031
 20
4.3555445813
 30
0.0
 10
11.7129824259
 20
4.3555522587
 30
0.0
 10
11.7129851506
 20
4.3555554662
 30
0.0
 10
11.7129918353
 20
4.3555584444
 30
0.0
 10
11.7129909772
 20
4.3555584707
 30
0.0
  0
SPLINE
  5
4F4
100
AcDbEntity
  8
0
100
AcDbSpline
 62
9
  6
CONTINUOUS
 70
0
 71
3
 72
21
 73
17
 74
0
 42
0.0000001
 43
0.0000001
 44
0.0000000001
 40
0.0
 40
0.0
 40
0.0
 40
0.0
 40
0.0620441135
 40
0.1242334939
 40
0.2489876145
 40
0.3115885075
 40
0.3743097931
 40
0.4371319831
 40
0.5000000353
 40
0.5628680324
 40
0.6256902686
 40
0.6884115364
 40
0.7510124105
 40
0.8757665003
 40
0.9379558766
 40
1.0
 40
1.0
 40
1.0
 40
1.0
 10
11.6982997941
 20
4.2235733141
 30
0.0
 10
11.6982998029
 20
4.2152254959
 30
0.0
 10
11.6988420831
 20
4.1985088718
 30
0.0
 10
11.7014152004
 20
4.1651018684
 30
0.0
 10
11.705245141
 20
4.1317409481
 30
0.0
 10
11.7088522791
 20
4.0982883288
 30
0.0
 10
11.7111255121
 20
4.0730737133
 30
0.0
 10
11.7126241305
 20
4.0477630166
 30
0.0
 10
11.7131744636
 20
4.0223917977
 30
0.0
 10
11.7126241299
 20
3.9970205718
 30
0.0
 10
11.7111254661
 20
3.971709882
 30
0.0
 10
11.7088523027
 20
3.9464952594
 30
0.0
 10
11.7052451792
 20
3.9130426471
 30
0.0
 10
11.7014152119
 20
3.8796817376
 30
0.0
 10
11.6988420704
 20
3.846274739
 30
0.0
 10
11.6982998008
 20
3.8295581135
 30
0.0
 10
11.6982997941
 20
3.821210294
 30
0.0
  0
SPLINE
  5
4F5
100
AcDbEntity
  8
0
100
AcDbSpline
 62
7
  6
CONTINUOUS
 70
0
 71
3
 72
20
 73
16
 74
0
 42
0.0000001
 43
0.0000001
 44
0.0000000001
 40
0.0
 40
0.0
 40
0.0
 40
0.0
 40
0.0091935606
 40
0.015616243
 40
0.0236555189
 40
0.0450619985
 40
0.0739553256
 40
0.1104848356
 40
0.1546691526
 40
0.2064824085
 40
0.2658773231
 40
0.4070477803
 40
0.5772508077
 40
0.7753710219
 40
1.0
 40
1.0
 40
1.0
 40
1.0
 10
7.7685033041
 20
13.0128285574
 30
0.0
 10
7.7685332735
 20
13.0128543828
 30
0.0
 10
7.7685558635
 20
13.0129267214
 30
0.0
 10
7.7685487586
 20
13.0130272693
 30
0.0
 10
7.7685164924
 20
13.0131791802
 30
0.0
 10
7.7684246505
 20
13.0134136642
 30
0.0
 10
7.7682572383
 20
13.0137479314
 30
0.0
 10
7.7680205848
 20
13.0141561902
 30
0.0
 10
7.7677154837
 20
13.014638094
 30
0.0
 10
7.7673418069
 20
13.0151927114
 30
0.0
 10
7.7667157964
 20
13.0160802359
 30
0.0
 10
7.7657628119
 20
13.0173601259
 30
0.0
 10
7.7644167898
 20
13.019090852
 30
0.0
 10
7.7628192792
 20
13.0210805619
 30
0.0
 10
7.7616637646
 20
13.0224856528
 30
0.0
 10
7.7610464594
 20
13.023229485
 30
0.0
  0
LINE
  5
4F6
100
AcDbEntity
  8
0
100
AcDbLine
 62
7
  6
CONTINUOUS
 10
7.7591300834
 20
13.0255187959
 11
7.7589163207
 21
13.0257719556
  0
LINE
  5
4F7
100
AcDbEntity
  8
0
100
AcDbLine
 62
7
  6
CONTINUOUS
 10
8.0489213172
 20
12.6849580068
 11
8.044702567
 21
12.6897764212
  0
SPLINE
  5
4F8
100
AcDbEntity
  8
0
100
AcDbSpline
 62
9
  6
CONTINUOUS
 70
0
 71
3
 72
24
 73
20
 74
0
 42
0.0000001
 43
0.0000001
 44
0.0000000001
 40
0.0
 40
0.0
 40
0.0
 40
0.0
 40
0.0016174197
 40
0.0063975606
 40
0.014252073
 40
0.0250930423
 40
0.0388330146
 40
0.0553850233
 40
0.096577187
 40
0.1477315139
 40
0.2074635515
 40
0.2743781737
 40
0.3471341067
 40
0.504804811
 40
0.6702851451
 40
0.7535530125
 40
0.8361814893
 40
0.9180551448
 40
1.0
 40
1.0
 40
1.0
 40
1.0
 10
11.7129909557
 20
3.6892251129
 30
0.0
 10
11.7129790162
 20
3.6892318208
 30
0.0
 10
11.7129352002
 20
3.6892639229
 30
0.0
 10
11.7128340133
 20
3.6893295219
 30
0.0
 10
11.7126706678
 20
3.6894429068
 30
0.0
 10
11.7124448219
 20
3.6895991119
 30
0.0
 10
11.7121602807
 20
3.6897999679
 30
0.0
 10
11.7116680978
 20
3.6901522341
 30
0.0
 10
11.7109246288
 20
3.6906976758
 30
0.0
 10
11.7098997134
 20
3.6914773172
 30
0.0
 10
11.708724533
 20
3.6924185395
 30
0.0
 10
11.7074391311
 20
3.6935137142
 30
0.0
 10
11.7055829508
 20
3.6952152907
 30
0.0
 10
11.7032609935
 20
3.6976402338
 30
0.0
 10
11.7011883654
 20
3.7004048241
 30
0.0
 10
11.6998084534
 20
3.7028525478
 30
0.0
 10
11.6989830097
 20
3.7047871797
 30
0.0
 10
11.6984341241
 20
3.7068081969
 30
0.0
 10
11.6982997981
 20
3.7081979738
 30
0.0
 10
11.6982997941
 20
3.708891804
 30
0.0
  0
SPLINE
  5
4F9
100
AcDbEntity
  8
0
100
AcDbSpline
 62
7
  6
CONTINUOUS
 70
0
 71
3
 72
19
 73
15
 74
0
 42
0.0000001
 43
0.0000001
 44
0.0000000001
 40
0.0
 40
0.0
 40
0.0
 40
0.0
 40
0.0146131257
 40
0.0326434284
 40
0.0562201429
 40
0.0862847667
 40
0.1232616913
 40
0.1673554478
 40
0.2186674364
 40
0.2772275165
 40
0.415951819
 40
0.583121841
 40
0.7781145664
 40
1.0
 40
1.0
 40
1.0
 40
1.0
 10
7.7790411572
 20
13.0428389637
 30
0.0
 10
7.7790762801
 20
13.042869137
 30
0.0
 10
7.7791340785
 20
13.0429613456
 30
0.0
 10
7.7791539304
 20
13.0431415319
 30
0.0
 10
7.7791252371
 20
13.0433678219
 30
0.0
 10
7.7790479207
 20
13.0436450729
 30
0.0
 10
7.7789220972
 20
13.0439742986
 30
0.0
 10
7.778747199
 20
13.0443558116
 30
0.0
 10
7.7785231673
 20
13.0447893409
 30
0.0
 10
7.778136528
 20
13.0454757861
 30
0.0
 10
7.7775265343
 20
13.0464569146
 30
0.0
 10
7.7766409362
 20
13.0477742239
 30
0.0
 10
7.7755684617
 20
13.0492826366
 30
0.0
 10
7.7747818929
 20
13.0503439493
 30
0.0
 10
7.7743590905
 20
13.0509056924
 30
0.0
  0
SPLINE
  5
4FA
100
AcDbEntity
  8
0
100
AcDbSpline
 62
7
  6
CONTINUOUS
 70
0
 71
3
 72
27
 73
23
 74
0
 42
0.0000001
 43
0.0000001
 44
0.0000000001
 40
0.0
 40
0.0
 40
0.0
 40
0.0
 40
0.0018380207
 40
0.0034853985
 40
0.0056895246
 40
0.0084673681
 40
0.0118266167
 40
0.0202991062
 40
0.0311047213
 40
0.0442250975
 40
0.0596372765
 40
0.0773078312
 40
0.1192431131
 40
0.1696425134
 40
0.228017985
 40
0.2938187058
 40
0.3664079168
 40
0.4450961651
 40
0.5291316435
 40
0.6177072768
 40
0.8050510307
 40
1.0
 40
1.0
 40
1.0
 40
1.0
 10
7.5453640064
 20
13.2349135784
 30
0.0
 10
7.5453909962
 20
13.2349367932
 30
0.0
 10
7.5453834433
 20
13.2350212897
 30
0.0
 10
7.5453502023
 20
13.2351201432
 30
0.0
 10
7.5452974825
 20
13.2352397702
 30
0.0
 10
7.5452223601
 20
13.2353819714
 30
0.0
 10
7.5450796861
 20
13.2356268408
 30
0.0
 10
7.544840695
 20
13.2359943933
 30
0.0
 10
7.5444813141
 20
13.2365089863
 30
0.0
 10
7.5440307521
 20
13.2371234534
 30
0.0
 10
7.5434899853
 20
13.2378365313
 30
0.0
 10
7.5425978463
 20
13.2389834371
 30
0.0
 10
7.541265104
 20
13.2406459598
 30
0.0
 10
7.5394118576
 20
13.2429013323
 30
0.0
 10
7.5372418911
 20
13.2454945597
 30
0.0
 10
7.5347760189
 20
13.2484004519
 30
0.0
 10
7.5320377489
 20
13.2515910989
 30
0.0
 10
7.5290532702
 20
13.2550357932
 30
0.0
 10
7.525851122
 20
13.2587015312
 30
0.0
 10
7.5212454556
 20
13.2639355865
 30
0.0
 10
7.5151864493
 20
13.2707522448
 30
0.0
 10
7.5102353249
 20
13.2762580985
 30
0.0
 10
7.5077027098
 20
13.2790587226
 30
0.0
  0
SPLINE
  5
4FB
100
AcDbEntity
  8
0
100
AcDbSpline
 62
7
  6
CONTINUOUS
 70
0
 71
3
 72
23
 73
19
 74
0
 42
0.0000001
 43
0.0000001
 44
0.0000000001
 40
0.0
 40
0.0
 40
0.0
 40
0.0
 40
0.0076088768
 40
0.0104967473
 40
0.0138525075
 40
0.0220331571
 40
0.0322342904
 40
0.044486393
 40
0.058799852
 40
0.0751749509
 40
0.1140556748
 40
0.1609587115
 40
0.2156710885
 40
0.2779087879
 40
0.4236282733
 40
0.5950495799
 40
0.7885442913
 40
1.0
 40
1.0
 40
1.0
 40
1.0
 10
7.508893892
 20
13.3117108744
 30
0.0
 10
7.5089630306
 20
13.3117703995
 30
0.0
 10
7.5089730711
 20
13.3119240806
 30
0.0
 10
7.5089460482
 20
13.3120838882
 30
0.0
 10
7.5089034112
 20
13.3122528485
 30
0.0
 10
7.5088136543
 20
13.3124973914
 30
0.0
 10
7.5086615141
 20
13.3128321925
 30
0.0
 10
7.5084579453
 20
13.3132233016
 30
0.0
 10
7.5082031453
 20
13.3136708334
 30
0.0
 10
7.5077696022
 20
13.3143835635
 30
0.0
 10
7.5070969889
 20
13.3154076685
 30
0.0
 10
7.5061326694
 20
13.3167890904
 30
0.0
 10
7.5049748038
 20
13.3183764275
 30
0.0
 10
7.5030788272
 20
13.320891399
 30
0.0
 10
7.5002708343
 20
13.3244706031
 30
0.0
 10
7.4964123095
 20
13.329224638
 30
0.0
 10
7.4919884981
 20
13.3345342568
 30
0.0
 10
7.4888414866
 20
13.33823192
 30
0.0
 10
7.4871897582
 20
13.3401554869
 30
0.0
  0
LINE
  5
4FC
100
AcDbEntity
  8
0
100
AcDbLine
 62
7
  6
CONTINUOUS
 10
7.4871897582
 20
13.3401554869
 11
7.4863235351
 21
13.3411627028
  0
LINE
  5
4FD
100
AcDbEntity
  8
0
100
AcDbLine
 62
7
  6
CONTINUOUS
 10
7.4863235351
 20
13.3411627028
 11
7.485777027
 21
13.3417965792
  0
SPLINE
  5
4FE
100
AcDbEntity
  8
0
100
AcDbSpline
 62
9
  6
CONTINUOUS
 70
0
 71
3
 72
13
 73
9
 74
0
 42
0.0000001
 43
0.0000001
 44
0.0000000001
 40
0.0
 40
0.0
 40
0.0
 40
0.0
 40
0.2499777046
 40
0.4999935441
 40
0.6249820539
 40
0.7499825458
 40
0.8749995246
 40
1.0
 40
1.0
 40
1.0
 40
1.0
 10
12.2460955208
 20
4.501391804
 30
0.0
 10
12.2464172829
 20
4.4945713754
 30
0.0
 10
12.2474191973
 20
4.480947483
 30
0.0
 10
12.2489783412
 20
4.463948449
 30
0.0
 10
12.2500659698
 20
4.450334015
 30
0.0
 10
12.2507120603
 20
4.4401106209
 30
0.0
 10
12.2511252127
 20
4.4298745819
 30
0.0
 10
12.2512254753
 20
4.4230451932
 30
0.0
 10
12.2512255769
 20
4.4196308686
 30
0.0
  0
SPLINE
  5
4FF
100
AcDbEntity
  8
0
100
AcDbSpline
 62
9
  6
CONTINUOUS
 70
0
 71
3
 72
13
 73
9
 74
0
 42
0.0000001
 43
0.0000001
 44
0.0000000001
 40
0.0
 40
0.0
 40
0.0
 40
0.0
 40
0.1250004381
 40
0.2500178617
 40
0.375019539
 40
0.5000077527
 40
0.7500214482
 40
1.0
 40
1.0
 40
1.0
 40
1.0
 10
12.2512253843
 20
3.6251464317
 30
0.0
 10
12.2512250434
 20
3.621732371
 30
0.0
 10
12.2511245635
 20
3.6149035047
 30
0.0
 10
12.2507116601
 20
3.6046682069
 30
0.0
 10
12.2500663007
 20
3.5944455165
 30
0.0
 10
12.2489780195
 20
3.5808322214
 30
0.0
 10
12.2474186969
 20
3.5638345581
 30
0.0
 10
12.2464177279
 20
3.5502117061
 30
0.0
 10
12.2460954675
 20
3.543391804
 30
0.0
  0
SPLINE
  5
500
100
AcDbEntity
  8
0
100
AcDbSpline
 62
9
  6
CONTINUOUS
 70
0
 71
3
 72
27
 73
23
 74
0
 42
0.0000001
 43
0.0000001
 44
0.0000000001
 40
0.0
 40
0.0
 40
0.0
 40
0.0
 40
0.0019689807
 40
0.0039618515
 40
0.0085955128
 40
0.0147954114
 40
0.0229498584
 40
0.0332314099
 40
0.0457154877
 40
0.0604384741
 40
0.0774165351
 40
0.0966392662
 40
0.1180814008
 40
0.167495539
 40
0.2252704754
 40
0.2908764805
 40
0.3636337474
 40
0.4427695843
 40
0.5274105338
 40
0.6166284967
 40
0.8049234508
 40
1.0
 40
1.0
 40
1.0
 40
1.0
 10
14.0075092394
 20
3.2793243566
 30
0.0
 10
14.0075478067
 20
3.2793175729
 30
0.0
 10
14.0076278977
 20
3.279314666
 30
0.0
 10
14.0077950313
 20
3.2793610669
 30
0.0
 10
14.0079978035
 20
3.2795303798
 30
0.0
 10
14.0082014742
 20
3.2798506652
 30
0.0
 10
14.0083934132
 20
3.2803032334
 30
0.0
 10
14.0085718804
 20
3.2808923709
 30
0.0
 10
14.0087378093
 20
3.2816197034
 30
0.0
 10
14.0088900159
 20
3.2824854452
 30
0.0
 10
14.0090279405
 20
3.2834889705
 30
0.0
 10
14.0091510574
 20
3.2846288774
 30
0.0
 10
14.0093019333
 20
3.2864141433
 30
0.0
 10
14.0094420893
 20
3.2889690496
 30
0.0
 10
14.0095394157
 20
3.2924044983
 30
0.0
 10
14.0095696629
 20
3.2963054338
 30
0.0
 10
14.009532358
 20
3.300631077
 30
0.0
 10
14.0094273939
 20
3.3053342506
 30
0.0
 10
14.0092565853
 20
3.3103630437
 30
0.0
 10
14.0089380973
 20
3.3175586631
 30
0.0
 10
14.0083914681
 20
3.3269421882
 30
0.0
 10
14.0078246652
 20
3.3345459577
 30
0.0
 10
14.0075092394
 20
3.3384128218
 30
0.0
  0
SPLINE
  5
501
100
AcDbEntity
  8
0
100
AcDbSpline
 62
9
  6
CONTINUOUS
 70
0
 71
3
 72
24
 73
20
 74
0
 42
0.0000001
 43
0.0000001
 44
0.0000000001
 40
0.0
 40
0.0
 40
0.0
 40
0.0
 40
0.0108591465
 40
0.0213098043
 40
0.0317800086
 40
0.0427298836
 40
0.0545947313
 40
0.0677384348
 40
0.0988827601
 40
0.1376936893
 40
0.1848071883
 40
0.2403338636
 40
0.3039930114
 40
0.3751609333
 40
0.4529940856
 40
0.5364566644
 40
0.6244394672
 40
0.8095021091
 40
1.0
 40
1.0
 40
1.0
 40
1.0
 10
12.3813398126
 20
3.5660619017
 30
0.0
 10
12.3815625661
 20
3.5660225827
 30
0.0
 10
12.3820079409
 20
3.5659833397
 30
0.0
 10
12.3826701958
 20
3.5660622155
 30
0.0
 10
12.3833013637
 20
3.5662848973
 30
0.0
 10
12.383894799
 20
3.5666527837
 30
0.0
 10
12.3844467028
 20
3.5671649919
 30
0.0
 10
12.3851666339
 20
3.5680921015
 30
0.0
 10
12.3859333277
 20
3.5696615323
 30
0.0
 10
12.3866234583
 20
3.572006508
 30
0.0
 10
12.3871249056
 20
3.5749151773
 30
0.0
 10
12.3874266225
 20
3.5783688273
 30
0.0
 10
12.3875206524
 20
3.5823349147
 30
0.0
 10
12.3874037905
 20
3.5867645872
 30
0.0
 10
12.3870764468
 20
3.5915968884
 30
0.0
 10
12.3865478358
 20
3.5967632892
 30
0.0
 10
12.3855727318
 20
3.6041259872
 30
0.0
 10
12.3839255669
 20
3.6136441175
 30
0.0
 10
12.3822615634
 20
3.6212905135
 30
0.0
 10
12.3813405519
 20
3.6251502366
 30
0.0
  0
SPLINE
  5
502
100
AcDbEntity
  8
0
100
AcDbSpline
 62
9
  6
CONTINUOUS
 70
0
 71
3
 72
27
 73
23
 74
0
 42
0.0000001
 43
0.0000001
 44
0.0000000001
 40
0.0
 40
0.0
 40
0.0
 40
0.0
 40
0.1950765033
 40
0.3833715382
 40
0.4725895411
 40
0.5572304396
 40
0.6363662226
 40
0.709123568
 40
0.7747296213
 40
0.832504453
 40
0.8819185037
 40
0.9033606204
 40
0.9225833444
 40
0.9395614094
 40
0.9542844074
 40
0.9667684901
 40
0.977050018
 40
0.9852043818
 40
0.9914041616
 40
0.9960378045
 40
0.9980307877
 40
1.0
 40
1.0
 40
1.0
 40
1.0
 10
14.0075092394
 20
4.7063707863
 30
0.0
 10
14.007824618
 20
4.7102376536
 30
0.0
 10
14.0083914939
 20
4.7178414183
 30
0.0
 10
14.0089381178
 20
4.7272249464
 30
0.0
 10
14.0092566184
 20
4.7344205671
 30
0.0
 10
14.0094273973
 20
4.7394493604
 30
0.0
 10
14.0095323201
 20
4.7441525345
 30
0.0
 10
14.0095696598
 20
4.7484781789
 30
0.0
 10
14.0095394541
 20
4.7523791157
 30
0.0
 10
14.0094420915
 20
4.7558145612
 30
0.0
 10
14.0093019059
 20
4.7583694616
 30
0.0
 10
14.0091510287
 20
4.7601547252
 30
0.0
 10
14.0090279149
 20
4.7612946321
 30
0.0
 10
14.0088899942
 20
4.7622981581
 30
0.0
 10
14.00873779
 20
4.7631639008
 30
0.0
 10
14.0085718648
 20
4.763891234
 30
0.0
 10
14.0083934047
 20
4.7644803715
 30
0.0
 10
14.0082014792
 20
4.7649329399
 30
0.0
 10
14.0079978226
 20
4.7652532295
 30
0.0
 10
14.0077950501
 20
4.7654225436
 30
0.0
 10
14.007627909
 20
4.7654689423
 30
0.0
 10
14.0075478114
 20
4.7654660349
 30
0.0
 10
14.0075092394
 20
4.7654592515
 30
0.0
  0
SPLINE
  5
503
100
AcDbEntity
  8
0
100
AcDbSpline
 62
9
  6
CONTINUOUS
 70
0
 71
3
 72
25
 73
21
 74
0
 42
0.0000001
 43
0.0000001
 44
0.0000000001
 40
0.0
 40
0.0
 40
0.0
 40
0.0
 40
0.1904810067
 40
0.3755284956
 40
0.4635048783
 40
0.546959322
 40
0.6247832297
 40
0.6959429471
 40
0.7595950352
 40
0.7883991372
 40
0.8151248842
 40
0.8622316941
 40
0.9010364251
 40
0.9321810953
 40
0.9453292883
 40
0.9572009601
 40
0.9681592621
 40
0.9786417867
 40
0.9891119264
 40
1.0
 40
1.0
 40
1.0
 40
1.0
 10
12.3813382042
 20
4.4196329576
 30
0.0
 10
12.3822608305
 20
4.4234924665
 30
0.0
 10
12.3839232522
 20
4.4311396104
 30
0.0
 10
12.3855723602
 20
4.4406578046
 30
0.0
 10
12.3865487929
 20
4.4480206984
 30
0.0
 10
12.3870773838
 20
4.4531872875
 30
0.0
 10
12.3874038902
 20
4.4580197785
 30
0.0
 10
12.3875203388
 20
4.462449423
 30
0.0
 10
12.3874400935
 20
4.4658591142
 30
0.0
 10
12.3872586345
 20
4.4683359408
 30
0.0
 10
12.3870234982
 20
4.4704613949
 30
0.0
 10
12.3866241363
 20
4.4727781107
 30
0.0
 10
12.3859340903
 20
4.475123148
 30
0.0
 10
12.3851660978
 20
4.4766922975
 30
0.0
 10
12.3844447758
 20
4.4776188428
 30
0.0
 10
12.3838918142
 20
4.478130662
 30
0.0
 10
12.3832973568
 20
4.4784981605
 30
0.0
 10
12.3826650666
 20
4.478720433
 30
0.0
 10
12.3820014209
 20
4.478798942
 30
0.0
 10
12.381555009
 20
4.4787595811
 30
0.0
 10
12.3813316139
 20
4.4787202607
 30
0.0
  0
LINE
  5
504
100
AcDbEntity
  8
0
100
AcDbLine
 62
7
  6
CONTINUOUS
 10
9.7356698043
 20
11.095538655
 11
9.7339738856
 21
11.0969960103
  0
LINE
  5
505
100
AcDbEntity
  8
0
100
AcDbLine
 62
7
  6
CONTINUOUS
 10
9.7339738856
 20
11.0969960103
 11
9.6913294286
 21
11.1336422179
  0
SPLINE
  5
506
100
AcDbEntity
  8
0
100
AcDbSpline
 62
9
  6
CONTINUOUS
 70
0
 71
3
 72
30
 73
26
 74
0
 42
0.0000001
 43
0.0000001
 44
0.0000000001
 40
0.0
 40
0.0
 40
0.0
 40
0.0
 40
0.1949612878
 40
0.29009125
 40
0.3824187294
 40
0.4710739412
 40
0.5551912679
 40
0.6339614412
 40
0.7066234045
 40
0.772483587
 40
0.8309005879
 40
0.8813178409
 40
0.9033692212
 40
0.9232470927
 40
0.9409019922
 40
0.9562890501
 40
0.9693767923
 40
0.9801374269
 40
0.9885465975
 40
0.9918666382
 40
0.9945990683
 40
0.9967487141
 40
0.9983272272
 40
0.9993679015
 40
1.0
 40
1.0
 40
1.0
 40
1.0
 10
12.2460954675
 20
3.543391804
 30
0.0
 10
12.2460036743
 20
3.5394907789
 30
0.0
 10
12.2459050881
 20
3.5336853555
 30
0.0
 10
12.2458245134
 20
3.5260317572
 30
0.0
 10
12.2457846748
 20
3.5205055591
 30
0.0
 10
12.2457596179
 20
3.5151996998
 30
0.0
 10
12.2457449674
 20
3.5101651498
 30
0.0
 10
12.245737726
 20
3.5054506864
 30
0.0
 10
12.2457355025
 20
3.5011016309
 30
0.0
 10
12.2457378825
 20
3.497159939
 30
0.0
 10
12.2457450189
 20
3.4936634766
 30
0.0
 10
12.2457568824
 20
3.4910438513
 30
0.0
 10
12.2457719554
 20
3.4891956163
 30
0.0
 10
12.2457857907
 20
3.4880031306
 30
0.0
 10
12.2458031562
 20
3.4869440885
 30
0.0
 10
12.2458246014
 20
3.4860210547
 30
0.0
 10
12.2458507651
 20
3.4852361762
 30
0.0
 10
12.245882356
 20
3.4845913019
 30
0.0
 10
12.2459154069
 20
3.4841422762
 30
0.0
 10
12.2459472959
 20
3.4838545476
 30
0.0
 10
12.2459713072
 20
3.4836921068
 30
0.0
 10
12.2459962905
 20
3.4835651577
 30
0.0
 10
12.2460245349
 20
3.4834736167
 30
0.0
 10
12.2460508851
 20
3.4834142475
 30
0.0
 10
12.2460814912
 20
3.4833918162
 30
0.0
 10
12.2460941425
 20
3.483391804
 30
0.0
  0
SPLINE
  5
507
100
AcDbEntity
  8
0
100
AcDbSpline
 62
9
  6
CONTINUOUS
 70
0
 71
3
 72
30
 73
26
 74
0
 42
0.0000001
 43
0.0000001
 44
0.0000000001
 40
0.0
 40
0.0
 40
0.0
 40
0.0
 40
0.000630787
 40
0.0016707052
 40
0.0032488023
 40
0.0053982272
 40
0.0081305558
 40
0.0114505669
 40
0.0198597726
 40
0.0306205056
 40
0.0437083641
 40
0.0590955262
 40
0.0767505561
 40
0.0966286205
 40
0.1186801937
 40
0.1690977558
 40
0.227515085
 40
0.2933755377
 40
0.3660377721
 40
0.4448082044
 40
0.5289257087
 40
0.6175811176
 40
0.7099087762
 40
0.8050387409
 40
1.0
 40
1.0
 40
1.0
 40
1.0
 10
12.2460943204
 20
4.561391804
 30
0.0
 10
12.2460816953
 20
4.5613917956
 30
0.0
 10
12.246051147
 20
4.5613693382
 30
0.0
 10
12.2460249024
 20
4.5613099905
 30
0.0
 10
12.2459967352
 20
4.5612184513
 30
0.0
 10
12.2459718344
 20
4.5610915039
 30
0.0
 10
12.2459478948
 20
4.5609290597
 30
0.0
 10
12.2459160988
 20
4.5606413243
 30
0.0
 10
12.2458831204
 20
4.5601922933
 30
0.0
 10
12.2458515577
 20
4.5595474149
 30
0.0
 10
12.2458253741
 20
4.5587625332
 30
0.0
 10
12.2458038653
 20
4.5578394966
 30
0.0
 10
12.2457863976
 20
4.5567804509
 30
0.0
 10
12.245772427
 20
4.5555879601
 30
0.0
 10
12.2457571305
 20
4.5537397186
 30
0.0
 10
12.2457449415
 20
4.551120086
 30
0.0
 10
12.2457374475
 20
4.5476236165
 30
0.0
 10
12.2457348379
 20
4.5436819192
 30
0.0
 10
12.2457370634
 20
4.5393328605
 30
0.0
 10
12.2457446106
 20
4.5346183975
 30
0.0
 10
12.2457597
 20
4.5295838512
 30
0.0
 10
12.245785176
 20
4.5242779988
 30
0.0
 10
12.2458252084
 20
4.5187518114
 30
0.0
 10
12.2459056926
 20
4.5110982323
 30
0.0
 10
12.2460040004
 20
4.5052928233
 30
0.0
 10
12.2460955208
 20
4.501391804
 30
0.0
  0
LINE
  5
508
100
AcDbEntity
  8
0
100
AcDbLine
 62
9
  6
CONTINUOUS
 10
12.3813381301
 20
3.6251558269
 11
12.2798463954
 21
3.6251450049
  0
SPLINE
  5
509
100
AcDbEntity
  8
0
100
AcDbSpline
 62
9
  6
CONTINUOUS
 70
0
 71
3
 72
19
 73
15
 74
0
 42
0.0000001
 43
0.0000001
 44
0.0000000001
 40
0.0
 40
0.0
 40
0.0
 40
0.0
 40
0.0076667559
 40
0.0173311346
 40
0.0425289966
 40
0.0752361252
 40
0.1150489022
 40
0.1615600669
 40
0.2143672819
 40
0.3372972419
 40
0.4807332505
 40
0.6414407781
 40
0.815909108
 40
1.0
 40
1.0
 40
1.0
 40
1.0
 10
12.2759982538
 20
4.5333341185
 30
0.0
 10
12.2759773951
 20
4.5332588919
 30
0.0
 10
12.2759416438
 20
4.5330857509
 30
0.0
 10
12.2758821451
 20
4.5326567194
 30
0.0
 10
12.2758313321
 20
4.5319700663
 30
0.0
 10
12.2757903976
 20
4.5309759682
 30
0.0
 10
12.2757638133
 20
4.5297641671
 30
0.0
 10
12.2757466021
 20
4.5283476103
 30
0.0
 10
12.2757322238
 20
4.5260846533
 30
0.0
 10
12.2757273041
 20
4.5228347476
 30
0.0
 10
12.2757336237
 20
4.518486178
 30
0.0
 10
12.2757610603
 20
4.5136128793
 30
0.0
 10
12.2758305718
 20
4.5083259774
 30
0.0
 10
12.275927908
 20
4.5046760792
 30
0.0
 10
12.275999431
 20
4.5028029846
 30
0.0
  0
SPLINE
  5
50A
100
AcDbEntity
  8
0
100
AcDbSpline
 62
9
  6
CONTINUOUS
 70
0
 71
3
 72
27
 73
23
 74
0
 42
0.0000001
 43
0.0000001
 44
0.0000000001
 40
0.0
 40
0.0
 40
0.0
 40
0.0
 40
0.0003150042
 40
0.0012736742
 40
0.0028723203
 40
0.0051071711
 40
0.0079744497
 40
0.0114703808
 40
0.0203331123
 40
0.0316652295
 40
0.0454366581
 40
0.0616173894
 40
0.0801774823
 40
0.1242958122
 40
0.1772272801
 40
0.2381761787
 40
0.3063474344
 40
0.3809513647
 40
0.461083133
 40
0.6337019999
 40
0.8160105235
 40
1.0
 40
1.0
 40
1.0
 40
1.0
 10
12.2798470075
 20
4.5403823277
 30
0.0
 10
12.2798478542
 20
4.5403823507
 30
0.0
 10
12.2798426756
 20
4.5403777434
 30
0.0
 10
12.2798412775
 20
4.540373239
 30
0.0
 10
12.2798319544
 20
4.5403617864
 30
0.0
 10
12.2798221842
 20
4.5403476292
 30
0.0
 10
12.2798083461
 20
4.5403287153
 30
0.0
 10
12.2797845469
 20
4.5402955886
 30
0.0
 10
12.2797472808
 20
4.540243806
 30
0.0
 10
12.2796942025
 20
4.5401695367
 30
0.0
 10
12.279629858
 20
4.5400790632
 30
0.0
 10
12.2795545585
 20
4.539972558
 30
0.0
 10
12.2794326411
 20
4.5397990731
 30
0.0
 10
12.2792550108
 20
4.5395439695
 30
0.0
 10
12.2790150236
 20
4.539193411
 30
0.0
 10
12.2787428185
 20
4.5387865593
 30
0.0
 10
12.278443988
 20
4.5383274564
 30
0.0
 10
12.2781242077
 20
4.5378205042
 30
0.0
 10
12.2776674744
 20
4.5370680485
 30
0.0
 10
12.277095236
 20
4.5360470561
 30
0.0
 10
12.2764678509
 20
4.5347396243
 30
0.0
 10
12.276130838
 20
4.5338107341
 30
0.0
 10
12.2759982538
 20
4.5333341185
 30
0.0
  0
SPLINE
  5
50B
100
AcDbEntity
  8
0
100
AcDbSpline
 62
9
  6
CONTINUOUS
 70
0
 71
3
 72
11
 73
7
 74
0
 42
0.0000001
 43
0.0000001
 44
0.0000000001
 40
0.0
 40
0.0
 40
0.0
 40
0.0
 40
0.2489435436
 40
0.4985380308
 40
0.7489790607
 40
1.0
 40
1.0
 40
1.0
 40
1.0
 10
12.275999431
 20
4.5028029846
 30
0.0
 10
12.2762632797
 20
4.4958978943
 30
0.0
 10
12.2770897768
 20
4.482082249
 30
0.0
 10
12.2785154444
 20
4.4613418145
 30
0.0
 10
12.2795871481
 20
4.4405194038
 30
0.0
 10
12.2798469135
 20
4.426598748
 30
0.0
 10
12.279847075
 20
4.4196309546
 30
0.0
  0
SPLINE
  5
50C
100
AcDbEntity
  8
0
100
AcDbSpline
 62
9
  6
CONTINUOUS
 70
0
 71
3
 72
11
 73
7
 74
0
 42
0.0000001
 43
0.0000001
 44
0.0000000001
 40
0.0
 40
0.0
 40
0.0
 40
0.0
 40
0.251021632
 40
0.5014628514
 40
0.7510618065
 40
1.0
 40
1.0
 40
1.0
 40
1.0
 10
12.2798466863
 20
3.6251450049
 30
0.0
 10
12.2798460078
 20
3.6181776523
 30
0.0
 10
12.2795869152
 20
3.6042579092
 30
0.0
 10
12.2785169036
 20
3.5834366164
 30
0.0
 10
12.277087958
 20
3.5626977749
 30
0.0
 10
12.2762639642
 20
3.5488829444
 30
0.0
 10
12.2759994045
 20
3.5419784863
 30
0.0
  0
SPLINE
  5
50D
100
AcDbEntity
  8
0
100
AcDbSpline
 62
9
  6
CONTINUOUS
 70
0
 71
3
 72
27
 73
23
 74
0
 42
0.0000001
 43
0.0000001
 44
0.0000000001
 40
0.0
 40
0.0
 40
0.0
 40
0.0
 40
0.1841674658
 40
0.3666576713
 40
0.5392040733
 40
0.6192558549
 40
0.6937803171
 40
0.7618823481
 40
0.8227747943
 40
0.8756652382
 40
0.9197607066
 40
0.9383161163
 40
0.9544962208
 40
0.968270801
 40
0.9796095916
 40
0.988482282
 40
0.9919843562
 40
0.9948585189
 40
0.997100969
 40
0.998707903
 40
0.9996755151
 40
1.0
 40
1.0
 40
1.0
 40
1.0
 10
12.2759981007
 20
3.5114528126
 30
0.0
 10
12.276131439
 20
3.5109757245
 30
0.0
 10
12.2764678318
 20
3.5100453539
 30
0.0
 10
12.277093424
 20
3.5087355309
 30
0.0
 10
12.2776667196
 20
3.5077145097
 30
0.0
 10
12.2781242145
 20
3.5069628781
 30
0.0
 10
12.2784443115
 20
3.5064565978
 30
0.0
 10
12.2787432317
 20
3.505997977
 30
0.0
 10
12.2790153677
 20
3.5055914065
 30
0.0
 10
12.2792551567
 20
3.5052409199
 30
0.0
 10
12.2794325092
 20
3.5049857103
 30
0.0
 10
12.2795541541
 20
3.5048120351
 30
0.0
 10
12.2796292837
 20
3.5047053547
 30
0.0
 10
12.2796934549
 20
3.5046146928
 30
0.0
 10
12.2797464673
 20
3.5045402313
 30
0.0
 10
12.2797835513
 20
3.5044883053
 30
0.0
 10
12.2798075182
 20
3.504455065
 30
0.0
 10
12.2798209887
 20
3.5044361024
 30
0.0
 10
12.2798317824
 20
3.5044218361
 30
0.0
 10
12.2798389206
 20
3.5044104487
 30
0.0
 10
12.2798443236
 20
3.504405719
 30
0.0
 10
12.2798455255
 20
3.504401274
 30
0.0
 10
12.279846398
 20
3.5044012505
 30
0.0
  0
SPLINE
  5
50E
100
AcDbEntity
  8
0
100
AcDbSpline
 62
9
  6
CONTINUOUS
 70
0
 71
3
 72
19
 73
15
 74
0
 42
0.0000001
 43
0.0000001
 44
0.0000000001
 40
0.0
 40
0.0
 40
0.0
 40
0.0
 40
0.1841038587
 40
0.3585895112
 40
0.5192929872
 40
0.6627238911
 40
0.7856716904
 40
0.8384928148
 40
0.8850120666
 40
0.9248220592
 40
0.9575132567
 40
0.9826857241
 40
0.9923393045
 40
1.0
 40
1.0
 40
1.0
 40
1.0
 10
12.2759994045
 20
3.5419784863
 30
0.0
 10
12.275927678
 20
3.5401055958
 30
0.0
 10
12.2758298772
 20
3.5364560402
 30
0.0
 10
12.2757602539
 20
3.5311697938
 30
0.0
 10
12.2757339933
 20
3.5262972576
 30
0.0
 10
12.2757281604
 20
3.5219493615
 30
0.0
 10
12.2757325048
 20
3.5186997535
 30
0.0
 10
12.2757463562
 20
3.5164367837
 30
0.0
 10
12.2757632213
 20
3.5150202753
 30
0.0
 10
12.2757895502
 20
3.5138087882
 30
0.0
 10
12.2758304181
 20
3.5128153105
 30
0.0
 10
12.275881426
 20
3.5121293168
 30
0.0
 10
12.2759412205
 20
3.5117008351
 30
0.0
 10
12.2759771501
 20
3.5115279354
 30
0.0
 10
12.2759981007
 20
3.5114528126
 30
0.0
  0
SPLINE
  5
50F
100
AcDbEntity
  8
0
100
AcDbSpline
 62
7
  6
CONTINUOUS
 70
0
 71
3
 72
25
 73
21
 74
0
 42
0.0000001
 43
0.0000001
 44
0.0000000001
 40
0.0
 40
0.0
 40
0.0
 40
0.0
 40
0.0021967493
 40
0.0039541419
 40
0.0062428704
 40
0.00908888
 40
0.0125048605
 40
0.0210682515
 40
0.0451206561
 40
0.0782815341
 40
0.1202590146
 40
0.1706671458
 40
0.2290215849
 40
0.2947737566
 40
0.3672885357
 40
0.4458802438
 40
0.5298004716
 40
0.6182486312
 40
0.8053169422
 40
1.0
 40
1.0
 40
1.0
 40
1.0
 10
7.3016037652
 20
13.5180244333
 30
0.0
 10
7.3016359835
 20
13.5180522365
 30
0.0
 10
7.3016454443
 20
13.5181425409
 30
0.0
 10
7.3016214888
 20
13.5182574903
 30
0.0
 10
7.3015799398
 20
13.5183859407
 30
0.0
 10
7.3015156106
 20
13.5185382257
 30
0.0
 10
7.3013899749
 20
13.5187968238
 30
0.0
 10
7.3010461219
 20
13.5194046421
 30
0.0
 10
7.3003454156
 20
13.5204701012
 30
0.0
 10
7.2992312912
 20
13.5220357233
 30
0.0
 10
7.2977739969
 20
13.5239832229
 30
0.0
 10
7.295987879
 20
13.5262935473
 30
0.0
 10
7.2938890942
 20
13.5289440486
 30
0.0
 10
7.2914977619
 20
13.5319089227
 30
0.0
 10
7.28883663
 20
13.5351597114
 30
0.0
 10
7.2859310777
 20
13.538665142
 30
0.0
 10
7.2828087936
 20
13.5423917522
 30
0.0
 10
7.2783117655
 20
13.5477079946
 30
0.0
 10
7.2723837151
 20
13.5546240581
 30
0.0
 10
7.2675286338
 20
13.5602027447
 30
0.0
 10
7.2650423708
 20
13.5630386783
 30
0.0
  0
LINE
  5
510
100
AcDbEntity
  8
0
100
AcDbLine
 62
9
  6
CONTINUOUS
 10
14.3613724158
 20
5.149210267
 11
14.3602839019
 21
5.157391804
  0
SPLINE
  5
511
100
AcDbEntity
  8
0
100
AcDbSpline
 62
9
  6
CONTINUOUS
 70
0
 71
3
 72
10
 73
6
 74
0
 42
0.0000001
 43
0.0000001
 44
0.0000000001
 40
0.0
 40
0.0
 40
0.0
 40
0.0
 40
0.4999892596
 40
0.7499956623
 40
1.0
 40
1.0
 40
1.0
 40
1.0
 10
14.3629544281
 20
5.107391743
 30
0.0
 10
14.362954353
 20
5.1143678587
 30
0.0
 10
14.3627672362
 20
5.1248336939
 30
0.0
 10
14.3621190142
 20
5.1387717464
 30
0.0
 10
14.3616491825
 20
5.1457330709
 30
0.0
 10
14.3613724158
 20
5.149210267
 30
0.0
  0
SPLINE
  5
512
100
AcDbEntity
  8
0
100
AcDbSpline
 62
9
  6
CONTINUOUS
 70
0
 71
3
 72
10
 73
6
 74
0
 42
0.0000001
 43
0.0000001
 44
0.0000000001
 40
0.0
 40
0.0
 40
0.0
 40
0.0
 40
0.2500043318
 40
0.500010878
 40
1.0
 40
1.0
 40
1.0
 40
1.0
 10
14.3613724204
 20
2.8955733991
 30
0.0
 10
14.361649295
 20
2.899050582
 30
0.0
 10
14.3621188915
 20
2.9060119156
 30
0.0
 10
14.3627677907
 20
2.9199499129
 30
0.0
 10
14.362954792
 20
2.9304157551
 30
0.0
 10
14.3629544281
 20
2.9373918598
 30
0.0
  0
LINE
  5
513
100
AcDbEntity
  8
0
100
AcDbLine
 62
9
  6
CONTINUOUS
 10
14.3602839412
 20
2.887391804
 11
14.3613724204
 21
2.8955733991
  0
LINE
  5
514
100
AcDbEntity
  8
0
100
AcDbLine
 62
9
  6
CONTINUOUS
 10
14.4604223716
 20
2.877391804
 11
14.4641366091
 21
2.8808232616
  0
SPLINE
  5
515
100
AcDbEntity
  8
0
100
AcDbSpline
 62
9
  6
CONTINUOUS
 70
0
 71
3
 72
18
 73
14
 74
0
 42
0.0000001
 43
0.0000001
 44
0.0000000001
 40
0.0
 40
0.0
 40
0.0
 40
0.0
 40
0.0394274591
 40
0.080580635
 40
0.1710114909
 40
0.2214381096
 40
0.2756191789
 40
0.3952080231
 40
0.5290809626
 40
0.6009381137
 40
0.6757919813
 40
0.8334942027
 40
1.0
 40
1.0
 40
1.0
 40
1.0
 10
14.4641366091
 20
2.8808232616
 30
0.0
 10
14.4644732589
 20
2.8811866634
 30
0.0
 10
14.4651000001
 20
2.8819882345
 30
0.0
 10
14.4661560261
 20
2.8838671018
 30
0.0
 10
14.4668549631
 20
2.8860682924
 30
0.0
 10
14.467302655
 20
2.8884773731
 30
0.0
 10
14.4676327958
 20
2.8912771268
 30
0.0
 10
14.4677673468
 20
2.8951455941
 30
0.0
 10
14.4676057617
 20
2.8992329786
 30
0.0
 10
14.467285957
 20
2.9027443833
 30
0.0
 10
14.4668060764
 20
2.9065395798
 30
0.0
 10
14.4658830989
 20
2.9114736882
 30
0.0
 10
14.464787676
 20
2.9154036913
 30
0.0
 10
14.4641366091
 20
2.917391804
 30
0.0
  0
SPLINE
  5
516
100
AcDbEntity
  8
0
100
AcDbSpline
 62
9
  6
CONTINUOUS
 70
0
 71
3
 72
11
 73
7
 74
0
 42
0.0000001
 43
0.0000001
 44
0.0000000001
 40
0.0
 40
0.0
 40
0.0
 40
0.0
 40
0.2441980584
 40
0.4932632492
 40
0.7457303874
 40
1.0
 40
1.0
 40
1.0
 40
1.0
 10
14.4641366091
 20
2.917391804
 30
0.0
 10
14.463615984
 20
2.9189709708
 30
0.0
 10
14.4626202217
 20
2.9221800715
 30
0.0
 10
14.46141167
 20
2.927116548
 30
0.0
 10
14.4606101046
 20
2.9322073364
 30
0.0
 10
14.4604223742
 20
2.9356604514
 30
0.0
 10
14.4604223716
 20
2.937391804
 30
0.0
  0
SPLINE
  5
517
100
AcDbEntity
  8
0
100
AcDbSpline
 62
9
  6
CONTINUOUS
 70
0
 71
3
 72
11
 73
7
 74
0
 42
0.0000001
 43
0.0000001
 44
0.0000000001
 40
0.0
 40
0.0
 40
0.0
 40
0.0
 40
0.2542713667
 40
0.5067387578
 40
0.7558021435
 40
1.0
 40
1.0
 40
1.0
 40
1.0
 10
14.4604223716
 20
5.107391804
 30
0.0
 10
14.4604223687
 20
5.1091231678
 30
0.0
 10
14.4606100799
 20
5.1125762938
 30
0.0
 10
14.4614116065
 20
5.1176670947
 30
0.0
 10
14.4626204823
 20
5.1226034829
 30
0.0
 10
14.4636162478
 20
5.1258125526
 30
0.0
 10
14.4641366091
 20
5.127391804
 30
0.0
  0
SPLINE
  5
518
100
AcDbEntity
  8
0
100
AcDbSpline
 62
9
  6
CONTINUOUS
 70
0
 71
3
 72
18
 73
14
 74
0
 42
0.0000001
 43
0.0000001
 44
0.0000000001
 40
0.0
 40
0.0
 40
0.0
 40
0.0
 40
0.1665056736
 40
0.324208137
 40
0.3990619435
 40
0.4709190332
 40
0.6047920426
 40
0.7243809265
 40
0.7785619628
 40
0.828988409
 40
0.9194192918
 40
0.9605732909
 40
1.0
 40
1.0
 40
1.0
 40
1.0
 10
14.4641366091
 20
5.127391804
 30
0.0
 10
14.4647877865
 20
5.1293798787
 30
0.0
 10
14.4658830414
 20
5.1333099405
 30
0.0
 10
14.4668060041
 20
5.1382440395
 30
0.0
 10
14.4672859946
 20
5.1420392239
 30
0.0
 10
14.4676058312
 20
5.1455506253
 30
0.0
 10
14.4677673531
 20
5.1496380153
 30
0.0
 10
14.4676327268
 20
5.1535064775
 30
0.0
 10
14.4673026144
 20
5.1563062307
 30
0.0
 10
14.4668550246
 20
5.1587153253
 30
0.0
 10
14.4661560907
 20
5.1609165445
 30
0.0
 10
14.4650999372
 20
5.1627953413
 30
0.0
 10
14.4644732181
 20
5.1635969199
 30
0.0
 10
14.4641366091
 20
5.1639603465
 30
0.0
  0
LINE
  5
519
100
AcDbEntity
  8
0
100
AcDbLine
 62
9
  6
CONTINUOUS
 10
14.4641366091
 20
5.1639603465
 11
14.4604223716
 21
5.167391804
  0
SPLINE
  5
51A
100
AcDbEntity
  8
0
100
AcDbSpline
 62
9
  6
CONTINUOUS
 70
0
 71
3
 72
11
 73
7
 74
0
 42
0.0000001
 43
0.0000001
 44
0.0000000001
 40
0.0
 40
0.0
 40
0.0
 40
0.0
 40
0.1788950721
 40
0.3892572201
 40
0.658509278
 40
1.0
 40
1.0
 40
1.0
 40
1.0
 10
14.3602839019
 20
2.827391804
 30
0.0
 10
14.3602076979
 20
2.827391824
 30
0.0
 10
14.3600401179
 20
2.8274385074
 30
0.0
 10
14.3598275466
 20
2.8276304966
 30
0.0
 10
14.3596370724
 20
2.82792619
 30
0.0
 10
14.3595328729
 20
2.8281655387
 30
0.0
 10
14.3594810074
 20
2.8283014432
 30
0.0
  0
SPLINE
  5
51B
100
AcDbEntity
  8
0
100
AcDbSpline
 62
9
  6
CONTINUOUS
 70
0
 71
3
 72
19
 73
15
 74
0
 42
0.0000001
 43
0.0000001
 44
0.0000000001
 40
0.0
 40
0.0
 40
0.0
 40
0.0
 40
0.0090527146
 40
0.0198545666
 40
0.0467765505
 40
0.0807789081
 40
0.1216829898
 40
0.1692338764
 40
0.2230871862
 40
0.3480789781
 40
0.4929032894
 40
0.6531465887
 40
0.8239130047
 40
1.0
 40
1.0
 40
1.0
 40
1.0
 10
14.3594810074
 20
2.8283014432
 30
0.0
 10
14.3594172742
 20
2.8284684448
 30
0.0
 10
14.3592986086
 20
2.8288427556
 30
0.0
 10
14.3590825584
 20
2.8297411831
 30
0.0
 10
14.3588602026
 20
2.8311416642
 30
0.0
 10
14.3586532614
 20
2.8331419584
 30
0.0
 10
14.3584932431
 20
2.8355551106
 30
0.0
 10
14.3583796042
 20
2.8383629381
 30
0.0
 10
14.358285431
 20
2.842832452
 30
0.0
 10
14.3582988749
 20
2.8492242132
 30
0.0
 10
14.3584950489
 20
2.8577140828
 30
0.0
 10
14.3588772389
 20
2.8671023401
 30
0.0
 10
14.3594565469
 20
2.8770988972
 30
0.0
 10
14.3599810214
 20
2.8839281111
 30
0.0
 10
14.3602839412
 20
2.887391804
 30
0.0
  0
SPLINE
  5
51C
100
AcDbEntity
  8
0
100
AcDbSpline
 62
9
  6
CONTINUOUS
 70
0
 71
3
 72
27
 73
23
 74
0
 42
0.0000001
 43
0.0000001
 44
0.0000000001
 40
0.0
 40
0.0
 40
0.0
 40
0.0
 40
0.193667043
 40
0.3799116888
 40
0.4680005898
 40
0.5515783544
 40
0.6298368679
 40
0.7020180081
 40
0.767435453
 40
0.8254619476
 40
0.8755665478
 40
0.9173064665
 40
0.9349390873
 40
0.9503731328
 40
0.9636042427
 40
0.9746475024
 40
0.9835526643
 40
0.9904538727
 40
0.9932495424
 40
0.9956937573
 40
0.9978949043
 40
1.0
 40
1.0
 40
1.0
 40
1.0
 10
14.3602839019
 20
5.157391804
 30
0.0
 10
14.3599434419
 20
5.1612836688
 30
0.0
 10
14.3593667137
 20
5.1689264228
 30
0.0
 10
14.3588514259
 20
5.1783536645
 30
0.0
 10
14.3585630729
 20
5.1855679314
 30
0.0
 10
14.3584122881
 20
5.1906073583
 30
0.0
 10
14.3583214437
 20
5.1953272707
 30
0.0
 10
14.358288933
 20
5.1996816246
 30
0.0
 10
14.3583149798
 20
5.2036279136
 30
0.0
 10
14.358399779
 20
5.2071280394
 30
0.0
 10
14.3585430955
 20
5.210148162
 30
0.0
 10
14.3587183741
 20
5.2123503748
 30
0.0
 10
14.3588985038
 20
5.213848819
 30
0.0
 10
14.3590414873
 20
5.2147720054
 30
0.0
 10
14.3592000076
 20
5.2155574865
 30
0.0
 10
14.3593741693
 20
5.2162045968
 30
0.0
 10
14.3595641853
 20
5.216712527
 30
0.0
 10
14.359747973
 20
5.2170434561
 30
0.0
 10
14.3599100614
 20
5.2172283969
 30
0.0
 10
14.360028866
 20
5.2173219493
 30
0.0
 10
14.3601540855
 20
5.2173792103
 30
0.0
 10
14.3602414764
 20
5.2173917967
 30
0.0
 10
14.3602839412
 20
5.217391804
 30
0.0
  0
LINE
  5
51D
100
AcDbEntity
  8
0
100
AcDbLine
 62
9
  6
CONTINUOUS
 10
14.3870634585
 20
2.8935263409
 11
14.3873214152
 21
2.937391804
  0
SPLINE
  5
51E
100
AcDbEntity
  8
0
100
AcDbSpline
 62
9
  6
CONTINUOUS
 70
0
 71
3
 72
15
 73
11
 74
0
 42
0.0000001
 43
0.0000001
 44
0.0000000001
 40
0.0
 40
0.0
 40
0.0
 40
0.0
 40
0.1438492791
 40
0.286273512
 40
0.4251107807
 40
0.5583311743
 40
0.6840123611
 40
0.8004295287
 40
0.9061333923
 40
1.0
 40
1.0
 40
1.0
 40
1.0
 10
14.4641366091
 20
2.917391804
 30
0.0
 10
14.4602627672
 20
2.916938226
 30
0.0
 10
14.4525718378
 20
2.9158697561
 30
0.0
 10
14.4412304969
 20
2.9137932269
 30
0.0
 10
14.430273428
 20
2.9112774509
 30
0.0
 10
14.4198850527
 20
2.9083658299
 30
0.0
 10
14.410238997
 20
2.9051075631
 30
0.0
 10
14.401494689
 20
2.9015583103
 30
0.0
 10
14.3937975443
 20
2.8977784395
 30
0.0
 10
14.3891575508
 20
2.8949727948
 30
0.0
 10
14.3870634585
 20
2.8935263409
 30
0.0
  0
SPLINE
  5
51F
100
AcDbEntity
  8
0
100
AcDbSpline
 62
9
  6
CONTINUOUS
 70
0
 71
3
 72
9
 73
5
 74
0
 42
0.0000001
 43
0.0000001
 44
0.0000000001
 40
0.0
 40
0.0
 40
0.0
 40
0.0
 40
0.4695302628
 40
1.0
 40
1.0
 40
1.0
 40
1.0
 10
14.3870638014
 20
2.8420371659
 30
0.0
 10
14.3871015613
 20
2.8423550468
 30
0.0
 10
14.3870632995
 20
2.8430464457
 30
0.0
 10
14.3868716166
 20
2.843704586
 30
0.0
 10
14.3867451421
 20
2.8440434138
 30
0.0
  0
SPLINE
  5
520
100
AcDbEntity
  8
0
100
AcDbSpline
 62
9
  6
CONTINUOUS
 70
0
 71
3
 72
17
 73
13
 74
0
 42
0.0000001
 43
0.0000001
 44
0.0000000001
 40
0.0
 40
0.0
 40
0.0
 40
0.0
 40
0.0224849241
 40
0.0510172586
 40
0.0857006409
 40
0.1265276803
 40
0.2260718477
 40
0.3480276059
 40
0.4898480959
 40
0.6482567815
 40
0.819661824
 40
1.0
 40
1.0
 40
1.0
 40
1.0
 10
14.3867451421
 20
2.8440434138
 30
0.0
 10
14.3866435996
 20
2.8443160361
 30
0.0
 10
14.3864628621
 20
2.8449527459
 30
0.0
 10
14.3862496377
 20
2.8460413781
 30
0.0
 10
14.3860664462
 20
2.8473756358
 30
0.0
 10
14.3858506388
 20
2.8496306516
 30
0.0
 10
14.3856862239
 20
2.8530223363
 30
0.0
 10
14.3856282479
 20
2.8577232604
 30
0.0
 10
14.3857065924
 20
2.8631856544
 30
0.0
 10
14.3859189432
 20
2.8692844772
 30
0.0
 10
14.3862638379
 20
2.8758763023
 30
0.0
 10
14.3865717159
 20
2.8804170558
 30
0.0
 10
14.3867453416
 20
2.8827438735
 30
0.0
  0
SPLINE
  5
521
100
AcDbEntity
  8
0
100
AcDbSpline
 62
9
  6
CONTINUOUS
 70
0
 71
3
 72
9
 73
5
 74
0
 42
0.0000001
 43
0.0000001
 44
0.0000000001
 40
0.0
 40
0.0
 40
0.0
 40
0.0
 40
0.2495175664
 40
1.0
 40
1.0
 40
1.0
 40
1.0
 10
14.3867453416
 20
2.8827438735
 30
0.0
 10
14.3868122065
 20
2.8836387754
 30
0.0
 10
14.38704399
 20
2.8872278004
 30
0.0
 10
14.3871171787
 20
2.8908279931
 30
0.0
 10
14.3870638265
 20
2.8935265951
 30
0.0
  0
SPLINE
  5
522
100
AcDbEntity
  8
0
100
AcDbSpline
 62
9
  6
CONTINUOUS
 70
0
 71
3
 72
15
 73
11
 74
0
 42
0.0000001
 43
0.0000001
 44
0.0000000001
 40
0.0
 40
0.0
 40
0.0
 40
0.0
 40
0.1283725474
 40
0.2559069523
 40
0.3824359178
 40
0.5078995487
 40
0.6322865435
 40
0.7556595477
 40
0.8781721896
 40
1.0
 40
1.0
 40
1.0
 40
1.0
 10
14.4641366091
 20
2.8808232616
 30
0.0
 10
14.4602759516
 20
2.8809830656
 30
0.0
 10
14.4525514757
 20
2.8808275554
 30
0.0
 10
14.4411323598
 20
2.8791606769
 30
0.0
 10
14.4300973467
 20
2.8760871071
 30
0.0
 10
14.4196351945
 20
2.8716588385
 30
0.0
 10
14.4099229117
 20
2.8659485786
 30
0.0
 10
14.401124571
 20
2.8590520904
 30
0.0
 10
14.3933927484
 20
2.8510868702
 30
0.0
 10
14.3890239349
 20
2.8451362854
 30
0.0
 10
14.3870638014
 20
2.8420371659
 30
0.0
  0
LINE
  5
523
100
AcDbEntity
  8
0
100
AcDbLine
 62
9
  6
CONTINUOUS
 10
14.3873214147
 20
2.8398918051
 11
14.3870633661
 21
2.8420364778
  0
LINE
  5
524
100
AcDbEntity
  8
0
100
AcDbLine
 62
9
  6
CONTINUOUS
 10
14.3870634585
 20
5.2027469371
 11
14.3873214152
 21
5.2048918023
  0
SPLINE
  5
525
100
AcDbEntity
  8
0
100
AcDbSpline
 62
9
  6
CONTINUOUS
 70
0
 71
3
 72
15
 73
11
 74
0
 42
0.0000001
 43
0.0000001
 44
0.0000000001
 40
0.0
 40
0.0
 40
0.0
 40
0.0
 40
0.1283724543
 40
0.2559067007
 40
0.3824354675
 40
0.5078989064
 40
0.6322857759
 40
0.7556587878
 40
0.8781716562
 40
1.0
 40
1.0
 40
1.0
 40
1.0
 10
14.4641366091
 20
5.1639603465
 30
0.0
 10
14.4602759261
 20
5.1638005272
 30
0.0
 10
14.452551399
 20
5.1639560159
 30
0.0
 10
14.4411322073
 20
5.1656228833
 30
0.0
 10
14.4300971256
 20
5.1686964683
 30
0.0
 10
14.4196349156
 20
5.1731247814
 30
0.0
 10
14.4099225888
 20
5.1788351163
 30
0.0
 10
14.4011242196
 20
5.1857317109
 30
0.0
 10
14.393392386
 20
5.19369707
 30
0.0
 10
14.3890235836
 20
5.1996477608
 30
0.0
 10
14.3870634585
 20
5.2027469371
 30
0.0
  0
SPLINE
  5
526
100
AcDbEntity
  8
0
100
AcDbSpline
 62
9
  6
CONTINUOUS
 70
0
 71
3
 72
9
 73
5
 74
0
 42
0.0000001
 43
0.0000001
 44
0.0000000001
 40
0.0
 40
0.0
 40
0.0
 40
0.0
 40
0.2506272755
 40
1.0
 40
1.0
 40
1.0
 40
1.0
 10
14.3870638014
 20
5.1512566766
 30
0.0
 10
14.3870816242
 20
5.1521581141
 30
0.0
 10
14.3871051264
 20
5.1557557497
 30
0.0
 10
14.3869460511
 20
5.159353567
 30
0.0
 10
14.3867451421
 20
5.1620418847
 30
0.0
  0
SPLINE
  5
527
100
AcDbEntity
  8
0
100
AcDbSpline
 62
9
  6
CONTINUOUS
 70
0
 71
3
 72
17
 73
13
 74
0
 42
0.0000001
 43
0.0000001
 44
0.0000000001
 40
0.0
 40
0.0
 40
0.0
 40
0.0
 40
0.1803435902
 40
0.3517528105
 40
0.5101650198
 40
0.6519844989
 40
0.7739372651
 40
0.8734818348
 40
0.9143079262
 40
0.9489870186
 40
0.9775148385
 40
1.0
 40
1.0
 40
1.0
 40
1.0
 10
14.3867451421
 20
5.1620418847
 30
0.0
 10
14.3865714517
 20
5.1643686656
 30
0.0
 10
14.3862637272
 20
5.168909356
 30
0.0
 10
14.3859189218
 20
5.1755010652
 30
0.0
 10
14.3857064894
 20
5.1815997052
 30
0.0
 10
14.3856282365
 20
5.1870618572
 30
0.0
 10
14.3856863259
 20
5.191762527
 30
0.0
 10
14.3858506943
 20
5.195154018
 30
0.0
 10
14.3860664759
 20
5.1974088757
 30
0.0
 10
14.3862497505
 20
5.1987429361
 30
0.0
 10
14.3864630999
 20
5.1998313851
 30
0.0
 10
14.386643858
 20
5.2004679916
 30
0.0
 10
14.3867453416
 20
5.2007406255
 30
0.0
  0
SPLINE
  5
528
100
AcDbEntity
  8
0
100
AcDbSpline
 62
9
  6
CONTINUOUS
 70
0
 71
3
 72
9
 73
5
 74
0
 42
0.0000001
 43
0.0000001
 44
0.0000000001
 40
0.0
 40
0.0
 40
0.0
 40
0.0
 40
0.5305135593
 40
1.0
 40
1.0
 40
1.0
 40
1.0
 10
14.3867453416
 20
5.2007406255
 30
0.0
 10
14.3868717488
 20
5.2010794033
 30
0.0
 10
14.3870631901
 20
5.2017374005
 30
0.0
 10
14.38710157
 20
5.202428592
 30
0.0
 10
14.3870638265
 20
5.2027463554
 30
0.0
  0
SPLINE
  5
529
100
AcDbEntity
  8
0
100
AcDbSpline
 62
9
  6
CONTINUOUS
 70
0
 71
3
 72
15
 73
11
 74
0
 42
0.0000001
 43
0.0000001
 44
0.0000000001
 40
0.0
 40
0.0
 40
0.0
 40
0.0
 40
0.1438488847
 40
0.2862726953
 40
0.4251095591
 40
0.558329634
 40
0.6840106661
 40
0.8004279457
 40
0.9061323099
 40
1.0
 40
1.0
 40
1.0
 40
1.0
 10
14.4641366091
 20
5.127391804
 30
0.0
 10
14.4602627945
 20
5.1278453385
 30
0.0
 10
14.4525719188
 20
5.1289137237
 30
0.0
 10
14.4412306505
 20
5.1309901126
 30
0.0
 10
14.4302736451
 20
5.1335057507
 30
0.0
 10
14.419885322
 20
5.1364172509
 30
0.0
 10
14.4102393039
 20
5.1396754251
 30
0.0
 10
14.4014950169
 20
5.143224627
 30
0.0
 10
14.3937978742
 20
5.1470045016
 30
0.0
 10
14.3891578879
 20
5.1498101874
 30
0.0
 10
14.3870638014
 20
5.1512566766
 30
0.0
  0
LINE
  5
52A
100
AcDbEntity
  8
0
100
AcDbLine
 62
9
  6
CONTINUOUS
 10
14.3873214147
 20
5.1073918958
 11
14.3870633661
 21
5.1512569773
  0
SPLINE
  5
52B
100
AcDbEntity
  8
0
100
AcDbSpline
 62
9
  6
CONTINUOUS
 70
0
 71
3
 72
11
 73
7
 74
0
 42
0.0000001
 43
0.0000001
 44
0.0000000001
 40
0.0
 40
0.0
 40
0.0
 40
0.0
 40
0.2488718442
 40
0.4982657223
 40
0.7485973618
 40
1.0
 40
1.0
 40
1.0
 40
1.0
 10
14.3602839412
 20
5.217391804
 30
0.0
 10
14.3630084986
 20
5.217391804
 30
0.0
 10
14.3684941482
 20
5.2166156113
 30
0.0
 10
14.376063227
 20
5.2132106564
 30
0.0
 10
14.382425248
 20
5.2078393555
 30
0.0
 10
14.385535468
 20
5.2032122607
 30
0.0
 10
14.3867451791
 20
5.2007401049
 30
0.0
  0
SPLINE
  5
52C
100
AcDbEntity
  8
0
100
AcDbSpline
 62
9
  6
CONTINUOUS
 70
0
 71
3
 72
11
 73
7
 74
0
 42
0.0000001
 43
0.0000001
 44
0.0000000001
 40
0.0
 40
0.0
 40
0.0
 40
0.0
 40
0.2488718138
 40
0.4982657119
 40
0.7485973748
 40
1.0
 40
1.0
 40
1.0
 40
1.0
 10
14.360283902
 20
2.827391804
 30
0.0
 10
14.3630084602
 20
2.827391804
 30
0.0
 10
14.3684941116
 20
2.8281679961
 30
0.0
 10
14.3760631957
 20
2.8315729466
 30
0.0
 10
14.3824252265
 20
2.8369442407
 30
0.0
 10
14.3855354573
 20
2.8415713307
 30
0.0
 10
14.3867451739
 20
2.8440434849
 30
0.0
  0
LINE
  5
52D
100
AcDbEntity
  8
0
100
AcDbLine
 62
7
  6
CONTINUOUS
 10
7.1613262347
 20
13.6604590609
 11
7.1343132319
 21
13.6922657189
  0
SPLINE
  5
52E
100
AcDbEntity
  8
0
100
AcDbSpline
 62
7
  6
CONTINUOUS
 70
0
 71
3
 72
31
 73
27
 74
0
 42
0.0000001
 43
0.0000001
 44
0.0000000001
 40
0.0
 40
0.0
 40
0.0
 40
0.0
 40
0.0005310281
 40
0.00094856
 40
0.0014969506
 40
0.0030150344
 40
0.0051160976
 40
0.0078089659
 40
0.0110956124
 40
0.0194480376
 40
0.0301627418
 40
0.0432226009
 40
0.0585989674
 40
0.0762506807
 40
0.0961353573
 40
0.1182093929
 40
0.1686971792
 40
0.2272157551
 40
0.2931931951
 40
0.3659795598
 40
0.4448631189
 40
0.5290771202
 40
0.6177917156
 40
0.7101379811
 40
0.8052469532
 40
1.0
 40
1.0
 40
1.0
 40
1.0
 10
9.6912218318
 20
11.1397729232
 30
0.0
 10
9.6912296713
 20
11.1397796649
 30
0.0
 10
9.6912320108
 20
11.139801775
 30
0.0
 10
9.6912235298
 20
11.1398289188
 30
0.0
 10
9.6912038481
 20
11.1398735889
 30
0.0
 10
9.6911603124
 20
11.1399421314
 30
0.0
 10
9.6910872739
 20
11.1400410856
 30
0.0
 10
9.6909876255
 20
11.1401628869
 30
0.0
 10
9.6908044405
 20
11.1403734405
 30
0.0
 10
9.6905076672
 20
11.140691957
 30
0.0
 10
9.6900708155
 20
11.1411397184
 30
0.0
 10
9.6895298649
 20
11.1416768675
 30
0.0
 10
9.6888861403
 20
11.1423021089
 30
0.0
 10
9.6881411668
 20
11.1430137834
 30
0.0
 10
9.6872967544
 20
11.1438101184
 30
0.0
 10
9.6859807776
 20
11.1450382576
 30
0.0
 10
9.6841034155
 20
11.1467673372
 30
0.0
 10
9.6815834826
 20
11.1490604664
 30
0.0
 10
9.678730385
 20
11.151632512
 30
0.0
 10
9.6755721043
 20
11.1544581812
 30
0.0
 10
9.6721395183
 20
11.1575097608
 30
0.0
 10
9.6684662166
 20
11.1607573276
 30
0.0
 10
9.6645881962
 20
11.1641690709
 30
0.0
 10
9.6605429974
 20
11.1677119288
 30
0.0
 10
9.6549344088
 20
11.1726034417
 30
0.0
 10
9.6506698896
 20
11.1763004378
 30
0.0
 10
9.6477999748
 20
11.178778976
 30
0.0
  0
LINE
  5
52F
100
AcDbEntity
  8
0
100
AcDbLine
 62
7
  6
CONTINUOUS
 10
8.9567739078
 20
11.7994986596
 11
8.9560025363
 21
11.8002183065
  0
LINE
  5
530
100
AcDbEntity
  8
0
100
AcDbLine
 62
7
  6
CONTINUOUS
 10
9.6913294286
 20
11.1336422179
 11
9.6882244678
 21
11.1363104819
  0
LINE
  5
531
100
AcDbEntity
  8
0
100
AcDbLine
 62
7
  6
CONTINUOUS
 10
9.6882244678
 20
11.1363104819
 11
9.6876956662
 21
11.1367649107
  0
LINE
  5
532
100
AcDbEntity
  8
0
100
AcDbLine
 62
7
  6
CONTINUOUS
 10
9.6477999748
 20
11.178778976
 11
9.6159938522
 21
11.205791535
  0
SPLINE
  5
533
100
AcDbEntity
  8
0
100
AcDbSpline
 62
7
  6
CONTINUOUS
 70
0
 71
3
 72
25
 73
21
 74
0
 42
0.0000001
 43
0.0000001
 44
0.0000000001
 40
0.0
 40
0.0
 40
0.0
 40
0.0
 40
0.1946831059
 40
0.3817513709
 40
0.4701995174
 40
0.5541197087
 40
0.6327113705
 40
0.7052261077
 40
0.7709782517
 40
0.8293326764
 40
0.8797407931
 40
0.9217183009
 40
0.9548791965
 40
0.9789316943
 40
0.9874951041
 40
0.9909110906
 40
0.9937571088
 40
0.9960458464
 40
0.9978032466
 40
1.0
 40
1.0
 40
1.0
 40
1.0
 10
9.5185729342
 20
11.309508115
 30
0.0
 10
9.5157369999
 20
11.3119943786
 30
0.0
 10
9.5101583132
 20
11.3168494599
 30
0.0
 10
9.5032422498
 20
11.3227775101
 30
0.0
 10
9.4979260088
 20
11.3272745371
 30
0.0
 10
9.4941994001
 20
11.33039682
 30
0.0
 10
9.4906939713
 20
11.3333023708
 30
0.0
 10
9.4874431843
 20
11.3359635013
 30
0.0
 10
9.4844783115
 20
11.3383548327
 30
0.0
 10
9.4818278112
 20
11.3404536169
 30
0.0
 10
9.4795174868
 20
11.3422397348
 30
0.0
 10
9.477569987
 20
11.34369703
 30
0.0
 10
9.4760043626
 20
11.3448111555
 30
0.0
 10
9.4749389017
 20
11.3455118639
 30
0.0
 10
9.4743310815
 20
11.345855718
 30
0.0
 10
9.4740724828
 20
11.345981354
 30
0.0
 10
9.4739201973
 20
11.3460456835
 30
0.0
 10
9.4737917466
 20
11.3460872328
 30
0.0
 10
9.4736767969
 20
11.3461111886
 30
0.0
 10
9.473586492
 20
11.3461017281
 30
0.0
 10
9.4735586889
 20
11.3460695096
 30
0.0
  0
LINE
  5
534
100
AcDbEntity
  8
0
100
AcDbLine
 62
7
  6
CONTINUOUS
 10
9.2973313421
 20
11.5302423335
 11
9.2967159893
 21
11.5307728867
  0
LINE
  5
535
100
AcDbEntity
  8
0
100
AcDbLine
 62
7
  6
CONTINUOUS
 10
9.2967159893
 20
11.5307728867
 11
9.295689011
 21
11.5316561306
  0
SPLINE
  5
536
100
AcDbEntity
  8
0
100
AcDbSpline
 62
7
  6
CONTINUOUS
 70
0
 71
3
 72
23
 73
19
 74
0
 42
0.0000001
 43
0.0000001
 44
0.0000000001
 40
0.0
 40
0.0
 40
0.0
 40
0.0
 40
0.2114095842
 40
0.4048625294
 40
0.5762475473
 40
0.7219368175
 40
0.7841617385
 40
0.838862975
 40
0.8857561752
 40
0.9246287689
 40
0.9410005473
 40
0.9553109131
 40
0.9675602503
 40
0.9777590802
 40
0.9859380115
 40
0.9921742498
 40
0.9966739721
 40
1.0
 40
1.0
 40
1.0
 40
1.0
 10
9.295689011
 20
11.5316561306
 30
0.0
 10
9.2937655049
 20
11.533307803
 30
0.0
 10
9.2900679549
 20
11.5364547117
 30
0.0
 10
9.2847584902
 20
11.5408783854
 30
0.0
 10
9.2800045768
 20
11.5447368029
 30
0.0
 10
9.2764254539
 20
11.5475447263
 30
0.0
 10
9.2739105306
 20
11.5494406603
 30
0.0
 10
9.2723232261
 20
11.5505985005
 30
0.0
 10
9.2709418281
 20
11.5515627962
 30
0.0
 10
9.2699177531
 20
11.5522353902
 30
0.0
 10
9.2692050251
 20
11.5526689238
 30
0.0
 10
9.2687575395
 20
11.5529237132
 30
0.0
 10
9.2683663399
 20
11.5531272764
 30
0.0
 10
9.2680318429
 20
11.5532793951
 30
0.0
 10
9.2677540991
 20
11.5533810811
 30
0.0
 10
9.2675322882
 20
11.5534313727
 30
0.0
 10
9.2673611688
 20
11.5534350249
 30
0.0
 10
9.2672711552
 20
11.5533898636
 30
0.0
 10
9.2672451318
 20
11.5533596347
 30
0.0
  0
SPLINE
  5
537
100
AcDbEntity
  8
0
100
AcDbSpline
 62
7
  6
CONTINUOUS
 70
0
 71
3
 72
19
 73
15
 74
0
 42
0.0000001
 43
0.0000001
 44
0.0000000001
 40
0.0
 40
0.0
 40
0.0
 40
0.0
 40
0.2218839295
 40
0.4168752139
 40
0.5840441728
 40
0.7227684294
 40
0.7813285946
 40
0.8326406282
 40
0.8767344683
 40
0.9137116147
 40
0.9437767009
 40
0.9673542215
 40
0.9853856802
 40
1.0
 40
1.0
 40
1.0
 40
1.0
 10
9.0064385783
 20
11.8188258654
 30
0.0
 10
9.005876935
 20
11.8192485819
 30
0.0
 10
9.0048158115
 20
11.8200349903
 30
0.0
 10
9.003307666
 20
11.8211072427
 30
0.0
 10
9.0019905861
 20
11.8219926545
 30
0.0
 10
9.0010096262
 20
11.8226025187
 30
0.0
 10
9.0003232961
 20
11.8229890736
 30
0.0
 10
8.9998898387
 20
11.8232130542
 30
0.0
 10
8.9995083882
 20
11.8233879101
 30
0.0
 10
8.9991792153
 20
11.8235137004
 30
0.0
 10
8.9989020065
 20
11.8235909933
 30
0.0
 10
8.9986757486
 20
11.8236196718
 30
0.0
 10
8.9984955851
 20
11.823599817
 30
0.0
 10
8.9984033887
 20
11.8235420218
 30
0.0
 10
8.9983732191
 20
11.8235069018
 30
0.0
  0
SPLINE
  5
538
100
AcDbEntity
  8
0
100
AcDbSpline
 62
7
  6
CONTINUOUS
 70
0
 71
3
 72
14
 73
10
 74
0
 42
0.0000001
 43
0.0000001
 44
0.0000000001
 40
0.0
 40
0.0
 40
0.0
 40
0.0
 40
0.3825857092
 40
0.5374684918
 40
0.6687190027
 40
0.7774041002
 40
0.8656101043
 40
0.9373690895
 40
1.0
 40
1.0
 40
1.0
 40
1.0
 10
8.6872716594
 20
12.1376378535
 30
0.0
 10
8.6870286449
 20
12.1377657123
 30
0.0
 10
8.6866817036
 20
12.1379361157
 30
0.0
 10
8.6862333453
 20
12.1381083233
 30
0.0
 10
8.6859612898
 20
12.1381890045
 30
0.0
 10
8.6857288118
 20
12.1382308195
 30
0.0
 10
8.6855347798
 20
12.1382334619
 30
0.0
 10
8.6853770071
 20
12.1381950657
 30
0.0
 10
8.6852963763
 20
12.1381361552
 30
0.0
 10
8.6852670441
 20
12.1381020908
 30
0.0
  0
LINE
  5
539
100
AcDbEntity
  8
0
100
AcDbLine
 62
9
  6
CONTINUOUS
 10
10.9380291247
 20
14.4394990461
 11
10.9378339169
 21
14.439399782
  0
LINE
  5
53A
100
AcDbEntity
  8
0
100
AcDbLine
 62
7
  6
CONTINUOUS
 10
9.3298535981
 20
11.4528229244
 11
9.3288211651
 21
11.4537324164
  0
LINE
  5
53B
100
AcDbEntity
  8
0
100
AcDbLine
 62
7
  6
CONTINUOUS
 10
9.3288211651
 20
11.4537324164
 11
9.327746659
 21
11.454678193
  0
SPLINE
  5
53C
100
AcDbEntity
  8
0
100
AcDbSpline
 62
7
  6
CONTINUOUS
 70
0
 71
3
 72
38
 73
34
 74
0
 42
0.0000001
 43
0.0000001
 44
0.0000000001
 40
0.0
 40
0.0
 40
0.0
 40
0.0
 40
0.0003958616
 40
0.0009751438
 40
0.0017426842
 40
0.0027002858
 40
0.0038487016
 40
0.0051881539
 40
0.0084389013
 40
0.012448921
 40
0.0172135643
 40
0.0227265676
 40
0.0289797223
 40
0.0359645732
 40
0.0436718001
 40
0.0612081368
 40
0.0814930627
 40
0.1044153312
 40
0.1298514935
 40
0.1576655598
 40
0.187709135
 40
0.2198241476
 40
0.2538419483
 40
0.2895852317
 40
0.3655013761
 40
0.4460153605
 40
0.5294936044
 40
0.6142603597
 40
0.6986311382
 40
0.7809465445
 40
0.8596046017
 40
0.9330878082
 40
1.0
 40
1.0
 40
1.0
 40
1.0
 10
10.9375539032
 20
14.4393761361
 30
0.0
 10
10.9374694744
 20
14.4393987369
 30
0.0
 10
10.9372716935
 20
14.4394882586
 30
0.0
 10
10.9369394047
 20
14.4396816144
 30
0.0
 10
10.9365160142
 20
14.4399646043
 30
0.0
 10
10.9360021001
 20
14.4403366238
 30
0.0
 10
10.9353976063
 20
14.4407986081
 30
0.0
 10
10.9344055051
 20
14.4415867447
 30
0.0
 10
10.932944727
 20
14.4428001744
 30
0.0
 10
10.9309309438
 20
14.4445305888
 30
0.0
 10
10.9285627098
 20
14.4466145772
 30
0.0
 10
10.9258433423
 20
14.4490489774
 30
0.0
 10
10.9227767318
 20
14.4518302843
 30
0.0
 10
10.9193671057
 20
14.4549544124
 30
0.0
 10
10.9141404988
 20
14.4597829955
 30
0.0
 10
10.9067921727
 20
14.4666422148
 30
0.0
 10
10.8970302258
 20
14.4758385116
 30
0.0
 10
10.8860343487
 20
14.486268488
 30
0.0
 10
10.8738626679
 20
14.497874295
 30
0.0
 10
10.8605790932
 20
14.5105923523
 30
0.0
 10
10.8462528259
 20
14.5243535917
 30
0.0
 10
10.8309581623
 20
14.539083873
 30
0.0
 10
10.8147738483
 20
14.5547044951
 30
0.0
 10
10.7916508474
 20
14.5770614976
 30
0.0
 10
10.7611797565
 20
14.6065874574
 30
0.0
 10
10.7231739772
 20
14.6434827568
 30
0.0
 10
10.683787719
 20
14.6817614352
 30
0.0
 10
10.6438009004
 20
14.720643968
 30
0.0
 10
10.6039974763
 20
14.759346826
 30
0.0
 10
10.5651498639
 20
14.7970979764
 30
0.0
 10
10.5280044686
 20
14.8331515046
 30
0.0
 10
10.4932666512
 20
14.8668026041
 30
0.0
 10
10.4709711126
 20
14.8883377437
 30
0.0
 10
10.4603332896
 20
14.8985890965
 30
0.0
  0
SPLINE
  5
53D
100
AcDbEntity
  8
0
100
AcDbSpline
 62
7
  6
CONTINUOUS
 70
0
 71
3
 72
27
 73
23
 74
0
 42
0.0000001
 43
0.0000001
 44
0.0000000001
 40
0.0
 40
0.0
 40
0.0
 40
0.0
 40
0.194947651
 40
0.382291109
 40
0.4708665827
 40
0.5549019663
 40
0.633590541
 40
0.7061801549
 40
0.7719813542
 40
0.8303572137
 40
0.88075701
 40
0.9226925546
 40
0.9403632069
 40
0.9557754619
 40
0.968895719
 40
0.9797011271
 40
0.9881734639
 40
0.9915326736
 40
0.9943104853
 40
0.9965145901
 40
0.9981619596
 40
1.0
 40
1.0
 40
1.0
 40
1.0
 10
9.2345929785
 20
11.552168454
 30
0.0
 10
9.2317923734
 20
11.5547010518
 30
0.0
 10
9.2262865434
 20
11.5596521552
 30
0.0
 10
9.2194699111
 20
11.5657111386
 30
0.0
 10
9.2142358647
 20
11.5703167985
 30
0.0
 10
9.2105701257
 20
11.5735189474
 30
0.0
 10
9.2071254227
 20
11.5765034346
 30
0.0
 10
9.2039347581
 20
11.5792417198
 30
0.0
 10
9.2010288477
 20
11.5817076083
 30
0.0
 10
9.1984356017
 20
11.5838775905
 30
0.0
 10
9.1961802139
 20
11.5857308499
 30
0.0
 10
9.1945176793
 20
11.5870636007
 30
0.0
 10
9.1933707666
 20
11.5879557445
 30
0.0
 10
9.1926576884
 20
11.5884965126
 30
0.0
 10
9.1920432252
 20
11.5889470717
 30
0.0
 10
9.1915286393
 20
11.5893064465
 30
0.0
 10
9.1911610926
 20
11.5895454325
 30
0.0
 10
9.1909162268
 20
11.589688104
 30
0.0
 10
9.190774027
 20
11.5897632252
 30
0.0
 10
9.1906544012
 20
11.5898159442
 30
0.0
 10
9.1905555471
 20
11.5898491847
 30
0.0
 10
9.190471052
 20
11.5898567383
 30
0.0
 10
9.1904478355
 20
11.5898297494
 30
0.0
  0
LINE
  5
53E
100
AcDbEntity
  8
0
100
AcDbLine
 62
7
  6
CONTINUOUS
 10
8.981306194
 20
11.8033820796
 11
8.9810530349
 21
11.8035958417
  0
SPLINE
  5
53F
100
AcDbEntity
  8
0
100
AcDbSpline
 62
7
  6
CONTINUOUS
 70
0
 71
3
 72
20
 73
16
 74
0
 42
0.0000001
 43
0.0000001
 44
0.0000000001
 40
0.0
 40
0.0
 40
0.0
 40
0.0
 40
0.2246289343
 40
0.4227491342
 40
0.592952182
 40
0.734122679
 40
0.7935176161
 40
0.845330894
 40
0.8895152301
 40
0.9260447538
 40
0.9549380858
 40
0.9763445584
 40
0.9843838245
 40
0.9908064913
 40
1.0
 40
1.0
 40
1.0
 40
1.0
 10
8.9787638878
 20
11.8055120816
 30
0.0
 10
8.9780200451
 20
11.8061293963
 30
0.0
 10
8.9766149344
 20
11.8072849286
 30
0.0
 10
8.9746251963
 20
11.8088824641
 30
0.0
 10
8.9728944454
 20
11.8102285076
 30
0.0
 10
8.9716145371
 20
11.8111815076
 30
0.0
 10
8.9707269999
 20
11.8118075285
 30
0.0
 10
8.9701723746
 20
11.8121812117
 30
0.0
 10
8.9696904639
 20
11.8124863181
 30
0.0
 10
8.9692821994
 20
11.8127229759
 30
0.0
 10
8.9689479275
 20
11.8128903913
 30
0.0
 10
8.9687134403
 20
11.8129822353
 30
0.0
 10
8.9685615274
 20
11.8130145024
 30
0.0
 10
8.9684609785
 20
11.8130216078
 30
0.0
 10
8.9683886389
 20
11.8129990179
 30
0.0
 10
8.9683628133
 20
11.8129690482
 30
0.0
  0
LINE
  5
540
100
AcDbEntity
  8
0
100
AcDbLine
 62
9
  6
CONTINUOUS
 10
8.7501528682
 20
12.0297463896
 11
8.9678109267
 21
11.8120780122
  0
SPLINE
  5
541
100
AcDbEntity
  8
0
100
AcDbSpline
 62
7
  6
CONTINUOUS
 70
0
 71
3
 72
53
 73
49
 74
0
 42
0.0000001
 43
0.0000001
 44
0.0000000001
 40
0.0
 40
0.0
 40
0.0
 40
0.0
 40
0.0001777385
 40
0.0003802657
 40
0.0006249401
 40
0.0009218136
 40
0.0016917318
 40
0.0027137434
 40
0.0039962601
 40
0.0055429797
 40
0.0073556128
 40
0.0094348914
 40
0.0117809034
 40
0.0143929124
 40
0.0204103712
 40
0.0274773003
 40
0.0355801781
 40
0.0447016053
 40
0.0548231715
 40
0.0779762238
 40
0.1048398244
 40
0.1351803098
 40
0.1687330093
 40
0.2052050564
 40
0.2442780215
 40
0.2856105074
 40
0.3288409989
 40
0.3735917196
 40
0.4194717637
 40
0.4660801281
 40
0.5598501428
 40
0.6516331623
 40
0.6957742874
 40
0.7382312677
 40
0.7786337974
 40
0.8166296101
 40
0.8518877788
 40
0.8841011298
 40
0.9129913737
 40
0.938306257
 40
0.9495499545
 40
0.9598228696
 40
0.969110043
 40
0.9773887433
 40
0.9846192682
 40
0.9907646703
 40
0.9958602281
 40
1.0
 40
1.0
 40
1.0
 40
1.0
 10
10.3706098982
 20
14.9560407156
 30
0.0
 10
10.3706418723
 20
14.9560726824
 30
0.0
 10
10.3707253299
 20
14.9561268989
 30
0.0
 10
10.3708823833
 20
14.9561627578
 30
0.0
 10
10.371072783
 20
14.9561606444
 30
0.0
 10
10.3714024366
 20
14.9561036866
 30
0.0
 10
10.3719058476
 20
14.955925165
 30
0.0
 10
10.3726112583
 20
14.9555867042
 30
0.0
 10
10.373464059
 20
14.9551031141
 30
0.0
 10
10.3744638906
 20
14.9544745534
 30
0.0
 10
10.3756106466
 20
14.9537002639
 30
0.0
 10
10.3769037926
 20
14.9527804523
 30
0.0
 10
10.37834276
 20
14.9517154174
 30
0.0
 10
10.3805616498
 20
14.9500207532
 30
0.0
 10
10.3836888859
 20
14.9475376619
 30
0.0
 10
10.3878538834
 20
14.9441168119
 30
0.0
 10
10.3925802841
 20
14.9401362229
 30
0.0
 10
10.3978586173
 20
14.9356052898
 30
0.0
 10
10.4059891935
 20
14.9285197568
 30
0.0
 10
10.4174293138
 20
14.9183630322
 30
0.0
 10
10.4326072613
 20
14.9046707821
 30
0.0
 10
10.4496596992
 20
14.8891075931
 30
0.0
 10
10.4684433729
 20
14.871815957
 30
0.0
 10
10.4887998573
 20
14.8529532709
 30
0.0
 10
10.5105572628
 20
14.8326909241
 30
0.0
 10
10.5335314739
 20
14.8112126411
 30
0.0
 10
10.557527806
 20
14.7887128476
 30
0.0
 10
10.5823427216
 20
14.7653948673
 30
0.0
 10
10.6077656273
 20
14.7414691362
 30
0.0
 10
10.6422537771
 20
14.7089812727
 30
0.0
 10
10.6852291098
 20
14.668473752
 30
0.0
 10
10.7277721732
 20
14.6284226323
 30
0.0
 10
10.7608527277
 20
14.5973629611
 30
0.0
 10
10.7844321828
 20
14.5752788025
 30
0.0
 10
10.8069051814
 20
14.5543001467
 30
0.0
 10
10.8280818653
 20
14.5346164896
 30
0.0
 10
10.8477838303
 20
14.5164061901
 30
0.0
 10
10.8658451496
 20
14.4998335453
 30
0.0
 10
10.882114877
 20
14.4850498953
 30
0.0
 10
10.8945105015
 20
14.4739350961
 30
0.0
 10
10.90343595
 20
14.4660448274
 30
0.0
 10
10.9093369063
 20
14.4608892314
 30
0.0
 10
10.9147053766
 20
14.4562707919
 30
0.0
 10
10.9195267472
 20
14.4522034787
 30
0.0
 10
10.9237761164
 20
14.4486981759
 30
0.0
 10
10.927436446
 20
14.4457515063
 30
0.0
 10
10.9305350026
 20
14.4433622522
 30
0.0
 10
10.9324548794
 20
14.4420052315
 30
0.0
 10
10.9333398423
 20
14.4414344401
 30
0.0
  0
SPLINE
  5
542
100
AcDbEntity
  8
0
100
AcDbSpline
 62
7
  6
CONTINUOUS
 70
0
 71
3
 72
11
 73
7
 74
0
 42
0.0000001
 43
0.0000001
 44
0.0000000001
 40
0.0
 40
0.0
 40
0.0
 40
0.0
 40
0.3232934568
 40
0.6007104323
 40
0.8276529571
 40
1.0
 40
1.0
 40
1.0
 40
1.0
 10
10.9333398423
 20
14.4414344401
 30
0.0
 10
10.9337248763
 20
14.4411860974
 30
0.0
 10
10.934449309
 20
14.4407384116
 30
0.0
 10
10.9354759598
 20
14.4401696173
 30
0.0
 10
10.9363421092
 20
14.439757183
 30
0.0
 10
10.9368739285
 20
14.4395580568
 30
0.0
 10
10.9371098591
 20
14.439494842
 30
0.0
  0
SPLINE
  5
543
100
AcDbEntity
  8
0
100
AcDbSpline
 62
7
  6
CONTINUOUS
 70
0
 71
3
 72
55
 73
51
 74
0
 42
0.0000001
 43
0.0000001
 44
0.0000000001
 40
0.0
 40
0.0
 40
0.0
 40
0.0
 40
0.0001816873
 40
0.0003894937
 40
0.0006415084
 40
0.0009480545
 40
0.0017445454
 40
0.0028028789
 40
0.0041318493
 40
0.0057355082
 40
0.0076153963
 40
0.0097718247
 40
0.0122045595
 40
0.0149130469
 40
0.0211534306
 40
0.028480972
 40
0.0368807444
 40
0.0463351584
 40
0.0568225764
 40
0.0808022881
 40
0.1086039175
 40
0.1399756977
 40
0.174632892
 40
0.2122604554
 40
0.2525159236
 40
0.2950327248
 40
0.3394238821
 40
0.3852854858
 40
0.4321999948
 40
0.479740316
 40
0.5749666697
 40
0.6675072007
 40
0.7117137159
 40
0.7540041626
 40
0.7939943797
 40
0.8313211393
 40
0.8656459888
 40
0.8966581553
 40
0.924077229
 40
0.9476558698
 40
0.9579376814
 40
0.9671834741
 40
0.9753732801
 40
0.9824889947
 40
0.9885172513
 40
0.9934468158
 40
0.9954977332
 40
0.9972727865
 40
0.9987728347
 40
1.0
 40
1.0
 40
1.0
 40
1.0
 10
10.321366682
 20
14.9042651711
 30
0.0
 10
10.3213993245
 20
14.9042978202
 30
0.0
 10
10.3214850069
 20
14.9043530101
 30
0.0
 10
10.3216463813
 20
14.9043884454
 30
0.0
 10
10.3218422393
 20
14.9043845999
 30
0.0
 10
10.3221820062
 20
14.9043231747
 30
0.0
 10
10.3227011377
 20
14.9041354449
 30
0.0
 10
10.3234291779
 20
14.9037818754
 30
0.0
 10
10.3243099891
 20
14.903277821
 30
0.0
 10
10.325343269
 20
14.9026233703
 30
0.0
 10
10.3265288682
 20
14.9018178246
 30
0.0
 10
10.3278660854
 20
14.900861575
 30
0.0
 10
10.3293542566
 20
14.899755032
 30
0.0
 10
10.3316493197
 20
14.8979949948
 30
0.0
 10
10.3348842185
 20
14.8954173339
 30
0.0
 10
10.3391929119
 20
14.891868052
 30
0.0
 10
10.3440822455
 20
14.8877398925
 30
0.0
 10
10.3495417821
 20
14.8830429883
 30
0.0
 10
10.3579488979
 20
14.8757022805
 30
0.0
 10
10.3697731796
 20
14.8651874039
 30
0.0
 10
10.3854531766
 20
14.8510235576
 30
0.0
 10
10.4030556164
 20
14.83494087
 30
0.0
 10
10.422426556
 20
14.8170925372
 30
0.0
 10
10.4433958078
 20
14.79764768
 30
0.0
 10
10.4657788409
 20
14.7767903416
 30
0.0
 10
10.4893783088
 20
14.7547174623
 30
0.0
 10
10.5139859276
 20
14.7316370469
 30
0.0
 10
10.5393843148
 20
14.7077662597
 30
0.0
 10
10.565348925
 20
14.6833294815
 30
0.0
 10
10.6004350118
 20
14.6502816443
 30
0.0
 10
10.6439532736
 20
14.6092765564
 30
0.0
 10
10.6868882125
 20
14.5688876876
 30
0.0
 10
10.720074667
 20
14.5377678708
 30
0.0
 10
10.7435520387
 20
14.5158160131
 30
0.0
 10
10.7657919514
 20
14.4951004461
 30
0.0
 10
10.7865989055
 20
14.4758163121
 30
0.0
 10
10.805790428
 20
14.4581455461
 30
0.0
 10
10.8231985719
 20
14.4422549952
 30
0.0
 10
10.8386716933
 20
14.4282955134
 30
0.0
 10
10.8503172007
 20
14.417957858
 30
0.0
 10
10.8585770953
 20
14.4107635406
 30
0.0
 10
10.8639234931
 20
14.4061783267
 30
0.0
 10
10.8686983991
 20
14.4021629946
 30
0.0
 10
10.8728917435
 20
14.3987269398
 30
0.0
 10
10.8764945619
 20
14.3958784301
 30
0.0
 10
10.8791379162
 20
14.3938923699
 30
0.0
 10
10.88095803
 20
14.3926125481
 30
0.0
 10
10.8820857217
 20
14.391863799
 30
0.0
 10
10.8830612723
 20
14.3912657027
 30
0.0
 10
10.8836704268
 20
14.3909339303
 30
0.0
 10
10.8839506888
 20
14.3907972088
 30
0.0
  0
LINE
  5
544
100
AcDbEntity
  8
0
100
AcDbLine
 62
7
  6
CONTINUOUS
 10
10.8839506888
 20
14.3907972088
 11
10.8848867346
 21
14.3904255108
  0
SPLINE
  5
545
100
AcDbEntity
  8
0
100
AcDbSpline
 62
7
  6
CONTINUOUS
 70
0
 71
3
 72
51
 73
47
 74
0
 42
0.0000001
 43
0.0000001
 44
0.0000000001
 40
0.0
 40
0.0
 40
0.0
 40
0.0
 40
0.0001791814
 40
0.0003827843
 40
0.0006280545
 40
0.0009250708
 40
0.0016940817
 40
0.0027136104
 40
0.0039922271
 40
0.0055338004
 40
0.0073401813
 40
0.0094122089
 40
0.0117498102
 40
0.0143522261
 40
0.0203473684
 40
0.027388283
 40
0.0354610436
 40
0.0445488055
 40
0.0546333312
 40
0.0777025239
 40
0.1044709047
 40
0.1347069903
 40
0.1681480261
 40
0.2045033971
 40
0.2434571127
 40
0.2846702054
 40
0.3277838542
 40
0.3724228182
 40
0.4181986725
 40
0.4647131084
 40
0.5583359843
 40
0.6500413575
 40
0.7366472329
 40
0.7770898729
 40
0.8151515026
 40
0.8505018851
 40
0.882835032
 40
0.9118713189
 40
0.9373599261
 40
0.9590818129
 40
0.9684715002
 40
0.9768528002
 40
0.9842093912
 40
0.9905260981
 40
0.9957919138
 40
1.0
 40
1.0
 40
1.0
 40
1.0
 10
10.2723486444
 20
14.8522636701
 30
0.0
 10
10.2723805329
 20
14.8522955695
 30
0.0
 10
10.272463444
 20
14.8523498069
 30
0.0
 10
10.2726193861
 20
14.8523864502
 30
0.0
 10
10.2728082768
 20
14.8523855842
 30
0.0
 10
10.2731347914
 20
14.8523311782
 30
0.0
 10
10.2736330777
 20
14.8521572265
 30
0.0
 10
10.2743308115
 20
14.8518258553
 30
0.0
 10
10.2751737615
 20
14.8513514874
 30
0.0
 10
10.2761616153
 20
14.8507342437
 30
0.0
 10
10.2772943286
 20
14.8499733255
 30
0.0
 10
10.2785713606
 20
14.8490689229
 30
0.0
 10
10.2799921462
 20
14.8480213852
 30
0.0
 10
10.2821826113
 20
14.8463541881
 30
0.0
 10
10.2852693272
 20
14.8439104604
 30
0.0
 10
10.2893797377
 20
14.8405428001
 30
0.0
 10
10.2940437682
 20
14.8366232585
 30
0.0
 10
10.29925204
 20
14.8321610241
 30
0.0
 10
10.3072744633
 20
14.8251817579
 30
0.0
 10
10.3185619885
 20
14.8151753366
 30
0.0
 10
10.3335372437
 20
14.8016831078
 30
0.0
 10
10.3503625512
 20
14.7863443584
 30
0.0
 10
10.36889727
 20
14.7692989789
 30
0.0
 10
10.3889857881
 20
14.7507015491
 30
0.0
 10
10.4104592677
 20
14.7307204079
 30
0.0
 10
10.4331368479
 20
14.709536015
 30
0.0
 10
10.456827233
 20
14.6873394081
 30
0.0
 10
10.4813303769
 20
14.6643304213
 30
0.0
 10
10.5064392471
 20
14.6407159203
 30
0.0
 10
10.540514777
 20
14.6086372185
 30
0.0
 10
10.5829956516
 20
14.5686197735
 30
0.0
 10
10.6328507953
 20
14.5217123122
 30
0.0
 10
10.6730205448
 20
14.4840467094
 30
0.0
 10
10.703409779
 20
14.4556925852
 30
0.0
 10
10.7244070789
 20
14.436185437
 30
0.0
 10
10.743959028
 20
14.4181218948
 30
0.0
 10
10.7619020583
 20
14.401665046
 30
0.0
 10
10.778086278
 20
14.3869635373
 30
0.0
 10
10.7923772156
 20
14.3741510064
 30
0.0
 10
10.8030716258
 20
14.3647361208
 30
0.0
 10
10.8106040109
 20
14.3582478878
 30
0.0
 10
10.815432987
 20
14.354162332
 30
0.0
 10
10.8197119603
 20
14.3506248575
 30
0.0
 10
10.8234323601
 20
14.3476431577
 30
0.0
 10
10.8265865985
 20
14.3452239031
 30
0.0
 10
10.8285238872
 20
14.3438315465
 30
0.0
 10
10.82940204
 20
14.3432391422
 30
0.0
  0
SPLINE
  5
546
100
AcDbEntity
  8
0
100
AcDbSpline
 62
7
  6
CONTINUOUS
 70
0
 71
3
 72
11
 73
7
 74
0
 42
0.0000001
 43
0.0000001
 44
0.0000000001
 40
0.0
 40
0.0
 40
0.0
 40
0.0
 40
0.3356471606
 40
0.6135912014
 40
0.8345223633
 40
1.0
 40
1.0
 40
1.0
 40
1.0
 10
10.82940204
 20
14.3432391422
 30
0.0
 10
10.8297919819
 20
14.3429760864
 30
0.0
 10
10.8305114845
 20
14.3425049797
 30
0.0
 10
10.831516496
 20
14.3419054867
 30
0.0
 10
10.8323447134
 20
14.3414796824
 30
0.0
 10
10.8328509704
 20
14.3412801737
 30
0.0
 10
10.8330749954
 20
14.3412202533
 30
0.0
  0
LINE
  5
547
100
AcDbEntity
  8
0
100
AcDbLine
 62
7
  6
CONTINUOUS
 10
10.3587518778
 20
14.9434676881
 11
10.3593269567
 21
14.9432618313
  0
SPLINE
  5
548
100
AcDbEntity
  8
0
100
AcDbSpline
 62
7
  6
CONTINUOUS
 70
0
 71
3
 72
57
 73
53
 74
0
 42
0.0000001
 43
0.0000001
 44
0.0000000001
 40
0.0
 40
0.0
 40
0.0
 40
0.0
 40
0.0010928882
 40
0.0024593004
 40
0.0041025498
 40
0.0060241015
 40
0.010703493
 40
0.0164941633
 40
0.0233856869
 40
0.0313651782
 40
0.0404148028
 40
0.0505148843
 40
0.0616431069
 40
0.0737736105
 40
0.1009307143
 40
0.1317382537
 40
0.1659141047
 40
0.2031450777
 40
0.2430898564
 40
0.2853816382
 40
0.3296321894
 40
0.3754354293
 40
0.4223710309
 40
0.5179101547
 40
0.5656371609
 40
0.6127516914
 40
0.6588218463
 40
0.70342516
 40
0.7461531458
 40
0.7866146479
 40
0.8244392962
 40
0.8592810037
 40
0.8908215958
 40
0.9187736889
 40
0.9428833803
 40
0.953427676
 40
0.9629331388
 40
0.9713779486
 40
0.9787447702
 40
0.9850180036
 40
0.9877406767
 40
0.9901861193
 40
0.9923536769
 40
0.9942430121
 40
0.9958543932
 40
0.9971895814
 40
0.9982525546
 40
0.999051934
 40
0.9993591971
 40
0.9996114127
 40
0.9998189255
 40
1.0
 40
1.0
 40
1.0
 40
1.0
 10
10.3593269567
 20
14.9432618313
 30
0.0
 10
10.3595835659
 20
14.9431518168
 30
0.0
 10
10.3601462439
 20
14.9428701947
 30
0.0
 10
10.3610523129
 20
14.9423428672
 30
0.0
 10
10.3621130662
 20
14.9416626851
 30
0.0
 10
10.3638500559
 20
14.9404712395
 30
0.0
 10
10.3663952554
 20
14.9385874249
 30
0.0
 10
10.3698875851
 20
14.9358528507
 30
0.0
 10
10.3739812242
 20
14.9325202256
 30
0.0
 10
10.3786673055
 20
14.9285977339
 30
0.0
 10
10.3839357331
 20
14.924094534
 30
0.0
 10
10.3897750177
 20
14.9190216079
 30
0.0
 10
10.3961724541
 20
14.9133913408
 30
0.0
 10
10.4057963161
 20
14.9048317098
 30
0.0
 10
10.4190975921
 20
14.8928423183
 30
0.0
 10
10.4364874997
 20
14.8769779888
 30
0.0
 10
10.4557001708
 20
14.8592935584
 30
0.0
 10
10.4765657027
 20
14.8399583543
 30
0.0
 10
10.4988989503
 20
14.8191567785
 30
0.0
 10
10.5225014507
 20
14.7970869161
 30
0.0
 10
10.5471631222
 20
14.7739585346
 30
0.0
 10
10.5726642937
 20
14.7499910906
 30
0.0
 10
10.6076885398
 20
14.7170242198
 30
0.0
 10
10.6430485092
 20
14.6836969951
 30
0.0
 10
10.6784471405
 20
14.6503441489
 30
0.0
 10
10.7046570905
 20
14.6256677479
 30
0.0
 10
10.730302295
 20
14.6015556555
 30
0.0
 10
10.7551544171
 20
14.5782360309
 30
0.0
 10
10.7789924423
 20
14.5559296724
 30
0.0
 10
10.8016047066
 20
14.534847965
 30
0.0
 10
10.8227907128
 20
14.5151909949
 30
0.0
 10
10.8423630392
 20
14.4971456919
 30
0.0
 10
10.8601489006
 20
14.480883784
 30
0.0
 10
10.8759921042
 20
14.4665607054
 30
0.0
 10
10.8879389379
 20
14.4559265388
 30
0.0
 10
10.8964326349
 20
14.4485017745
 30
0.0
 10
10.9019480179
 20
14.4437507714
 30
0.0
 10
10.906886982
 20
14.4395747106
 30
0.0
 10
10.9112388787
 20
14.4359838168
 30
0.0
 10
10.9145058434
 20
14.4333755016
 30
0.0
 10
10.9168233052
 20
14.431594161
 30
0.0
 10
10.9183258314
 20
14.4304740159
 30
0.0
 10
10.9196757546
 20
14.4295057969
 30
0.0
 10
10.9208723654
 20
14.4286899509
 30
0.0
 10
10.9219150023
 20
14.4280268845
 30
0.0
 10
10.9228035087
 20
14.4275158026
 30
0.0
 10
10.9235376134
 20
14.4271567958
 30
0.0
 10
10.9240608128
 20
14.4269655006
 30
0.0
 10
10.9244030856
 20
14.426902118
 30
0.0
 10
10.9246001283
 20
14.4268973502
 30
0.0
 10
10.9247623568
 20
14.4269322632
 30
0.0
 10
10.9248484242
 20
14.4269875086
 30
0.0
 10
10.9248811199
 20
14.4270202326
 30
0.0
  0
LINE
  5
549
100
AcDbEntity
  8
0
100
AcDbLine
 62
7
  6
CONTINUOUS
 10
10.309512492
 20
14.891692173
 11
10.3120078079
 21
14.8904386492
  0
SPLINE
  5
54A
100
AcDbEntity
  8
0
100
AcDbSpline
 62
7
  6
CONTINUOUS
 70
0
 71
3
 72
51
 73
47
 74
0
 42
0.0000001
 43
0.0000001
 44
0.0000000001
 40
0.0
 40
0.0
 40
0.0
 40
0.0
 40
0.0036518232
 40
0.0083818351
 40
0.0141860168
 40
0.0210549192
 40
0.0289744944
 40
0.0379292619
 40
0.0588637701
 40
0.0836773725
 40
0.112152271
 40
0.1440370874
 40
0.1790500756
 40
0.2168817331
 40
0.2571972204
 40
0.3438322611
 40
0.4358938489
 40
0.5301289909
 40
0.57702117
 40
0.6232090529
 40
0.6682840268
 40
0.7118475534
 40
0.7535146811
 40
0.7929172212
 40
0.8297069666
 40
0.8635595999
 40
0.894176969
 40
0.9212896784
 40
0.9446598813
 40
0.9548767709
 40
0.9640845819
 40
0.9722642986
 40
0.9793981158
 40
0.9854727812
 40
0.9881095311
 40
0.9904776087
 40
0.992576491
 40
0.9944062801
 40
0.9959676237
 40
0.9972621557
 40
0.998293525
 40
0.9990703783
 40
0.9993698895
 40
0.9996166818
 40
0.9998208796
 40
1.0
 40
1.0
 40
1.0
 40
1.0
 10
10.3120078079
 20
14.8904386492
 30
0.0
 10
10.3127935541
 20
14.8899490982
 30
0.0
 10
10.3145489385
 20
14.8887490314
 30
0.0
 10
10.3174348458
 20
14.8866027159
 30
0.0
 10
10.3209047195
 20
14.8838771783
 30
0.0
 10
10.3249513027
 20
14.8805787194
 30
0.0
 10
10.3295662338
 20
14.8767142203
 30
0.0
 10
10.3368523506
 20
14.8704864211
 30
0.0
 10
10.3472841087
 20
14.8613483315
 30
0.0
 10
10.3613143665
 20
14.8488099799
 30
0.0
 10
10.3773124389
 20
14.8343084302
 30
0.0
 10
10.3951425225
 20
14.8179785705
 30
0.0
 10
10.4146524106
 20
14.7999711297
 30
0.0
 10
10.435675488
 20
14.7804521856
 30
0.0
 10
10.4662244788
 20
14.7519596704
 30
0.0
 10
10.506728164
 20
14.7139843227
 30
0.0
 10
10.5571173457
 20
14.6665678884
 30
0.0
 10
10.6001413249
 20
14.6260264649
 30
0.0
 10
10.6347102996
 20
14.5934698467
 30
0.0
 10
10.6602176031
 20
14.5694690878
 30
0.0
 10
10.685127723
 20
14.5460650738
 30
0.0
 10
10.7092267593
 20
14.5234715346
 30
0.0
 10
10.7323080183
 20
14.5018949529
 30
0.0
 10
10.75417377
 20
14.4815327883
 30
0.0
 10
10.7746370557
 20
14.4625716139
 30
0.0
 10
10.7935233456
 20
14.4451854573
 30
0.0
 10
10.8106718979
 20
14.4295340238
 30
0.0
 10
10.8259373971
 20
14.4157618642
 30
0.0
 10
10.8374443263
 20
14.4055447029
 30
0.0
 10
10.8456228326
 20
14.3984163652
 30
0.0
 10
10.850932448
 20
14.3938577447
 30
0.0
 10
10.8556868756
 20
14.3898526583
 30
0.0
 10
10.8598765653
 20
14.3864106358
 30
0.0
 10
10.8630222459
 20
14.3839120402
 30
0.0
 10
10.8652541708
 20
14.3822067203
 30
0.0
 10
10.8667015279
 20
14.3811350049
 30
0.0
 10
10.8680021758
 20
14.3802093678
 30
0.0
 10
10.8691555727
 20
14.379430084
 30
0.0
 10
10.8701611582
 20
14.3787973975
 30
0.0
 10
10.8710187725
 20
14.3783105786
 30
0.0
 10
10.8717280818
 20
14.3779698269
 30
0.0
 10
10.8722342039
 20
14.3777900028
 30
0.0
 10
10.8725656088
 20
14.3777324543
 30
0.0
 10
10.8727569924
 20
14.377730141
 30
0.0
 10
10.8729148434
 20
14.3777660055
 30
0.0
 10
10.8729987285
 20
14.3778204168
 30
0.0
 10
10.8730308491
 20
14.377852514
 30
0.0
  0
SPLINE
  5
54B
100
AcDbEntity
  8
0
100
AcDbSpline
 62
7
  6
CONTINUOUS
 70
0
 71
3
 72
19
 73
15
 74
0
 42
0.0000001
 43
0.0000001
 44
0.0000000001
 40
0.0
 40
0.0
 40
0.0
 40
0.0
 40
0.0130479011
 40
0.0295993455
 40
0.0519726411
 40
0.0811082599
 40
0.1173919368
 40
0.1609971015
 40
0.2120031075
 40
0.2704422814
 40
0.4095600316
 40
0.5779467138
 40
0.7750092898
 40
1.0
 40
1.0
 40
1.0
 40
1.0
 10
8.7528899719
 20
12.0331176014
 30
0.0
 10
8.7529172644
 20
12.0331410689
 30
0.0
 10
8.7529603142
 20
12.0332167366
 30
0.0
 10
8.7529619815
 20
12.0333631005
 30
0.0
 10
8.7529199054
 20
12.0335467324
 30
0.0
 10
8.7528324009
 20
12.0337732205
 30
0.0
 10
8.7526996654
 20
12.0340433207
 30
0.0
 10
8.7525210049
 20
12.0343573157
 30
0.0
 10
8.7522964365
 20
12.0347149571
 30
0.0
 10
8.7519128116
 20
12.0352834132
 30
0.0
 10
8.7513152551
 20
12.0360974826
 30
0.0
 10
8.7504560325
 20
12.0371927142
 30
0.0
 10
8.7494209086
 20
12.0384504656
 30
0.0
 10
8.7486652869
 20
12.039336317
 30
0.0
 10
8.7482594236
 20
12.0398058961
 30
0.0
  0
LINE
  5
54C
100
AcDbEntity
  8
0
100
AcDbLine
 62
7
  6
CONTINUOUS
 10
9.0480113913
 20
11.7065478443
 11
9.0353031817
 21
11.7182736855
  0
SPLINE
  5
54D
100
AcDbEntity
  8
0
100
AcDbSpline
 62
7
  6
CONTINUOUS
 70
0
 71
3
 72
12
 73
8
 74
0
 42
0.0000001
 43
0.0000001
 44
0.0000000001
 40
0.0
 40
0.0
 40
0.0
 40
0.0
 40
0.0708577699
 40
0.1566690603
 40
0.3745901927
 40
0.6555038403
 40
1.0
 40
1.0
 40
1.0
 40
1.0
 10
10.2604988479
 20
14.8396912965
 30
0.0
 10
10.260624917
 20
14.8396575993
 30
0.0
 10
10.2608985244
 20
14.8395640138
 30
0.0
 10
10.2615311184
 20
14.8392878168
 30
0.0
 10
10.2624768304
 20
14.8387694926
 30
0.0
 10
10.263791355
 20
14.8379418486
 30
0.0
 10
10.2647404956
 20
14.8372887581
 30
0.0
 10
10.2652585658
 20
14.8369225374
 30
0.0
  0
SPLINE
  5
54E
100
AcDbEntity
  8
0
100
AcDbSpline
 62
7
  6
CONTINUOUS
 70
0
 71
3
 72
50
 73
46
 74
0
 42
0.0000001
 43
0.0000001
 44
0.0000000001
 40
0.0
 40
0.0
 40
0.0
 40
0.0
 40
0.0046595928
 40
0.0103637099
 40
0.0171036062
 40
0.0248669791
 40
0.0433980493
 40
0.0658039135
 40
0.0918953902
 40
0.1214497976
 40
0.1542140586
 40
0.1899075398
 40
0.2282243777
 40
0.268835488
 40
0.355529454
 40
0.4470197725
 40
0.5401725591
 40
0.586374823
 40
0.6317982935
 40
0.6760535721
 40
0.7187615
 40
0.7595562183
 40
0.7980882603
 40
0.8340281861
 40
0.8670689476
 40
0.8969283117
 40
0.9233516807
 40
0.9461152228
 40
0.9560636044
 40
0.9650276175
 40
0.9729890584
 40
0.9799325049
 40
0.9858439921
 40
0.9884098593
 40
0.9907146676
 40
0.9927578179
 40
0.9945390605
 40
0.9960590865
 40
0.9973198962
 40
0.998325505
 40
0.9990845902
 40
0.9993780908
 40
0.9996206832
 40
0.9998223197
 40
1.0
 40
1.0
 40
1.0
 40
1.0
 10
10.2652585658
 20
14.8369225374
 30
0.0
 10
10.2662146908
 20
14.8362466586
 30
0.0
 10
10.2683064678
 20
14.8346942752
 30
0.0
 10
10.2716904005
 20
14.8320442122
 30
0.0
 10
10.2756306695
 20
14.8288409145
 30
0.0
 10
10.2820012443
 20
14.8235186638
 30
0.0
 10
10.2912691719
 20
14.8155259923
 30
0.0
 10
10.3038898402
 20
14.8043715026
 30
0.0
 10
10.3184749895
 20
14.7912580092
 30
0.0
 10
10.3349050559
 20
14.7763041199
 30
0.0
 10
10.3530442043
 20
14.7596437671
 30
0.0
 10
10.3727424883
 20
14.7414261558
 30
0.0
 10
10.3938366664
 20
14.7218139714
 30
0.0
 10
10.4242587121
 20
14.6934132455
 30
0.0
 10
10.4643595595
 20
14.6557999609
 30
0.0
 10
10.5140148587
 20
14.6090740513
 30
0.0
 10
10.5562388299
 20
14.5692984895
 30
0.0
 10
10.5900482988
 20
14.537472738
 30
0.0
 10
10.6149228023
 20
14.5140816652
 30
0.0
 10
10.6391758697
 20
14.4913115293
 30
0.0
 10
10.6626057319
 20
14.4693639392
 30
0.0
 10
10.6850176739
 20
14.4484334069
 30
0.0
 10
10.7062257604
 20
14.4287056147
 30
0.0
 10
10.7260543923
 20
14.4103557612
 30
0.0
 10
10.7443398044
 20
14.3935471236
 30
0.0
 10
10.760931195
 20
14.3784294912
 30
0.0
 10
10.775692482
 20
14.3651382246
 30
0.0
 10
10.7868158704
 20
14.3552845361
 30
0.0
 10
10.7947199945
 20
14.3484141928
 30
0.0
 10
10.7998504058
 20
14.3440229199
 30
0.0
 10
10.8044444254
 20
14.340166544
 30
0.0
 10
10.8084928578
 20
14.3368538818
 30
0.0
 10
10.8115330497
 20
14.3344506234
 30
0.0
 10
10.8136905047
 20
14.3328114993
 30
0.0
 10
10.8150899244
 20
14.331781786
 30
0.0
 10
10.8163478558
 20
14.3308929021
 30
0.0
 10
10.8174637181
 20
14.3301452406
 30
0.0
 10
10.818436962
 20
14.3295390497
 30
0.0
 10
10.8192675622
 20
14.3290734999
 30
0.0
 10
10.8199553002
 20
14.3287486262
 30
0.0
 10
10.8204466389
 20
14.3285785172
 30
0.0
 10
10.8207687271
 20
14.328525783
 30
0.0
 10
10.8209552295
 20
14.3285254935
 30
0.0
 10
10.821109257
 20
14.3285621801
 30
0.0
 10
10.8211911614
 20
14.3286159525
 30
0.0
 10
10.8212227175
 20
14.328647539
 30
0.0
  0
SPLINE
  5
54F
100
AcDbEntity
  8
0
100
AcDbSpline
 62
7
  6
CONTINUOUS
 70
0
 71
3
 72
28
 73
24
 74
0
 42
0.0000001
 43
0.0000001
 44
0.0000000001
 40
0.0
 40
0.0
 40
0.0
 40
0.0
 40
0.1951060117
 40
0.2902839477
 40
0.3826322198
 40
0.4712923033
 40
0.5554105001
 40
0.6341673734
 40
0.7068144659
 40
0.7726530099
 40
0.8310531625
 40
0.8814524447
 40
0.9034994929
 40
0.9233691421
 40
0.9410185336
 40
0.9564073126
 40
0.9694959404
 40
0.9802545598
 40
0.988665666
 40
0.994717876
 40
0.9984214706
 40
0.9994323455
 40
1.0
 40
1.0
 40
1.0
 40
1.0
 10
8.9560025363
 20
11.8002183065
 30
0.0
 10
8.9532279593
 20
11.8028058878
 30
0.0
 10
8.9490924167
 20
11.806647783
 30
0.0
 10
8.9436257464
 20
11.8116951516
 30
0.0
 10
8.9396720684
 20
11.8153299082
 30
0.0
 10
8.9358687056
 20
11.8188103827
 30
0.0
 10
8.9322520333
 20
11.8221033607
 30
0.0
 10
8.9288568839
 20
11.8251771042
 30
0.0
 10
8.9257160166
 20
11.8280020626
 30
0.0
 10
8.9228595343
 20
11.8305512311
 30
0.0
 10
8.9203149902
 20
11.8328001463
 30
0.0
 10
8.9183981254
 20
11.834473339
 30
0.0
 10
8.9170377821
 20
11.8356446499
 30
0.0
 10
8.9161559971
 20
11.8363957147
 30
0.0
 10
8.9153683697
 20
11.837057638
 30
0.0
 10
8.9146768589
 20
11.8376288838
 30
0.0
 10
8.9140830657
 20
11.8381081228
 30
0.0
 10
8.9135889466
 20
11.8384942623
 30
0.0
 10
8.9131946147
 20
11.8387869446
 30
0.0
 10
8.9129041332
 20
11.8389859598
 30
0.0
 10
8.9127195923
 20
11.8390905488
 30
0.0
 10
8.9126242563
 20
11.839124478
 30
0.0
 10
8.91258912
 20
11.8391197263
 30
0.0
 10
8.9125819173
 20
11.8391113618
 30
0.0
  0
SPLINE
  5
550
100
AcDbEntity
  8
0
100
AcDbSpline
 62
7
  6
CONTINUOUS
 70
0
 71
3
 72
25
 73
21
 74
0
 42
0.0000001
 43
0.0000001
 44
0.0000000001
 40
0.0
 40
0.0
 40
0.0
 40
0.0
 40
0.1934390862
 40
0.3793132681
 40
0.4671640758
 40
0.5504924784
 40
0.6284993142
 40
0.700455549
 40
0.7656942863
 40
0.8236175385
 40
0.8737150836
 40
0.9155665552
 40
0.9333059343
 40
0.9488888082
 40
0.9623037945
 40
0.9735668674
 40
0.982735716
 40
0.9899388267
 40
0.9954708807
 40
1.0
 40
1.0
 40
1.0
 40
1.0
 10
8.7534603128
 20
12.1304744771
 30
0.0
 10
8.7507220487
 20
12.133107624
 30
0.0
 10
8.7453065815
 20
12.1382233082
 30
0.0
 10
8.7385220635
 20
12.1444001281
 30
0.0
 10
8.7332624601
 20
12.1490377261
 30
0.0
 10
8.7295547813
 20
12.1522318571
 30
0.0
 10
8.7260452489
 20
12.1551771878
 30
0.0
 10
8.7227677532
 20
12.157845715
 30
0.0
 10
8.7197537296
 20
12.1602122738
 30
0.0
 10
8.7170320755
 20
12.1622550079
 30
0.0
 10
8.7146288721
 20
12.1639549909
 30
0.0
 10
8.7128235431
 20
12.1651319626
 30
0.0
 10
8.7115513036
 20
12.1658814145
 30
0.0
 10
8.7107433847
 20
12.1663175503
 30
0.0
 10
8.7100297045
 20
12.1666588966
 30
0.0
 10
8.7094115963
 20
12.1669050673
 30
0.0
 10
8.7088891277
 20
12.1670569209
 30
0.0
 10
8.7084607644
 20
12.1671143004
 30
0.0
 10
8.7081175121
 20
12.1670764087
 30
0.0
 10
8.7079419592
 20
12.1669651804
 30
0.0
 10
8.7078839511
 20
12.1668977531
 30
0.0
  0
SPLINE
  5
551
100
AcDbEntity
  8
0
100
AcDbSpline
 62
7
  6
CONTINUOUS
 70
0
 71
3
 72
53
 73
49
 74
0
 42
0.0000001
 43
0.0000001
 44
0.0000000001
 40
0.0
 40
0.0
 40
0.0
 40
0.0
 40
0.0001826368
 40
0.0003908186
 40
0.0006423765
 40
0.0009476033
 40
0.0017390099
 40
0.0027892746
 40
0.0041074252
 40
0.0056974599
 40
0.0075608759
 40
0.009698118
 40
0.012109079
 40
0.0147933255
 40
0.0209775303
 40
0.0282388255
 40
0.0365631148
 40
0.0459326562
 40
0.0563265356
 40
0.08009488
 40
0.1076563927
 40
0.1387638373
 40
0.1731376689
 40
0.2104687359
 40
0.2504206505
 40
0.2926332384
 40
0.336726188
 40
0.3823022804
 40
0.4289507703
 40
0.4762514018
 40
0.5711027577
 40
0.6634476785
 40
0.707636767
 40
0.7499693781
 40
0.7900648757
 40
0.8275627237
 40
0.8621265018
 40
0.8934464257
 40
0.9212421455
 40
0.94526555
 40
0.9653037636
 40
0.9737727229
 40
0.9811827736
 40
0.9875198095
 40
0.9927715619
 40
0.9969311232
 40
0.9986014661
 40
1.0
 40
1.0
 40
1.0
 40
1.0
 10
10.2230541316
 20
14.8005447711
 30
0.0
 10
10.2230866106
 20
14.8005772279
 30
0.0
 10
10.2231714237
 20
14.8006322486
 30
0.0
 10
10.2233310041
 20
14.8006685413
 30
0.0
 10
10.2235244597
 20
14.8006662635
 30
0.0
 10
10.2238593576
 20
14.8006082369
 30
0.0
 10
10.2243706881
 20
14.8004268099
 30
0.0
 10
10.2250872142
 20
14.8000829907
 30
0.0
 10
10.2259534696
 20
14.7995916554
 30
0.0
 10
10.2269691572
 20
14.7989529343
 30
0.0
 10
10.2281341256
 20
14.7981661634
 30
0.0
 10
10.2294476937
 20
14.7972316872
 30
0.0
 10
10.2309092678
 20
14.7961498598
 30
0.0
 10
10.2331629323
 20
14.7944285441
 30
0.0
 10
10.2363388851
 20
14.7919065707
 30
0.0
 10
10.240568425
 20
14.78843271
 30
0.0
 10
10.2453673546
 20
14.7843911379
 30
0.0
 10
10.2507256438
 20
14.7797917116
 30
0.0
 10
10.2589768335
 20
14.7726016506
 30
0.0
 10
10.2705819763
 20
14.762299446
 30
0.0
 10
10.285972071
 20
14.7484179395
 30
0.0
 10
10.3032514428
 20
14.7326507301
 30
0.0
 10
10.3222705438
 20
14.7151466169
 30
0.0
 10
10.3428640358
 20
14.6960698791
 30
0.0
 10
10.3648526038
 20
14.6755993409
 30
0.0
 10
10.3880443974
 20
14.6539264545
 30
0.0
 10
10.4122368535
 20
14.6312535066
 30
0.0
 10
10.4372184781
 20
14.6077917745
 30
0.0
 10
10.4627707216
 20
14.5837596443
 30
0.0
 10
10.4973333875
 20
14.5512256687
 30
0.0
 10
10.5402527341
 20
14.5108080649
 30
0.0
 10
10.582633534
 20
14.4709596165
 30
0.0
 10
10.615442113
 20
14.4402060343
 30
0.0
 10
10.6386973793
 20
14.4184686064
 30
0.0
 10
10.6607618702
 20
14.3979208246
 30
0.0
 10
10.6814436561
 20
14.3787543157
 30
0.0
 10
10.7005632019
 20
14.3611480184
 30
0.0
 10
10.7179550712
 20
14.3452666733
 30
0.0
 10
10.7334689195
 20
14.3312588978
 30
0.0
 10
10.7469716052
 20
14.3192568185
 30
0.0
 10
10.7569394751
 20
14.3105924164
 30
0.0
 10
10.7638368411
 20
14.3047641409
 30
0.0
 10
10.768145563
 20
14.3012099508
 30
0.0
 10
10.7718778429
 20
14.2982286484
 30
0.0
 10
10.7750263006
 20
14.2958275781
 30
0.0
 10
10.7772967752
 20
14.2942109052
 30
0.0
 10
10.7788242782
 20
14.2932258642
 30
0.0
 10
10.7794896444
 20
14.2928344476
 30
0.0
 10
10.7797984467
 20
14.2926663207
 30
0.0
  0
LINE
  5
552
100
AcDbEntity
  8
0
100
AcDbLine
 62
7
  6
CONTINUOUS
 10
10.7797984467
 20
14.2926663207
 11
10.7812328022
 21
14.2920377342
  0
SPLINE
  5
553
100
AcDbEntity
  8
0
100
AcDbSpline
 62
7
  6
CONTINUOUS
 70
0
 71
3
 72
26
 73
22
 74
0
 42
0.0000001
 43
0.0000001
 44
0.0000000001
 40
0.0
 40
0.0
 40
0.0
 40
0.0
 40
0.1934851112
 40
0.3793861361
 40
0.4672550936
 40
0.550611335
 40
0.6286583561
 40
0.7006688779
 40
0.7659748186
 40
0.8239755526
 40
0.8741536138
 40
0.9160787391
 40
0.9338466019
 40
0.9494487608
 40
0.9628694673
 40
0.9741175735
 40
0.9832405693
 40
0.9903500183
 40
0.9932299384
 40
0.9957334959
 40
1.0
 40
1.0
 40
1.0
 40
1.0
 10
9.0723494051
 20
11.8110828266
 30
0.0
 10
9.0695647266
 20
11.8136622415
 30
0.0
 10
9.0640625223
 20
11.8186748266
 30
0.0
 10
9.0571811516
 20
11.8247314165
 30
0.0
 10
9.051853901
 20
11.8292818777
 30
0.0
 10
9.0481016816
 20
11.8324180874
 30
0.0
 10
9.0445531108
 20
11.8353123461
 30
0.0
 10
9.0412422803
 20
11.8379372529
 30
0.0
 10
9.0382007983
 20
11.8402681027
 30
0.0
 10
9.0354577846
 20
11.842283348
 30
0.0
 10
9.0330395095
 20
11.8439642171
 30
0.0
 10
9.0312266522
 20
11.845131732
 30
0.0
 10
9.0299519356
 20
11.8458784888
 30
0.0
 10
9.0291440343
 20
11.8463147973
 30
0.0
 10
9.0284322355
 20
11.846658271
 30
0.0
 10
9.027817675
 20
11.8469088195
 30
0.0
 10
9.0273013869
 20
11.8470662938
 30
0.0
 10
9.026928435
 20
11.8471257257
 30
0.0
 10
9.0266824437
 20
11.8471157007
 30
0.0
 10
9.026496817
 20
11.8470769896
 30
0.0
 10
9.0263762367
 20
11.8470042213
 30
0.0
 10
9.0263216522
 20
11.8469407692
 30
0.0
  0
SPLINE
  5
554
100
AcDbEntity
  8
0
100
AcDbSpline
 62
7
  6
CONTINUOUS
 70
0
 71
3
 72
31
 73
27
 74
0
 42
0.0000001
 43
0.0000001
 44
0.0000000001
 40
0.0
 40
0.0
 40
0.0
 40
0.0
 40
0.2188951449
 40
0.3202670545
 40
0.415734414
 40
0.5049530367
 40
0.5875909965
 40
0.6633348608
 40
0.7319074961
 40
0.7930543218
 40
0.8465534596
 40
0.8922100497
 40
0.9120478282
 40
0.9298673997
 40
0.9456562323
 40
0.959405119
 40
0.9711071623
 40
0.9807608201
 40
0.9848231356
 40
0.9883795215
 40
0.9914352357
 40
0.9939990753
 40
0.9960866276
 40
0.9977278286
 40
0.9989860103
 40
1.0
 40
1.0
 40
1.0
 40
1.0
 10
10.6429666007
 20
14.3667181394
 30
0.0
 10
10.6525797007
 20
14.3577418065
 30
0.0
 10
10.6666618939
 20
14.3446268382
 30
0.0
 10
10.6849930566
 20
14.3276577434
 30
0.0
 10
10.6976339733
 20
14.3160115915
 30
0.0
 10
10.709477968
 20
14.3051618061
 30
0.0
 10
10.7204827528
 20
14.295150476
 30
0.0
 10
10.7306088688
 20
14.2860169122
 30
0.0
 10
10.7398199358
 20
14.277797057
 30
0.0
 10
10.7480833302
 20
14.2705229824
 30
0.0
 10
10.7553697085
 20
14.2642234552
 30
0.0
 10
10.7608344777
 20
14.2596125858
 30
0.0
 10
10.7647047191
 20
14.2564374253
 30
0.0
 10
10.7672099494
 20
14.2544281797
 30
0.0
 10
10.7694543532
 20
14.252678878
 30
0.0
 10
10.7714360313
 20
14.2511909323
 30
0.0
 10
10.7731532731
 20
14.249965769
 30
0.0
 10
10.7744263715
 20
14.2491210983
 30
0.0
 10
10.7753145197
 20
14.2485838943
 30
0.0
 10
10.7758746675
 20
14.2482711557
 30
0.0
 10
10.7763680648
 20
14.2480245156
 30
0.0
 10
10.7767948495
 20
14.247843804
 30
0.0
 10
10.7771557177
 20
14.2477281932
 30
0.0
 10
10.7774523955
 20
14.2476777518
 30
0.0
 10
10.7776907942
 20
14.2476917528
 30
0.0
 10
10.7778172947
 20
14.2477589341
 30
0.0
 10
10.7778603575
 20
14.2478020338
 30
0.0
  0
SPLINE
  5
555
100
AcDbEntity
  8
0
100
AcDbSpline
 62
7
  6
CONTINUOUS
 70
0
 71
3
 72
26
 73
22
 74
0
 42
0.0000001
 43
0.0000001
 44
0.0000000001
 40
0.0
 40
0.0
 40
0.0
 40
0.0
 40
0.1936580662
 40
0.3797194232
 40
0.5511200116
 40
0.6292667609
 40
0.7013832084
 40
0.7667966568
 40
0.8249003621
 40
0.8751655408
 40
0.9171478836
 40
0.9349254033
 40
0.9505196944
 40
0.9639091374
 40
0.9750930991
 40
0.984104982
 40
0.9910324294
 40
0.9937821646
 40
0.996122192
 40
0.9981469801
 40
1.0
 40
1.0
 40
1.0
 40
1.0
 10
9.3625503072
 20
11.5200697538
 30
0.0
 10
9.359725348
 20
11.5225988612
 30
0.0
 10
9.3541499569
 20
11.5275175337
 30
0.0
 10
9.345950614
 20
11.5345328076
 30
0.0
 10
9.3393768909
 20
11.5399676813
 30
0.0
 10
9.3344586336
 20
11.5439016536
 30
0.0
 10
9.3311288461
 20
11.5464988549
 30
0.0
 10
9.3280745746
 20
11.5488106057
 30
0.0
 10
9.3253250765
 20
11.5508153852
 30
0.0
 10
9.3229067415
 20
11.5524943532
 30
0.0
 10
9.321099262
 20
11.5536675818
 30
0.0
 10
9.3198324277
 20
11.5544241233
 30
0.0
 10
9.3190321082
 20
11.5548691991
 30
0.0
 10
9.31832967
 20
11.5552233813
 30
0.0
 10
9.3177263372
 20
11.5554864896
 30
0.0
 10
9.3172234111
 20
11.5556583652
 30
0.0
 10
9.3168626522
 20
11.5557327523
 30
0.0
 10
9.3166266276
 20
11.5557365171
 30
0.0
 10
9.316488059
 20
11.555715202
 30
0.0
 10
9.3163738879
 20
11.5556690729
 30
0.0
 10
9.3163141753
 20
11.5556196885
 30
0.0
 10
9.316290516
 20
11.5555921836
 30
0.0
  0
LINE
  5
556
100
AcDbEntity
  8
0
100
AcDbLine
 62
7
  6
CONTINUOUS
 10
8.6453110795
 20
12.0891679407
 11
8.6409008065
 21
12.0931119221
  0
LINE
  5
557
100
AcDbEntity
  8
0
100
AcDbLine
 62
7
  6
CONTINUOUS
 10
8.6409008065
 20
12.0931119221
 11
8.6404922625
 21
12.0933870614
  0
SPLINE
  5
558
100
AcDbEntity
  8
0
100
AcDbSpline
 62
7
  6
CONTINUOUS
 70
0
 71
3
 72
17
 73
13
 74
0
 42
0.0000001
 43
0.0000001
 44
0.0000000001
 40
0.0
 40
0.0
 40
0.0
 40
0.0
 40
0.2164390027
 40
0.4059536781
 40
0.568278931
 40
0.7033600237
 40
0.8116125694
 40
0.8941644302
 40
0.9266774169
 40
0.9542110953
 40
0.9780174167
 40
1.0
 40
1.0
 40
1.0
 40
1.0
 10
8.3537522332
 20
12.4736778102
 30
0.0
 10
8.3534506613
 20
12.4738881453
 30
0.0
 10
8.3528805368
 20
12.4742762865
 30
0.0
 10
8.3520661338
 20
12.4747950252
 30
0.0
 10
8.3513508751
 20
12.4752109405
 30
0.0
 10
8.3507360733
 20
12.4755237538
 30
0.0
 10
8.3502231663
 20
12.4757332114
 30
0.0
 10
8.3498538564
 20
12.47583112
 30
0.0
 10
8.3496112424
 20
12.4758465945
 30
0.0
 10
8.349468694
 20
12.4758302316
 30
0.0
 10
8.3493506474
 20
12.4757856019
 30
0.0
 10
8.3492891861
 20
12.4757351221
 30
0.0
 10
8.3492648407
 20
12.4757068059
 30
0.0
  0
SPLINE
  5
559
100
AcDbEntity
  8
0
100
AcDbSpline
 62
7
  6
CONTINUOUS
 70
0
 71
3
 72
17
 73
13
 74
0
 42
0.0000001
 43
0.0000001
 44
0.0000000001
 40
0.0
 40
0.0
 40
0.0
 40
0.0
 40
0.219658231
 40
0.4119117014
 40
0.5763442339
 40
0.7126808345
 40
0.8210757907
 40
0.9023509645
 40
0.933542594
 40
0.9592251446
 40
0.9806683708
 40
1.0
 40
1.0
 40
1.0
 40
1.0
 10
8.0186690186
 20
12.8104082795
 30
0.0
 10
8.0183021696
 20
12.8106906697
 30
0.0
 10
8.0176089374
 20
12.8112134008
 30
0.0
 10
8.0166196153
 20
12.8119185588
 30
0.0
 10
8.0157524131
 20
12.8124913544
 30
0.0
 10
8.0150097118
 20
12.8129310115
 30
0.0
 10
8.0143938817
 20
12.8132364139
 30
0.0
 10
8.013953142
 20
12.8133949634
 30
0.0
 10
8.0136646921
 20
12.8134412625
 30
0.0
 10
8.0134984349
 20
12.813438293
 30
0.0
 10
8.0133616077
 20
12.813399001
 30
0.0
 10
8.0132914335
 20
12.8133449697
 30
0.0
 10
8.0132648638
 20
12.8133140819
 30
0.0
  0
SPLINE
  5
55A
100
AcDbEntity
  8
0
100
AcDbSpline
 62
7
  6
CONTINUOUS
 70
0
 71
3
 72
11
 73
7
 74
0
 42
0.0000001
 43
0.0000001
 44
0.0000000001
 40
0.0
 40
0.0
 40
0.0
 40
0.0
 40
0.3587900388
 40
0.6342136414
 40
0.8381361998
 40
1.0
 40
1.0
 40
1.0
 40
1.0
 10
7.7010692962
 20
13.1278326832
 30
0.0
 10
7.7009648513
 20
13.1278796079
 30
0.0
 10
7.7007765231
 20
13.1279555167
 30
0.0
 10
7.7005156458
 20
13.1280184888
 30
0.0
 10
7.7003064747
 20
13.1280173668
 30
0.0
 10
7.7001984012
 20
13.1279554852
 30
0.0
 10
7.7001647153
 20
13.1279163238
 30
0.0
  0
SPLINE
  5
55B
100
AcDbEntity
  8
0
100
AcDbSpline
 62
7
  6
CONTINUOUS
 70
0
 71
3
 72
54
 73
50
 74
0
 42
0.0000001
 43
0.0000001
 44
0.0000000001
 40
0.0
 40
0.0
 40
0.0
 40
0.0
 40
0.0001723733
 40
0.0003711683
 40
0.0006142748
 40
0.0009116574
 40
0.0012687374
 40
0.0016886063
 40
0.0027232634
 40
0.0040243881
 40
0.0055956386
 40
0.0074383294
 40
0.0095527592
 40
0.0119387264
 40
0.0145957348
 40
0.0207187175
 40
0.0279099287
 40
0.0361554532
 40
0.0454377028
 40
0.0557364472
 40
0.0792921439
 40
0.106615043
 40
0.1374628694
 40
0.1715613584
 40
0.2086069547
 40
0.2482696712
 40
0.2901958784
 40
0.3340114788
 40
0.379325652
 40
0.4257341315
 40
0.4728227986
 40
0.5673577339
 40
0.65956361
 40
0.7037605869
 40
0.746156931
 40
0.786374471
 40
0.8240546318
 40
0.8588616731
 40
0.890485602
 40
0.9186449473
 40
0.9430898631
 40
0.96360465
 40
0.9723311512
 40
0.9800107601
 40
0.9866282863
 40
0.9921705533
 40
0.9966285421
 40
0.9984500127
 40
1.0
 40
1.0
 40
1.0
 40
1.0
 10
10.8291357242
 20
14.2990772086
 30
0.0
 10
10.8291027696
 20
14.299044254
 30
0.0
 10
10.8290152525
 20
14.2989889459
 30
0.0
 10
10.8288501709
 20
14.2989557123
 30
0.0
 10
10.828649278
 20
14.2989633001
 30
0.0
 10
10.8284105261
 20
14.2990102428
 30
0.0
 10
10.828132704
 20
14.2990962892
 30
0.0
 10
10.8276769336
 20
14.2992766089
 30
0.0
 10
10.8270096432
 20
14.2996105403
 30
0.0
 10
10.8260968656
 20
14.3001428465
 30
0.0
 10
10.8250246394
 20
14.3008330346
 30
0.0
 10
10.8237933924
 20
14.3016807675
 30
0.0
 10
10.8224037586
 20
14.3026860182
 30
0.0
 10
10.8208564054
 20
14.3038482733
 30
0.0
 10
10.8184687923
 20
14.3056959424
 30
0.0
 10
10.8151015491
 20
14.3083997999
 30
0.0
 10
10.8106141807
 20
14.3121205438
 30
0.0
 10
10.8055197218
 20
14.3164465912
 30
0.0
 10
10.7998286855
 20
14.3213675811
 30
0.0
 10
10.7910608367
 20
14.3290585071
 30
0.0
 10
10.7787220924
 20
14.340074679
 30
0.0
 10
10.7623504886
 20
14.3549148313
 30
0.0
 10
10.7439593352
 20
14.3717707024
 30
0.0
 10
10.7237063709
 20
14.3904853638
 30
0.0
 10
10.7017660509
 20
14.4108854776
 30
0.0
 10
10.6783276519
 20
14.4327823224
 30
0.0
 10
10.6535938221
 20
14.455973708
 30
0.0
 10
10.6277787321
 20
14.4802457843
 30
0.0
 10
10.6011061785
 20
14.5053750224
 30
0.0
 10
10.5738075631
 20
14.5311302334
 30
0.0
 10
10.5368439469
 20
14.5660335434
 30
0.0
 10
10.4908879263
 20
14.6094490853
 30
0.0
 10
10.445471441
 20
14.6522972626
 30
0.0
 10
10.4102628161
 20
14.6854230575
 30
0.0
 10
10.3852617355
 20
14.7088853105
 30
0.0
 10
10.3615079898
 20
14.7311018529
 30
0.0
 10
10.339206989
 20
14.7518676291
 30
0.0
 10
10.3185512847
 20
14.7709906952
 30
0.0
 10
10.299718833
 20
14.7882938063
 30
0.0
 10
10.2828717163
 20
14.8036165173
 30
0.0
 10
10.2681540099
 20
14.816815777
 30
0.0
 10
10.2572525546
 20
14.8264002872
 30
0.0
 10
10.2496754512
 20
14.8328993295
 30
0.0
 10
10.2449089328
 20
14.8369032751
 30
0.0
 10
10.2407552325
 20
14.8402977117
 30
0.0
 10
10.2372227541
 20
14.843074485
 30
0.0
 10
10.2346563648
 20
14.8449811539
 30
0.0
 10
10.2329120219
 20
14.8461808332
 30
0.0
 10
10.2321446987
 20
14.8466734169
 30
0.0
 10
10.23178659
 20
14.8468910852
 30
0.0
  0
LINE
  5
55C
100
AcDbEntity
  8
0
100
AcDbLine
 62
7
  6
CONTINUOUS
 10
10.23178659
 20
14.8468910852
 11
10.2296406111
 21
14.8479410869
  0
SPLINE
  5
55D
100
AcDbEntity
  8
0
100
AcDbSpline
 62
7
  6
CONTINUOUS
 70
0
 71
3
 72
55
 73
51
 74
0
 42
0.0000001
 43
0.0000001
 44
0.0000000001
 40
0.0
 40
0.0
 40
0.0
 40
0.0
 40
0.0001667354
 40
0.0003606604
 40
0.0005998041
 40
0.0008939624
 40
0.0012483699
 40
0.0016659778
 40
0.0026969997
 40
0.0039952802
 40
0.0055642243
 40
0.0074049985
 40
0.0095178089
 40
0.0119023927
 40
0.0145582109
 40
0.0206792821
 40
0.0278690693
 40
0.0361135566
 40
0.0453950888
 40
0.0556933886
 40
0.0669865397
 40
0.0792489511
 40
0.1065724229
 40
0.1374214575
 40
0.1715216962
 40
0.208569503
 40
0.2482348145
 40
0.2901639442
 40
0.333982725
 40
0.3793002763
 40
0.4257122744
 40
0.4728045397
 40
0.5673466832
 40
0.6595594094
 40
0.7037595424
 40
0.7461587884
 40
0.7863789255
 40
0.8240613249
 40
0.8588701884
 40
0.8904954627
 40
0.918655609
 40
0.9431006906
 40
0.96361488
 40
0.9723407309
 40
0.9800194047
 40
0.9866356498
 40
0.9921761917
 40
0.996631843
 40
0.9984518153
 40
1.0
 40
1.0
 40
1.0
 40
1.0
 10
10.2142778574
 20
14.8332678612
 30
0.0
 10
10.2143097308
 20
14.8332997346
 30
0.0
 10
10.2143953984
 20
14.8333528222
 30
0.0
 10
10.2145571846
 20
14.8333823947
 30
0.0
 10
10.2147545882
 20
14.8333713905
 30
0.0
 10
10.2149898888
 20
14.8333211218
 30
0.0
 10
10.2152642992
 20
14.8332317847
 30
0.0
 10
10.2157155421
 20
14.8330466077
 30
0.0
 10
10.2163770796
 20
14.8327068658
 30
0.0
 10
10.2172831269
 20
14.8321680679
 30
0.0
 10
10.2183486407
 20
14.8314713224
 30
0.0
 10
10.2195731844
 20
14.8306169786
 30
0.0
 10
10.2209561088
 20
14.8296050798
 30
0.0
 10
10.2224967438
 20
14.8284361459
 30
0.0
 10
10.2248750527
 20
14.8265789982
 30
0.0
 10
10.2282307612
 20
14.8238635219
 30
0.0
 10
10.2327046675
 20
14.820129397
 30
0.0
 10
10.2377856277
 20
14.815789897
 30
0.0
 10
10.2434630896
 20
14.8108553463
 30
0.0
 10
10.2497250666
 20
14.8053372505
 30
0.0
 10
10.2565582275
 20
14.7992486709
 30
0.0
 10
10.2667862599
 20
14.7900517553
 30
0.0
 10
10.2808719246
 20
14.7772383668
 30
0.0
 10
10.2992359879
 20
14.7603554073
 30
0.0
 10
10.3194616343
 20
14.741613339
 30
0.0
 10
10.3413746672
 20
14.7211858444
 30
0.0
 10
10.3647857714
 20
14.6992615916
 30
0.0
 10
10.3894923472
 20
14.6760428345
 30
0.0
 10
10.4152802449
 20
14.6517434479
 30
0.0
 10
10.441925695
 20
14.6265869957
 30
0.0
 10
10.4691973201
 20
14.6008046969
 30
0.0
 10
10.506125088
 20
14.5658654357
 30
0.0
 10
10.5520372616
 20
14.5224060441
 30
0.0
 10
10.5974101294
 20
14.479514258
 30
0.0
 10
10.6325839323
 20
14.4463536533
 30
0.0
 10
10.6575595352
 20
14.4228660145
 30
0.0
 10
10.6812881282
 20
14.4006244443
 30
0.0
 10
10.7035643313
 20
14.3798340272
 30
0.0
 10
10.7241956252
 20
14.3606867397
 30
0.0
 10
10.743004088
 20
14.3433598604
 30
0.0
 10
10.7598276792
 20
14.3280138829
 30
0.0
 10
10.7745223602
 20
14.3147918976
 30
0.0
 10
10.785404315
 20
14.3051879869
 30
0.0
 10
10.7929658124
 20
14.2986732818
 30
0.0
 10
10.7977213177
 20
14.2946584656
 30
0.0
 10
10.8018641543
 20
14.2912533463
 30
0.0
 10
10.8053859196
 20
14.2884660894
 30
0.0
 10
10.8079431575
 20
14.2865502918
 30
0.0
 10
10.809680159
 20
14.2853430755
 30
0.0
 10
10.8104438375
 20
14.2848466914
 30
0.0
 10
10.8108001291
 20
14.2846270704
 30
0.0
  0
LINE
  5
55E
100
AcDbEntity
  8
0
100
AcDbLine
 62
7
  6
CONTINUOUS
 10
10.8108001291
 20
14.2846270704
 11
10.8129596728
 21
14.2835546493
  0
SPLINE
  5
55F
100
AcDbEntity
  8
0
100
AcDbSpline
 62
7
  6
CONTINUOUS
 70
0
 71
3
 72
55
 73
51
 74
0
 42
0.0000001
 43
0.0000001
 44
0.0000000001
 40
0.0
 40
0.0
 40
0.0
 40
0.0
 40
0.0001674579
 40
0.0003619906
 40
0.0006016161
 40
0.0008961567
 40
0.0012508737
 40
0.0016687373
 40
0.0027001565
 40
0.003998734
 40
0.0055679083
 40
0.0074088653
 40
0.0095218231
 40
0.011906527
 40
0.0145624436
 40
0.0206836617
 40
0.0278735468
 40
0.0361180962
 40
0.0453996653
 40
0.0556979827
 40
0.0669911383
 40
0.0792535421
 40
0.106576969
 40
0.1374259537
 40
0.1715261283
 40
0.2085738697
 40
0.2482391497
 40
0.2901682246
 40
0.3339869872
 40
0.3793045342
 40
0.4257165238
 40
0.4728088065
 40
0.5673509667
 40
0.6595636965
 40
0.7037637883
 40
0.7461629995
 40
0.786383043
 40
0.8240653182
 40
0.8588740209
 40
0.8904990655
 40
0.9186589266
 40
0.9431036423
 40
0.9636173712
 40
0.972342948
 40
0.9800213111
 40
0.9866371994
 40
0.9921773255
 40
0.9966324773
 40
0.9984521539
 40
1.0
 40
1.0
 40
1.0
 40
1.0
 10
10.2640865173
 20
14.8830765211
 30
0.0
 10
10.2641185288
 20
14.8831085326
 30
0.0
 10
10.2642044272
 20
14.8831619044
 30
0.0
 10
10.2643666277
 20
14.8831919373
 30
0.0
 10
10.264564459
 20
14.8831813494
 30
0.0
 10
10.2648001711
 20
14.8831314767
 30
0.0
 10
10.2650749776
 20
14.8830425222
 30
0.0
 10
10.26552673
 20
14.8828578981
 30
0.0
 10
10.2661888898
 20
14.8825187898
 30
0.0
 10
10.2670956296
 20
14.8819806647
 30
0.0
 10
10.2681617962
 20
14.8812845649
 30
0.0
 10
10.2693869548
 20
14.8804308382
 30
0.0
 10
10.2707704583
 20
14.879419526
 30
0.0
 10
10.2723116375
 20
14.8782511479
 30
0.0
 10
10.274690649
 20
14.8763947432
 30
0.0
 10
10.2780471347
 20
14.8736800822
 30
0.0
 10
10.2825218196
 20
14.8699467675
 30
0.0
 10
10.2876034318
 20
14.8656079572
 30
0.0
 10
10.2932814225
 20
14.8606739768
 30
0.0
 10
10.2995438088
 20
14.8551563326
 30
0.0
 10
10.3063772624
 20
14.849068088
 30
0.0
 10
10.3166055378
 20
14.8398714808
 30
0.0
 10
10.330691206
 20
14.8270581619
 30
0.0
 10
10.3490548675
 20
14.8101748625
 30
0.0
 10
10.3692797259
 20
14.7914320526
 30
0.0
 10
10.3911916117
 20
14.7710034323
 30
0.0
 10
10.4146012294
 20
14.7490776959
 30
0.0
 10
10.4393060086
 20
14.7258571147
 30
0.0
 10
10.4650918184
 20
14.7015555912
 30
0.0
 10
10.4917349163
 20
14.6763967102
 30
0.0
 10
10.5190039466
 20
14.6506117165
 30
0.0
 10
10.5559279527
 20
14.6156685391
 30
0.0
 10
10.6018349913
 20
14.5722037949
 30
0.0
 10
10.6472021498
 20
14.5293060644
 30
0.0
 10
10.6823710931
 20
14.4961404007
 30
0.0
 10
10.7073430027
 20
14.4726489494
 30
0.0
 10
10.7310678346
 20
14.4504035121
 30
0.0
 10
10.7533402267
 20
14.4296092049
 30
0.0
 10
10.7739676845
 20
14.4104580289
 30
0.0
 10
10.7927723095
 20
14.3931272907
 30
0.0
 10
10.8095920828
 20
14.3777775155
 30
0.0
 10
10.8242829924
 20
14.364551819
 30
0.0
 10
10.8351617411
 20
14.3549447525
 30
0.0
 10
10.8427206746
 20
14.3484275216
 30
0.0
 10
10.8474743706
 20
14.3444109682
 30
0.0
 10
10.8516154275
 20
14.3410041569
 30
0.0
 10
10.8551354458
 20
14.3382152575
 30
0.0
 10
10.8576912018
 20
14.3362980448
 30
0.0
 10
10.8594270224
 20
14.3350896737
 30
0.0
 10
10.860190117
 20
14.3345927118
 30
0.0
 10
10.8605461182
 20
14.3343727952
 30
0.0
  0
LINE
  5
560
100
AcDbEntity
  8
0
100
AcDbLine
 62
7
  6
CONTINUOUS
 10
10.8605461182
 20
14.3343727952
 11
10.8627074502
 21
14.3332970266
  0
SPLINE
  5
561
100
AcDbEntity
  8
0
100
AcDbSpline
 62
7
  6
CONTINUOUS
 70
0
 71
3
 72
10
 73
6
 74
0
 42
0.0000001
 43
0.0000001
 44
0.0000000001
 40
0.0
 40
0.0
 40
0.0
 40
0.0
 40
0.5323817069
 40
0.7781844046
 40
1.0
 40
1.0
 40
1.0
 40
1.0
 10
7.2650423708
 20
13.5630386783
 30
0.0
 10
7.260624835
 20
13.5680775011
 30
0.0
 10
7.25412151
 20
13.5754025808
 30
0.0
 10
7.2456600609
 20
13.5847212611
 30
0.0
 10
7.241665512
 20
13.5890443157
 30
0.0
 10
7.2397585755
 20
13.5910836237
 30
0.0
  0
LINE
  5
562
100
AcDbEntity
  8
0
100
AcDbLine
 62
7
  6
CONTINUOUS
 10
7.2397585755
 20
13.5910836237
 11
7.2389403913
 21
13.5919570318
  0
SPLINE
  5
563
100
AcDbEntity
  8
0
100
AcDbSpline
 62
7
  6
CONTINUOUS
 70
0
 71
3
 72
54
 73
50
 74
0
 42
0.0000001
 43
0.0000001
 44
0.0000000001
 40
0.0
 40
0.0
 40
0.0
 40
0.0
 40
0.0001715719
 40
0.0003696672
 40
0.0006121985
 40
0.000909109
 40
0.0012657946
 40
0.0016853275
 40
0.002719439
 40
0.0040201315
 40
0.0055910276
 40
0.0074334207
 40
0.0095475962
 40
0.0119333439
 40
0.0145901615
 40
0.0207128333
 40
0.0279038075
 40
0.0361491543
 40
0.0454312767
 40
0.0557299375
 40
0.0792855803
 40
0.1066085445
 40
0.1374565493
 40
0.1715552974
 40
0.2086012246
 40
0.2482643538
 40
0.2901909907
 40
0.3340070782
 40
0.3793217596
 40
0.4257307422
 40
0.4728199279
 40
0.5673558206
 40
0.6595625317
 40
0.7037598387
 40
0.746156488
 40
0.7863742444
 40
0.8240545694
 40
0.8588617215
 40
0.8904856845
 40
0.9186450216
 40
0.9430898808
 40
0.9636045838
 40
0.9723310424
 40
0.9800106138
 40
0.986628115
 40
0.9921703817
 40
0.9966284143
 40
0.9984499347
 40
1.0
 40
1.0
 40
1.0
 40
1.0
 10
10.8803958884
 20
14.3503373728
 30
0.0
 10
10.8803630874
 20
14.3503045718
 30
0.0
 10
10.8802758357
 20
14.3502495786
 30
0.0
 10
10.8801112232
 20
14.3502168671
 30
0.0
 10
10.8799108309
 20
14.350224948
 30
0.0
 10
10.8796725781
 20
14.3502723742
 30
0.0
 10
10.879395253
 20
14.3503589021
 30
0.0
 10
10.8789401464
 20
14.3505399365
 30
0.0
 10
10.8782737077
 20
14.3508747329
 30
0.0
 10
10.8773619376
 20
14.3514080177
 30
0.0
 10
10.8762907272
 20
14.352099206
 30
0.0
 10
10.8750605054
 20
14.3529479589
 30
0.0
 10
10.8736719078
 20
14.3539542465
 30
0.0
 10
10.8721256022
 20
14.3551175546
 30
0.0
 10
10.8697394533
 20
14.356966733
 30
0.0
 10
10.8663740506
 20
14.3596724711
 30
0.0
 10
10.8618888631
 20
14.36339542
 30
0.0
 10
10.8567966235
 20
14.3677237222
 30
0.0
 10
10.8511078424
 20
14.3726470135
 30
0.0
 10
10.8423431698
 20
14.3803412279
 30
0.0
 10
10.8300084153
 20
14.3913615224
 30
0.0
 10
10.8136415311
 20
14.4062065422
 30
0.0
 10
10.7952551718
 20
14.4230673799
 30
0.0
 10
10.775007052
 20
14.4417870791
 30
0.0
 10
10.753071601
 20
14.462192275
 30
0.0
 10
10.7296380777
 20
14.4840942136
 30
0.0
 10
10.7049091036
 20
14.5072906813
 30
0.0
 10
10.6790988322
 20
14.5315677962
 30
0.0
 10
10.6524310357
 20
14.5567020042
 30
0.0
 10
10.6251370962
 20
14.5824620883
 30
0.0
 10
10.5881795961
 20
14.6173717266
 30
0.0
 10
10.5422308215
 20
14.6607946944
 30
0.0
 10
10.4968210961
 20
14.7036497332
 30
0.0
 10
10.4616174812
 20
14.7367805492
 30
0.0
 10
10.4366198633
 20
14.7602462008
 30
0.0
 10
10.4128692932
 20
14.7824658137
 30
0.0
 10
10.3905711544
 20
14.8032342984
 30
0.0
 10
10.3699179657
 20
14.8223596861
 30
0.0
 10
10.3510876506
 20
14.8396647044
 30
0.0
 10
10.3342422633
 20
14.8549888817
 30
0.0
 10
10.3195258423
 20
14.8681891449
 30
0.0
 10
10.3086250982
 20
14.8777741174
 30
0.0
 10
10.3010482831
 20
14.8842732367
 30
0.0
 10
10.2962818368
 20
14.8882771038
 30
0.0
 10
10.2921280717
 20
14.8916713303
 30
0.0
 10
10.288595387
 20
14.8944477604
 30
0.0
 10
10.2860286976
 20
14.8963540085
 30
0.0
 10
10.2842840263
 20
14.8975532472
 30
0.0
 10
10.2835165131
 20
14.8980455804
 30
0.0
 10
10.2831583021
 20
14.8982631109
 30
0.0
  0
LINE
  5
564
100
AcDbEntity
  8
0
100
AcDbLine
 62
7
  6
CONTINUOUS
 10
10.2831583021
 20
14.8982631109
 11
10.281013923
 21
14.899311218
  0
SPLINE
  5
565
100
AcDbEntity
  8
0
100
AcDbSpline
 62
7
  6
CONTINUOUS
 70
0
 71
3
 72
55
 73
51
 74
0
 42
0.0000001
 43
0.0000001
 44
0.0000000001
 40
0.0
 40
0.0
 40
0.0
 40
0.0
 40
0.0001670171
 40
0.0003611854
 40
0.0006005272
 40
0.0008948467
 40
0.0012493881
 40
0.0016671097
 40
0.002698315
 40
0.0039967399
 40
0.0055658018
 40
0.0074066745
 40
0.0095195686
 40
0.0119042242
 40
0.0145601045
 40
0.0206812763
 40
0.0278711391
 40
0.0361156821
 40
0.0453972534
 40
0.0556955781
 40
0.0669887418
 40
0.0792511543
 40
0.1065745975
 40
0.13742357
 40
0.1715237166
 40
0.2085714055
 40
0.2482365802
 40
0.2901655536
 40
0.333984166
 40
0.3793015397
 40
0.4257133538
 40
0.4728054334
 40
0.5673472114
 40
0.6595595998
 40
0.7037595797
 40
0.7461586884
 40
0.7863787049
 40
0.8240610029
 40
0.8588697872
 40
0.8904950069
 40
0.9186551246
 40
0.9431002074
 40
0.9636144319
 40
0.9723403155
 40
0.9800190337
 40
0.9866353373
 40
0.9921759553
 40
0.9966317065
 40
0.9984517413
 40
1.0
 40
1.0
 40
1.0
 40
1.0
 10
10.3137340082
 20
14.932724012
 30
0.0
 10
10.3137659356
 20
14.9327559395
 30
0.0
 10
10.3138516954
 20
14.9328091384
 30
0.0
 10
10.3140136473
 20
14.9328388951
 30
0.0
 10
10.314211227
 20
14.9328280629
 30
0.0
 10
10.3144467022
 20
14.9327779624
 30
0.0
 10
10.3147212857
 20
14.9326887925
 30
0.0
 10
10.3151727597
 20
14.9325038633
 30
0.0
 10
10.3158345922
 20
14.9321644198
 30
0.0
 10
10.3167409867
 20
14.9316259577
 30
0.0
 10
10.3178068491
 20
14.930929554
 30
0.0
 10
10.3190317433
 20
14.9300755569
 30
0.0
 10
10.3204150206
 20
14.929064009
 30
0.0
 10
10.3219560111
 20
14.9278954299
 30
0.0
 10
10.3243348153
 20
14.9260387886
 30
0.0
 10
10.3276911428
 20
14.9233239387
 30
0.0
 10
10.332165778
 20
14.919590543
 30
0.0
 10
10.3372474757
 20
14.9152517834
 30
0.0
 10
10.342925683
 20
14.9103179832
 30
0.0
 10
10.3491884126
 20
14.9048006465
 30
0.0
 10
10.3560223324
 20
14.8987128336
 30
0.0
 10
10.3662514181
 20
14.889516992
 30
0.0
 10
10.3803383964
 20
14.8767049406
 30
0.0
 10
10.3987040033
 20
14.8598235478
 30
0.0
 10
10.4189312004
 20
14.8410830571
 30
0.0
 10
10.4408457849
 20
14.8206571437
 30
0.0
 10
10.4642584354
 20
14.7987344689
 30
0.0
 10
10.4889665467
 20
14.7755172791
 30
0.0
 10
10.5147559629
 20
14.7512194424
 30
0.0
 10
10.5414029093
 20
14.7260645158
 30
0.0
 10
10.5686760027
 20
14.700283711
 30
0.0
 10
10.6056056862
 20
14.6653463922
 30
0.0
 10
10.6515201338
 20
14.6218892907
 30
0.0
 10
10.6968951789
 20
14.5789996884
 30
0.0
 10
10.7320706719
 20
14.54584077
 30
0.0
 10
10.7570474897
 20
14.5223543338
 30
0.0
 10
10.7807772608
 20
14.5001139235
 30
0.0
 10
10.8030546048
 20
14.4793246238
 30
0.0
 10
10.823687002
 20
14.4601784108
 30
0.0
 10
10.8424965302
 20
14.442852563
 30
0.0
 10
10.8593211479
 20
14.4275075736
 30
0.0
 10
10.8740168154
 20
14.4142865327
 30
0.0
 10
10.8848995904
 20
14.4046834118
 30
0.0
 10
10.8924617341
 20
14.3981693333
 30
0.0
 10
10.8972176914
 20
14.3941549469
 30
0.0
 10
10.9013609696
 20
14.3907502455
 30
0.0
 10
10.9048831662
 20
14.3879633943
 30
0.0
 10
10.9074407687
 20
14.3860479465
 30
0.0
 10
10.9091780604
 20
14.3848410165
 30
0.0
 10
10.9099418823
 20
14.384344776
 30
0.0
 10
10.9102982451
 20
14.3841252286
 30
0.0
  0
LINE
  5
566
100
AcDbEntity
  8
0
100
AcDbLine
 62
7
  6
CONTINUOUS
 10
10.9102982451
 20
14.3841252286
 11
10.912457326
 21
14.3830536456
  0
SPLINE
  5
567
100
AcDbEntity
  8
0
100
AcDbSpline
 62
7
  6
CONTINUOUS
 70
0
 71
3
 72
31
 73
27
 74
0
 42
0.0000001
 43
0.0000001
 44
0.0000000001
 40
0.0
 40
0.0
 40
0.0
 40
0.0
 40
0.1947535642
 40
0.2898626933
 40
0.3822089296
 40
0.4709234395
 40
0.5551373472
 40
0.6340207973
 40
0.7068070765
 40
0.7727844748
 40
0.8313029983
 40
0.8817907427
 40
0.90386474
 40
0.9237494004
 40
0.9414011104
 40
0.9567774604
 40
0.9698372833
 40
0.9805519868
 40
0.9889044211
 40
0.9921910645
 40
0.9948839189
 40
0.9969849608
 40
0.9985030388
 40
0.9990514311
 40
0.9994689664
 40
1.0
 40
1.0
 40
1.0
 40
1.0
 10
7.1343132319
 20
13.6922657189
 30
0.0
 10
7.1318346871
 20
13.6951356414
 30
0.0
 10
7.1281376824
 20
13.6994001704
 30
0.0
 10
7.1232461612
 20
13.7050087684
 30
0.0
 10
7.1197033028
 20
13.7090539677
 30
0.0
 10
7.116291562
 20
13.712931985
 30
0.0
 10
7.1130439989
 20
13.7166052824
 30
0.0
 10
7.109992423
 20
13.7200378642
 30
0.0
 10
7.1071667568
 20
13.7231961414
 30
0.0
 10
7.1045947136
 20
13.7260492364
 30
0.0
 10
7.1023015861
 20
13.7285691672
 30
0.0
 10
7.1005725083
 20
13.7304465274
 30
0.0
 10
7.0993443703
 20
13.7317625028
 30
0.0
 10
7.098548036
 20
13.7326069143
 30
0.0
 10
7.097836362
 20
13.7333518873
 30
0.0
 10
7.0972111214
 20
13.7339956112
 30
0.0
 10
7.0966739729
 20
13.7345365609
 30
0.0
 10
7.0962262119
 20
13.7349734122
 30
0.0
 10
7.0959076954
 20
13.7352701857
 30
0.0
 10
7.0956971419
 20
13.7354533706
 30
0.0
 10
7.0955753412
 20
13.7355530184
 30
0.0
 10
7.0954763874
 20
13.7356260562
 30
0.0
 10
7.0954078452
 20
13.7356695915
 30
0.0
 10
7.0953631752
 20
13.7356892733
 30
0.0
 10
7.0953360312
 20
13.7356977544
 30
0.0
 10
7.095313921
 20
13.7356954154
 30
0.0
 10
7.0953071789
 20
13.735687576
 30
0.0
  0
LINE
  5
568
100
AcDbEntity
  8
0
100
AcDbLine
 62
7
  6
CONTINUOUS
 10
7.0922991661
 20
13.7321614109
 11
7.0918447374
 21
13.7326902123
  0
LINE
  5
569
100
AcDbEntity
  8
0
100
AcDbLine
 62
7
  6
CONTINUOUS
 10
7.0918447374
 20
13.7326902123
 11
7.0891764738
 21
13.7357951727
  0
LINE
  5
56A
100
AcDbEntity
  8
0
100
AcDbLine
 62
7
  6
CONTINUOUS
 10
7.0891764738
 20
13.7357951727
 11
7.0510729108
 21
13.7801355484
  0
SPLINE
  5
56B
100
AcDbEntity
  8
0
100
AcDbSpline
 62
7
  6
CONTINUOUS
 70
0
 71
3
 72
54
 73
50
 74
0
 42
0.0000001
 43
0.0000001
 44
0.0000000001
 40
0.0
 40
0.0
 40
0.0
 40
0.0
 40
0.0001717207
 40
0.0003699456
 40
0.0006125831
 40
0.0009095803
 40
0.0012663381
 40
0.0016859319
 40
0.0027201413
 40
0.0040209098
 40
0.0055918665
 40
0.0074343088
 40
0.0095485245
 40
0.0119343051
 40
0.0145911493
 40
0.0207138584
 40
0.0279048528
 40
0.0361502057
 40
0.0454323212
 40
0.0557309637
 40
0.0792865387
 40
0.1066094063
 40
0.1374572764
 40
0.1715558716
 40
0.208601626
 40
0.2482645435
 40
0.2901909845
 40
0.3340068437
 40
0.3793212922
 40
0.4257300554
 40
0.4728190072
 40
0.5673544885
 40
0.6595608442
 40
0.7037580265
 40
0.7461545514
 40
0.7863722478
 40
0.8240525427
 40
0.8588597004
 40
0.8904837356
 40
0.9186431875
 40
0.9430882263
 40
0.9636031776
 40
0.9723297892
 40
0.9800095369
 40
0.9866272423
 40
0.9921697467
 40
0.9966280622
 40
0.9984497478
 40
1.0
 40
1.0
 40
1.0
 40
1.0
 10
10.9316788613
 20
14.4016203457
 30
0.0
 10
10.9316460318
 20
14.4015875162
 30
0.0
 10
10.9315587308
 20
14.4015324643
 30
0.0
 10
10.9313940311
 20
14.4014996556
 30
0.0
 10
10.9311935458
 20
14.4015076447
 30
0.0
 10
10.9309552005
 20
14.4015549807
 30
0.0
 10
10.9306777833
 20
14.4016414189
 30
0.0
 10
10.9302225538
 20
14.4018223199
 30
0.0
 10
10.9295559575
 20
14.4021569548
 30
0.0
 10
10.928644001
 20
14.4026900565
 30
0.0
 10
10.9275726029
 20
14.4033810572
 30
0.0
 10
10.9263421915
 20
14.4042296183
 30
0.0
 10
10.9249534023
 20
14.4052357104
 30
0.0
 10
10.9234069027
 20
14.4063988194
 30
0.0
 10
10.9210204826
 20
14.4082477115
 30
0.0
 10
10.9176547382
 20
14.4109530907
 30
0.0
 10
10.913169144
 20
14.4146756153
 30
0.0
 10
10.9080764884
 20
14.4190034799
 30
0.0
 10
10.9023872817
 20
14.4239263201
 30
0.0
 10
10.8936220052
 20
14.4316198831
 30
0.0
 10
10.8812864805
 20
14.4426393465
 30
0.0
 10
10.864918666
 20
14.4574833591
 30
0.0
 10
10.8465313362
 20
14.4743431404
 30
0.0
 10
10.8262822061
 20
14.4930617346
 30
0.0
 10
10.804345707
 20
14.5134657757
 30
0.0
 10
10.7809110928
 20
14.5353665151
 30
0.0
 10
10.756180989
 20
14.558561736
 30
0.0
 10
10.730369544
 20
14.5828375614
 30
0.0
 10
10.7037005317
 20
14.6079704361
 30
0.0
 10
10.6764053321
 20
14.633729145
 30
0.0
 10
10.6394460813
 20
14.6686369012
 30
0.0
 10
10.5934950294
 20
14.7120574529
 30
0.0
 10
10.5480828505
 20
14.7549099239
 30
0.0
 10
10.5128771739
 20
14.7880386078
 30
0.0
 10
10.4878779898
 20
14.8115026798
 30
0.0
 10
10.4641258279
 20
14.8337207068
 30
0.0
 10
10.4418260732
 20
14.8544876115
 30
0.0
 10
10.4211712518
 20
14.8736114297
 30
0.0
 10
10.402339294
 20
14.8909148969
 30
0.0
 10
10.3854922576
 20
14.906237552
 30
0.0
 10
10.3707741914
 20
14.9194363261
 30
0.0
 10
10.3598720343
 20
14.9290200246
 30
0.0
 10
10.3522940766
 20
14.9355181169
 30
0.0
 10
10.347526814
 20
14.9395212778
 30
0.0
 10
10.3433722383
 20
14.9429148134
 30
0.0
 10
10.3398387494
 20
14.9456905691
 30
0.0
 10
10.3372713724
 20
14.9475962299
 30
0.0
 10
10.3355261487
 20
14.9487949848
 30
0.0
 10
10.3347583607
 20
14.9492870746
 30
0.0
 10
10.3344000127
 20
14.9495044803
 30
0.0
  0
LINE
  5
56C
100
AcDbEntity
  8
0
100
AcDbLine
 62
7
  6
CONTINUOUS
 10
10.3344000127
 20
14.9495044803
 11
10.332256409
 21
14.9505511581
  0
LINE
  5
56D
100
AcDbEntity
  8
0
100
AcDbLine
 62
7
  6
CONTINUOUS
 10
8.3048878824
 20
12.4308343487
 11
8.304428479
 21
12.431053059
  0
LINE
  5
56E
100
AcDbEntity
  8
0
100
AcDbLine
 62
7
  6
CONTINUOUS
 10
7.6620821002
 20
13.0924771355
 11
7.6223569933
 21
13.1355305534
  0
LINE
  5
56F
100
AcDbEntity
  8
0
100
AcDbLine
 62
7
  6
CONTINUOUS
 10
7.6738079429
 20
13.0797689242
 11
7.6620821002
 21
13.0924771355
  0
LINE
  5
570
100
AcDbEntity
  8
0
100
AcDbLine
 62
7
  6
CONTINUOUS
 10
7.7557525624
 20
13.0004682805
 11
7.7550329155
 21
13.0012396519
  0
LINE
  5
571
100
AcDbEntity
  8
0
100
AcDbLine
 62
7
  6
CONTINUOUS
 10
7.9755778932
 20
12.7819607492
 11
7.9753491429
 21
12.7821748432
  0
SPLINE
  5
572
100
AcDbEntity
  8
0
100
AcDbSpline
 62
7
  6
CONTINUOUS
 70
0
 71
3
 72
20
 73
16
 74
0
 42
0.0000001
 43
0.0000001
 44
0.0000000001
 40
0.0
 40
0.0
 40
0.0
 40
0.0
 40
0.2276710253
 40
0.4273680683
 40
0.5980475841
 40
0.7389349763
 40
0.7979880275
 40
0.8493514219
 40
0.8930022563
 40
0.9289412212
 40
0.9572075853
 40
0.9779365566
 40
0.9856020243
 40
0.9916245084
 40
1.0
 40
1.0
 40
1.0
 40
1.0
 10
7.9753491429
 20
12.7821748432
 30
0.0
 10
7.9748227452
 20
12.7826669495
 30
0.0
 10
7.9738309847
 20
12.7835868145
 30
0.0
 10
7.9724296413
 20
12.7848593712
 30
0.0
 10
7.9712164826
 20
12.78593034
 30
0.0
 10
7.9703222531
 20
12.7866897634
 30
0.0
 10
7.9697038982
 20
12.7871901177
 30
0.0
 10
7.969318756
 20
12.7874892863
 30
0.0
 10
7.9689847259
 20
12.7877347575
 30
0.0
 10
7.9687023076
 20
12.7879268
 30
0.0
 10
7.9684714824
 20
12.7880648425
 30
0.0
 10
7.9683098298
 20
12.7881436466
 30
0.0
 10
7.9682047102
 20
12.7881749005
 30
0.0
 10
7.9681365448
 20
12.7881854703
 30
0.0
 10
7.9680857241
 20
12.7881724961
 30
0.0
 10
7.9680684528
 20
12.7881523854
 30
0.0
  0
SPLINE
  5
573
100
AcDbEntity
  8
0
100
AcDbSpline
 62
7
  6
CONTINUOUS
 70
0
 71
3
 72
12
 73
8
 74
0
 42
0.0000001
 43
0.0000001
 44
0.0000000001
 40
0.0
 40
0.0
 40
0.0
 40
0.0
 40
0.3651077555
 40
0.6518352446
 40
0.8615692207
 40
0.9390253572
 40
1.0
 40
1.0
 40
1.0
 40
1.0
 10
8.3311722232
 20
12.4545436333
 30
0.0
 10
8.3309334567
 20
12.4547024995
 30
0.0
 10
8.3305018703
 20
12.4549787737
 30
0.0
 10
8.3299103784
 20
12.4553075652
 30
0.0
 10
8.3294948591
 20
12.4554885795
 30
0.0
 10
8.3292287419
 20
12.4555539091
 30
0.0
 10
8.3291190517
 20
12.4555613359
 30
0.0
 10
8.3290713589
 20
12.4555569394
 30
0.0
  0
LINE
  5
574
100
AcDbEntity
  8
0
100
AcDbLine
 62
7
  6
CONTINUOUS
 10
8.3290713589
 20
12.4555569394
 11
8.3288997804
 21
12.4554793332
  0
SPLINE
  5
575
100
AcDbEntity
  8
0
100
AcDbSpline
 62
7
  6
CONTINUOUS
 70
0
 71
3
 72
14
 73
10
 74
0
 42
0.0000001
 43
0.0000001
 44
0.0000000001
 40
0.0
 40
0.0
 40
0.0
 40
0.0
 40
0.2214694361
 40
0.4144469346
 40
0.578955447
 40
0.7151404341
 40
0.8233993661
 40
0.904774659
 40
1.0
 40
1.0
 40
1.0
 40
1.0
 10
8.3153589383
 20
12.4399975754
 30
0.0
 10
8.3152506762
 20
12.4400752256
 30
0.0
 10
8.3150466213
 20
12.4402185754
 30
0.0
 10
8.3147565126
 20
12.4404111829
 30
0.0
 10
8.3145029145
 20
12.4405665174
 30
0.0
 10
8.3142880933
 20
12.4406847465
 30
0.0
 10
8.3141064527
 20
12.4407658051
 30
0.0
 10
8.3139509119
 20
12.4408182718
 30
0.0
 10
8.3138196704
 20
12.4408203535
 30
0.0
 10
8.3137822932
 20
12.4407769425
 30
0.0
  0
SPLINE
  5
576
100
AcDbEntity
  8
0
100
AcDbSpline
 62
7
  6
CONTINUOUS
 70
0
 71
3
 72
19
 73
15
 74
0
 42
0.0000001
 43
0.0000001
 44
0.0000000001
 40
0.0
 40
0.0
 40
0.0
 40
0.0
 40
0.2249896063
 40
0.422052372
 40
0.5904404963
 40
0.7295601651
 40
0.7879999995
 40
0.8390061532
 40
0.8826110585
 40
0.9188941784
 40
0.9480290606
 40
0.9704015825
 40
0.9869524121
 40
1.0
 40
1.0
 40
1.0
 40
1.0
 10
7.9953405599
 20
12.7927248164
 30
0.0
 10
7.9948709545
 20
12.7931307055
 30
0.0
 10
7.9939850511
 20
12.7938863773
 30
0.0
 10
7.9927272217
 20
12.7949215731
 30
0.0
 10
7.991631916
 20
12.7957808618
 30
0.0
 10
7.99081779
 20
12.7963784692
 30
0.0
 10
7.9902492955
 20
12.7967621292
 30
0.0
 10
7.9898916324
 20
12.7969867168
 30
0.0
 10
7.9895776208
 20
12.7971653914
 30
0.0
 10
7.9893075085
 20
12.7972981361
 30
0.0
 10
7.9890810116
 20
12.7973856456
 30
0.0
 10
7.9888973736
 20
12.7974277228
 30
0.0
 10
7.9887510047
 20
12.7974260528
 30
0.0
 10
7.9886753361
 20
12.7973829988
 30
0.0
 10
7.9886518683
 20
12.7973557046
 30
0.0
  0
LINE
  5
577
100
AcDbEntity
  8
0
100
AcDbLine
 62
9
  6
CONTINUOUS
 10
7.76761227
 20
13.0122766688
 11
7.9852806375
 21
12.7946186205
  0
LINE
  5
578
100
AcDbEntity
  8
0
100
AcDbLine
 62
7
  6
CONTINUOUS
 10
7.4933844624
 20
13.2947196735
 11
7.4914206204
 21
13.2968387368
  0
SPLINE
  5
579
100
AcDbEntity
  8
0
100
AcDbSpline
 62
7
  6
CONTINUOUS
 70
0
 71
3
 72
32
 73
28
 74
0
 42
0.0000001
 43
0.0000001
 44
0.0000000001
 40
0.0
 40
0.0
 40
0.0
 40
0.0
 40
0.1948320859
 40
0.289961574
 40
0.3823175545
 40
0.471032202
 40
0.5552391727
 40
0.6341126661
 40
0.7068898328
 40
0.7728633659
 40
0.8313869648
 40
0.8576735374
 40
0.8818920135
 40
0.9039796147
 40
0.9238813287
 40
0.941553228
 40
0.9569523094
 40
0.9700364364
 40
0.9807752419
 40
0.9852586743
 40
0.9891481556
 40
0.9924413709
 40
0.9951362622
 40
0.9972314487
 40
0.9987285472
 40
0.9996354252
 40
1.0
 40
1.0
 40
1.0
 40
1.0
 10
7.3884961951
 20
13.396709097
 30
0.0
 10
7.385971922
 20
13.3995388806
 30
0.0
 10
7.3822110589
 20
13.4037467107
 30
0.0
 10
7.3772438365
 20
13.4092871804
 30
0.0
 10
7.3736510524
 20
13.4132859752
 30
0.0
 10
7.370195949
 20
13.4171226787
 30
0.0
 10
7.3669118847
 20
13.4207602712
 30
0.0
 10
7.3638308816
 20
13.4241632768
 30
0.0
 10
7.3609829618
 20
13.4272985827
 30
0.0
 10
7.3583958425
 20
13.4301356973
 30
0.0
 10
7.35641325
 20
13.4322994852
 30
0.0
 10
7.3549758787
 20
13.4338605844
 30
0.0
 10
7.3540169408
 20
13.4348982151
 30
0.0
 10
7.3531402739
 20
13.4358426628
 30
0.0
 10
7.352348027
 20
13.4366916182
 30
0.0
 10
7.351642111
 20
13.4374430696
 30
0.0
 10
7.351024279
 20
13.4380952066
 30
0.0
 10
7.3504961106
 20
13.4386463754
 30
0.0
 10
7.3501117668
 20
13.4390411423
 30
0.0
 10
7.3498496995
 20
13.4393050786
 30
0.0
 10
7.349688296
 20
13.4394649014
 30
0.0
 10
7.3495504351
 20
13.4395985605
 30
0.0
 10
7.3494350742
 20
13.4397065189
 30
0.0
 10
7.3493454667
 20
13.4397873511
 30
0.0
 10
7.3492741399
 20
13.439844714
 30
0.0
 10
7.3492364912
 20
13.439872516
 30
0.0
 10
7.3492056934
 20
13.4398857438
 30
0.0
 10
7.3492010679
 20
13.4398803628
 30
0.0
  0
LINE
  5
57A
100
AcDbEntity
  8
0
100
AcDbLine
 62
7
  6
CONTINUOUS
 10
7.4102120982
 20
13.3722128017
 11
7.4092665983
 21
13.3732869932
  0
LINE
  5
57B
100
AcDbEntity
  8
0
100
AcDbLine
 62
7
  6
CONTINUOUS
 10
7.4092665983
 20
13.3732869932
 11
7.4083547549
 21
13.3743220944
  0
ENDSEC
  0
SECTION
  2
OBJECTS
  0
DICTIONARY
  5
C
100
AcDbDictionary
280
0
281
1
  3
ACAD_GROUP
350
D
  3
ACAD_MLINESTYLE
350
17
  3
ACAD_LAYOUT
350
1A
  3
ACAD_PLOTSETTINGS
350
19
  3
ACAD_PLOTSTYLENAME
350
E
  0
DICTIONARY
  5
D
102
{ACAD_REACTORS
330
C
102
}
100
AcDbDictionary
280
0
281
1
  0
ACDBDICTIONARYWDFLT
  5
E
102
{ACAD_REACTORS
330
C
102
}
100
AcDbDictionary
281
1
  3
Normal
350
F
100
AcDbDictionaryWithDefault
340
F
  0
DICTIONARY
  5
17
102
{ACAD_REACTORS
330
C
102
}
100
AcDbDictionary
280
0
281
1
  3
Standard
350
18
  0
DICTIONARY
  5
19
102
{ACAD_REACTORS
330
C
102
}
100
AcDbDictionary
281
1
  0
DICTIONARY
  5
1A
102
{ACAD_REACTORS
330
C
102
}
100
AcDbDictionary
281
1
  3
Model
350
57C
  3
Layout1
350
57D
  0
ACDBPLACEHOLDER
  5
F
102
{ACAD_REACTORS
330
E
102
}
  0
MLINESTYLE
  5
18
102
{ACAD_REACTORS
330
17
102
}
100
AcDbMlineStyle
  2
STANDARD
 70
0
  3

 62
256
 51
90.0
 52
90.0
 71
2
 49
0.5
 62
256
  6
BYLAYER
 49
-0.5
 62
256
  6
BYLAYER
  0
LAYOUT
  5
57C
102
{ACAD_REACTORS
330
1A
102
}
100
AcDbPlotSettings
  1

  2
none_device
  4
ANSI_C_(22.00_x_17.00_Inches)
  6

 40
0.0
 41
0.0
 42
0.0
 43
0.0
 44
558.8
 45
431.8
 46
0.0
 47
0.0
 48
0.0
 49
0.0
140
0.0
141
0.0
142
1.0
143
1.0
 70
1024
 72
0
 73
0
 74
0
  7

 75
0
147
1.0
148
0.0
149
0.0
100
AcDbLayout
  1
Model
 70
0
 71
0
 10
0.0
 20
0.0
 11
22.0
 21
17.0
 12
0.0
 22
0.0
 32
0.0
 14
0.0
 24
0.0
 34
0.0
 15
0.0
 25
0.0
 35
0.0
146
0.0
 13
0.0
 23
0.0
 33
0.0
 16
1.0
 26
0.0
 36
0.0
 17
0.0
 27
1.0
 37
0.0
 76
0
330
205
345
0
346
0
  0
LAYOUT
  5
57D
102
{ACAD_REACTORS
330
1A
102
}
100
AcDbPlotSettings
  1

  2
none_device
  4
ANSI_C_(22.00_x_17.00_Inches)
  6

 40
0.0
 41
0.0
 42
0.0
 43
0.0
 44
558.8
 45
431.8
 46
0.0
 47
0.0
 48
0.0
 49
0.0
140
0.0
141
0.0
142
1.0
143
1.0
 70
0
 72
0
 73
0
 74
0
  7

 75
0
147
1.0
148
0.0
149
0.0
100
AcDbLayout
  1
Layout1
 70
0
 71
1
 10
0.0
 20
0.0
 11
22.0
 21
17.0
 12
0.0
 22
0.0
 32
0.0
 14
0.0
 24
0.0
 34
0.0
 15
0.0
 25
0.0
 35
0.0
146
0.0
 13
0.0
 23
0.0
 33
0.0
 16
1.0
 26
0.0
 36
0.0
 17
0.0
 27
1.0
 37
0.0
 76
0
330
206
345
0
346
0
  0
ENDSEC
  0
EOF
