999
DXF file: E:\BT Custom\CADOUTPUT\_TOP.dxf
999
Pro/ENGINEER 2018400 by Parametric Technology Corporation
  0
SECTION
  2
HEADER
  9
$ACADVER
  1
AC1018
  9
$DWGCODEPAGE
  3
ANSI_1252
  9
$EXTMAX
 10
22.0
 20
17.0
 30
0.0
  9
$EXTMIN
 10
0.0
 20
0.0
 30
0.0
  9
$LIMMIN
 10
0.0
 20
0.0
  9
$LIMMAX
 10
22.0
 20
17.0
  9
$VIEWCTR
 10
11.0
 20
8.5
  9
$VIEWSIZE
 40
17.0
  9
$CLAYER
  8
0
  9
$LTSCALE
 40
1.21
  9
$CELTYPE
  6
BYLAYER
  9
$DIMSCALE
 40
1.0
  9
$DIMASZ
 40
0.1
  9
$DIMEXO
 40
0.0625
  9
$DIMDLI
 40
0.836
  9
$DIMEXE
 40
0.125
  9
$DIMCEN
 40
0.198
  9
$DIMLFAC
 40
1.0
  9
$DIMBLK
  1
_FILLED
  9
$DIMALT
 70
1
  9
$DIMALTD
 70
2
  9
$DIMALTTD
 70
2
  9
$DIMALTF
 40
25.4
  9
$DIMTXT
 40
0.08
  9
$DIMTOL
 70
1
  9
$DIMLIM
 70
0
  9
$DIMTFAC
 40
1.0
  9
$DIMTP
 40
0.001
  9
$DIMTM
 40
0.001
  9
$DIMGAP
 40
0.09
  9
$DIMDSEP
 70
46
  9
$AUNITS
 70
0
  9
$PDMODE
 70
3
  9
$PDSIZE
 40
0.06
  9
$HANDSEED
  5
33B
  9
$TILEMODE
 70
1
  9
$MEASUREMENT
 70
0
  9
$INSUNITS
 70
1
  0
ENDSEC
  0
SECTION
  2
CLASSES
  0
CLASS
  1
ACDBDICTIONARYWDFLT
  2
AcDbDictionaryWithDefault
  3
AutoCAD 2000
 90
0
 91
1
280
0
281
0
  0
CLASS
  1
ACDBPLACEHOLDER
  2
AcDbPlaceHolder
  3
AutoCAD 2000
 90
0
 91
1
280
0
281
0
  0
CLASS
  1
LAYOUT
  2
AcDbLayout
  3
AutoCAD 2000
 90
0
 91
0
280
0
281
0
  0
ENDSEC
  0
SECTION
  2
TABLES
  0
TABLE
  2
VPORT
  5
8
100
AcDbSymbolTable
 70
2
  0
VPORT
  5
1F4
100
AcDbSymbolTableRecord
100
AcDbViewportTableRecord
  2
*ACTIVE
 70
0
 10
0.0
 20
0.0
 11
1.0
 21
1.0
 12
11.0
 22
8.5
 13
0.0
 23
0.0
 14
1.0
 24
1.0
 15
0.0
 25
0.0
 16
0.0
 26
0.0
 36
1.0
 17
0.0
 27
0.0
 37
0.0
 40
17.0
 41
1.2941176471
 42
50.0
 43
0.0
 44
0.0
 50
0.0
 51
0.0
 71
0
 72
100
 73
1
 74
1
 75
0
 76
0
 77
0
 78
0
  0
ENDTAB
  0
TABLE
  2
LTYPE
  5
5
100
AcDbSymbolTable
 70
6
  0
LTYPE
  5
14
100
AcDbSymbolTableRecord
100
AcDbLinetypeTableRecord
  2
BYBLOCK
 70
0
  3

 72
65
 73
0
 40
0.0
  0
LTYPE
  5
15
100
AcDbSymbolTableRecord
100
AcDbLinetypeTableRecord
  2
BYLAYER
 70
0
  3

 72
65
 73
0
 40
0.0
  0
LTYPE
  5
16
100
AcDbSymbolTableRecord
100
AcDbLinetypeTableRecord
  2
CONTINUOUS
 70
64
  3
Solid line
 72
65
 73
0
 40
0.0
  0
LTYPE
  5
1F5
100
AcDbSymbolTableRecord
100
AcDbLinetypeTableRecord
  2
CENTER
 70
64
  3
____ _ ____ _ ____ _ ____ _ ____ _ ____ _ ____
 72
65
 73
4
 40
0.6
 49
0.375
 74
0
 49
-0.075
 74
0
 49
0.075
 74
0
 49
-0.075
 74
0
  0
LTYPE
  5
1F6
100
AcDbSymbolTableRecord
100
AcDbLinetypeTableRecord
  2
HIDDEN
 70
64
  3
- - - - - - - - - - - - - - - - - - - -
 72
65
 73
2
 40
0.2
 49
0.1
 74
0
 49
-0.1
 74
0
  0
LTYPE
  5
1F7
100
AcDbSymbolTableRecord
100
AcDbLinetypeTableRecord
  2
PHANTOM
 70
64
  3
_____ _ _ _____ _ _ _____ _ _ _____
 72
65
 73
6
 40
0.8
 49
0.45
 74
0
 49
-0.05
 74
0
 49
0.1
 74
0
 49
-0.05
 74
0
 49
0.1
 74
0
 49
-0.05
 74
0
  0
LTYPE
  5
1F8
100
AcDbSymbolTableRecord
100
AcDbLinetypeTableRecord
  2
DOT
 70
64
  3
. . . . . . . . . . . . . . . . . . . .
 72
65
 73
2
 40
0.2
 49
0.1
 74
0
 49
-0.1
 74
0
  0
LTYPE
  5
1F9
100
AcDbSymbolTableRecord
100
AcDbLinetypeTableRecord
  2
DASHED
 70
64
  3
- - - - - - - - - - - - - - - - - - - -
 72
65
 73
2
 40
0.2
 49
0.1
 74
0
 49
-0.1
 74
0
  0
ENDTAB
  0
TABLE
  2
LAYER
  5
2
100
AcDbSymbolTable
 70
36
  0
LAYER
  5
10
100
AcDbSymbolTableRecord
100
AcDbLayerTableRecord
  2
0
 70
0
 62
7
  6
CONTINUOUS
370
-3
390
F
  0
LAYER
  5
1FA
100
AcDbSymbolTableRecord
100
AcDbLayerTableRecord
  2
DEFAULT_1
 70
0
 62
7
  6
CENTER
370
-3
390
F
  0
LAYER
  5
1FB
100
AcDbSymbolTableRecord
100
AcDbLayerTableRecord
  2
DEFAULT_2
 70
0
 62
8
  6
HIDDEN
370
-3
390
F
  0
LAYER
  5
1FC
100
AcDbSymbolTableRecord
100
AcDbLayerTableRecord
  2
DEFAULT_3
 70
0
 62
7
  6
PHANTOM
370
-3
390
F
  0
LAYER
  5
1FD
100
AcDbSymbolTableRecord
100
AcDbLayerTableRecord
  2
ALL_FEATURES
 70
0
 62
7
  6
CONTINUOUS
370
-3
390
F
  0
LAYER
  5
1FE
100
AcDbSymbolTableRecord
100
AcDbLayerTableRecord
  2
AXES_FEATURES
 70
0
 62
7
  6
CONTINUOUS
370
-3
390
F
  0
LAYER
  5
1FF
100
AcDbSymbolTableRecord
100
AcDbLayerTableRecord
  2
DEFAULT_COORDINATE_SYSTEM
 70
0
 62
7
  6
CONTINUOUS
370
-3
390
F
  0
LAYER
  5
200
100
AcDbSymbolTableRecord
100
AcDbLayerTableRecord
  2
DEFAULT_DATUM_AXES
 70
0
 62
7
  6
CONTINUOUS
370
-3
390
F
  0
LAYER
  5
201
100
AcDbSymbolTableRecord
100
AcDbLayerTableRecord
  2
DEFAULT_DATUM_PLANES
 70
0
 62
7
  6
CONTINUOUS
370
-3
390
F
  0
LAYER
  5
202
100
AcDbSymbolTableRecord
100
AcDbLayerTableRecord
  2
DIMENSIONS
 70
0
 62
7
  6
CONTINUOUS
370
-3
390
F
  0
ENDTAB
  0
TABLE
  2
STYLE
  5
3
100
AcDbSymbolTable
 70
1
  0
STYLE
  5
11
100
AcDbSymbolTableRecord
100
AcDbTextStyleTableRecord
  2
STANDARD
 70
0
 40
0.0
 41
0.8
 50
0.0
 71
0
 42
0.2
  3
txt
  4

  0
STYLE
  5
203
100
AcDbSymbolTableRecord
100
AcDbTextStyleTableRecord
  2
TEXTSTYLE_1
 70
0
 40
0.0
 41
0.8
 50
0.0
 71
0
 42
0.2
  3
gdt
  4

  0
ENDTAB
  0
TABLE
  2
VIEW
  5
6
100
AcDbSymbolTable
 70
0
  0
ENDTAB
  0
TABLE
  2
UCS
  5
7
100
AcDbSymbolTable
 70
0
  0
ENDTAB
  0
TABLE
  2
APPID
  5
9
100
AcDbSymbolTable
 70
1
  0
APPID
  5
204
100
AcDbSymbolTableRecord
100
AcDbRegAppTableRecord
  2
ACAD
 70
0
  0
ENDTAB
  0
TABLE
  2
BLOCK_RECORD
  5
1
100
AcDbSymbolTable
 70
0
  0
BLOCK_RECORD
  5
205
100
AcDbSymbolTableRecord
100
AcDbBlockTableRecord
  2
*Model_Space
  0
BLOCK_RECORD
  5
206
100
AcDbSymbolTableRecord
100
AcDbBlockTableRecord
  2
*Paper_Space
  0
BLOCK_RECORD
  5
207
100
AcDbSymbolTableRecord
100
AcDbBlockTableRecord
  2
_FILLED
  0
ENDTAB
  0
TABLE
  2
DIMSTYLE
  5
A
100
AcDbSymbolTable
 70
1
100
AcDbDimStyleTable
 71
0
  0
DIMSTYLE
105
208
100
AcDbSymbolTableRecord
100
AcDbDimStyleTableRecord
  2
STANDARD
 70
0
  3

  4

 40
1.0
 41
0.1
 42
0.0625
 43
0.38
 44
0.125
 45
0.0
 46
0.0
 47
0.001
 48
0.001
140
0.08
141
0.09
142
0.0
143
25.4
144
1.0
145
0.0
146
1.0
147
0.09
 71
1.0
 72
0.0
 73
1
 74
1
 75
0
 76
0
 77
0
 78
4
 79
1
170
1
171
2
172
0
173
0
174
0
175
0
176
0
177
0
178
0
270
2
179
3
271
3
272
3
273
2
274
2
275
0
280
0
281
0
282
0
283
1
284
4
285
0
286
0
287
3
288
0
340
11
278
46
341
207
342
207
343
207
344
207
  0
ENDTAB
  0
ENDSEC
  0
SECTION
  2
BLOCKS
  0
BLOCK
  5
20
100
AcDbEntity
  8
0
100
AcDbBlockBegin
  2
*Model_Space
 70
0
 10
0.0
 20
0.0
 30
0.0
  3
*Model_Space
  1

  0
ENDBLK
  5
21
100
AcDbEntity
  8
0
100
AcDbBlockEnd
  0
BLOCK
  5
1C
100
AcDbEntity
  8
0
100
AcDbBlockBegin
  2
*Paper_Space
 70
0
 10
0.0
 20
0.0
 30
0.0
  3
*Paper_Space
  1

  0
ENDBLK
  5
1D
100
AcDbEntity
  8
0
100
AcDbBlockEnd
  0
BLOCK
  5
209
100
AcDbEntity
  8
0
100
AcDbBlockBegin
  2
_FILLED
 70
64
 10
0.0
 20
0.0
  3
_FILLED
  1

  0
SOLID
  5
20A
100
AcDbEntity
  8
0
  6
BYBLOCK
 62
0
100
AcDbTrace
 10
0.0
 20
0.0
 11
-1.0
 21
0.2
 12
-1.0
 22
-0.2
 13
-1.0
 23
-0.2
  0
ENDBLK
  5
20B
100
AcDbEntity
  8
0
  6
BYBLOCK
 62
0
100
AcDbBlockEnd
  0
ENDSEC
  0
SECTION
  2
ENTITIES
  0
LINE
  5
20C
100
AcDbEntity
  8
0
100
AcDbLine
 62
7
  6
CONTINUOUS
 10
7.7973183383
 20
11.5371481653
 11
7.7973183383
 21
11.7251481653
  0
LINE
  5
20D
100
AcDbEntity
  8
0
100
AcDbLine
 62
7
  6
CONTINUOUS
 10
8.0923183383
 20
5.9591231177
 11
8.0923183383
 21
5.3378028904
  0
LINE
  5
20E
100
AcDbEntity
  8
0
100
AcDbLine
 62
7
  6
CONTINUOUS
 10
9.5873183383
 20
6.164891191
 11
9.5873183383
 21
6.0015495245
  0
LINE
  5
20F
100
AcDbEntity
  8
0
100
AcDbLine
 62
7
  6
CONTINUOUS
 10
9.6098183383
 20
7.9071481653
 11
9.6098183383
 21
8.3471481653
  0
LINE
  5
210
100
AcDbEntity
  8
0
100
AcDbLine
 62
9
  6
CONTINUOUS
 10
9.6398183383
 20
7.8771481653
 11
9.6398183383
 21
8.3771481653
  0
LINE
  5
211
100
AcDbEntity
  8
0
100
AcDbLine
 62
7
  6
CONTINUOUS
 10
9.8223183383
 20
11.4151481653
 11
9.8223183383
 21
11.7251481653
  0
LINE
  5
212
100
AcDbEntity
  8
0
100
AcDbLine
 62
7
  6
CONTINUOUS
 10
9.8523183383
 20
11.0321481653
 11
9.8523183383
 21
11.1353027994
  0
LINE
  5
213
100
AcDbEntity
  8
0
100
AcDbLine
 62
9
  6
CONTINUOUS
 10
9.8623183383
 20
11.3751481653
 11
9.8623183383
 21
11.7251481653
  0
LINE
  5
214
100
AcDbEntity
  8
0
100
AcDbLine
 62
7
  6
CONTINUOUS
 10
9.9023183383
 20
11.2327707428
 11
9.9023183383
 21
11.3751481653
  0
LINE
  5
215
100
AcDbEntity
  8
0
100
AcDbLine
 62
9
  6
CONTINUOUS
 10
9.9123183383
 20
11.0021481653
 11
9.9123183383
 21
11.1326322732
  0
LINE
  5
216
100
AcDbEntity
  8
0
100
AcDbLine
 62
9
  6
CONTINUOUS
 10
9.9623183993
 20
11.1353027994
 11
9.9623183383
 21
11.3751481653
  0
LINE
  5
217
100
AcDbEntity
  8
0
100
AcDbLine
 62
9
  6
CONTINUOUS
 10
9.9204998753
 20
11.133720787
 11
9.9184527637
 21
11.1594121827
  0
LINE
  5
218
100
AcDbEntity
  8
0
100
AcDbLine
 62
7
  6
CONTINUOUS
 10
10.1748183383
 20
10.8346481653
 11
10.1748183383
 21
10.9921481653
  0
LINE
  5
219
100
AcDbEntity
  8
0
100
AcDbLine
 62
9
  6
CONTINUOUS
 10
10.2348183383
 20
10.8046481653
 11
10.2348183383
 21
10.9921481653
  0
LINE
  5
21A
100
AcDbEntity
  8
0
100
AcDbLine
 62
7
  6
CONTINUOUS
 10
10.2973183383
 20
11.0021481653
 11
10.2973183383
 21
10.9921481653
  0
LINE
  5
21B
100
AcDbEntity
  8
0
100
AcDbLine
 62
7
  6
CONTINUOUS
 10
10.3473183383
 20
6.3374252456
 11
10.3473183383
 21
6.2073175979
  0
LINE
  5
21C
100
AcDbEntity
  8
0
100
AcDbLine
 62
7
  6
CONTINUOUS
 10
10.3473183383
 20
6.3657095168
 11
10.3473183383
 21
6.4993526985
  0
LINE
  5
21D
100
AcDbEntity
  8
0
100
AcDbLine
 62
9
  6
CONTINUOUS
 10
10.363339356
 20
10.8046481653
 11
10.363339356
 21
10.7798576107
  0
LINE
  5
21E
100
AcDbEntity
  8
0
100
AcDbLine
 62
7
  6
CONTINUOUS
 10
11.0469126483
 20
6.6521494847
 11
11.0481861345
 21
6.6521500082
  0
LINE
  5
21F
100
AcDbEntity
  8
0
100
AcDbLine
 62
9
  6
CONTINUOUS
 10
10.5669076383
 20
9.0483479274
 11
10.5683183383
 21
9.0184439788
  0
LINE
  5
220
100
AcDbEntity
  8
0
100
AcDbLine
 62
7
  6
CONTINUOUS
 10
10.3973183383
 20
6.3156409678
 11
10.3973183383
 21
6.9305518026
  0
LINE
  5
221
100
AcDbEntity
  8
0
100
AcDbLine
 62
7
  6
CONTINUOUS
 10
10.5083183383
 20
8.8966481653
 11
10.5083183383
 21
9.0235739168
  0
LINE
  5
222
100
AcDbEntity
  8
0
100
AcDbLine
 62
9
  6
CONTINUOUS
 10
10.5273183383
 20
11.0021481653
 11
10.5273183383
 21
10.9921481653
  0
LINE
  5
223
100
AcDbEntity
  8
0
100
AcDbLine
 62
9
  6
CONTINUOUS
 10
10.5683183383
 20
8.8666481653
 11
10.5683183383
 21
9.0184439788
  0
LINE
  5
224
100
AcDbEntity
  8
0
100
AcDbLine
 62
7
  6
CONTINUOUS
 10
10.5948183383
 20
7.2549578692
 11
10.5948183383
 21
7.0271790819
  0
LINE
  5
225
100
AcDbEntity
  8
0
100
AcDbLine
 62
7
  6
CONTINUOUS
 10
10.6410683383
 20
11.3751481653
 11
10.6410683383
 21
7.46040843
  0
LINE
  5
226
100
AcDbEntity
  8
0
100
AcDbLine
 62
7
  6
CONTINUOUS
 10
10.6410685839
 20
7.4298925471
 11
10.6410683383
 21
7.4106885126
  0
LINE
  5
227
100
AcDbEntity
  8
0
100
AcDbLine
 62
7
  6
CONTINUOUS
 10
11.1719427741
 20
6.8589780718
 11
10.9226939025
 21
6.8589780718
  0
LINE
  5
228
100
AcDbEntity
  8
0
100
AcDbLine
 62
9
  6
CONTINUOUS
 10
9.9123183387
 20
11.1326322732
 11
9.9076682351
 21
11.1590935452
  0
LINE
  5
229
100
AcDbEntity
  8
0
100
AcDbLine
 62
7
  6
CONTINUOUS
 10
10.9226939025
 20
6.8589780718
 11
10.9226939025
 21
6.7195876321
  0
LINE
  5
22A
100
AcDbEntity
  8
0
100
AcDbLine
 62
9
  6
CONTINUOUS
 10
10.6410685839
 20
7.4298925471
 11
10.6433954436
 21
7.430840675
  0
LINE
  5
22B
100
AcDbEntity
  8
0
100
AcDbLine
 62
7
  6
CONTINUOUS
 10
10.3042508908
 20
10.7798576107
 11
10.5909887326
 21
9.1536865013
  0
LINE
  5
22C
100
AcDbEntity
  8
0
100
AcDbLine
 62
9
  6
CONTINUOUS
 10
10.363339356
 20
10.7798576107
 11
10.6410683383
 21
9.2047782827
  0
LINE
  5
22D
100
AcDbEntity
  8
0
100
AcDbLine
 62
7
  6
CONTINUOUS
 10
11.1719427741
 20
6.8589780718
 11
11.1719427741
 21
6.7195876321
  0
LINE
  5
22E
100
AcDbEntity
  8
0
100
AcDbLine
 62
9
  6
CONTINUOUS
 10
11.7312973206
 20
10.7798576107
 11
11.4535683383
 21
9.2047782827
  0
LINE
  5
22F
100
AcDbEntity
  8
0
100
AcDbLine
 62
7
  6
CONTINUOUS
 10
11.7903857857
 20
10.7798576107
 11
11.5036479439
 21
9.1536865013
  0
LINE
  5
230
100
AcDbEntity
  8
0
100
AcDbLine
 62
7
  6
CONTINUOUS
 10
9.6398183383
 20
7.8771481653
 11
9.8509589801
 21
7.8771481653
  0
LINE
  5
231
100
AcDbEntity
  8
0
100
AcDbLine
 62
7
  6
CONTINUOUS
 10
12.2437708671
 20
7.8771481653
 11
12.4548183383
 21
7.8771481653
  0
LINE
  5
232
100
AcDbEntity
  8
0
100
AcDbLine
 62
7
  6
CONTINUOUS
 10
11.4998183383
 20
7.2549578692
 11
11.4998183383
 21
7.0271790819
  0
LINE
  5
233
100
AcDbEntity
  8
0
100
AcDbLine
 62
9
  6
CONTINUOUS
 10
11.5263183383
 20
8.8666481653
 11
11.5263183383
 21
9.0184426916
  0
LINE
  5
234
100
AcDbEntity
  8
0
100
AcDbLine
 62
9
  6
CONTINUOUS
 10
11.5673183383
 20
11.0021481653
 11
11.5673183383
 21
10.9921481653
  0
LINE
  5
235
100
AcDbEntity
  8
0
100
AcDbLine
 62
7
  6
CONTINUOUS
 10
11.5863183383
 20
8.8966481653
 11
11.5863183383
 21
9.0235737555
  0
LINE
  5
236
100
AcDbEntity
  8
0
100
AcDbLine
 62
7
  6
CONTINUOUS
 10
11.6973183383
 20
6.3156409678
 11
11.6973183383
 21
6.9305518026
  0
LINE
  5
237
100
AcDbEntity
  8
0
100
AcDbLine
 62
9
  6
CONTINUOUS
 10
11.7312973206
 20
10.8046481653
 11
11.7312973206
 21
10.7798576107
  0
LINE
  5
238
100
AcDbEntity
  8
0
100
AcDbLine
 62
7
  6
CONTINUOUS
 10
11.7473183383
 20
6.3374252456
 11
11.7473183383
 21
6.2073175979
  0
LINE
  5
239
100
AcDbEntity
  8
0
100
AcDbLine
 62
7
  6
CONTINUOUS
 10
11.7473183383
 20
6.3657095168
 11
11.7473183383
 21
6.4993526985
  0
LINE
  5
23A
100
AcDbEntity
  8
0
100
AcDbLine
 62
7
  6
CONTINUOUS
 10
11.7973183383
 20
11.0021481653
 11
11.7973183383
 21
10.9921481653
  0
LINE
  5
23B
100
AcDbEntity
  8
0
100
AcDbLine
 62
7
  6
CONTINUOUS
 10
11.4535683383
 20
11.3751481653
 11
11.4535680927
 21
7.4600925752
  0
LINE
  5
23C
100
AcDbEntity
  8
0
100
AcDbLine
 62
9
  6
CONTINUOUS
 10
11.527726311
 20
9.0483466227
 11
11.5263183381
 21
9.0184426916
  0
LINE
  5
23D
100
AcDbEntity
  8
0
100
AcDbLine
 62
9
  6
CONTINUOUS
 10
12.1823183383
 20
11.1326323125
 11
12.186968688
 21
11.1590935504
  0
LINE
  5
23E
100
AcDbEntity
  8
0
100
AcDbLine
 62
9
  6
CONTINUOUS
 10
9.6098183383
 20
7.9071481653
 11
9.9529637248
 21
7.9071481653
  0
LINE
  5
23F
100
AcDbEntity
  8
0
100
AcDbLine
 62
9
  6
CONTINUOUS
 10
12.1416178646
 20
7.9071481653
 11
12.4848183383
 21
7.9071481653
  0
LINE
  5
240
100
AcDbEntity
  8
0
100
AcDbLine
 62
9
  6
CONTINUOUS
 10
11.8598183383
 20
10.8046481653
 11
11.8598183383
 21
10.9921481653
  0
LINE
  5
241
100
AcDbEntity
  8
0
100
AcDbLine
 62
7
  6
CONTINUOUS
 10
11.9198183383
 20
10.8346481653
 11
11.9198183383
 21
10.9921481653
  0
LINE
  5
242
100
AcDbEntity
  8
0
100
AcDbLine
 62
9
  6
CONTINUOUS
 10
12.1323182825
 20
11.1353027994
 11
12.1323183383
 21
11.3751481653
  0
LINE
  5
243
100
AcDbEntity
  8
0
100
AcDbLine
 62
9
  6
CONTINUOUS
 10
12.1741367432
 20
11.1337207917
 11
12.1761829787
 21
11.1594118344
  0
LINE
  5
244
100
AcDbEntity
  8
0
100
AcDbLine
 62
9
  6
CONTINUOUS
 10
9.6098183383
 20
8.3471481653
 11
10.6410683383
 21
8.3471481653
  0
LINE
  5
245
100
AcDbEntity
  8
0
100
AcDbLine
 62
9
  6
CONTINUOUS
 10
11.4535683383
 20
8.3471481653
 11
12.4848183383
 21
8.3471481653
  0
LINE
  5
246
100
AcDbEntity
  8
0
100
AcDbLine
 62
7
  6
CONTINUOUS
 10
9.6398183383
 20
8.3771481653
 11
10.6410683383
 21
8.3771481653
  0
LINE
  5
247
100
AcDbEntity
  8
0
100
AcDbLine
 62
7
  6
CONTINUOUS
 10
11.4535683383
 20
8.3771481653
 11
12.4548183383
 21
8.3771481653
  0
LINE
  5
248
100
AcDbEntity
  8
0
100
AcDbLine
 62
9
  6
CONTINUOUS
 10
12.1823183383
 20
11.0021481653
 11
12.1823183383
 21
11.1326323125
  0
LINE
  5
249
100
AcDbEntity
  8
0
100
AcDbLine
 62
7
  6
CONTINUOUS
 10
12.1923183383
 20
11.2327707428
 11
12.1923183383
 21
11.3751481653
  0
LINE
  5
24A
100
AcDbEntity
  8
0
100
AcDbLine
 62
9
  6
CONTINUOUS
 10
12.2323183383
 20
11.3751481653
 11
12.2323183383
 21
11.7251481653
  0
LINE
  5
24B
100
AcDbEntity
  8
0
100
AcDbLine
 62
7
  6
CONTINUOUS
 10
12.2423183383
 20
11.0321481653
 11
12.2423183383
 21
11.1353027994
  0
LINE
  5
24C
100
AcDbEntity
  8
0
100
AcDbLine
 62
7
  6
CONTINUOUS
 10
12.2723183383
 20
11.4151481653
 11
12.2723183383
 21
11.7251481653
  0
LINE
  5
24D
100
AcDbEntity
  8
0
100
AcDbLine
 62
9
  6
CONTINUOUS
 10
12.4548183383
 20
8.3771481653
 11
12.4548183383
 21
7.8771481653
  0
LINE
  5
24E
100
AcDbEntity
  8
0
100
AcDbLine
 62
7
  6
CONTINUOUS
 10
12.4848183383
 20
8.3471481653
 11
12.4848183383
 21
7.9071481653
  0
LINE
  5
24F
100
AcDbEntity
  8
0
100
AcDbLine
 62
7
  6
CONTINUOUS
 10
12.5073183383
 20
6.164891191
 11
12.5073183383
 21
6.0015495245
  0
LINE
  5
250
100
AcDbEntity
  8
0
100
AcDbLine
 62
7
  6
CONTINUOUS
 10
11.5563183383
 20
8.8666481653
 11
11.4535683383
 21
8.8666481653
  0
LINE
  5
251
100
AcDbEntity
  8
0
100
AcDbLine
 62
7
  6
CONTINUOUS
 10
10.6410683383
 20
8.8666481653
 11
10.5383183383
 21
8.8666481653
  0
LINE
  5
252
100
AcDbEntity
  8
0
100
AcDbLine
 62
9
  6
CONTINUOUS
 10
11.5863183383
 20
8.8966481653
 11
11.4535683383
 21
8.8966481653
  0
LINE
  5
253
100
AcDbEntity
  8
0
100
AcDbLine
 62
9
  6
CONTINUOUS
 10
10.6410683383
 20
8.8966481653
 11
10.5083183383
 21
8.8966481653
  0
LINE
  5
254
100
AcDbEntity
  8
0
100
AcDbLine
 62
9
  6
CONTINUOUS
 10
11.4535683383
 20
9.4751481653
 11
10.6410683383
 21
9.4751481653
  0
LINE
  5
255
100
AcDbEntity
  8
0
100
AcDbLine
 62
7
  6
CONTINUOUS
 10
14.0023183383
 20
5.9591231177
 11
14.0023183383
 21
5.3378028904
  0
LINE
  5
256
100
AcDbEntity
  8
0
100
AcDbLine
 62
7
  6
CONTINUOUS
 10
14.2973183383
 20
11.5371481653
 11
14.2973183383
 21
11.7251481653
  0
LINE
  5
257
100
AcDbEntity
  8
0
100
AcDbLine
 62
9
  6
CONTINUOUS
 10
11.7312973206
 20
10.7798576107
 11
11.4535683383
 21
10.7798576107
  0
LINE
  5
258
100
AcDbEntity
  8
0
100
AcDbLine
 62
9
  6
CONTINUOUS
 10
10.6410683383
 20
10.7798576107
 11
10.363339356
 21
10.7798576107
  0
LINE
  5
259
100
AcDbEntity
  8
0
100
AcDbLine
 62
7
  6
CONTINUOUS
 10
11.8898183383
 20
10.8046481653
 11
11.4535683383
 21
10.8046481653
  0
LINE
  5
25A
100
AcDbEntity
  8
0
100
AcDbLine
 62
7
  6
CONTINUOUS
 10
10.6410683383
 20
10.8046481653
 11
10.2048183383
 21
10.8046481653
  0
LINE
  5
25B
100
AcDbEntity
  8
0
100
AcDbLine
 62
9
  6
CONTINUOUS
 10
11.9198183383
 20
10.8346481653
 11
11.4535683383
 21
10.8346481653
  0
LINE
  5
25C
100
AcDbEntity
  8
0
100
AcDbLine
 62
9
  6
CONTINUOUS
 10
10.6410683383
 20
10.8346481653
 11
10.1748183383
 21
10.8346481653
  0
LINE
  5
25D
100
AcDbEntity
  8
0
100
AcDbLine
 62
7
  6
CONTINUOUS
 10
10.1748183383
 20
10.9921481653
 11
10.6410683383
 21
10.9921481653
  0
LINE
  5
25E
100
AcDbEntity
  8
0
100
AcDbLine
 62
7
  6
CONTINUOUS
 10
11.4535683383
 20
10.9921481653
 11
11.9198183383
 21
10.9921481653
  0
LINE
  5
25F
100
AcDbEntity
  8
0
100
AcDbLine
 62
7
  6
CONTINUOUS
 10
12.2123183383
 20
11.0021481653
 11
11.4535683383
 21
11.0021481653
  0
LINE
  5
260
100
AcDbEntity
  8
0
100
AcDbLine
 62
7
  6
CONTINUOUS
 10
10.6410683383
 20
11.0021481653
 11
9.8823183383
 21
11.0021481653
  0
LINE
  5
261
100
AcDbEntity
  8
0
100
AcDbLine
 62
9
  6
CONTINUOUS
 10
12.2423183383
 20
11.0321481653
 11
11.4535683383
 21
11.0321481653
  0
LINE
  5
262
100
AcDbEntity
  8
0
100
AcDbLine
 62
9
  6
CONTINUOUS
 10
10.6410683383
 20
11.0321481653
 11
9.8523183383
 21
11.0321481653
  0
LINE
  5
263
100
AcDbEntity
  8
0
100
AcDbLine
 62
9
  6
CONTINUOUS
 10
12.1323182825
 20
11.1353027994
 11
11.4535683383
 21
11.1353027994
  0
LINE
  5
264
100
AcDbEntity
  8
0
100
AcDbLine
 62
9
  6
CONTINUOUS
 10
10.6410683383
 20
11.1353027994
 11
9.9623183993
 21
11.1353027994
  0
LINE
  5
265
100
AcDbEntity
  8
0
100
AcDbLine
 62
9
  6
CONTINUOUS
 10
12.1323183383
 20
11.1596697852
 11
11.4535683383
 21
11.1596697852
  0
LINE
  5
266
100
AcDbEntity
  8
0
100
AcDbLine
 62
9
  6
CONTINUOUS
 10
10.6410683383
 20
11.1596697852
 11
9.9623182466
 21
11.1596697852
  0
LINE
  5
267
100
AcDbEntity
  8
0
100
AcDbLine
 62
9
  6
CONTINUOUS
 10
12.1323183383
 20
11.2327707428
 11
11.4535683383
 21
11.2327707428
  0
LINE
  5
268
100
AcDbEntity
  8
0
100
AcDbLine
 62
9
  6
CONTINUOUS
 10
10.6410683383
 20
11.2327707428
 11
9.9623183383
 21
11.2327707428
  0
LINE
  5
269
100
AcDbEntity
  8
0
100
AcDbLine
 62
7
  6
CONTINUOUS
 10
12.2323183383
 20
11.3751481653
 11
9.8623183383
 21
11.3751481653
  0
LINE
  5
26A
100
AcDbEntity
  8
0
100
AcDbLine
 62
7
  6
CONTINUOUS
 10
14.1823183383
 20
11.4121481653
 11
12.2723183383
 21
11.4121481653
  0
LINE
  5
26B
100
AcDbEntity
  8
0
100
AcDbLine
 62
7
  6
CONTINUOUS
 10
9.8223183383
 20
11.4121481653
 11
7.9123183383
 21
11.4121481653
  0
LINE
  5
26C
100
AcDbEntity
  8
0
100
AcDbLine
 62
9
  6
CONTINUOUS
 10
12.2723183383
 20
11.4151481653
 11
9.8223183383
 21
11.4151481653
  0
LINE
  5
26D
100
AcDbEntity
  8
0
100
AcDbLine
 62
7
  6
CONTINUOUS
 10
14.2973183383
 20
11.5371481653
 11
12.2723183383
 21
11.5371481653
  0
LINE
  5
26E
100
AcDbEntity
  8
0
100
AcDbLine
 62
7
  6
CONTINUOUS
 10
9.8223183383
 20
11.5371481653
 11
7.7973183383
 21
11.5371481653
  0
LINE
  5
26F
100
AcDbEntity
  8
0
100
AcDbLine
 62
7
  6
CONTINUOUS
 10
7.7973183383
 20
11.7251481653
 11
14.2973183383
 21
11.7251481653
  0
ARC
  5
270
100
AcDbEntity
  8
0
100
AcDbCircle
 62
9
  6
CONTINUOUS
 10
11.0414723724
 20
7.9702368537
 40
4.1003703027
100
AcDbArc
 50
262.5954595194
 51
264.1954192547
  0
ARC
  5
271
100
AcDbEntity
  8
0
100
AcDbCircle
 62
9
  6
CONTINUOUS
 10
11.0005390163
 20
7.7437783451
 40
3.827694282
100
AcDbArc
 50
255.9046058759
 51
257.2048605037
  0
ARC
  5
272
100
AcDbEntity
  8
0
100
AcDbCircle
 62
9
  6
CONTINUOUS
 10
10.3428254439
 20
5.9729738061
 40
0.7862520686
100
AcDbArc
 50
163.8372425755
 51
165.7302412777
  0
ARC
  5
273
100
AcDbEntity
  8
0
100
AcDbCircle
 62
9
  6
CONTINUOUS
 10
10.3125707997
 20
5.9797296057
 40
0.7552585111
100
AcDbArc
 50
165.6612043584
 51
179.95397271
  0
ARC
  5
274
100
AcDbEntity
  8
0
100
AcDbCircle
 62
7
  6
CONTINUOUS
 10
10.9974385727
 20
7.4321170485
 40
0.3937654542
100
AcDbArc
 50
243.1275519515
 51
243.9665085488
  0
ARC
  5
275
100
AcDbEntity
  8
0
100
AcDbCircle
 62
7
  6
CONTINUOUS
 10
10.7080367072
 20
6.3657318952
 40
0.3607183696
100
AcDbArc
 50
180.0035545303
 51
184.4851482656
  0
ARC
  5
276
100
AcDbEntity
  8
0
100
AcDbCircle
 62
7
  6
CONTINUOUS
 10
10.7073517895
 20
6.3374202877
 40
0.3600334512
100
AcDbArc
 50
177.745090656
 51
179.9992109966
  0
ARC
  5
277
100
AcDbEntity
  8
0
100
AcDbCircle
 62
7
  6
CONTINUOUS
 10
10.8778709387
 20
7.231519884
 40
0.2882523581
100
AcDbArc
 50
144.9310773922
 51
148.2833955103
  0
ARC
  5
278
100
AcDbEntity
  8
0
100
AcDbCircle
 62
7
  6
CONTINUOUS
 10
10.9133476962
 20
7.3556433464
 40
0.2851244715
100
AcDbArc
 50
220.1301993818
 51
225.5007608731
  0
ARC
  5
279
100
AcDbEntity
  8
0
100
AcDbCircle
 62
7
  6
CONTINUOUS
 10
10.8505220455
 20
7.4612569655
 40
0.2095162587
100
AcDbArc
 50
188.9855513974
 51
193.5573443988
  0
ARC
  5
27A
100
AcDbEntity
  8
0
100
AcDbCircle
 62
7
  6
CONTINUOUS
 10
10.8475732567
 20
7.4607395388
 40
0.2065228498
100
AcDbArc
 50
188.6273887238
 51
188.9715358874
  0
ARC
  5
27B
100
AcDbEntity
  8
0
100
AcDbCircle
 62
7
  6
CONTINUOUS
 10
10.8453343991
 20
7.4604511081
 40
0.2042660648
100
AcDbArc
 50
180.0119710285
 51
188.6416040975
  0
ARC
  5
27C
100
AcDbEntity
  8
0
100
AcDbCircle
 62
7
  6
CONTINUOUS
 10
10.8400290387
 20
7.4116705262
 40
0.1990376625
100
AcDbArc
 50
189.4568944196
 51
194.3051369331
  0
ARC
  5
27D
100
AcDbEntity
  8
0
100
AcDbCircle
 62
7
  6
CONTINUOUS
 10
10.8396600248
 20
7.3120870496
 40
0.1986612462
100
AcDbArc
 50
190.3609567007
 51
194.3474642045
  0
ARC
  5
27E
100
AcDbEntity
  8
0
100
AcDbCircle
 62
7
  6
CONTINUOUS
 10
10.8394394292
 20
7.3617538472
 40
0.1984350873
100
AcDbArc
 50
189.905472945
 51
194.3997185664
  0
ARC
  5
27F
100
AcDbEntity
  8
0
100
AcDbCircle
 62
7
  6
CONTINUOUS
 10
10.8367431465
 20
7.411065151
 40
0.1956969691
100
AcDbArc
 50
188.9621421246
 51
189.4401306462
  0
ARC
  5
280
100
AcDbEntity
  8
0
100
AcDbCircle
 62
7
  6
CONTINUOUS
 10
10.8345210422
 20
7.3112331576
 40
0.1934525054
100
AcDbArc
 50
180.0150392521
 51
190.3859158377
  0
ARC
  5
281
100
AcDbEntity
  8
0
100
AcDbCircle
 62
7
  6
CONTINUOUS
 10
10.8343913815
 20
7.3609431789
 40
0.1933228502
100
AcDbArc
 50
180.0128570373
 51
189.9261591268
  0
ARC
  5
282
100
AcDbEntity
  8
0
100
AcDbCircle
 62
7
  6
CONTINUOUS
 10
10.8342708809
 20
7.410728946
 40
0.1932025188
100
AcDbArc
 50
180.0119908349
 51
188.9778696856
  0
ARC
  5
283
100
AcDbEntity
  8
0
100
AcDbCircle
 62
7
  6
CONTINUOUS
 10
10.8337367317
 20
7.3783453629
 40
0.192669813
100
AcDbArc
 50
184.8483085268
 51
185.1524253146
  0
ARC
  5
284
100
AcDbEntity
  8
0
100
AcDbCircle
 62
7
  6
CONTINUOUS
 10
10.8333299155
 20
7.275756766
 40
0.1922613678
100
AcDbArc
 50
174.6124934437
 51
179.9964719381
  0
ARC
  5
285
100
AcDbEntity
  8
0
100
AcDbCircle
 62
7
  6
CONTINUOUS
 10
10.8332053104
 20
7.3783037289
 40
0.1921367743
100
AcDbArc
 50
180.0019982885
 51
184.8493312538
  0
ARC
  5
286
100
AcDbEntity
  8
0
100
AcDbCircle
 62
7
  6
CONTINUOUS
 10
10.8330927585
 20
7.3270666588
 40
0.1920242224
100
AcDbArc
 50
174.9474451013
 51
184.7366355526
  0
ARC
  5
287
100
AcDbEntity
  8
0
100
AcDbCircle
 62
7
  6
CONTINUOUS
 10
10.833007467
 20
7.2757679813
 40
0.1919389189
100
AcDbArc
 50
179.9998138899
 51
184.1849804725
  0
ARC
  5
288
100
AcDbEntity
  8
0
100
AcDbCircle
 62
7
  6
CONTINUOUS
 10
10.8329650103
 20
7.4295810323
 40
0.1918966793
100
AcDbArc
 50
175.4690781554
 51
179.9069890707
  0
ARC
  5
289
100
AcDbEntity
  8
0
100
AcDbCircle
 62
7
  6
CONTINUOUS
 10
9.6398183383
 20
7.9071481653
 40
0.03
100
AcDbArc
 50
180.0
 51
270.0
  0
ARC
  5
28A
100
AcDbEntity
  8
0
100
AcDbCircle
 62
7
  6
CONTINUOUS
 10
9.6398183383
 20
8.3471481653
 40
0.03
100
AcDbArc
 50
90.0
 51
180.0
  0
ARC
  5
28B
100
AcDbEntity
  8
0
100
AcDbCircle
 62
7
  6
CONTINUOUS
 10
7.7868835557
 20
11.4121481653
 40
0.1254347826
100
AcDbArc
 50
0.0
 51
85.2281119392
  0
ARC
  5
28C
100
AcDbEntity
  8
0
100
AcDbCircle
 62
7
  6
CONTINUOUS
 10
9.8123183383
 20
11.2327707428
 40
0.09
100
AcDbArc
 50
305.685334712
 51
360.0
  0
ARC
  5
28D
100
AcDbEntity
  8
0
100
AcDbCircle
 62
7
  6
CONTINUOUS
 10
10.5023560349
 20
9.1380581653
 40
0.09
100
AcDbArc
 50
287.4388003746
 51
10.0
  0
ARC
  5
28E
100
AcDbEntity
  8
0
100
AcDbCircle
 62
7
  6
CONTINUOUS
 10
9.8623183383
 20
11.4151481653
 40
0.04
100
AcDbArc
 50
180.0
 51
270.0
  0
ARC
  5
28F
100
AcDbEntity
  8
0
100
AcDbCircle
 62
7
  6
CONTINUOUS
 10
9.8823183383
 20
11.1353027994
 40
0.03
100
AcDbArc
 50
125.6853347127
 51
179.9999999999
  0
ARC
  5
290
100
AcDbEntity
  8
0
100
AcDbCircle
 62
7
  6
CONTINUOUS
 10
9.8823183383
 20
11.0321481653
 40
0.03
100
AcDbArc
 50
180.0
 51
270.0
  0
ARC
  5
291
100
AcDbEntity
  8
0
100
AcDbCircle
 62
7
  6
CONTINUOUS
 10
10.2048183383
 20
10.8346481653
 40
0.03
100
AcDbArc
 50
180.0
 51
270.0
  0
ARC
  5
292
100
AcDbEntity
  8
0
100
AcDbCircle
 62
7
  6
CONTINUOUS
 10
10.2747066582
 20
10.7746481653
 40
0.03
100
AcDbArc
 50
10.0
 51
90.0
  0
ARC
  5
293
100
AcDbEntity
  8
0
100
AcDbCircle
 62
7
  6
CONTINUOUS
 10
10.5383183383
 20
9.023573613
 40
0.03
100
AcDbArc
 50
107.4387177335
 51
179.9999448807
  0
ARC
  5
294
100
AcDbEntity
  8
0
100
AcDbCircle
 62
7
  6
CONTINUOUS
 10
10.5383183383
 20
8.8966481653
 40
0.03
100
AcDbArc
 50
180.0
 51
270.0
  0
ARC
  5
295
100
AcDbEntity
  8
0
100
AcDbCircle
 62
9
  6
CONTINUOUS
 10
10.5382977623
 20
9.0184254192
 40
0.029981084
100
AcDbArc
 50
93.6746657743
 51
179.9670663228
  0
ARC
  5
296
100
AcDbEntity
  8
0
100
AcDbCircle
 62
9
  6
CONTINUOUS
 10
9.8822056613
 20
11.133701609
 40
0.0298881911
100
AcDbArc
 50
120.6619957844
 51
179.9632257236
  0
ARC
  5
297
100
AcDbEntity
  8
0
100
AcDbCircle
 62
7
  6
CONTINUOUS
 10
11.386993885
 20
6.3657164519
 40
0.3603244533
100
AcDbArc
 50
355.5124092425
 51
359.9988972499
  0
ARC
  5
298
100
AcDbEntity
  8
0
100
AcDbCircle
 62
7
  6
CONTINUOUS
 10
11.3872847454
 20
6.3374202918
 40
0.3600335929
100
AcDbArc
 50
0.0007883541
 51
2.2549102187
  0
ARC
  5
299
100
AcDbEntity
  8
0
100
AcDbCircle
 62
9
  6
CONTINUOUS
 10
11.0473326269
 20
8.0378706719
 40
4.168251125
100
AcDbArc
 50
264.2183819687
 51
275.7812272137
  0
ARC
  5
29A
100
AcDbEntity
  8
0
100
AcDbCircle
 62
9
  6
CONTINUOUS
 10
11.0538571244
 20
7.9642531554
 40
4.0943472169
100
AcDbArc
 50
275.8034038395
 51
277.4057173864
  0
ARC
  5
29B
100
AcDbEntity
  8
0
100
AcDbCircle
 62
9
  6
CONTINUOUS
 10
11.0962852602
 20
7.734627836
 40
3.8182865201
100
AcDbArc
 50
282.7935375983
 51
284.096996022
  0
ARC
  5
29C
100
AcDbEntity
  8
0
100
AcDbCircle
 62
7
  6
CONTINUOUS
 10
11.2147783581
 20
7.230177485
 40
0.2906500062
100
AcDbArc
 50
33.0245786876
 51
34.7087339452
  0
ARC
  5
29D
100
AcDbEntity
  8
0
100
AcDbCircle
 62
7
  6
CONTINUOUS
 10
11.2172805127
 20
7.4711808243
 40
0.2382013602
100
AcDbArc
 50
332.9014277605
 51
333.605901118
  0
ARC
  5
29E
100
AcDbEntity
  8
0
100
AcDbCircle
 62
7
  6
CONTINUOUS
 10
11.2307358984
 20
7.3870895843
 40
0.2229436137
100
AcDbArc
 50
346.3648044596
 51
347.0235575838
  0
ARC
  5
29F
100
AcDbEntity
  8
0
100
AcDbCircle
 62
7
  6
CONTINUOUS
 10
11.2307818993
 20
7.3374153555
 40
0.2228981604
100
AcDbArc
 50
346.3681805735
 51
346.9881374863
  0
ARC
  5
2A0
100
AcDbEntity
  8
0
100
AcDbCircle
 62
7
  6
CONTINUOUS
 10
11.2328234217
 20
7.3369547318
 40
0.2208053469
100
AcDbArc
 50
346.985319985
 51
350.8476806346
  0
ARC
  5
2A1
100
AcDbEntity
  8
0
100
AcDbCircle
 62
7
  6
CONTINUOUS
 10
11.2329567654
 20
7.3865912772
 40
0.2206675674
100
AcDbArc
 50
347.0201522933
 51
351.2790371685
  0
ARC
  5
2A2
100
AcDbEntity
  8
0
100
AcDbCircle
 62
7
  6
CONTINUOUS
 10
11.2378212004
 20
7.4039111752
 40
0.2157469423
100
AcDbArc
 50
0.0080510234
 51
7.3126526
  0
ARC
  5
2A3
100
AcDbEntity
  8
0
100
AcDbCircle
 62
7
  6
CONTINUOUS
 10
11.2378993883
 20
7.4039812767
 40
0.2156700017
100
AcDbArc
 50
355.1987851684
 51
355.4217546106
  0
ARC
  5
2A4
100
AcDbEntity
  8
0
100
AcDbCircle
 62
7
  6
CONTINUOUS
 10
11.2379988318
 20
7.3013661084
 40
0.2155700993
100
AcDbArc
 50
355.4221909659
 51
356.0032423846
  0
ARC
  5
2A5
100
AcDbEntity
  8
0
100
AcDbCircle
 62
7
  6
CONTINUOUS
 10
11.2380230096
 20
7.3361573913
 40
0.215545134
100
AcDbArc
 50
350.8370864433
 51
359.9905075019
  0
ARC
  5
2A6
100
AcDbEntity
  8
0
100
AcDbCircle
 62
7
  6
CONTINUOUS
 10
11.238070362
 20
7.3858307547
 40
0.2154977808
100
AcDbArc
 50
351.2727607589
 51
359.9920351339
  0
ARC
  5
2A7
100
AcDbEntity
  8
0
100
AcDbCircle
 62
7
  6
CONTINUOUS
 10
11.2383053871
 20
7.3013320055
 40
0.2152627536
100
AcDbArc
 50
0.0015749826
 51
4.6400671846
  0
ARC
  5
2A8
100
AcDbEntity
  8
0
100
AcDbCircle
 62
7
  6
CONTINUOUS
 10
11.2384564979
 20
7.3013387987
 40
0.2151116428
100
AcDbArc
 50
356.0020022316
 51
359.9997666935
  0
ARC
  5
2A9
100
AcDbEntity
  8
0
100
AcDbCircle
 62
7
  6
CONTINUOUS
 10
11.2384697366
 20
7.4039428238
 40
0.215098404
100
AcDbArc
 50
355.4198379967
 51
359.9996450412
  0
ARC
  5
2AA
100
AcDbEntity
  8
0
100
AcDbCircle
 62
7
  6
CONTINUOUS
 10
11.2385016726
 20
7.3526772966
 40
0.2150664681
100
AcDbArc
 50
355.5918702525
 51
4.4213051023
  0
ARC
  5
2AB
100
AcDbEntity
  8
0
100
AcDbCircle
 62
7
  6
CONTINUOUS
 10
11.2327555297
 20
7.4267588925
 40
0.213692556
100
AcDbArc
 50
342.0468976128
 51
352.5806644314
  0
ARC
  5
2AC
100
AcDbEntity
  8
0
100
AcDbCircle
 62
9
  6
CONTINUOUS
 10
11.7535189043
 20
5.9734382923
 40
0.7844825961
100
AcDbArc
 50
14.2676235299
 51
16.1649646662
  0
ARC
  5
2AD
100
AcDbEntity
  8
0
100
AcDbCircle
 62
9
  6
CONTINUOUS
 10
11.7820658767
 20
5.9797296057
 40
0.7552585112
100
AcDbArc
 50
0.0460272924
 51
14.3387956842
  0
ARC
  5
2AE
100
AcDbEntity
  8
0
100
AcDbCircle
 62
7
  6
CONTINUOUS
 10
12.4548183383
 20
7.9071481653
 40
0.03
100
AcDbArc
 50
270.0
 51
360.0
  0
ARC
  5
2AF
100
AcDbEntity
  8
0
100
AcDbCircle
 62
7
  6
CONTINUOUS
 10
12.4548183383
 20
8.3471481653
 40
0.03
100
AcDbArc
 50
0.0
 51
90.0
  0
ARC
  5
2B0
100
AcDbEntity
  8
0
100
AcDbCircle
 62
7
  6
CONTINUOUS
 10
14.3077531209
 20
11.4121481653
 40
0.1254347826
100
AcDbArc
 50
94.7718880608
 51
180.0
  0
ARC
  5
2B1
100
AcDbEntity
  8
0
100
AcDbCircle
 62
7
  6
CONTINUOUS
 10
12.2823183383
 20
11.2327707428
 40
0.09
100
AcDbArc
 50
180.0
 51
234.3146652873
  0
ARC
  5
2B2
100
AcDbEntity
  8
0
100
AcDbCircle
 62
7
  6
CONTINUOUS
 10
11.5922798758
 20
9.1380581653
 40
0.0899995474
100
AcDbArc
 50
169.9999153285
 51
252.5616569302
  0
ARC
  5
2B3
100
AcDbEntity
  8
0
100
AcDbCircle
 62
7
  6
CONTINUOUS
 10
12.2323183383
 20
11.4151481653
 40
0.04
100
AcDbArc
 50
270.0
 51
360.0
  0
ARC
  5
2B4
100
AcDbEntity
  8
0
100
AcDbCircle
 62
7
  6
CONTINUOUS
 10
12.2123183383
 20
11.1353027994
 40
0.03
100
AcDbArc
 50
0.0000000001
 51
54.3146652873
  0
ARC
  5
2B5
100
AcDbEntity
  8
0
100
AcDbCircle
 62
7
  6
CONTINUOUS
 10
12.2123183383
 20
11.0321481653
 40
0.03
100
AcDbArc
 50
270.0
 51
360.0
  0
ARC
  5
2B6
100
AcDbEntity
  8
0
100
AcDbCircle
 62
7
  6
CONTINUOUS
 10
11.8898183383
 20
10.8346481653
 40
0.03
100
AcDbArc
 50
270.0
 51
360.0
  0
ARC
  5
2B7
100
AcDbEntity
  8
0
100
AcDbCircle
 62
7
  6
CONTINUOUS
 10
11.8199300183
 20
10.7746481653
 40
0.03
100
AcDbArc
 50
89.9999999993
 51
169.9999999999
  0
ARC
  5
2B8
100
AcDbEntity
  8
0
100
AcDbCircle
 62
7
  6
CONTINUOUS
 10
11.5563183383
 20
8.8966481653
 40
0.03
100
AcDbArc
 50
270.0
 51
360.0
  0
ARC
  5
2B9
100
AcDbEntity
  8
0
100
AcDbCircle
 62
7
  6
CONTINUOUS
 10
11.5563183383
 20
9.023573613
 40
0.03
100
AcDbArc
 50
0.0006402738
 51
72.56147984
  0
ARC
  5
2BA
100
AcDbEntity
  8
0
100
AcDbCircle
 62
9
  6
CONTINUOUS
 10
11.5563389554
 20
9.0184265895
 40
0.0299810498
100
AcDbArc
 50
0.0330681759
 51
86.3287437267
  0
ARC
  5
2BB
100
AcDbEntity
  8
0
100
AcDbCircle
 62
9
  6
CONTINUOUS
 10
12.2124310361
 20
11.1337015442
 40
0.0298881715
100
AcDbArc
 50
0.0368896332
 51
59.3396086634
  0
SPLINE
  5
2BC
100
AcDbEntity
  8
0
100
AcDbSpline
 62
7
  6
CONTINUOUS
 70
0
 71
3
 72
15
 73
11
 74
0
 42
0.0000001
 43
0.0000001
 44
0.0000000001
 40
0.0
 40
0.0
 40
0.0
 40
0.0
 40
0.1203306633
 40
0.2411405126
 40
0.3628965964
 40
0.4860415341
 40
0.6109834022
 40
0.7380879898
 40
0.8676716797
 40
1.0
 40
1.0
 40
1.0
 40
1.0
 10
10.6410684139
 20
7.2614531794
 30
0.0
 10
10.6410685121
 20
7.2557966871
 30
0.0
 10
10.6415702817
 20
7.244454843
 30
0.0
 10
10.6438242676
 20
7.2275244224
 30
0.0
 10
10.6475706661
 20
7.2107241283
 30
0.0
 10
10.6527951774
 20
7.1941205996
 30
0.0
 10
10.6594764668
 20
7.177776812
 30
0.0
 10
10.6675898564
 20
7.1617554471
 30
0.0
 10
10.6771022462
 20
7.1461175323
 30
0.0
 10
10.6842762026
 20
7.1360957268
 30
0.0
 10
10.6880736366
 20
7.131168879
 30
0.0
  0
SPLINE
  5
2BD
100
AcDbEntity
  8
0
100
AcDbSpline
 62
7
  6
CONTINUOUS
 70
0
 71
3
 72
17
 73
13
 74
0
 42
0.0000001
 43
0.0000001
 44
0.0000000001
 40
0.0
 40
0.0
 40
0.0
 40
0.0
 40
0.0532514667
 40
0.1078744359
 40
0.1639140692
 40
0.2213883779
 40
0.3405255046
 40
0.4650100939
 40
0.5941848788
 40
0.7271490079
 40
0.8628167243
 40
1.0
 40
1.0
 40
1.0
 40
1.0
 10
10.6880736366
 20
7.131168879
 30
0.0
 10
10.6924142636
 20
7.1255372846
 30
0.0
 10
10.7016725654
 20
7.1144805235
 30
0.0
 10
10.7169723269
 20
7.0988042103
 30
0.0
 10
10.7337874186
 20
7.0839001036
 30
0.0
 10
10.7584126529
 20
7.064930476
 30
0.0
 10
10.7926367592
 20
7.0436138786
 30
0.0
 10
10.8378166963
 20
7.0224730495
 30
0.0
 10
10.8867925066
 20
7.005843997
 30
0.0
 10
10.938674922
 20
6.9940437386
 30
0.0
 10
10.9925214891
 20
6.9872987193
 30
0.0
 10
11.0290047646
 20
6.9862694273
 30
0.0
 10
11.0473183383
 20
6.9866262286
 30
0.0
  0
SPLINE
  5
2BE
100
AcDbEntity
  8
0
100
AcDbSpline
 62
7
  6
CONTINUOUS
 70
0
 71
3
 72
11
 73
7
 74
0
 42
0.0000001
 43
0.0000001
 44
0.0000000001
 40
0.0
 40
0.0
 40
0.0
 40
0.0
 40
0.2406714805
 40
0.4866857401
 40
0.7394623664
 40
1.0
 40
1.0
 40
1.0
 40
1.0
 10
10.6471948673
 20
7.2628584616
 30
0.0
 10
10.6492561274
 20
7.2547935056
 30
0.0
 10
10.6544433159
 20
7.2387283136
 30
0.0
 10
10.6651511728
 20
7.2154414168
 30
0.0
 10
10.678768975
 20
7.1929243223
 30
0.0
 10
10.6895430467
 20
7.1787665753
 30
0.0
 10
10.6953467171
 20
7.1718730077
 30
0.0
  0
SPLINE
  5
2BF
100
AcDbEntity
  8
0
100
AcDbSpline
 62
7
  6
CONTINUOUS
 70
0
 71
3
 72
22
 73
18
 74
0
 42
0.0000001
 43
0.0000001
 44
0.0000000001
 40
0.0
 40
0.0
 40
0.0
 40
0.0
 40
0.0507154106
 40
0.1025616034
 40
0.1558274362
 40
0.2107391583
 40
0.2674566487
 40
0.3260737726
 40
0.3866221281
 40
0.4490759969
 40
0.5133580341
 40
0.5793456583
 40
0.6468769581
 40
0.7157579972
 40
0.7857680094
 40
0.8566604007
 40
1.0
 40
1.0
 40
1.0
 40
1.0
 10
10.6472383026
 20
7.3124059918
 30
0.0
 10
10.6493073644
 20
7.3043395588
 30
0.0
 10
10.6545108488
 20
7.2882714645
 30
0.0
 10
10.6652438802
 20
7.2649845544
 30
0.0
 10
10.6788882556
 20
7.2424658944
 30
0.0
 10
10.6953325142
 20
7.2208950899
 30
0.0
 10
10.7144474152
 20
7.2004368037
 30
0.0
 10
10.7360842081
 20
7.1812478777
 30
0.0
 10
10.7600769714
 20
7.1634752107
 30
0.0
 10
10.7862431498
 20
7.1472556787
 30
0.0
 10
10.8143845295
 20
7.1327151155
 30
0.0
 10
10.8442879048
 20
7.1199667365
 30
0.0
 10
10.8757273342
 20
7.1091106415
 30
0.0
 10
10.9084645571
 20
7.1002335376
 30
0.0
 10
10.9422546267
 20
7.0934074974
 30
0.0
 10
10.9885200893
 20
7.0870936895
 30
0.0
 10
11.023786187
 20
7.0856230945
 30
0.0
 10
11.0473183383
 20
7.0860823795
 30
0.0
  0
SPLINE
  5
2C0
100
AcDbEntity
  8
0
100
AcDbSpline
 62
7
  6
CONTINUOUS
 70
0
 71
3
 72
28
 73
24
 74
0
 42
0.0000001
 43
0.0000001
 44
0.0000000001
 40
0.0
 40
0.0
 40
0.0
 40
0.0
 40
0.061610504
 40
0.1256837094
 40
0.158556815
 40
0.1919064237
 40
0.2597561794
 40
0.3286919056
 40
0.3980851362
 40
0.4672778226
 40
0.5356137918
 40
0.6024711235
 40
0.6672947237
 40
0.7296311112
 40
0.7597767147
 40
0.7891961368
 40
0.8457868022
 40
0.8730125378
 40
0.8995500893
 40
0.9254466264
 40
0.9507654543
 40
0.9755855148
 40
1.0
 40
1.0
 40
1.0
 40
1.0
 10
11.3431286757
 20
7.2326816608
 30
0.0
 10
11.3300220377
 20
7.2224636269
 30
0.0
 10
11.3018571283
 20
7.2034029895
 30
0.0
 10
11.2637200911
 20
7.1838305738
 30
0.0
 10
11.2312110397
 20
7.1704328344
 30
0.0
 10
11.1970600996
 20
7.1584847204
 30
0.0
 10
11.1525887689
 20
7.1467956525
 30
0.0
 10
11.0975636497
 20
7.1381252909
 30
0.0
 10
11.0415913179
 20
7.1348656137
 30
0.0
 10
10.9857296376
 20
7.1370575147
 30
0.0
 10
10.9310293478
 20
7.1446389505
 30
0.0
 10
10.8785181208
 20
7.1574495913
 30
0.0
 10
10.8291876682
 20
7.1752302554
 30
0.0
 10
10.7910675514
 20
7.1941169032
 30
0.0
 10
10.7630868132
 20
7.2114296099
 30
0.0
 10
10.7375576955
 20
7.2296211497
 30
0.0
 10
10.714502396
 20
7.2498489531
 30
0.0
 10
10.6945055766
 20
7.2719329825
 30
0.0
 10
10.6813788718
 20
7.2889763918
 30
0.0
 10
10.6700010062
 20
7.306625406
 30
0.0
 10
10.6604265166
 20
7.3247950701
 30
0.0
 10
10.6527041669
 20
7.3433934245
 30
0.0
 10
10.6487893816
 20
7.3561095096
 30
0.0
 10
10.6471628211
 20
7.3624911282
 30
0.0
  0
SPLINE
  5
2C1
100
AcDbEntity
  8
0
100
AcDbSpline
 62
7
  6
CONTINUOUS
 70
0
 71
3
 72
13
 73
9
 74
0
 42
0.0000001
 43
0.0000001
 44
0.0000000001
 40
0.0
 40
0.0
 40
0.0
 40
0.0
 40
0.1170534582
 40
0.2359238299
 40
0.3569075944
 40
0.4802486064
 40
0.7345674937
 40
1.0
 40
1.0
 40
1.0
 40
1.0
 10
11.4360432101
 20
7.3608906336
 30
0.0
 10
11.4341191315
 20
7.3549306373
 30
0.0
 10
11.429729224
 20
7.3430771786
 30
0.0
 10
11.4216471896
 20
7.325754269
 30
0.0
 10
11.4120574304
 20
7.3088295305
 30
0.0
 10
11.3971697965
 20
7.2866634906
 30
0.0
 10
11.3748811889
 20
7.2602930614
 30
0.0
 10
11.3542043177
 20
7.241571072
 30
0.0
 10
11.3431286757
 20
7.2326816608
 30
0.0
  0
SPLINE
  5
2C2
100
AcDbEntity
  8
0
100
AcDbSpline
 62
7
  6
CONTINUOUS
 70
0
 71
3
 72
9
 73
5
 74
0
 42
0.0000001
 43
0.0000001
 44
0.0000000001
 40
0.0
 40
0.0
 40
0.0
 40
0.0
 40
0.4977370992
 40
1.0
 40
1.0
 40
1.0
 40
1.0
 10
11.4535680927
 20
7.4600925752
 30
0.0
 10
11.4535539215
 20
7.4509791235
 30
0.0
 10
11.452287119
 20
7.4326506473
 30
0.0
 10
11.4485864169
 20
7.4146579224
 30
0.0
 10
11.4461570816
 20
7.4057882663
 30
0.0
  0
SPLINE
  5
2C3
100
AcDbEntity
  8
0
100
AcDbSpline
 62
7
  6
CONTINUOUS
 70
0
 71
3
 72
9
 73
5
 74
0
 42
0.0000001
 43
0.0000001
 44
0.0000000001
 40
0.0
 40
0.0
 40
0.0
 40
0.0
 40
0.495683984
 40
1.0
 40
1.0
 40
1.0
 40
1.0
 10
11.4461570816
 20
7.4057882663
 30
0.0
 10
11.4442620989
 20
7.3988695653
 30
0.0
 10
11.4397339343
 20
7.3850962914
 30
0.0
 10
11.4338955914
 20
7.3718277589
 30
0.0
 10
11.4306511796
 20
7.3652900951
 30
0.0
  0
SPLINE
  5
2C4
100
AcDbEntity
  8
0
100
AcDbSpline
 62
7
  6
CONTINUOUS
 70
0
 71
3
 72
18
 73
14
 74
0
 42
0.0000001
 43
0.0000001
 44
0.0000000001
 40
0.0
 40
0.0
 40
0.0
 40
0.0
 40
0.0525134362
 40
0.1063280386
 40
0.1615672762
 40
0.218313362
 40
0.336373122
 40
0.3977424861
 40
0.4605703008
 40
0.590146087
 40
0.7241526939
 40
0.861271147
 40
1.0
 40
1.0
 40
1.0
 40
1.0
 10
11.4293331176
 20
7.3626746919
 30
0.0
 10
11.4257703186
 20
7.3557117916
 30
0.0
 10
11.4178602327
 20
7.3419593245
 30
0.0
 10
11.4039672673
 20
7.3222732283
 30
0.0
 10
11.387991594
 20
7.3034006345
 30
0.0
 10
11.3637317681
 20
7.2791602585
 30
0.0
 10
11.3359315635
 20
7.2573502998
 30
0.0
 10
11.3053479389
 20
7.2381683815
 30
0.0
 10
11.2720194805
 20
7.2202827656
 30
0.0
 10
11.2270154444
 20
7.2015342102
 30
0.0
 10
11.1694576582
 20
7.1852696151
 30
0.0
 10
11.1091013446
 20
7.1753603542
 30
0.0
 10
11.0679809485
 20
7.1731463002
 30
0.0
 10
11.0473183383
 20
7.1731463002
 30
0.0
  0
SPLINE
  5
2C5
100
AcDbEntity
  8
0
100
AcDbSpline
 62
7
  6
CONTINUOUS
 70
0
 71
3
 72
22
 73
18
 74
0
 42
0.0000001
 43
0.0000001
 44
0.0000000001
 40
0.0
 40
0.0
 40
0.0
 40
0.0
 40
0.1419935006
 40
0.212345934
 40
0.2819058648
 40
0.3504289008
 40
0.4176968401
 40
0.4835178749
 40
0.5477330421
 40
0.6102225036
 40
0.6709111034
 40
0.7297747316
 40
0.7868457336
 40
0.8422168167
 40
0.8960439408
 40
0.9485465561
 40
1.0
 40
1.0
 40
1.0
 40
1.0
 10
11.0473183383
 20
7.1731463002
 30
0.0
 10
11.0236624261
 20
7.1731463002
 30
0.0
 10
10.9882319216
 20
7.1753292783
 30
0.0
 10
10.9418148396
 20
7.1826229701
 30
0.0
 10
10.9078999613
 20
7.1902014657
 30
0.0
 10
10.8750506014
 20
7.1998467037
 30
0.0
 10
10.8435145898
 20
7.2114857512
 30
0.0
 10
10.8135329688
 20
7.2250306106
 30
0.0
 10
10.7853341805
 20
7.240379428
 30
0.0
 10
10.7591335743
 20
7.2574169817
 30
0.0
 10
10.7351317897
 20
7.2760159106
 30
0.0
 10
10.7135131614
 20
7.2960369696
 30
0.0
 10
10.6944449398
 20
7.3173306396
 30
0.0
 10
10.6780764423
 20
7.3397370632
 30
0.0
 10
10.6645377918
 20
7.363089088
 30
0.0
 10
10.6539410184
 20
7.3872039851
 30
0.0
 10
10.6488525215
 20
7.4038091011
 30
0.0
 10
10.6468437918
 20
7.4121424906
 30
0.0
  0
SPLINE
  5
2C6
100
AcDbEntity
  8
0
100
AcDbSpline
 62
7
  6
CONTINUOUS
 70
0
 71
3
 72
22
 73
18
 74
0
 42
0.0000001
 43
0.0000001
 44
0.0000000001
 40
0.0
 40
0.0
 40
0.0
 40
0.0
 40
0.0605213605
 40
0.1210608312
 40
0.1816469858
 40
0.2423184801
 40
0.3031367355
 40
0.3641780083
 40
0.4255344756
 40
0.4873010444
 40
0.5495630655
 40
0.6123866862
 40
0.6758036148
 40
0.7398060358
 40
0.8043447443
 40
0.8693254446
 40
1.0
 40
1.0
 40
1.0
 40
1.0
 10
11.4998183383
 20
7.0271790819
 30
0.0
 10
11.4998183383
 20
7.0140387077
 30
0.0
 10
11.4981952396
 20
6.9877254314
 30
0.0
 10
11.490947922
 20
6.948863037
 30
0.0
 10
11.4790512384
 20
6.9111262589
 30
0.0
 10
11.462757172
 20
6.8750098543
 30
0.0
 10
11.4423820843
 20
6.8409192781
 30
0.0
 10
11.4182787163
 20
6.8091754196
 30
0.0
 10
11.3908114044
 20
6.7800181961
 30
0.0
 10
11.360340006
 20
6.7536192452
 30
0.0
 10
11.327209796
 20
6.7301004163
 30
0.0
 10
11.291752413
 20
6.7095491279
 30
0.0
 10
11.2542884932
 20
6.692032579
 30
0.0
 10
11.2151375589
 20
6.6776056082
 30
0.0
 10
11.174615274
 20
6.6663153097
 30
0.0
 10
11.1191309102
 20
6.6554791852
 30
0.0
 10
11.076558109
 20
6.6521938786
 30
0.0
 10
11.0481861345
 20
6.6521500092
 30
0.0
  0
SPLINE
  5
2C7
100
AcDbEntity
  8
0
100
AcDbSpline
 62
7
  6
CONTINUOUS
 70
0
 71
3
 72
22
 73
18
 74
0
 42
0.0000001
 43
0.0000001
 44
0.0000000001
 40
0.0
 40
0.0
 40
0.0
 40
0.0
 40
0.1306762241
 40
0.1956589922
 40
0.260200489
 40
0.3242054483
 40
0.3876243758
 40
0.4504494083
 40
0.5127118008
 40
0.5744776162
 40
0.6358326523
 40
0.6968719059
 40
0.7576878093
 40
0.8183569702
 40
0.8789412179
 40
0.9394790197
 40
1.0
 40
1.0
 40
1.0
 40
1.0
 10
11.0469126483
 20
6.6521494849
 30
0.0
 10
11.018520182
 20
6.6521700108
 30
0.0
 10
10.9759136217
 20
6.6554250033
 30
0.0
 10
10.9203808598
 20
6.6662297597
 30
0.0
 10
10.8798206691
 20
6.6775011798
 30
0.0
 10
10.8406312467
 20
6.6919138979
 30
0.0
 10
10.8031289532
 20
6.7094206876
 30
0.0
 10
10.767633914
 20
6.729966624
 30
0.0
 10
10.7344673438
 20
6.7534844222
 30
0.0
 10
10.7039614169
 20
6.7798866168
 30
0.0
 10
10.676461944
 20
6.8090513637
 30
0.0
 10
10.6523293757
 20
6.840807019
 30
0.0
 10
10.63192877
 20
6.8749135309
 30
0.0
 10
10.6156135863
 20
6.9110497481
 30
0.0
 10
10.6037010304
 20
6.948809694
 30
0.0
 10
10.5964436856
 20
6.9876979619
 30
0.0
 10
10.5948183383
 20
7.0140294798
 30
0.0
 10
10.5948183383
 20
7.0271790819
 30
0.0
  0
SPLINE
  5
2C8
100
AcDbEntity
  8
0
100
AcDbSpline
 62
7
  6
CONTINUOUS
 70
0
 71
3
 72
13
 73
9
 74
0
 42
0.0000001
 43
0.0000001
 44
0.0000000001
 40
0.0
 40
0.0
 40
0.0
 40
0.0
 40
0.1215622809
 40
0.243475423
 40
0.3660835549
 40
0.4897164165
 40
0.7411144282
 40
1.0
 40
1.0
 40
1.0
 40
1.0
 10
11.4998183383
 20
7.2549578692
 30
0.0
 10
11.4998183383
 20
7.2607029389
 30
0.0
 10
11.4993789342
 20
7.2722144555
 30
0.0
 10
11.4974069153
 20
7.2894186308
 30
0.0
 10
11.4941251616
 20
7.3065227088
 30
0.0
 10
11.4879881374
 20
7.3292456744
 30
0.0
 10
11.4770074758
 20
7.3572355496
 30
0.0
 10
11.4651378108
 20
7.378322907
 30
0.0
 10
11.4584700344
 20
7.3885813771
 30
0.0
  0
SPLINE
  5
2C9
100
AcDbEntity
  8
0
100
AcDbSpline
 62
7
  6
CONTINUOUS
 70
0
 71
3
 72
13
 73
9
 74
0
 42
0.0000001
 43
0.0000001
 44
0.0000000001
 40
0.0
 40
0.0
 40
0.0
 40
0.0
 40
0.1218341505
 40
0.243989893
 40
0.366783124
 40
0.4905177998
 40
0.7417936574
 40
1.0
 40
1.0
 40
1.0
 40
1.0
 10
10.5948183383
 20
7.2549578692
 30
0.0
 10
10.5948183383
 20
7.2604506246
 30
0.0
 10
10.5952199041
 20
7.2714548272
 30
0.0
 10
10.5970222707
 20
7.2879060387
 30
0.0
 10
10.6000221917
 20
7.3042699095
 30
0.0
 10
10.6056315747
 20
7.3260172955
 30
0.0
 10
10.6156680557
 20
7.3528438554
 30
0.0
 10
10.6265477769
 20
7.3731562473
 30
0.0
 10
10.6326665364
 20
7.3830593939
 30
0.0
  0
SPLINE
  5
2CA
100
AcDbEntity
  8
0
100
AcDbSpline
 62
7
  6
CONTINUOUS
 70
0
 71
3
 72
51
 73
47
 74
0
 42
0.0000001
 43
0.0000001
 44
0.0000000001
 40
0.0
 40
0.0
 40
0.0
 40
0.0
 40
0.0130495117
 40
0.026152205
 40
0.0393321542
 40
0.0526125894
 40
0.0660151441
 40
0.0795596853
 40
0.0932646367
 40
0.1071464699
 40
0.1212196365
 40
0.1354963924
 40
0.1499868056
 40
0.1646987126
 40
0.1947983589
 40
0.225823358
 40
0.2577585394
 40
0.2905579911
 40
0.324148698
 40
0.3584342916
 40
0.3932989718
 40
0.4286114177
 40
0.464228759
 40
0.5000004606
 40
0.5357721547
 40
0.5713894734
 40
0.6067018819
 40
0.641566511
 40
0.6758520395
 40
0.7094426711
 40
0.742242039
 40
0.7741771329
 40
0.8052020426
 40
0.8353016019
 40
0.8500134681
 40
0.8645038408
 40
0.8787805589
 40
0.8928536902
 40
0.9067354908
 40
0.9204404124
 40
0.9339849267
 40
0.9473874587
 40
0.9606678752
 40
0.9738478078
 40
0.9869504903
 40
1.0
 40
1.0
 40
1.0
 40
1.0
 10
11.7462136928
 20
6.337523521
 30
0.0
 10
11.7455870086
 20
6.3295318464
 30
0.0
 10
11.743797892
 20
6.3135526819
 30
0.0
 10
11.7395271441
 20
6.2897549403
 30
0.0
 10
11.7336808374
 20
6.2661475745
 30
0.0
 10
11.7262741644
 20
6.2427898023
 30
0.0
 10
11.7173309708
 20
6.2197362251
 30
0.0
 10
11.7068744145
 20
6.1970416475
 30
0.0
 10
11.694934831
 20
6.1747571593
 30
0.0
 10
11.6815426799
 20
6.1529329913
 30
0.0
 10
11.6667333173
 20
6.1316161924
 30
0.0
 10
11.6505433776
 20
6.1108528766
 30
0.0
 10
11.6330120882
 20
6.0906862342
 30
0.0
 10
11.607716229
 20
6.064453569
 30
0.0
 10
11.5728835535
 20
6.0333987281
 30
0.0
 10
11.5267883664
 20
5.9994605685
 30
0.0
 10
11.4764845983
 20
5.9688292689
 30
0.0
 10
11.4224197315
 20
5.9417542944
 30
0.0
 10
11.3650672206
 20
5.9184544479
 30
0.0
 10
11.304929047
 20
5.8991208726
 30
0.0
 10
11.2425312108
 20
5.8839133967
 30
0.0
 10
11.1784201323
 20
5.8729587957
 30
0.0
 10
11.1131579499
 20
5.8663489367
 30
0.0
 10
11.0473175154
 20
5.8641394715
 30
0.0
 10
10.9814770984
 20
5.8663490422
 30
0.0
 10
10.916214968
 20
5.8729590022
 30
0.0
 10
10.8521039744
 20
5.8839136954
 30
0.0
 10
10.7897062547
 20
5.8991212502
 30
0.0
 10
10.7295682246
 20
5.9184548869
 30
0.0
 10
10.6722158787
 20
5.9417547732
 30
0.0
 10
10.6181511894
 20
5.9688297636
 30
0.0
 10
10.567847604
 20
5.9994610537
 30
0.0
 10
10.5217525864
 20
6.0333991705
 30
0.0
 10
10.4869200542
 20
6.064453969
 30
0.0
 10
10.4616242701
 20
6.0906865634
 30
0.0
 10
10.4440930639
 20
6.1108531811
 30
0.0
 10
10.4279031641
 20
6.1316164392
 30
0.0
 10
10.4130938668
 20
6.1529332044
 30
0.0
 10
10.3997017463
 20
6.1747573205
 30
0.0
 10
10.3877622049
 20
6.1970417692
 30
0.0
 10
10.3773056706
 20
6.2197363029
 30
0.0
 10
10.3683624976
 20
6.2427898432
 30
0.0
 10
10.3609558386
 20
6.2661475822
 30
0.0
 10
10.3551095349
 20
6.2897549196
 30
0.0
 10
10.3508387907
 20
6.3135526435
 30
0.0
 10
10.349049673
 20
6.3295317998
 30
0.0
 10
10.3484229879
 20
6.3375234732
 30
0.0
  0
SPLINE
  5
2CB
100
AcDbEntity
  8
0
100
AcDbSpline
 62
7
  6
CONTINUOUS
 70
0
 71
3
 72
22
 73
18
 74
0
 42
0.0000001
 43
0.0000001
 44
0.0000000001
 40
0.0
 40
0.0
 40
0.0
 40
0.0
 40
0.0541266284
 40
0.1085490108
 40
0.1635505427
 40
0.2193951258
 40
0.2763159907
 40
0.3345103407
 40
0.3941341921
 40
0.4553002449
 40
0.518077252
 40
0.5824910334
 40
0.6485267081
 40
0.7161315459
 40
0.785218484
 40
0.8556698337
 40
1.0
 40
1.0
 40
1.0
 40
1.0
 10
12.5073183383
 20
6.164891191
 30
0.0
 10
12.5073183383
 20
6.1923396742
 30
0.0
 10
12.5042653486
 20
6.2474345821
 30
0.0
 10
12.4905783174
 20
6.329395719
 30
0.0
 10
12.4678918347
 20
6.4102446594
 30
0.0
 10
12.4363872771
 20
6.4894358121
 30
0.0
 10
12.3963039948
 20
6.5664695346
 30
0.0
 10
12.3479327513
 20
6.6408723535
 30
0.0
 10
12.2916078065
 20
6.7122022167
 30
0.0
 10
12.22770291
 20
6.7800448531
 30
0.0
 10
12.1566283727
 20
6.8440122591
 30
0.0
 10
12.0788298092
 20
6.9037412199
 30
0.0
 10
11.9947863657
 20
6.9588933811
 30
0.0
 10
11.9050127302
 20
7.0091547187
 30
0.0
 10
11.8100457055
 20
7.0542410257
 30
0.0
 10
11.6762396728
 20
7.1075207067
 30
0.0
 10
11.5713936253
 20
7.1382907769
 30
0.0
 10
11.5000969635
 20
7.1548399887
 30
0.0
  0
SPLINE
  5
2CC
100
AcDbEntity
  8
0
100
AcDbSpline
 62
7
  6
CONTINUOUS
 70
0
 71
3
 72
22
 73
18
 74
0
 42
0.0000001
 43
0.0000001
 44
0.0000000001
 40
0.0
 40
0.0
 40
0.0
 40
0.0
 40
0.1443302401
 40
0.2147816334
 40
0.2838686142
 40
0.3514734911
 40
0.4175091977
 40
0.4819230015
 40
0.5447000192
 40
0.60586607
 40
0.665489906
 40
0.7236842289
 40
0.7806050569
 40
0.8364495951
 40
0.8914510794
 40
0.9458734133
 40
1.0
 40
1.0
 40
1.0
 40
1.0
 10
10.5945522227
 20
7.1548428982
 30
0.0
 10
10.5232548113
 20
7.138294019
 30
0.0
 10
10.4184076208
 20
7.1075243475
 30
0.0
 10
10.2846000596
 20
7.0542450001
 30
0.0
 10
10.1896319109
 20
7.0091588435
 30
0.0
 10
10.0998571822
 20
6.9588975628
 30
0.0
 10
10.0158126886
 20
6.9037453687
 30
0.0
 10
9.9380131304
 20
6.8440162895
 30
0.0
 10
9.866937665
 20
6.7800486844
 30
0.0
 10
9.8030319171
 20
6.7122057734
 30
0.0
 10
9.746706207
 20
6.640875565
 30
0.0
 10
9.6983342926
 20
6.5664723358
 30
0.0
 10
9.6582504435
 20
6.4894381431
 30
0.0
 10
9.6267454297
 20
6.4102464668
 30
0.0
 10
9.6040586129
 20
6.3293969566
 30
0.0
 10
9.5903713746
 20
6.2474352123
 30
0.0
 10
9.5873183383
 20
6.1923398846
 30
0.0
 10
9.5873183383
 20
6.164891191
 30
0.0
  0
SPLINE
  5
2CD
100
AcDbEntity
  8
0
100
AcDbSpline
 62
7
  6
CONTINUOUS
 70
0
 71
3
 72
31
 73
27
 74
0
 42
0.0000001
 43
0.0000001
 44
0.0000000001
 40
0.0
 40
0.0
 40
0.0
 40
0.0
 40
0.0262789691
 40
0.052609662
 40
0.0790378156
 40
0.1056126656
 40
0.1323802716
 40
0.1593838317
 40
0.1866640271
 40
0.2142581956
 40
0.2422000062
 40
0.2705192446
 40
0.299241662
 40
0.3283888521
 40
0.3579781658
 40
0.3880228229
 40
0.4185318734
 40
0.4495103185
 40
0.5128616464
 40
0.5780577223
 40
0.6450093111
 40
0.7135794281
 40
0.7835898423
 40
0.8548276839
 40
0.9270519727
 40
1.0
 40
1.0
 40
1.0
 40
1.0
 10
14.0023183383
 20
5.9591231177
 30
0.0
 10
14.0023183383
 20
5.9905715736
 30
0.0
 10
14.0003254189
 20
6.0535484394
 30
0.0
 10
13.9913709931
 20
6.1477691431
 30
0.0
 10
13.9764684759
 20
6.2415955363
 30
0.0
 10
13.9556534958
 20
6.334823313
 30
0.0
 10
13.9289752107
 20
6.427261223
 30
0.0
 10
13.8964926001
 20
6.5187171375
 30
0.0
 10
13.8582793028
 20
6.6090037092
 30
0.0
 10
13.8144204694
 20
6.6979382592
 30
0.0
 10
13.7650104733
 20
6.7853415332
 30
0.0
 10
13.710156579
 20
6.871040059
 30
0.0
 10
13.649974906
 20
6.9548645407
 30
0.0
 10
13.5845910211
 20
7.0366500099
 30
0.0
 10
13.5141413119
 20
7.1162377532
 30
0.0
 10
13.4387702319
 20
7.1934721271
 30
0.0
 10
13.3586298618
 20
7.2682049285
 30
0.0
 10
13.2448006385
 20
7.3650302467
 30
0.0
 10
13.0912415197
 20
7.4788903897
 30
0.0
 10
12.8921664734
 20
7.6022608298
 30
0.0
 10
12.6784737632
 20
7.712471646
 30
0.0
 10
12.4518672981
 20
7.808673049
 30
0.0
 10
12.2141381336
 20
7.8901295874
 30
0.0
 10
11.9671642683
 20
7.9562138962
 30
0.0
 10
11.7129136875
 20
8.0064137818
 30
0.0
 10
11.5405086677
 20
8.0289510587
 30
0.0
 10
11.4536306565
 20
8.0375044856
 30
0.0
  0
SPLINE
  5
2CE
100
AcDbEntity
  8
0
100
AcDbSpline
 62
7
  6
CONTINUOUS
 70
0
 71
3
 72
31
 73
27
 74
0
 42
0.0000001
 43
0.0000001
 44
0.0000000001
 40
0.0
 40
0.0
 40
0.0
 40
0.0
 40
0.0729480413
 40
0.1451723359
 40
0.2164101763
 40
0.2864205845
 40
0.3549906918
 40
0.4219422678
 40
0.48713833
 40
0.550489645
 40
0.5814680843
 40
0.6119771298
 40
0.6420217823
 40
0.6716110926
 40
0.7007582803
 40
0.7294806962
 40
0.7577999347
 40
0.7857417465
 40
0.8133359177
 40
0.8406161171
 40
0.8676196825
 40
0.8943872951
 40
0.9209621534
 40
0.947390316
 40
0.9737210194
 40
1.0
 40
1.0
 40
1.0
 40
1.0
 10
10.6409990245
 20
8.0375037949
 30
0.0
 10
10.5541211804
 20
8.0289502435
 30
0.0
 10
10.3817165128
 20
8.0064127145
 30
0.0
 10
10.1274664887
 20
7.9562125158
 30
0.0
 10
9.8804932119
 20
7.8901279511
 30
0.0
 10
9.6427646527
 20
7.8086712276
 30
0.0
 10
9.416158797
 20
7.7124697103
 30
0.0
 10
9.202466696
 20
7.6022588344
 30
0.0
 10
9.0033922432
 20
7.4788883972
 30
0.0
 10
8.8498335958
 20
7.3650283126
 30
0.0
 10
8.7360047316
 20
7.2682030676
 30
0.0
 10
8.6558646126
 20
7.1934703386
 30
0.0
 10
8.5804937807
 20
7.1162360397
 30
0.0
 10
8.5100442959
 20
7.0366483926
 30
0.0
 10
8.4446606244
 20
6.9548630263
 30
0.0
 10
8.3844791515
 20
6.8710386553
 30
0.0
 10
8.3296254334
 20
6.7853402535
 30
0.0
 10
8.2802156023
 20
6.6979371066
 30
0.0
 10
8.2363569117
 20
6.6090026923
 30
0.0
 10
8.1981437378
 20
6.5187162612
 30
0.0
 10
8.1656612343
 20
6.4272604901
 30
0.0
 10
8.1389830333
 20
6.3348227269
 30
0.0
 10
8.1181681203
 20
6.2415950977
 30
0.0
 10
8.1032656495
 20
6.147768852
 30
0.0
 10
8.0943112515
 20
6.0535482946
 30
0.0
 10
8.0923183383
 20
5.9905715258
 30
0.0
 10
8.0923183383
 20
5.9591231177
 30
0.0
  0
SPLINE
  5
2CF
100
AcDbEntity
  8
0
100
AcDbSpline
 62
7
  6
CONTINUOUS
 70
0
 71
3
 72
57
 73
53
 74
0
 42
0.0000001
 43
0.0000001
 44
0.0000000001
 40
0.0
 40
0.0
 40
0.0
 40
0.0
 40
0.0129407473
 40
0.0259117008
 40
0.0389404288
 40
0.0520557462
 40
0.0652842609
 40
0.0786509455
 40
0.0921788765
 40
0.1058887976
 40
0.1197989888
 40
0.1339251341
 40
0.1482802174
 40
0.1628744862
 40
0.1777154857
 40
0.1928080913
 40
0.2237457969
 40
0.2395969434
 40
0.2556942508
 40
0.2885901127
 40
0.3053762674
 40
0.3223693841
 40
0.3569128086
 40
0.3920992095
 40
0.4277830661
 40
0.4638057679
 40
0.5000000446
 40
0.5361943205
 40
0.57221702
 40
0.6079008731
 40
0.6430872689
 40
0.6776306872
 40
0.6946238004
 40
0.7114099516
 40
0.7443058053
 40
0.7604031086
 40
0.7762542507
 40
0.8071919476
 40
0.8222845488
 40
0.837125544
 40
0.8517198086
 40
0.8660748879
 40
0.8802010294
 40
0.8941112171
 40
0.907821135
 40
0.9213490631
 40
0.9347157451
 40
0.9479442576
 40
0.9610595734
 40
0.9740883002
 40
0.9870592529
 40
1.0
 40
1.0
 40
1.0
 40
1.0
 10
8.0923183383
 20
5.3378028904
 30
0.0
 10
8.0923183383
 20
5.3033201696
 30
0.0
 10
8.0947151391
 20
5.2342504405
 30
0.0
 10
8.105483126
 20
5.1309688602
 30
0.0
 10
8.1233974792
 20
5.0282081679
 30
0.0
 10
8.1484065271
 20
4.9262364476
 30
0.0
 10
8.1804412432
 20
4.8253058068
 30
0.0
 10
8.2194137622
 20
4.7256671618
 30
0.0
 10
8.2652196601
 20
4.6275648114
 30
0.0
 10
8.3177377493
 20
4.5312365079
 30
0.0
 10
8.376830819
 20
4.4369129482
 30
0.0
 10
8.4423478344
 20
4.3448185185
 30
0.0
 10
8.5141236517
 20
4.2551703514
 30
0.0
 10
8.5919777474
 20
4.16817873
 30
0.0
 10
8.6757211851
 20
4.0840441297
 30
0.0
 10
8.7959258704
 20
3.9750571688
 30
0.0
 10
8.9262583103
 20
3.8735545269
 30
0.0
 10
9.0652689506
 20
3.7799069574
 30
0.0
 10
9.2127963628
 20
3.6898590524
 30
0.0
 10
9.368293963
 20
3.6084319983
 30
0.0
 10
9.5304605336
 20
3.5357679043
 30
0.0
 10
9.6994869968
 20
3.4680126117
 30
0.0
 10
9.9189042603
 20
3.3947242424
 30
0.0
 10
10.1914738854
 20
3.3258444888
 30
0.0
 10
10.4721926047
 20
3.2761795191
 30
0.0
 10
10.7583806767
 20
3.2461946406
 30
0.0
 10
11.0473186932
 20
3.2361680678
 30
0.0
 10
11.3362567025
 20
3.2461946845
 30
0.0
 10
11.6224447503
 20
3.2761796225
 30
0.0
 10
11.9031634348
 20
3.3258446213
 30
0.0
 10
12.175733009
 20
3.3947244164
 30
0.0
 10
12.3951502214
 20
3.4680128131
 30
0.0
 10
12.5641766418
 20
3.5357681175
 30
0.0
 10
12.7263431673
 20
3.6084322138
 30
0.0
 10
12.8818407116
 20
3.6898592832
 30
0.0
 10
13.029368078
 20
3.7799071778
 30
0.0
 10
13.168378662
 20
3.8735547491
 30
0.0
 10
13.2987110555
 20
3.9750573741
 30
0.0
 10
13.4189156919
 20
4.08404432
 30
0.0
 10
13.5026590929
 20
4.1681789081
 30
0.0
 10
13.5805131607
 20
4.2551705097
 30
0.0
 10
13.6522889497
 20
4.3448186588
 30
0.0
 10
13.7178059367
 20
4.4369130714
 30
0.0
 10
13.7768989873
 20
4.5312366096
 30
0.0
 10
13.829417059
 20
4.6275648934
 30
0.0
 10
13.8752229401
 20
4.7256672261
 30
0.0
 10
13.9141954497
 20
4.825305853
 30
0.0
 10
13.9462301586
 20
4.9262364784
 30
0.0
 10
13.9712392004
 20
5.0282081863
 30
0.0
 10
13.9891535519
 20
5.130968869
 30
0.0
 10
13.9999215376
 20
5.2342504436
 30
0.0
 10
14.0023183383
 20
5.3033201701
 30
0.0
 10
14.0023183383
 20
5.3378028904
 30
0.0
  0
SPLINE
  5
2D0
100
AcDbEntity
  8
0
100
AcDbSpline
 62
7
  6
CONTINUOUS
 70
0
 71
3
 72
15
 73
11
 74
0
 42
0.0000001
 43
0.0000001
 44
0.0000000001
 40
0.0
 40
0.0
 40
0.0
 40
0.0
 40
0.1105703397
 40
0.2261364122
 40
0.3465174783
 40
0.4712876191
 40
0.5998334698
 40
0.7313936329
 40
0.8650952734
 40
1.0
 40
1.0
 40
1.0
 40
1.0
 10
10.7135040132
 20
7.1522755351
 30
0.0
 10
10.7230162446
 20
7.1429074547
 30
0.0
 10
10.7437631438
 20
7.1250265057
 30
0.0
 10
10.778543022
 20
7.1016163372
 30
0.0
 10
10.817183787
 20
7.0813421608
 30
0.0
 10
10.8591249721
 20
7.0645065361
 30
0.0
 10
10.9037668981
 20
7.0513566362
 30
0.0
 10
10.9504704619
 20
7.0420924241
 30
0.0
 10
10.998561663
 20
7.0368581696
 30
0.0
 10
11.0310324228
 20
7.036116137
 30
0.0
 10
11.0473183383
 20
7.0364348885
 30
0.0
  0
SPLINE
  5
2D1
100
AcDbEntity
  8
0
100
AcDbSpline
 62
7
  6
CONTINUOUS
 70
0
 71
3
 72
13
 73
9
 74
0
 42
0.0000001
 43
0.0000001
 44
0.0000000001
 40
0.0
 40
0.0
 40
0.0
 40
0.0
 40
0.2571023812
 40
0.3848644877
 40
0.5115353475
 40
0.636730213
 40
0.7600968201
 40
1.0
 40
1.0
 40
1.0
 40
1.0
 10
11.0473183383
 20
6.9866262286
 30
0.0
 10
11.069294922
 20
6.987054396
 30
0.0
 10
11.1021982892
 20
6.9895816306
 30
0.0
 10
11.1453626577
 20
6.9967193485
 30
0.0
 10
11.1770351124
 20
7.0038996625
 30
0.0
 10
11.2078570231
 20
7.0128755485
 30
0.0
 10
11.2471649412
 20
7.0270246399
 30
0.0
 10
11.2753619752
 20
7.0403328399
 30
0.0
 10
11.2932402684
 20
7.0503847042
 30
0.0
  0
SPLINE
  5
2D2
100
AcDbEntity
  8
0
100
AcDbSpline
 62
7
  6
CONTINUOUS
 70
0
 71
3
 72
19
 73
15
 74
0
 42
0.0000001
 43
0.0000001
 44
0.0000000001
 40
0.0
 40
0.0
 40
0.0
 40
0.0
 40
0.1403541671
 40
0.2758340215
 40
0.4063245824
 40
0.5319839732
 40
0.593167298
 40
0.6533378964
 40
0.7125996782
 40
0.7710729635
 40
0.8288945869
 40
0.886214288
 40
0.943193297
 40
1.0
 40
1.0
 40
1.0
 40
1.0
 10
11.2932402684
 20
7.0503847042
 30
0.0
 10
11.3054356181
 20
7.0572413989
 30
0.0
 10
11.3287663593
 20
7.0718968073
 30
0.0
 10
11.3606506828
 20
7.0970034387
 30
0.0
 10
11.3884266258
 20
7.1245627477
 30
0.0
 10
11.4080144013
 20
7.1495238139
 30
0.0
 10
11.4211908842
 20
7.1703438113
 30
0.0
 10
11.4297501245
 20
7.1862006495
 30
0.0
 10
11.4370435436
 20
7.2023823637
 30
0.0
 10
11.4430448091
 20
7.2188383195
 30
0.0
 10
11.4477351736
 20
7.2355142253
 30
0.0
 10
11.4510962442
 20
7.2523569196
 30
0.0
 10
11.4531185088
 20
7.2693095659
 30
0.0
 10
11.4535681405
 20
7.2806570483
 30
0.0
 10
11.4535681407
 20
7.2863196364
 30
0.0
  0
SPLINE
  5
2D3
100
AcDbEntity
  8
0
100
AcDbSpline
 62
7
  6
CONTINUOUS
 70
0
 71
3
 72
21
 73
17
 74
0
 42
0.0000001
 43
0.0000001
 44
0.0000000001
 40
0.0
 40
0.0
 40
0.0
 40
0.0
 40
0.1405001701
 40
0.2102458624
 40
0.2793008882
 40
0.4143303984
 40
0.4799814002
 40
0.5441457476
 40
0.6067054163
 40
0.6675854006
 40
0.7267593743
 40
0.7842542187
 40
0.8401536409
 40
0.8946008135
 40
0.9477975304
 40
1.0
 40
1.0
 40
1.0
 40
1.0
 10
11.0473183383
 20
7.0364348885
 30
0.0
 10
11.0709080714
 20
7.0368965921
 30
0.0
 10
11.1062176374
 20
7.0397591606
 30
0.0
 10
11.1524302776
 20
7.0479165417
 30
0.0
 10
11.1971375314
 20
7.0587799465
 30
0.0
 10
11.2400655043
 20
7.0737464602
 30
0.0
 10
11.2803041788
 20
7.0927645548
 30
0.0
 10
11.3084474346
 20
7.1086916408
 30
0.0
 10
11.3346129979
 20
7.1262971753
 30
0.0
 10
11.3586042385
 20
7.145456086
 30
0.0
 10
11.3802377557
 20
7.1660309097
 30
0.0
 10
11.3993475138
 20
7.1878742289
 30
0.0
 10
11.4157847154
 20
7.2108284514
 30
0.0
 10
11.429420459
 20
7.234727988
 30
0.0
 10
11.4401442586
 20
7.2593927456
 30
0.0
 10
11.4453350246
 20
7.2763628613
 30
0.0
 10
11.4474010773
 20
7.2848823026
 30
0.0
  0
SPLINE
  5
2D4
100
AcDbEntity
  8
0
100
AcDbSpline
 62
7
  6
CONTINUOUS
 70
0
 71
3
 72
18
 73
14
 74
0
 42
0.0000001
 43
0.0000001
 44
0.0000000001
 40
0.0
 40
0.0
 40
0.0
 40
0.0
 40
0.1363293553
 40
0.2715223851
 40
0.4042632263
 40
0.533373711
 40
0.5962908825
 40
0.6579711337
 40
0.7773016324
 40
0.8349592286
 40
0.8912610411
 40
0.9462497696
 40
1.0
 40
1.0
 40
1.0
 40
1.0
 10
11.0473183383
 20
7.0860823795
 30
0.0
 10
11.0668328962
 20
7.0864632517
 30
0.0
 10
11.105690085
 20
7.0891999511
 30
0.0
 10
11.1628037912
 20
7.0991777395
 30
0.0
 10
11.2175599661
 20
7.1148455091
 30
0.0
 10
11.2606712436
 20
7.1325617933
 30
0.0
 10
11.2929080505
 20
7.1493469059
 30
0.0
 10
11.3228374955
 20
7.1673735117
 30
0.0
 10
11.3503838384
 20
7.1878046447
 30
0.0
 10
11.3749325212
 20
7.2104885778
 30
0.0
 10
11.3914396829
 20
7.2282028894
 30
0.0
 10
11.4061592757
 20
7.2467172285
 30
0.0
 10
11.414825212
 20
7.2596768967
 30
0.0
 10
11.4188205797
 20
7.2662538669
 30
0.0
  0
SPLINE
  5
2D5
100
AcDbEntity
  8
0
100
AcDbSpline
 62
7
  6
CONTINUOUS
 70
0
 71
3
 72
11
 73
7
 74
0
 42
0.0000001
 43
0.0000001
 44
0.0000000001
 40
0.0
 40
0.0
 40
0.0
 40
0.0
 40
0.2556376399
 40
0.5071360463
 40
0.7550458553
 40
1.0
 40
1.0
 40
1.0
 40
1.0
 10
11.4188205797
 20
7.2662538669
 30
0.0
 10
11.4221074109
 20
7.2716644804
 30
0.0
 10
11.428245597
 20
7.2826363815
 30
0.0
 10
11.4361376314
 20
7.2996068344
 30
0.0
 10
11.4426037076
 20
7.3168885622
 30
0.0
 10
11.4459661435
 20
7.3286378658
 30
0.0
 10
11.4473961527
 20
7.3345330523
 30
0.0
  0
SPLINE
  5
2D6
100
AcDbEntity
  8
0
100
AcDbSpline
 62
7
  6
CONTINUOUS
 70
0
 71
3
 72
12
 73
8
 74
0
 42
0.0000001
 43
0.0000001
 44
0.0000000001
 40
0.0
 40
0.0
 40
0.0
 40
0.0
 40
0.1161181841
 40
0.2345899979
 40
0.4789715176
 40
0.7340824321
 40
1.0
 40
1.0
 40
1.0
 40
1.0
 10
11.6973183383
 20
6.9305518026
 30
0.0
 10
11.691994309
 20
6.9399704146
 30
0.0
 10
11.6805055935
 20
6.958594311
 30
0.0
 10
11.6543561495
 20
6.994796715
 30
0.0
 10
11.6157627087
 20
7.0377876031
 30
0.0
 10
11.5615994214
 20
7.0844349835
 30
0.0
 10
11.5212479155
 20
7.1116459727
 30
0.0
 10
11.4999975057
 20
7.1243857931
 30
0.0
  0
SPLINE
  5
2D7
100
AcDbEntity
  8
0
100
AcDbSpline
 62
7
  6
CONTINUOUS
 70
0
 71
3
 72
12
 73
8
 74
0
 42
0.0000001
 43
0.0000001
 44
0.0000000001
 40
0.0
 40
0.0
 40
0.0
 40
0.0
 40
0.2659175679
 40
0.5210284824
 40
0.7654100021
 40
0.8838818159
 40
1.0
 40
1.0
 40
1.0
 40
1.0
 10
10.5946391708
 20
7.1243857931
 30
0.0
 10
10.5733887611
 20
7.1116459727
 30
0.0
 10
10.5330372552
 20
7.0844349835
 30
0.0
 10
10.4788739678
 20
7.0377876031
 30
0.0
 10
10.4402805271
 20
6.994796715
 30
0.0
 10
10.4141310831
 20
6.958594311
 30
0.0
 10
10.4026423676
 20
6.9399704146
 30
0.0
 10
10.3973183383
 20
6.9305518026
 30
0.0
  0
SPLINE
  5
2D8
100
AcDbEntity
  8
0
100
AcDbSpline
 62
7
  6
CONTINUOUS
 70
0
 71
3
 72
14
 73
10
 74
0
 42
0.0000001
 43
0.0000001
 44
0.0000000001
 40
0.0
 40
0.0
 40
0.0
 40
0.0
 40
0.1222399262
 40
0.2447844708
 40
0.3678654019
 40
0.4917449982
 40
0.6166832591
 40
0.7429244659
 40
1.0
 40
1.0
 40
1.0
 40
1.0
 10
10.3473183383
 20
6.4993526985
 30
0.0
 10
10.3473183383
 20
6.5071955087
 30
0.0
 10
10.3478475207
 20
6.5229057462
 30
0.0
 10
10.35022279
 20
6.5464046797
 30
0.0
 10
10.354177351
 20
6.5697976285
 30
0.0
 10
10.3596994338
 20
6.5930276995
 30
0.0
 10
10.3667781924
 20
6.6160450724
 30
0.0
 10
10.3783330162
 20
6.6465550681
 30
0.0
 10
10.3892019311
 20
6.6687058887
 30
0.0
 10
10.3973183383
 20
6.6830644292
 30
0.0
  0
SPLINE
  5
2D9
100
AcDbEntity
  8
0
100
AcDbSpline
 62
7
  6
CONTINUOUS
 70
0
 71
3
 72
14
 73
10
 74
0
 42
0.0000001
 43
0.0000001
 44
0.0000000001
 40
0.0
 40
0.0
 40
0.0
 40
0.0
 40
0.2570755341
 40
0.3833167409
 40
0.5082550018
 40
0.6321345981
 40
0.7552155292
 40
0.8777600738
 40
1.0
 40
1.0
 40
1.0
 40
1.0
 10
11.6973183383
 20
6.6830644292
 30
0.0
 10
11.7054347454
 20
6.6687058887
 30
0.0
 10
11.7163036604
 20
6.6465550681
 30
0.0
 10
11.7278584842
 20
6.6160450724
 30
0.0
 10
11.7349372428
 20
6.5930276995
 30
0.0
 10
11.7404593256
 20
6.5697976285
 30
0.0
 10
11.7444138866
 20
6.5464046797
 30
0.0
 10
11.7467891558
 20
6.5229057462
 30
0.0
 10
11.7473183383
 20
6.5071955087
 30
0.0
 10
11.7473183383
 20
6.4993526985
 30
0.0
  0
SPLINE
  5
2DA
100
AcDbEntity
  8
0
100
AcDbSpline
 62
9
  6
CONTINUOUS
 70
0
 71
3
 72
24
 73
20
 74
0
 42
0.0000001
 43
0.0000001
 44
0.0000000001
 40
0.0
 40
0.0
 40
0.0
 40
0.0
 40
0.0257150553
 40
0.0514918409
 40
0.0773910509
 40
0.1034713248
 40
0.1563659964
 40
0.2106035729
 40
0.2665036686
 40
0.3242974878
 40
0.3841252228
 40
0.4460390998
 40
0.5100100161
 40
0.5759361755
 40
0.6436525347
 40
0.7129401883
 40
0.7835376228
 40
0.8551441541
 40
1.0
 40
1.0
 40
1.0
 40
1.0
 10
11.4535681437
 20
8.2377112983
 30
0.0
 10
11.4535681437
 20
8.2330100409
 30
0.0
 10
11.453241172
 20
8.2235929413
 30
0.0
 10
11.4517699296
 20
8.2095102527
 30
0.0
 10
11.4493224679
 20
8.1954951806
 30
0.0
 10
11.4447457404
 20
8.1768635508
 30
0.0
 10
11.4365559996
 20
8.1538460217
 30
0.0
 10
11.423017026
 20
8.1272082197
 30
0.0
 10
11.4058600829
 20
8.1016623694
 30
0.0
 10
11.3852605298
 20
8.0774535053
 30
0.0
 10
11.3614227195
 20
8.0548069316
 30
0.0
 10
11.3345791848
 20
8.0339339114
 30
0.0
 10
11.3049888975
 20
8.0150288845
 30
0.0
 10
11.2729357577
 20
7.9982685712
 30
0.0
 10
11.2387261423
 20
7.9838101529
 30
0.0
 10
11.2026880352
 20
7.9717894284
 30
0.0
 10
11.1651617726
 20
7.9623198656
 30
0.0
 10
11.1134515103
 20
7.9531824119
 30
0.0
 10
11.0738010585
 20
7.9504491684
 30
0.0
 10
11.0473183383
 20
7.9504491684
 30
0.0
  0
SPLINE
  5
2DB
100
AcDbEntity
  8
0
100
AcDbSpline
 62
7
  6
CONTINUOUS
 70
0
 71
3
 72
15
 73
11
 74
0
 42
0.0000001
 43
0.0000001
 44
0.0000000001
 40
0.0
 40
0.0
 40
0.0
 40
0.0
 40
0.1364979522
 40
0.2715745623
 40
0.4041230186
 40
0.5331242064
 40
0.6577195431
 40
0.7772612609
 40
0.891368182
 40
1.0
 40
1.0
 40
1.0
 40
1.0
 10
11.0473183383
 20
7.0012461346
 30
0.0
 10
11.0296278519
 20
7.0008922735
 30
0.0
 10
10.9943764595
 20
7.0018118555
 30
0.0
 10
10.942289048
 20
7.0080493572
 30
0.0
 10
10.891974545
 20
7.0190180579
 30
0.0
 10
10.8442879361
 20
7.0345194073
 30
0.0
 10
10.8000332452
 20
7.0542781644
 30
0.0
 10
10.759956232
 20
7.0779571768
 30
0.0
 10
10.7247445016
 20
7.1051437125
 30
0.0
 10
10.7044186563
 20
7.1258167896
 30
0.0
 10
10.6953467171
 20
7.1365869542
 30
0.0
  0
SPLINE
  5
2DC
100
AcDbEntity
  8
0
100
AcDbSpline
 62
7
  6
CONTINUOUS
 70
0
 71
3
 72
24
 73
20
 74
0
 42
0.0000001
 43
0.0000001
 44
0.0000000001
 40
0.0
 40
0.0
 40
0.0
 40
0.0
 40
0.1455619224
 40
0.2174268993
 40
0.2882485948
 40
0.3577406549
 40
0.4256515759
 40
0.4917662449
 40
0.5559163726
 40
0.6179886951
 40
0.6779336531
 40
0.7357741411
 40
0.7916127564
 40
0.8456369077
 40
0.8981197461
 40
0.9239046048
 40
0.9494427007
 40
0.9747886495
 40
1.0
 40
1.0
 40
1.0
 40
1.0
 10
11.0473183383
 20
7.0526159303
 30
0.0
 10
11.0218439512
 20
7.0521049703
 30
0.0
 10
10.983673747
 20
7.0538673798
 30
0.0
 10
10.9337439657
 20
7.0613205523
 30
0.0
 10
10.8974469135
 20
7.0693445928
 30
0.0
 10
10.86248194
 20
7.0797481146
 30
0.0
 10
10.8291555408
 20
7.092433007
 30
0.0
 10
10.7977638601
 20
7.1072815974
 30
0.0
 10
10.7685849036
 20
7.1241576204
 30
0.0
 10
10.7418778048
 20
7.1429077159
 30
0.0
 10
10.7178807161
 20
7.1633630258
 30
0.0
 10
10.6968095158
 20
7.1853399631
 30
0.0
 10
10.6788561451
 20
7.2086427766
 30
0.0
 10
10.6641884605
 20
7.2330584611
 30
0.0
 10
10.6547621777
 20
7.2542840999
 30
0.0
 10
10.6490382261
 20
7.2715409866
 30
0.0
 10
10.6456600512
 20
7.2845399583
 30
0.0
 10
10.6431815167
 20
7.2976369708
 30
0.0
 10
10.642129661
 20
7.3064321444
 30
0.0
 10
10.6417565969
 20
7.3108294031
 30
0.0
  0
LINE
  5
2DD
100
AcDbEntity
  8
0
100
AcDbLine
 62
7
  6
CONTINUOUS
 10
10.6417565969
 20
7.3108294031
 11
10.6417246674
 21
7.3112102368
  0
SPLINE
  5
2DE
100
AcDbEntity
  8
0
100
AcDbSpline
 62
7
  6
CONTINUOUS
 70
0
 71
3
 72
23
 73
19
 74
0
 42
0.0000001
 43
0.0000001
 44
0.0000000001
 40
0.0
 40
0.0
 40
0.0
 40
0.0
 40
0.1455010915
 40
0.2173397849
 40
0.2881401944
 40
0.3576172205
 40
0.4255203361
 40
0.4916350237
 40
0.5557931283
 40
0.6178809311
 40
0.6778477555
 40
0.7357147043
 40
0.7915817664
 40
0.845633076
 40
0.8981378648
 40
0.9239303025
 40
0.9494730908
 40
1.0
 40
1.0
 40
1.0
 40
1.0
 10
11.0473183383
 20
7.1038556774
 30
0.0
 10
11.0219048639
 20
7.1033450181
 30
0.0
 10
10.9838256407
 20
7.1050959039
 30
0.0
 10
10.9340099718
 20
7.1125094473
 30
0.0
 10
10.8977904307
 20
7.1204927298
 30
0.0
 10
10.8628935594
 20
7.1308449951
 30
0.0
 10
10.8296238114
 20
7.143469062
 30
0.0
 10
10.7982754027
 20
7.1582483242
 30
0.0
 10
10.7691246304
 20
7.1750477793
 30
0.0
 10
10.7424291252
 20
7.1937154464
 30
0.0
 10
10.7184257749
 20
7.2140839773
 30
0.0
 10
10.6973294371
 20
7.2359714352
 30
0.0
 10
10.679331217
 20
7.2591836547
 30
0.0
 10
10.6645984472
 20
7.2835098564
 30
0.0
 10
10.6551000328
 20
7.3046627336
 30
0.0
 10
10.6493082676
 20
7.3218666146
 30
0.0
 10
10.6447476212
 20
7.3390764971
 30
0.0
 10
10.6426381393
 20
7.3522512955
 30
0.0
 10
10.6418454376
 20
7.3610425286
 30
0.0
  0
SPLINE
  5
2DF
100
AcDbEntity
  8
0
100
AcDbSpline
 62
9
  6
CONTINUOUS
 70
0
 71
3
 72
24
 73
20
 74
0
 42
0.0000001
 43
0.0000001
 44
0.0000000001
 40
0.0
 40
0.0
 40
0.0
 40
0.0
 40
0.1448558459
 40
0.2164623772
 40
0.2870598117
 40
0.3563474653
 40
0.4240638245
 40
0.4899899839
 40
0.5539609002
 40
0.6158747772
 40
0.6757025122
 40
0.7334963314
 40
0.7893964271
 40
0.8436340036
 40
0.8965286752
 40
0.9226089491
 40
0.9485081591
 40
0.9742849447
 40
1.0
 40
1.0
 40
1.0
 40
1.0
 10
11.0473183383
 20
7.9504491684
 30
0.0
 10
11.0208356181
 20
7.9504491684
 30
0.0
 10
10.9811851663
 20
7.9531824119
 30
0.0
 10
10.9294749039
 20
7.9623198656
 30
0.0
 10
10.8919486414
 20
7.9717894284
 30
0.0
 10
10.8559105343
 20
7.9838101529
 30
0.0
 10
10.8217009189
 20
7.9982685712
 30
0.0
 10
10.789647779
 20
8.0150288845
 30
0.0
 10
10.7600574918
 20
8.0339339114
 30
0.0
 10
10.733213957
 20
8.0548069316
 30
0.0
 10
10.7093761468
 20
8.0774535053
 30
0.0
 10
10.6887765937
 20
8.1016623694
 30
0.0
 10
10.6716196506
 20
8.1272082197
 30
0.0
 10
10.6580806769
 20
8.1538460217
 30
0.0
 10
10.6498909361
 20
8.1768635508
 30
0.0
 10
10.6453142087
 20
8.1954951806
 30
0.0
 10
10.6428667469
 20
8.2095102527
 30
0.0
 10
10.6413955046
 20
8.2235929413
 30
0.0
 10
10.6410685329
 20
8.2330100409
 30
0.0
 10
10.6410685329
 20
8.2377112983
 30
0.0
  0
SPLINE
  5
2E0
100
AcDbEntity
  8
0
100
AcDbSpline
 62
9
  6
CONTINUOUS
 70
0
 71
3
 72
22
 73
18
 74
0
 42
0.0000001
 43
0.0000001
 44
0.0000000001
 40
0.0
 40
0.0
 40
0.0
 40
0.0
 40
0.0535571226
 40
0.1074383986
 40
0.1619514405
 40
0.2173814476
 40
0.2739762628
 40
0.3319422741
 40
0.3914392808
 40
0.4525794098
 40
0.5154276318
 40
0.5800039321
 40
0.6462863766
 40
0.7142147432
 40
0.7836944482
 40
0.8546005786
 40
1.0
 40
1.0
 40
1.0
 40
1.0
 10
9.6173183383
 20
6.1861043944
 30
0.0
 10
9.6173183383
 20
6.2124198552
 30
0.0
 10
9.6202433187
 20
6.2652559099
 30
0.0
 10
9.6333615752
 20
6.3438948752
 30
0.0
 10
9.6551272436
 20
6.4215523823
 30
0.0
 10
9.6853934331
 20
6.497733417
 30
0.0
 10
9.7239624488
 20
6.5719740762
 30
0.0
 10
9.7705854696
 20
6.6438226761
 30
0.0
 10
9.8249678577
 20
6.7128470122
 30
0.0
 10
9.8867704032
 20
6.7786339831
 30
0.0
 10
9.9556119188
 20
6.84079113
 30
0.0
 10
10.0310707576
 20
6.8989479647
 30
0.0
 10
10.1126876641
 20
6.952757913
 30
0.0
 10
10.1999649946
 20
7.0018990635
 30
0.0
 10
10.2923807995
 20
7.0460801628
 30
0.0
 10
10.4227468886
 20
7.0984414792
 30
0.0
 10
10.5249487526
 20
7.1288138331
 30
0.0
 10
10.5944799919
 20
7.1452282266
 30
0.0
  0
SPLINE
  5
2E1
100
AcDbEntity
  8
0
100
AcDbSpline
 62
9
  6
CONTINUOUS
 70
0
 71
3
 72
22
 73
18
 74
0
 42
0.0000001
 43
0.0000001
 44
0.0000000001
 40
0.0
 40
0.0
 40
0.0
 40
0.0
 40
0.1453994214
 40
0.2163055518
 40
0.2857852568
 40
0.3537136234
 40
0.4199960679
 40
0.4845723682
 40
0.5474205902
 40
0.6085607192
 40
0.6680577259
 40
0.7260237372
 40
0.7826185524
 40
0.8380485595
 40
0.8925616014
 40
0.9464428774
 40
1.0
 40
1.0
 40
1.0
 40
1.0
 10
11.5001566847
 20
7.1452282266
 30
0.0
 10
11.569687924
 20
7.1288138331
 30
0.0
 10
11.671889788
 20
7.0984414791
 30
0.0
 10
11.8022558771
 20
7.0460801627
 30
0.0
 10
11.894671682
 20
7.0018990635
 30
0.0
 10
11.9819490125
 20
6.952757913
 30
0.0
 10
12.063565919
 20
6.8989479647
 30
0.0
 10
12.1390247578
 20
6.84079113
 30
0.0
 10
12.2078662733
 20
6.7786339831
 30
0.0
 10
12.2696688189
 20
6.7128470122
 30
0.0
 10
12.324051207
 20
6.6438226761
 30
0.0
 10
12.3706742278
 20
6.5719740762
 30
0.0
 10
12.4092432435
 20
6.497733417
 30
0.0
 10
12.439509433
 20
6.4215523823
 30
0.0
 10
12.4612751013
 20
6.3438948752
 30
0.0
 10
12.4743933579
 20
6.2652559099
 30
0.0
 10
12.4773183383
 20
6.2124198552
 30
0.0
 10
12.4773183383
 20
6.1861043944
 30
0.0
  0
SPLINE
  5
2E2
100
AcDbEntity
  8
0
100
AcDbSpline
 62
9
  6
CONTINUOUS
 70
0
 71
3
 72
49
 73
45
 74
0
 42
0.0000001
 43
0.0000001
 44
0.0000000001
 40
0.0
 40
0.0
 40
0.0
 40
0.0
 40
0.0128544119
 40
0.0257417196
 40
0.0386890861
 40
0.0517268283
 40
0.0648832588
 40
0.0781840678
 40
0.0916529948
 40
0.1053114737
 40
0.1191781288
 40
0.1332688628
 40
0.1621609377
 40
0.192069834
 40
0.22302164
 40
0.2550017868
 40
0.2879593609
 40
0.3218118477
 40
0.356449976
 40
0.3917424835
 40
0.4275407435
 40
0.4636832521
 40
0.5
 40
0.5363167479
 40
0.5724592565
 40
0.6082575165
 40
0.643550024
 40
0.6781881523
 40
0.7120406391
 40
0.7449982132
 40
0.77697836
 40
0.807930166
 40
0.8378390623
 40
0.8667311372
 40
0.8808218712
 40
0.8946885263
 40
0.9083470052
 40
0.9218159322
 40
0.9351167412
 40
0.9482731717
 40
0.9613109139
 40
0.9742582804
 40
0.9871455881
 40
1.0
 40
1.0
 40
1.0
 40
1.0
 10
12.4773183383
 20
6.1861043944
 30
0.0
 10
12.4773183383
 20
6.169557212
 30
0.0
 10
12.476165603
 20
6.1364090691
 30
0.0
 10
12.4709891133
 20
6.0868373609
 30
0.0
 10
12.4623737895
 20
6.037504798
 30
0.0
 10
12.4503430472
 20
5.988536949
 30
0.0
 10
12.434927794
 20
5.9400501914
 30
0.0
 10
12.4161647878
 20
5.8921628083
 30
0.0
 10
12.3941022524
 20
5.8449901184
 30
0.0
 10
12.3687935825
 20
5.7986468578
 30
0.0
 10
12.3403011194
 20
5.7532424236
 30
0.0
 10
12.2978133921
 20
5.693615322
 30
0.0
 10
12.2368726873
 20
5.6219922693
 30
0.0
 10
12.1529673437
 20
5.5422822288
 30
0.0
 10
12.0584767159
 20
5.4688076569
 30
0.0
 10
11.9543189833
 20
5.4022626596
 30
0.0
 10
11.841491661
 20
5.343266254
 30
0.0
 10
11.7210745871
 20
5.2923722429
 30
0.0
 10
11.5942182536
 20
5.2500591626
 30
0.0
 10
11.4621345625
 20
5.216726332
 30
0.0
 10
11.326085526
 20
5.1926890157
 30
0.0
 10
11.1873714365
 20
5.1781748459
 30
0.0
 10
11.0473183383
 20
5.173321442
 30
0.0
 10
10.90726524
 20
5.1781748459
 30
0.0
 10
10.7685511506
 20
5.1926890157
 30
0.0
 10
10.6325021141
 20
5.216726332
 30
0.0
 10
10.5004184229
 20
5.2500591626
 30
0.0
 10
10.3735620895
 20
5.2923722429
 30
0.0
 10
10.2531450155
 20
5.343266254
 30
0.0
 10
10.1403176933
 20
5.4022626596
 30
0.0
 10
10.0361599606
 20
5.4688076569
 30
0.0
 10
9.9416693329
 20
5.5422822288
 30
0.0
 10
9.8577639892
 20
5.6219922693
 30
0.0
 10
9.7968232845
 20
5.693615322
 30
0.0
 10
9.7543355571
 20
5.7532424236
 30
0.0
 10
9.7258430941
 20
5.7986468578
 30
0.0
 10
9.7005344242
 20
5.8449901184
 30
0.0
 10
9.6784718888
 20
5.8921628083
 30
0.0
 10
9.6597088826
 20
5.9400501914
 30
0.0
 10
9.6442936294
 20
5.988536949
 30
0.0
 10
9.6322628871
 20
6.037504798
 30
0.0
 10
9.6236475633
 20
6.0868373609
 30
0.0
 10
9.6184710736
 20
6.1364090691
 30
0.0
 10
9.6173183383
 20
6.169557212
 30
0.0
 10
9.6173183383
 20
6.1861043944
 30
0.0
  0
SPLINE
  5
2E3
100
AcDbEntity
  8
0
100
AcDbSpline
 62
9
  6
CONTINUOUS
 70
0
 71
3
 72
11
 73
7
 74
0
 42
0.0000001
 43
0.0000001
 44
0.0000000001
 40
0.0
 40
0.0
 40
0.0
 40
0.0
 40
0.246936753
 40
0.4951544525
 40
0.7457908792
 40
1.0
 40
1.0
 40
1.0
 40
1.0
 10
11.7773183383
 20
6.1861043944
 30
0.0
 10
11.7773183383
 20
6.1983741748
 30
0.0
 10
11.776073471
 20
6.2229950653
 30
0.0
 10
11.7704897188
 20
6.259688753
 30
0.0
 10
11.7612175192
 20
6.2959997905
 30
0.0
 10
11.752679895
 20
6.31963405
 30
0.0
 10
11.7478430831
 20
6.3313024124
 30
0.0
  0
SPLINE
  5
2E4
100
AcDbEntity
  8
0
100
AcDbSpline
 62
9
  6
CONTINUOUS
 70
0
 71
3
 72
11
 73
7
 74
0
 42
0.0000001
 43
0.0000001
 44
0.0000000001
 40
0.0
 40
0.0
 40
0.0
 40
0.0
 40
0.2542091206
 40
0.5048455472
 40
0.7530632468
 40
1.0
 40
1.0
 40
1.0
 40
1.0
 10
10.3467935918
 20
6.3313024084
 30
0.0
 10
10.3419567801
 20
6.3196340463
 30
0.0
 10
10.3334191564
 20
6.2959997874
 30
0.0
 10
10.3241469574
 20
6.2596887509
 30
0.0
 10
10.3185632055
 20
6.2229950642
 30
0.0
 10
10.3173183383
 20
6.1983741745
 30
0.0
 10
10.3173183383
 20
6.1861043944
 30
0.0
  0
SPLINE
  5
2E5
100
AcDbEntity
  8
0
100
AcDbSpline
 62
9
  6
CONTINUOUS
 70
0
 71
3
 72
45
 73
41
 74
0
 42
0.0000001
 43
0.0000001
 44
0.0000000001
 40
0.0
 40
0.0
 40
0.0
 40
0.0
 40
0.0128541561
 40
0.0257426463
 40
0.0386912554
 40
0.0517294303
 40
0.064886308
 40
0.0781878466
 40
0.1053035151
 40
0.1332502784
 40
0.1621438186
 40
0.192054232
 40
0.2230076078
 40
0.254989372
 40
0.2879486163
 40
0.3218028241
 40
0.3564427125
 40
0.3917370077
 40
0.4275370771
 40
0.4636814136
 40
0.5
 40
0.5363185864
 40
0.5724629229
 40
0.6082629923
 40
0.6435572875
 40
0.6781971758
 40
0.7120513836
 40
0.745010628
 40
0.7769923922
 40
0.807945768
 40
0.8378561814
 40
0.8667497216
 40
0.8946964848
 40
0.9218121534
 40
0.935113692
 40
0.9482705697
 40
0.9613087446
 40
0.9742573537
 40
0.9871458439
 40
1.0
 40
1.0
 40
1.0
 40
1.0
 10
10.3173183383
 20
6.1861043944
 30
0.0
 10
10.3173183383
 20
6.1776578261
 30
0.0
 10
10.3179071386
 20
6.1607363104
 30
0.0
 10
10.3205491635
 20
6.1354302916
 30
0.0
 10
10.3249474732
 20
6.1102459411
 30
0.0
 10
10.3310885243
 20
6.0852483119
 30
0.0
 10
10.3389590053
 20
6.0604962506
 30
0.0
 10
10.3518077801
 20
6.0276981886
 30
0.0
 10
10.3722175673
 20
5.9875353093
 30
0.0
 10
10.4030456986
 20
5.9416362752
 30
0.0
 10
10.4400618135
 20
5.8981332941
 30
0.0
 10
10.4828964598
 20
5.8574395023
 30
0.0
 10
10.5311323925
 20
5.8199322061
 30
0.0
 10
10.5843039629
 20
5.7859614455
 30
0.0
 10
10.6419010985
 20
5.7558444532
 30
0.0
 10
10.7033727916
 20
5.7298635988
 30
0.0
 10
10.7681316458
 20
5.7082632546
 30
0.0
 10
10.8355589995
 20
5.6912472088
 30
0.0
 10
10.9050106044
 20
5.6789763791
 30
0.0
 10
10.9758226939
 20
5.6715670143
 30
0.0
 10
11.0473183383
 20
5.6690893886
 30
0.0
 10
11.1188139827
 20
5.6715670143
 30
0.0
 10
11.1896260721
 20
5.6789763791
 30
0.0
 10
11.259077677
 20
5.6912472088
 30
0.0
 10
11.3265050308
 20
5.7082632545
 30
0.0
 10
11.3912638849
 20
5.7298635988
 30
0.0
 10
11.4527355781
 20
5.7558444532
 30
0.0
 10
11.5103327136
 20
5.7859614454
 30
0.0
 10
11.563504284
 20
5.8199322061
 30
0.0
 10
11.6117402167
 20
5.8574395023
 30
0.0
 10
11.654574863
 20
5.8981332941
 30
0.0
 10
11.691590978
 20
5.9416362752
 30
0.0
 10
11.7224191093
 20
5.9875353093
 30
0.0
 10
11.7428288965
 20
6.0276981886
 30
0.0
 10
11.7556776713
 20
6.0604962505
 30
0.0
 10
11.7635481523
 20
6.0852483119
 30
0.0
 10
11.7696892034
 20
6.1102459411
 30
0.0
 10
11.7740875131
 20
6.1354302916
 30
0.0
 10
11.776729538
 20
6.1607363104
 30
0.0
 10
11.7773183383
 20
6.1776578261
 30
0.0
 10
11.7773183383
 20
6.1861043944
 30
0.0
  0
SPLINE
  5
2E6
100
AcDbEntity
  8
0
100
AcDbSpline
 62
9
  6
CONTINUOUS
 70
0
 71
3
 72
31
 73
27
 74
0
 42
0.0000001
 43
0.0000001
 44
0.0000000001
 40
0.0
 40
0.0
 40
0.0
 40
0.0
 40
0.0261162977
 40
0.0522872534
 40
0.0785599762
 40
0.1049862318
 40
0.131614055
 40
0.158488262
 40
0.1856509667
 40
0.2131406423
 40
0.240991816
 40
0.2692348189
 40
0.297895724
 40
0.3269962061
 40
0.3565534804
 40
0.3865804943
 40
0.4170858676
 40
0.4480740832
 40
0.51148284
 40
0.5767822576
 40
0.6438773873
 40
0.712625549
 40
0.7828430916
 40
0.854312057
 40
0.9267867383
 40
1.0
 40
1.0
 40
1.0
 40
1.0
 10
8.1223183383
 20
5.9803363211
 30
0.0
 10
8.1223183383
 20
6.0111799938
 30
0.0
 10
8.1242748897
 20
6.0729496248
 30
0.0
 10
8.1330660836
 20
6.165371181
 30
0.0
 10
8.147699942
 20
6.2574231603
 30
0.0
 10
8.1681446651
 20
6.3489119835
 30
0.0
 10
8.1943567908
 20
6.4396567051
 30
0.0
 10
8.2262840149
 20
6.5294736208
 30
0.0
 10
8.2638598142
 20
6.6181822562
 30
0.0
 10
8.3070066726
 20
6.7056052392
 30
0.0
 10
8.3556377532
 20
6.791567076
 30
0.0
 10
8.4096530492
 20
6.8758966948
 30
0.0
 10
8.4689434168
 20
6.9584258493
 30
0.0
 10
8.5333894716
 20
7.0389897596
 30
0.0
 10
8.6028604769
 20
7.1174290319
 30
0.0
 10
8.6772170434
 20
7.193586656
 30
0.0
 10
8.7563112386
 20
7.2673128877
 30
0.0
 10
8.8687204102
 20
7.3628968531
 30
0.0
 10
9.0204398157
 20
7.4753642866
 30
0.0
 10
9.2172108849
 20
7.5973002104
 30
0.0
 10
9.4285367463
 20
7.7063116039
 30
0.0
 10
9.6527264184
 20
7.8015368745
 30
0.0
 10
9.888000359
 20
7.8822311729
 30
0.0
 10
10.1324918333
 20
7.9477601722
 30
0.0
 10
10.3842447486
 20
7.9976065902
 30
0.0
 10
10.5549765769
 20
8.0200390391
 30
0.0
 10
10.6410201819
 20
8.0285729734
 30
0.0
  0
SPLINE
  5
2E7
100
AcDbEntity
  8
0
100
AcDbSpline
 62
9
  6
CONTINUOUS
 70
0
 71
3
 72
31
 73
27
 74
0
 42
0.0000001
 43
0.0000001
 44
0.0000000001
 40
0.0
 40
0.0
 40
0.0
 40
0.0
 40
0.0732132617
 40
0.145687943
 40
0.2171569084
 40
0.287374451
 40
0.3561226127
 40
0.4232177424
 40
0.48851716
 40
0.5519259168
 40
0.5829141325
 40
0.6134195057
 40
0.6434465196
 40
0.6730037939
 40
0.702104276
 40
0.7307651811
 40
0.759008184
 40
0.7868593577
 40
0.8143490333
 40
0.841511738
 40
0.868385945
 40
0.8950137682
 40
0.9214400238
 40
0.9477127466
 40
0.9738837023
 40
1.0
 40
1.0
 40
1.0
 40
1.0
 10
11.4536164947
 20
8.0285729734
 30
0.0
 10
11.5396600997
 20
8.0200390391
 30
0.0
 10
11.710391928
 20
7.9976065902
 30
0.0
 10
11.9621448433
 20
7.9477601722
 30
0.0
 10
12.2066363176
 20
7.8822311729
 30
0.0
 10
12.4419102582
 20
7.8015368745
 30
0.0
 10
12.6660999303
 20
7.7063116039
 30
0.0
 10
12.8774257917
 20
7.5973002104
 30
0.0
 10
13.0741968608
 20
7.4753642866
 30
0.0
 10
13.2259162663
 20
7.3628968531
 30
0.0
 10
13.3383254379
 20
7.2673128877
 30
0.0
 10
13.4174196331
 20
7.193586656
 30
0.0
 10
13.4917761997
 20
7.1174290319
 30
0.0
 10
13.561247205
 20
7.0389897595
 30
0.0
 10
13.6256932597
 20
6.9584258493
 30
0.0
 10
13.6849836274
 20
6.8758966948
 30
0.0
 10
13.7389989234
 20
6.791567076
 30
0.0
 10
13.7876300039
 20
6.7056052392
 30
0.0
 10
13.8307768623
 20
6.6181822562
 30
0.0
 10
13.8683526617
 20
6.5294736207
 30
0.0
 10
13.9002798857
 20
6.4396567051
 30
0.0
 10
13.9264920114
 20
6.3489119834
 30
0.0
 10
13.9469367346
 20
6.2574231603
 30
0.0
 10
13.961570593
 20
6.165371181
 30
0.0
 10
13.9703617869
 20
6.0729496248
 30
0.0
 10
13.9723183383
 20
6.0111799938
 30
0.0
 10
13.9723183383
 20
5.9803363211
 30
0.0
  0
SPLINE
  5
2E8
100
AcDbEntity
  8
0
100
AcDbSpline
 62
9
  6
CONTINUOUS
 70
0
 71
3
 72
30
 73
26
 74
0
 42
0.0000001
 43
0.0000001
 44
0.0000000001
 40
0.0
 40
0.0
 40
0.0
 40
0.0
 40
0.0268359429
 40
0.0537147401
 40
0.0806706283
 40
0.1077428878
 40
0.1349697271
 40
0.1623863749
 40
0.1900264054
 40
0.2179215744
 40
0.2461012307
 40
0.2745921509
 40
0.3034184127
 40
0.3326014078
 40
0.3621595762
 40
0.3921086137
 40
0.4532139681
 40
0.516000346
 40
0.5804926987
 40
0.6466753855
 40
0.714495556
 40
0.7838668278
 40
0.8546730766
 40
0.926772229
 40
1.0
 40
1.0
 40
1.0
 40
1.0
 10
13.9723183383
 20
5.9803363211
 30
0.0
 10
13.9723183383
 20
5.9538450469
 30
0.0
 10
13.9708755437
 20
5.9008089618
 30
0.0
 10
13.9643924716
 20
5.8214015782
 30
0.0
 10
13.9535956993
 20
5.7422273678
 30
0.0
 10
13.9385039941
 20
5.6634098411
 30
0.0
 10
13.9191395751
 20
5.5850637226
 30
0.0
 10
13.8955321377
 20
5.5073049346
 30
0.0
 10
13.8677167718
 20
5.4302493343
 30
0.0
 10
13.8357355779
 20
5.3540110594
 30
0.0
 10
13.7996370772
 20
5.2787024317
 30
0.0
 10
13.7594744823
 20
5.2044351395
 30
0.0
 10
13.7153089704
 20
5.131317926
 30
0.0
 10
13.6672053557
 20
5.0594597307
 30
0.0
 10
13.6152356118
 20
4.9889639655
 30
0.0
 10
13.5403988129
 20
4.896318171
 30
0.0
 10
13.4373695768
 20
4.7844810276
 30
0.0
 10
13.3005119859
 20
4.6582944497
 30
0.0
 10
13.1504027497
 20
4.5399363891
 30
0.0
 10
12.9879354382
 20
4.4300996169
 30
0.0
 10
12.8140655839
 20
4.3294179118
 30
0.0
 10
12.6298169972
 20
4.2384760195
 30
0.0
 10
12.4362699684
 20
4.1578014974
 30
0.0
 10
12.2345702976
 20
4.0878661809
 30
0.0
 10
12.0963930821
 20
4.048937427
 30
0.0
 10
12.0262830157
 20
4.0313298297
 30
0.0
  0
SPLINE
  5
2E9
100
AcDbEntity
  8
0
100
AcDbSpline
 62
9
  6
CONTINUOUS
 70
0
 71
3
 72
15
 73
11
 74
0
 42
0.0000001
 43
0.0000001
 44
0.0000000001
 40
0.0
 40
0.0
 40
0.0
 40
0.0
 40
0.1236933857
 40
0.248500962
 40
0.3740609421
 40
0.5
 40
0.6259390579
 40
0.751499038
 40
0.8763066143
 40
1.0
 40
1.0
 40
1.0
 40
1.0
 10
11.9418009339
 20
4.0111328119
 30
0.0
 10
11.8692913085
 20
3.9946644641
 30
0.0
 10
11.7226281936
 20
3.9657914335
 30
0.0
 10
11.4997954221
 20
3.9348428665
 30
0.0
 10
11.2742373994
 20
3.916198264
 30
0.0
 10
11.0473183383
 20
3.9099712202
 30
0.0
 10
10.8203992772
 20
3.916198264
 30
0.0
 10
10.5948412545
 20
3.9348428665
 30
0.0
 10
10.372008483
 20
3.9657914335
 30
0.0
 10
10.2253453681
 20
3.994664464
 30
0.0
 10
10.1528357427
 20
4.0111328119
 30
0.0
  0
SPLINE
  5
2EA
100
AcDbEntity
  8
0
100
AcDbSpline
 62
9
  6
CONTINUOUS
 70
0
 71
3
 72
30
 73
26
 74
0
 42
0.0000001
 43
0.0000001
 44
0.0000000001
 40
0.0
 40
0.0
 40
0.0
 40
0.0
 40
0.073227771
 40
0.1453269234
 40
0.2161331722
 40
0.285504444
 40
0.3533246145
 40
0.4195073013
 40
0.483999654
 40
0.5467860319
 40
0.6078913863
 40
0.6378404238
 40
0.6673985922
 40
0.6965815873
 40
0.7254078491
 40
0.7538987693
 40
0.7820784256
 40
0.8099735946
 40
0.8376136251
 40
0.8650302729
 40
0.8922571122
 40
0.9193293717
 40
0.9462852599
 40
0.9731640571
 40
1.0
 40
1.0
 40
1.0
 40
1.0
 10
10.0683536609
 20
4.0313298297
 30
0.0
 10
9.9982435945
 20
4.048937427
 30
0.0
 10
9.8600663789
 20
4.0878661809
 30
0.0
 10
9.6583667082
 20
4.1578014974
 30
0.0
 10
9.4648196793
 20
4.2384760195
 30
0.0
 10
9.2805710927
 20
4.3294179118
 30
0.0
 10
9.1067012384
 20
4.430099617
 30
0.0
 10
8.9442339269
 20
4.5399363891
 30
0.0
 10
8.7941246906
 20
4.6582944497
 30
0.0
 10
8.6572670998
 20
4.7844810276
 30
0.0
 10
8.5542378636
 20
4.896318171
 30
0.0
 10
8.4794010648
 20
4.9889639655
 30
0.0
 10
8.4274313209
 20
5.0594597307
 30
0.0
 10
8.3793277062
 20
5.131317926
 30
0.0
 10
8.3351621942
 20
5.2044351395
 30
0.0
 10
8.2949995994
 20
5.2787024317
 30
0.0
 10
8.2589010986
 20
5.3540110594
 30
0.0
 10
8.2269199048
 20
5.4302493343
 30
0.0
 10
8.1991045388
 20
5.5073049347
 30
0.0
 10
8.1754971015
 20
5.5850637226
 30
0.0
 10
8.1561326824
 20
5.6634098411
 30
0.0
 10
8.1410409772
 20
5.7422273678
 30
0.0
 10
8.130244205
 20
5.8214015782
 30
0.0
 10
8.1237611329
 20
5.9008089618
 30
0.0
 10
8.1223183383
 20
5.9538450469
 30
0.0
 10
8.1223183383
 20
5.9803363211
 30
0.0
  0
SPLINE
  5
2EB
100
AcDbEntity
  8
0
100
AcDbSpline
 62
9
  6
CONTINUOUS
 70
0
 71
3
 72
49
 73
45
 74
0
 42
0.0000001
 43
0.0000001
 44
0.0000000001
 40
0.0
 40
0.0
 40
0.0
 40
0.0
 40
0.0128544153
 40
0.0257417309
 40
0.0386891022
 40
0.0517268454
 40
0.0648832762
 40
0.078184084
 40
0.0916530087
 40
0.105311486
 40
0.1191781408
 40
0.1332688759
 40
0.162160952
 40
0.1920698459
 40
0.2230216505
 40
0.255001797
 40
0.2879593698
 40
0.3218118552
 40
0.3564499822
 40
0.3917424882
 40
0.4275407466
 40
0.4636832537
 40
0.5
 40
0.5363167463
 40
0.5724592534
 40
0.6082575118
 40
0.6435500178
 40
0.6781881448
 40
0.7120406302
 40
0.744998203
 40
0.7769783495
 40
0.8079301541
 40
0.837839048
 40
0.8667311241
 40
0.8808218592
 40
0.894688514
 40
0.9083469913
 40
0.921815916
 40
0.9351167238
 40
0.9482731546
 40
0.9613108978
 40
0.9742582691
 40
0.9871455847
 40
1.0
 40
1.0
 40
1.0
 40
1.0
 10
9.5573183383
 20
5.9803363211
 30
0.0
 10
9.5573183383
 20
5.9630948469
 30
0.0
 10
9.5585194442
 20
5.9285558579
 30
0.0
 10
9.5639131289
 20
5.876904196
 30
0.0
 10
9.5728899438
 20
5.8255017181
 30
0.0
 10
9.5854254768
 20
5.7744792666
 30
0.0
 10
9.6014875317
 20
5.7239581019
 30
0.0
 10
9.6210377963
 20
5.6740614624
 30
0.0
 10
9.6440260338
 20
5.6249095071
 30
0.0
 10
9.6703966068
 20
5.576621781
 30
0.0
 10
9.7000845586
 20
5.5293122673
 30
0.0
 10
9.7443549946
 20
5.4671833306
 30
0.0
 10
9.8078526546
 20
5.3925551173
 30
0.0
 10
9.8952785031
 20
5.3095006057
 30
0.0
 10
9.9937337708
 20
5.2329431915
 30
0.0
 10
10.1022617566
 20
5.1636061018
 30
0.0
 10
10.2198230903
 20
5.1021343276
 30
0.0
 10
10.345292625
 20
5.0491049081
 30
0.0
 10
10.4774715971
 20
5.0050164575
 30
0.0
 10
10.6150972561
 20
4.9702850494
 30
0.0
 10
10.7568546378
 20
4.9452391765
 30
0.0
 10
10.9013888926
 20
4.9301160219
 30
0.0
 10
11.0473183383
 20
4.9250589792
 30
0.0
 10
11.193247784
 20
4.9301160219
 30
0.0
 10
11.3377820388
 20
4.9452391765
 30
0.0
 10
11.4795394205
 20
4.9702850494
 30
0.0
 10
11.6171650795
 20
5.0050164575
 30
0.0
 10
11.7493440515
 20
5.0491049081
 30
0.0
 10
11.8748135863
 20
5.1021343276
 30
0.0
 10
11.99237492
 20
5.1636061018
 30
0.0
 10
12.1009029058
 20
5.2329431915
 30
0.0
 10
12.1993581735
 20
5.3095006057
 30
0.0
 10
12.286784022
 20
5.3925551174
 30
0.0
 10
12.350281682
 20
5.4671833306
 30
0.0
 10
12.394552118
 20
5.5293122673
 30
0.0
 10
12.4242400697
 20
5.576621781
 30
0.0
 10
12.4506106428
 20
5.6249095071
 30
0.0
 10
12.4735988803
 20
5.6740614625
 30
0.0
 10
12.4931491449
 20
5.723958102
 30
0.0
 10
12.5092111998
 20
5.7744792666
 30
0.0
 10
12.5217467327
 20
5.8255017181
 30
0.0
 10
12.5307235477
 20
5.876904196
 30
0.0
 10
12.5361172324
 20
5.9285558579
 30
0.0
 10
12.5373183383
 20
5.9630948469
 30
0.0
 10
12.5373183383
 20
5.9803363211
 30
0.0
  0
SPLINE
  5
2EC
100
AcDbEntity
  8
0
100
AcDbSpline
 62
9
  6
CONTINUOUS
 70
0
 71
3
 72
45
 73
41
 74
0
 42
0.0000001
 43
0.0000001
 44
0.0000000001
 40
0.0
 40
0.0
 40
0.0
 40
0.0
 40
0.0128542045
 40
0.0257428077
 40
0.0386915016
 40
0.051729686
 40
0.0648865436
 40
0.078188068
 40
0.1053037114
 40
0.1332504729
 40
0.1621440128
 40
0.1920544092
 40
0.2230077664
 40
0.2549895164
 40
0.287948745
 40
0.3218029334
 40
0.3564428013
 40
0.3917370755
 40
0.4275371229
 40
0.4636814366
 40
0.5
 40
0.5363185634
 40
0.5724628771
 40
0.6082629245
 40
0.6435571987
 40
0.6781970666
 40
0.712051255
 40
0.7450104836
 40
0.7769922336
 40
0.8079455908
 40
0.8378559872
 40
0.8667495271
 40
0.8946962886
 40
0.921811932
 40
0.9351134564
 40
0.948270314
 40
0.9613084984
 40
0.9742571923
 40
0.9871457955
 40
1.0
 40
1.0
 40
1.0
 40
1.0
 10
10.3473183383
 20
6.2073175979
 30
0.0
 10
10.3473183383
 20
6.1992181184
 30
0.0
 10
10.3478829717
 20
6.1829919065
 30
0.0
 10
10.3504164364
 20
6.1587257077
 30
0.0
 10
10.3546340185
 20
6.1345762013
 30
0.0
 10
10.3605227537
 20
6.1106058374
 30
0.0
 10
10.3680698097
 20
6.0868710069
 30
0.0
 10
10.3803905901
 20
6.0554208655
 30
0.0
 10
10.3999616309
 20
6.0169085522
 30
0.0
 10
10.429522886
 20
5.9728958222
 30
0.0
 10
10.4650178111
 20
5.931180669
 30
0.0
 10
10.5060921374
 20
5.8921592665
 30
0.0
 10
10.5523457647
 20
5.8561934091
 30
0.0
 10
10.6033321896
 20
5.8236187452
 30
0.0
 10
10.6585623014
 20
5.7947394708
 30
0.0
 10
10.7175077348
 20
5.7698263526
 30
0.0
 10
10.7796052339
 20
5.7491137192
 30
0.0
 10
10.844261564
 20
5.7327969831
 30
0.0
 10
10.9108589535
 20
5.7210304486
 30
0.0
 10
10.9787609147
 20
5.7139255871
 30
0.0
 10
11.0473183383
 20
5.7115497846
 30
0.0
 10
11.1158757619
 20
5.7139255871
 30
0.0
 10
11.1837777231
 20
5.7210304486
 30
0.0
 10
11.2503751126
 20
5.7327969831
 30
0.0
 10
11.3150314427
 20
5.7491137192
 30
0.0
 10
11.3771289418
 20
5.7698263526
 30
0.0
 10
11.4360743751
 20
5.7947394708
 30
0.0
 10
11.491304487
 20
5.8236187452
 30
0.0
 10
11.5422909118
 20
5.8561934091
 30
0.0
 10
11.5885445391
 20
5.8921592665
 30
0.0
 10
11.6296188655
 20
5.931180669
 30
0.0
 10
11.6651137906
 20
5.9728958222
 30
0.0
 10
11.6946750456
 20
6.0169085522
 30
0.0
 10
11.7142460865
 20
6.0554208655
 30
0.0
 10
11.7265668669
 20
6.0868710069
 30
0.0
 10
11.7341139229
 20
6.1106058374
 30
0.0
 10
11.7400026581
 20
6.1345762013
 30
0.0
 10
11.7442202401
 20
6.1587257077
 30
0.0
 10
11.7467537048
 20
6.1829919065
 30
0.0
 10
11.7473183383
 20
6.1992181184
 30
0.0
 10
11.7473183383
 20
6.2073175979
 30
0.0
  0
SPLINE
  5
2ED
100
AcDbEntity
  8
0
100
AcDbSpline
 62
9
  6
CONTINUOUS
 70
0
 71
3
 72
45
 73
41
 74
0
 42
0.0000001
 43
0.0000001
 44
0.0000000001
 40
0.0
 40
0.0
 40
0.0
 40
0.0
 40
0.0128542045
 40
0.0257428077
 40
0.0386915016
 40
0.0517296861
 40
0.0648865436
 40
0.0781880681
 40
0.1053037115
 40
0.133250473
 40
0.1621440128
 40
0.1920544093
 40
0.2230077665
 40
0.2549895165
 40
0.287948745
 40
0.3218029335
 40
0.3564428013
 40
0.3917370755
 40
0.4275371229
 40
0.4636814367
 40
0.5
 40
0.5363185634
 40
0.5724628771
 40
0.6082629245
 40
0.6435571987
 40
0.6781970665
 40
0.712051255
 40
0.7450104835
 40
0.7769922335
 40
0.8079455907
 40
0.8378559872
 40
0.866749527
 40
0.8946962885
 40
0.9218119319
 40
0.9351134564
 40
0.948270314
 40
0.9613084984
 40
0.9742571923
 40
0.9871457955
 40
1.0
 40
1.0
 40
1.0
 40
1.0
 10
11.7473183383
 20
6.3374252456
 30
0.0
 10
11.7473183383
 20
6.3293257661
 30
0.0
 10
11.7467537048
 20
6.3130995543
 30
0.0
 10
11.7442202401
 20
6.2888333554
 30
0.0
 10
11.7400026581
 20
6.2646838489
 30
0.0
 10
11.7341139228
 20
6.240713485
 30
0.0
 10
11.7265668668
 20
6.2169786544
 30
0.0
 10
11.7142460864
 20
6.1855285131
 30
0.0
 10
11.6946750455
 20
6.1470161998
 30
0.0
 10
11.6651137905
 20
6.1030034698
 30
0.0
 10
11.6296188654
 20
6.0612883166
 30
0.0
 10
11.588544539
 20
6.0222669142
 30
0.0
 10
11.5422909117
 20
5.9863010568
 30
0.0
 10
11.4913044869
 20
5.9537263929
 30
0.0
 10
11.436074375
 20
5.9248471185
 30
0.0
 10
11.3771289417
 20
5.8999340003
 30
0.0
 10
11.3150314426
 20
5.8792213669
 30
0.0
 10
11.2503751125
 20
5.8629046308
 30
0.0
 10
11.183777723
 20
5.8511380963
 30
0.0
 10
11.1158757618
 20
5.8440332349
 30
0.0
 10
11.0473183383
 20
5.8416574324
 30
0.0
 10
10.9787609147
 20
5.8440332349
 30
0.0
 10
10.9108589535
 20
5.8511380964
 30
0.0
 10
10.844261564
 20
5.8629046308
 30
0.0
 10
10.779605234
 20
5.8792213669
 30
0.0
 10
10.7175077349
 20
5.8999340003
 30
0.0
 10
10.6585623015
 20
5.9248471185
 30
0.0
 10
10.6033321897
 20
5.9537263929
 30
0.0
 10
10.5523457648
 20
5.9863010568
 30
0.0
 10
10.5060921375
 20
6.0222669142
 30
0.0
 10
10.4650178112
 20
6.0612883167
 30
0.0
 10
10.4295228861
 20
6.1030034699
 30
0.0
 10
10.399961631
 20
6.1470161998
 30
0.0
 10
10.3803905902
 20
6.1855285131
 30
0.0
 10
10.3680698097
 20
6.2169786545
 30
0.0
 10
10.3605227537
 20
6.240713485
 30
0.0
 10
10.3546340185
 20
6.2646838489
 30
0.0
 10
10.3504164364
 20
6.2888333555
 30
0.0
 10
10.3478829717
 20
6.3130995543
 30
0.0
 10
10.3473183383
 20
6.3293257661
 30
0.0
 10
10.3473183383
 20
6.3374252456
 30
0.0
  0
SPLINE
  5
2EE
100
AcDbEntity
  8
0
100
AcDbSpline
 62
9
  6
CONTINUOUS
 70
0
 71
3
 72
49
 73
45
 74
0
 42
0.0000001
 43
0.0000001
 44
0.0000000001
 40
0.0
 40
0.0
 40
0.0
 40
0.0
 40
0.0128544444
 40
0.0257418213
 40
0.0386892173
 40
0.0517269529
 40
0.0648833767
 40
0.0781841778
 40
0.0916530972
 40
0.1053115744
 40
0.1191782306
 40
0.1332689664
 40
0.1621610355
 40
0.1920699218
 40
0.2230217213
 40
0.2550018611
 40
0.2879594262
 40
0.3218119035
 40
0.3564500216
 40
0.3917425182
 40
0.4275407669
 40
0.4636832639
 40
0.5
 40
0.5363167361
 40
0.5724592331
 40
0.6082574818
 40
0.6435499784
 40
0.6781880965
 40
0.7120405738
 40
0.7449981389
 40
0.7769782787
 40
0.8079300782
 40
0.8378389645
 40
0.8667310336
 40
0.8808217694
 40
0.8946884256
 40
0.9083469028
 40
0.9218158222
 40
0.9351166233
 40
0.9482730471
 40
0.9613107827
 40
0.9742581787
 40
0.9871455556
 40
1.0
 40
1.0
 40
1.0
 40
1.0
 10
12.5073183383
 20
6.164891191
 30
0.0
 10
12.5073183383
 20
6.1479968223
 30
0.0
 10
12.5061413802
 20
6.1141531317
 30
0.0
 10
12.5008563025
 20
6.0635412831
 30
0.0
 10
12.4920601669
 20
6.0131736598
 30
0.0
 10
12.4797770088
 20
5.9631784971
 30
0.0
 10
12.4640383128
 20
5.9136745785
 30
0.0
 10
12.4448816801
 20
5.8647825957
 30
0.0
 10
12.4223562762
 20
5.8166203018
 30
0.0
 10
12.3965166294
 20
5.769304832
 30
0.0
 10
12.3674264158
 20
5.7229478594
 30
0.0
 10
12.3240472963
 20
5.6620698731
 30
0.0
 10
12.2618281097
 20
5.5889442696
 30
0.0
 10
12.1761625105
 20
5.5075620364
 30
0.0
 10
12.0796895675
 20
5.4325460838
 30
0.0
 10
11.9733467171
 20
5.3646050781
 30
0.0
 10
11.8581524064
 20
5.3043710233
 30
0.0
 10
11.7352091273
 20
5.2524093388
 30
0.0
 10
11.6056915057
 20
5.2092085984
 30
0.0
 10
11.4708368669
 20
5.1751764979
 30
0.0
 10
11.3319336974
 20
5.1506349177
 30
0.0
 10
11.1903095671
 20
5.1358162647
 30
0.0
 10
11.0473183383
 20
5.1308610446
 30
0.0
 10
10.9043271094
 20
5.1358162647
 30
0.0
 10
10.7627029792
 20
5.1506349177
 30
0.0
 10
10.6237998097
 20
5.1751764979
 30
0.0
 10
10.4889451709
 20
5.2092085984
 30
0.0
 10
10.3594275493
 20
5.2524093388
 30
0.0
 10
10.2364842701
 20
5.3043710233
 30
0.0
 10
10.1212899595
 20
5.3646050781
 30
0.0
 10
10.0149471091
 20
5.4325460838
 30
0.0
 10
9.918474166
 20
5.5075620364
 30
0.0
 10
9.8328085668
 20
5.5889442696
 30
0.0
 10
9.7705893803
 20
5.6620698731
 30
0.0
 10
9.7272102608
 20
5.7229478594
 30
0.0
 10
9.6981200471
 20
5.769304832
 30
0.0
 10
9.6722804003
 20
5.8166203018
 30
0.0
 10
9.6497549964
 20
5.8647825957
 30
0.0
 10
9.6305983638
 20
5.9136745785
 30
0.0
 10
9.6148596678
 20
5.9631784971
 30
0.0
 10
9.6025765096
 20
6.0131736598
 30
0.0
 10
9.593780374
 20
6.0635412831
 30
0.0
 10
9.5884952964
 20
6.1141531317
 30
0.0
 10
9.5873183383
 20
6.1479968223
 30
0.0
 10
9.5873183383
 20
6.164891191
 30
0.0
  0
SPLINE
  5
2EF
100
AcDbEntity
  8
0
100
AcDbSpline
 62
9
  6
CONTINUOUS
 70
0
 71
3
 72
49
 73
45
 74
0
 42
0.0000001
 43
0.0000001
 44
0.0000000001
 40
0.0
 40
0.0
 40
0.0
 40
0.0
 40
0.0128544444
 40
0.0257418213
 40
0.0386892173
 40
0.0517269529
 40
0.0648833767
 40
0.0781841778
 40
0.0916530972
 40
0.1053115744
 40
0.1191782306
 40
0.1332689664
 40
0.1621610355
 40
0.1920699218
 40
0.2230217213
 40
0.2550018611
 40
0.2879594262
 40
0.3218119035
 40
0.3564500216
 40
0.3917425182
 40
0.4275407669
 40
0.4636832639
 40
0.5
 40
0.5363167361
 40
0.5724592331
 40
0.6082574818
 40
0.6435499784
 40
0.6781880965
 40
0.7120405738
 40
0.7449981389
 40
0.7769782787
 40
0.8079300782
 40
0.8378389645
 40
0.8667310336
 40
0.8808217694
 40
0.8946884256
 40
0.9083469028
 40
0.9218158222
 40
0.9351166233
 40
0.9482730471
 40
0.9613107827
 40
0.9742581787
 40
0.9871455556
 40
1.0
 40
1.0
 40
1.0
 40
1.0
 10
9.5873183383
 20
6.0015495245
 30
0.0
 10
9.5873183383
 20
5.9846551558
 30
0.0
 10
9.5884952964
 20
5.9508114653
 30
0.0
 10
9.593780374
 20
5.9001996167
 30
0.0
 10
9.6025765096
 20
5.8498319934
 30
0.0
 10
9.6148596678
 20
5.7998368307
 30
0.0
 10
9.6305983638
 20
5.750332912
 30
0.0
 10
9.6497549964
 20
5.7014409293
 30
0.0
 10
9.6722804003
 20
5.6532786353
 30
0.0
 10
9.6981200471
 20
5.6059631655
 30
0.0
 10
9.7272102608
 20
5.559606193
 30
0.0
 10
9.7705893803
 20
5.4987282067
 30
0.0
 10
9.8328085668
 20
5.4256026031
 30
0.0
 10
9.918474166
 20
5.3442203699
 30
0.0
 10
10.0149471091
 20
5.2692044174
 30
0.0
 10
10.1212899595
 20
5.2012634116
 30
0.0
 10
10.2364842701
 20
5.1410293569
 30
0.0
 10
10.3594275493
 20
5.0890676723
 30
0.0
 10
10.4889451709
 20
5.045866932
 30
0.0
 10
10.6237998097
 20
5.0118348314
 30
0.0
 10
10.7627029792
 20
4.9872932512
 30
0.0
 10
10.9043271094
 20
4.9724745983
 30
0.0
 10
11.0473183383
 20
4.9675193782
 30
0.0
 10
11.1903095671
 20
4.9724745983
 30
0.0
 10
11.3319336974
 20
4.9872932512
 30
0.0
 10
11.4708368669
 20
5.0118348314
 30
0.0
 10
11.6056915057
 20
5.045866932
 30
0.0
 10
11.7352091273
 20
5.0890676723
 30
0.0
 10
11.8581524064
 20
5.1410293569
 30
0.0
 10
11.9733467171
 20
5.2012634116
 30
0.0
 10
12.0796895675
 20
5.2692044174
 30
0.0
 10
12.1761625105
 20
5.3442203699
 30
0.0
 10
12.2618281097
 20
5.4256026031
 30
0.0
 10
12.3240472963
 20
5.4987282067
 30
0.0
 10
12.3674264158
 20
5.559606193
 30
0.0
 10
12.3965166294
 20
5.6059631655
 30
0.0
 10
12.4223562762
 20
5.6532786353
 30
0.0
 10
12.4448816801
 20
5.7014409293
 30
0.0
 10
12.4640383128
 20
5.750332912
 30
0.0
 10
12.4797770088
 20
5.7998368307
 30
0.0
 10
12.4920601669
 20
5.8498319934
 30
0.0
 10
12.5008563025
 20
5.9001996167
 30
0.0
 10
12.5061413802
 20
5.9508114653
 30
0.0
 10
12.5073183383
 20
5.9846551558
 30
0.0
 10
12.5073183383
 20
6.0015495245
 30
0.0
  0
SPLINE
  5
2F0
100
AcDbEntity
  8
0
100
AcDbSpline
 62
9
  6
CONTINUOUS
 70
0
 71
3
 72
57
 73
53
 74
0
 42
0.0000001
 43
0.0000001
 44
0.0000000001
 40
0.0
 40
0.0
 40
0.0
 40
0.0
 40
0.0128540456
 40
0.0257399699
 40
0.0386862944
 40
0.0517233334
 40
0.0648788014
 40
0.0781785993
 40
0.0916465949
 40
0.1053040988
 40
0.1191697677
 40
0.1332595005
 40
0.1475863306
 40
0.1621604156
 40
0.1769891077
 40
0.1920769971
 40
0.2230265851
 40
0.2388934842
 40
0.2550124858
 40
0.287967709
 40
0.3047905999
 40
0.3218245541
 40
0.3564602212
 40
0.3917502091
 40
0.4275459132
 40
0.4636858431
 40
0.5
 40
0.5363141569
 40
0.5724540868
 40
0.6082497909
 40
0.6435397788
 40
0.6781754459
 40
0.6952094001
 40
0.712032291
 40
0.7449875142
 40
0.7611065158
 40
0.7769734149
 40
0.8079230029
 40
0.8230108923
 40
0.8378395844
 40
0.8524136694
 40
0.8667404995
 40
0.8808302323
 40
0.8946959012
 40
0.9083534051
 40
0.9218214007
 40
0.9351211986
 40
0.9482766666
 40
0.9613137056
 40
0.9742600301
 40
0.9871459544
 40
1.0
 40
1.0
 40
1.0
 40
1.0
 10
14.0023183383
 20
5.3378028904
 30
0.0
 10
14.0023183383
 20
5.303607782
 30
0.0
 10
13.9999371012
 20
5.235109088
 30
0.0
 10
13.9892388249
 20
5.132672686
 30
0.0
 10
13.971436173
 20
5.0307312057
 30
0.0
 10
13.9465760785
 20
4.9295420005
 30
0.0
 10
13.9147203618
 20
4.8293473543
 30
0.0
 10
13.8759487598
 20
4.7303910624
 30
0.0
 10
13.8303572883
 20
4.6329124451
 30
0.0
 10
13.7780586893
 20
4.5371464371
 30
0.0
 10
13.7191821173
 20
4.4433230337
 30
0.0
 10
13.6538713295
 20
4.3516676787
 30
0.0
 10
13.5822853255
 20
4.262399893
 30
0.0
 10
13.5045995076
 20
4.1757334893
 30
0.0
 10
13.4209988291
 20
4.0918732896
 30
0.0
 10
13.3009195562
 20
3.983167508
 30
0.0
 10
13.1706786978
 20
3.8818925992
 30
0.0
 10
13.0317249485
 20
3.7884214916
 30
0.0
 10
12.88416307
 20
3.6984837946
 30
0.0
 10
12.7285960953
 20
3.6171389376
 30
0.0
 10
12.5663268821
 20
3.5445310704
 30
0.0
 10
12.3971277026
 20
3.4768009795
 30
0.0
 10
12.177445029
 20
3.403525937
 30
0.0
 10
11.9045096747
 20
3.3346479396
 30
0.0
 10
11.6233716301
 20
3.2849758252
 30
0.0
 10
11.3367287703
 20
3.2549834165
 30
0.0
 10
11.0473183383
 20
3.244953787
 30
0.0
 10
10.7579079063
 20
3.2549834165
 30
0.0
 10
10.4712650464
 20
3.2849758252
 30
0.0
 10
10.1901270018
 20
3.3346479396
 30
0.0
 10
9.9171916475
 20
3.403525937
 30
0.0
 10
9.6975089739
 20
3.4768009795
 30
0.0
 10
9.5283097945
 20
3.5445310704
 30
0.0
 10
9.3660405812
 20
3.6171389376
 30
0.0
 10
9.2104736065
 20
3.6984837946
 30
0.0
 10
9.0629117281
 20
3.7884214916
 30
0.0
 10
8.9239579788
 20
3.8818925992
 30
0.0
 10
8.7937171203
 20
3.983167508
 30
0.0
 10
8.6736378475
 20
4.0918732896
 30
0.0
 10
8.590037169
 20
4.1757334893
 30
0.0
 10
8.5123513511
 20
4.262399893
 30
0.0
 10
8.4407653471
 20
4.3516676787
 30
0.0
 10
8.3754545593
 20
4.4433230337
 30
0.0
 10
8.3165779873
 20
4.5371464371
 30
0.0
 10
8.2642793883
 20
4.6329124451
 30
0.0
 10
8.2186879167
 20
4.7303910624
 30
0.0
 10
8.1799163148
 20
4.8293473543
 30
0.0
 10
8.148060598
 20
4.9295420005
 30
0.0
 10
8.1232005035
 20
5.0307312057
 30
0.0
 10
8.1053978517
 20
5.132672686
 30
0.0
 10
8.0946995754
 20
5.235109088
 30
0.0
 10
8.0923183383
 20
5.303607782
 30
0.0
 10
8.0923183383
 20
5.3378028904
 30
0.0
  0
SPLINE
  5
2F1
100
AcDbEntity
  8
0
100
AcDbSpline
 62
9
  6
CONTINUOUS
 70
0
 71
3
 72
29
 73
25
 74
0
 42
0.0000001
 43
0.0000001
 44
0.0000000001
 40
0.0
 40
0.0
 40
0.0
 40
0.0
 40
0.0262562147
 40
0.0525645167
 40
0.0789690627
 40
0.105518977
 40
0.1322601969
 40
0.1592354502
 40
0.186485077
 40
0.2140462374
 40
0.241952436
 40
0.2702333879
 40
0.2989149688
 40
0.3280189418
 40
0.3875441649
 40
0.4489217269
 40
0.5121842973
 40
0.5773075021
 40
0.6442153179
 40
0.7127860041
 40
0.7828581748
 40
0.8542367979
 40
0.9266990482
 40
1.0
 40
1.0
 40
1.0
 40
1.0
 10
14.0023183383
 20
5.9591231177
 30
0.0
 10
14.0023183383
 20
5.9288874869
 30
0.0
 10
14.0004573933
 20
5.8683398769
 30
0.0
 10
13.9920957846
 20
5.7777332645
 30
0.0
 10
13.978175563
 20
5.6874675347
 30
0.0
 10
13.9587254672
 20
5.597721628
 30
0.0
 10
13.9337845895
 20
5.5086623691
 30
0.0
 10
13.9033990887
 20
5.4204595371
 30
0.0
 10
13.8676293583
 20
5.3332797902
 30
0.0
 10
13.8265439967
 20
5.2472877231
 30
0.0
 10
13.7802212656
 20
5.1626455401
 30
0.0
 10
13.7287514429
 20
5.0795122826
 30
0.0
 10
13.6722298296
 20
4.998043085
 30
0.0
 10
13.5896721699
 20
4.8910538138
 30
0.0
 10
13.4740834783
 20
4.7622930762
 30
0.0
 10
13.3182324981
 20
4.6180566475
 30
0.0
 10
13.1453567379
 20
4.4839622879
 30
0.0
 10
12.9567691825
 20
4.3610069339
 30
0.0
 10
12.7538839965
 20
4.2500912067
 30
0.0
 10
12.5382223642
 20
4.1520334239
 30
0.0
 10
12.3113996118
 20
4.0675578961
 30
0.0
 10
12.0751100911
 20
3.9972898605
 30
0.0
 10
11.8311348443
 20
3.9417523965
 30
0.0
 10
11.6653024389
 20
3.9149407177
 30
0.0
 10
11.5815961748
 20
3.904059733
 30
0.0
  0
LINE
  5
2F2
100
AcDbEntity
  8
0
100
AcDbLine
 62
9
  6
CONTINUOUS
 10
11.4678586854
 20
3.8908906819
 11
11.4672015331
 21
3.8908239248
  0
LINE
  5
2F3
100
AcDbEntity
  8
0
100
AcDbLine
 62
9
  6
CONTINUOUS
 10
10.6274351434
 20
3.8908239248
 11
10.6267779912
 21
3.8908906819
  0
SPLINE
  5
2F4
100
AcDbEntity
  8
0
100
AcDbSpline
 62
9
  6
CONTINUOUS
 70
0
 71
3
 72
29
 73
25
 74
0
 42
0.0000001
 43
0.0000001
 44
0.0000000001
 40
0.0
 40
0.0
 40
0.0
 40
0.0
 40
0.0733009518
 40
0.1457632021
 40
0.2171418252
 40
0.2872139959
 40
0.3557846821
 40
0.4226924979
 40
0.4878157027
 40
0.5510782731
 40
0.6124558351
 40
0.6719810582
 40
0.7010850312
 40
0.7297666121
 40
0.758047564
 40
0.7859537626
 40
0.813514923
 40
0.8407645498
 40
0.8677398031
 40
0.894481023
 40
0.9210309373
 40
0.9474354833
 40
0.9737437853
 40
1.0
 40
1.0
 40
1.0
 40
1.0
 10
10.5130405017
 20
3.904059733
 30
0.0
 10
10.4293342377
 20
3.9149407177
 30
0.0
 10
10.2635018322
 20
3.9417523965
 30
0.0
 10
10.0195265855
 20
3.9972898605
 30
0.0
 10
9.7832370648
 20
4.0675578961
 30
0.0
 10
9.5564143124
 20
4.1520334239
 30
0.0
 10
9.34075268
 20
4.2500912067
 30
0.0
 10
9.1378674941
 20
4.3610069339
 30
0.0
 10
8.9492799387
 20
4.4839622879
 30
0.0
 10
8.7764041785
 20
4.6180566475
 30
0.0
 10
8.6205531983
 20
4.7622930762
 30
0.0
 10
8.5049645067
 20
4.8910538138
 30
0.0
 10
8.422406847
 20
4.998043085
 30
0.0
 10
8.3658852337
 20
5.0795122826
 30
0.0
 10
8.314415411
 20
5.1626455401
 30
0.0
 10
8.2680926799
 20
5.2472877231
 30
0.0
 10
8.2270073182
 20
5.3332797902
 30
0.0
 10
8.1912375878
 20
5.4204595371
 30
0.0
 10
8.160852087
 20
5.5086623691
 30
0.0
 10
8.1359112094
 20
5.597721628
 30
0.0
 10
8.1164611136
 20
5.6874675347
 30
0.0
 10
8.1025408919
 20
5.7777332645
 30
0.0
 10
8.0941792833
 20
5.8683398769
 30
0.0
 10
8.0923183383
 20
5.9288874869
 30
0.0
 10
8.0923183383
 20
5.9591231177
 30
0.0
  0
SPLINE
  5
2F5
100
AcDbEntity
  8
0
100
AcDbSpline
 62
7
  6
CONTINUOUS
 70
0
 71
3
 72
14
 73
10
 74
0
 42
0.0000001
 43
0.0000001
 44
0.0000000001
 40
0.0
 40
0.0
 40
0.0
 40
0.0
 40
0.1194873447
 40
0.239800299
 40
0.3613614532
 40
0.4845575572
 40
0.609743072
 40
0.7372460908
 40
1.0
 40
1.0
 40
1.0
 40
1.0
 10
10.641580326
 20
7.2617609012
 30
0.0
 10
10.6419826365
 20
7.2562608602
 30
0.0
 10
10.6432661116
 20
7.2452518939
 30
0.0
 10
10.6466003373
 20
7.228891372
 30
0.0
 10
10.6513382457
 20
7.2127016803
 30
0.0
 10
10.6574591083
 20
7.1967430864
 30
0.0
 10
10.6649438841
 20
7.1810717364
 30
0.0
 10
10.6768162742
 20
7.1604373898
 30
0.0
 10
10.6875318297
 20
7.1458600709
 30
0.0
 10
10.6953467171
 20
7.1365869542
 30
0.0
  0
SPLINE
  5
2F6
100
AcDbEntity
  8
0
100
AcDbSpline
 62
9
  6
CONTINUOUS
 70
0
 71
3
 72
11
 73
7
 74
0
 42
0.0000001
 43
0.0000001
 44
0.0000000001
 40
0.0
 40
0.0
 40
0.0
 40
0.0
 40
0.2488718138
 40
0.4982657119
 40
0.7485973748
 40
1.0
 40
1.0
 40
1.0
 40
1.0
 10
12.2423183383
 20
11.1326322732
 30
0.0
 10
12.2423183383
 20
11.1353568315
 30
0.0
 10
12.2415421463
 20
11.1408424829
 30
0.0
 10
12.2381371957
 20
11.148411567
 30
0.0
 10
12.2327659017
 20
11.1547735978
 30
0.0
 10
12.2281388116
 20
11.1578838285
 30
0.0
 10
12.2256666575
 20
11.1590935452
 30
0.0
  0
SPLINE
  5
2F7
100
AcDbEntity
  8
0
100
AcDbSpline
 62
9
  6
CONTINUOUS
 70
0
 71
3
 72
11
 73
7
 74
0
 42
0.0000001
 43
0.0000001
 44
0.0000000001
 40
0.0
 40
0.0
 40
0.0
 40
0.0
 40
0.2488718442
 40
0.4982657223
 40
0.7485973618
 40
1.0
 40
1.0
 40
1.0
 40
1.0
 10
9.8523183383
 20
11.1326323125
 30
0.0
 10
9.8523183383
 20
11.1353568699
 30
0.0
 10
9.853094531
 20
11.1408425195
 30
0.0
 10
9.8564994859
 20
11.1484115983
 30
0.0
 10
9.8618707868
 20
11.1547736193
 30
0.0
 10
9.8664978816
 20
11.1578838392
 30
0.0
 10
9.8689700374
 20
11.1590935504
 30
0.0
  0
SPLINE
  5
2F8
100
AcDbEntity
  8
0
100
AcDbSpline
 62
7
  6
CONTINUOUS
 70
0
 71
3
 72
24
 73
20
 74
0
 42
0.0000001
 43
0.0000001
 44
0.0000000001
 40
0.0
 40
0.0
 40
0.0
 40
0.0
 40
0.0520993628
 40
0.078392086
 40
0.1049019538
 40
0.1587220876
 40
0.2138941573
 40
0.2420755199
 40
0.2706783128
 40
0.3291979835
 40
0.3895628836
 40
0.451790063
 40
0.5158298168
 40
0.5815729223
 40
0.6488580924
 40
0.7174791291
 40
0.7871945726
 40
0.8577287768
 40
1.0
 40
1.0
 40
1.0
 40
1.0
 10
11.4528126223
 20
7.3859299193
 30
0.0
 10
11.4520309945
 20
7.3766241058
 30
0.0
 10
11.4499396938
 20
7.3626778708
 30
0.0
 10
11.4453951837
 20
7.3444233249
 30
0.0
 10
11.4396259801
 20
7.3261910551
 30
0.0
 10
11.4301628798
 20
7.3037539697
 30
0.0
 10
11.4179895565
 20
7.2823266836
 30
0.0
 10
11.4066641342
 20
7.2657502361
 30
0.0
 10
11.3940977349
 20
7.2493305449
 30
0.0
 10
11.3763908032
 20
7.2296332262
 30
0.0
 10
11.3523935121
 20
7.2076997432
 30
0.0
 10
11.3256966725
 20
7.1874667899
 30
0.0
 10
11.296539564
 20
7.1691045882
 30
0.0
 10
11.265180237
 20
7.1527650719
 30
0.0
 10
11.2318959387
 20
7.1385837184
 30
0.0
 10
11.1969816692
 20
7.1266772946
 30
0.0
 10
11.1607425438
 20
7.1171429401
 30
0.0
 10
11.1109680333
 20
7.1076708161
 30
0.0
 10
11.0728146825
 20
7.1043680019
 30
0.0
 10
11.0473183383
 20
7.1038556774
 30
0.0
  0
LINE
  5
2F9
100
AcDbEntity
  8
0
100
AcDbLine
 62
9
  6
CONTINUOUS
 10
12.2298183372
 20
11.159669786
 11
12.2276736646
 21
11.1594117374
  0
SPLINE
  5
2FA
100
AcDbEntity
  8
0
100
AcDbSpline
 62
9
  6
CONTINUOUS
 70
0
 71
3
 72
15
 73
11
 74
0
 42
0.0000001
 43
0.0000001
 44
0.0000000001
 40
0.0
 40
0.0
 40
0.0
 40
0.0
 40
0.1283725474
 40
0.2559069523
 40
0.3824359178
 40
0.5078995487
 40
0.6322865435
 40
0.7556595477
 40
0.8781721896
 40
1.0
 40
1.0
 40
1.0
 40
1.0
 10
12.1888868808
 20
11.2364849804
 30
0.0
 10
12.1887270768
 20
11.2326243229
 30
0.0
 10
12.188882587
 20
11.224899847
 30
0.0
 10
12.1905494654
 20
11.2134807311
 30
0.0
 10
12.1936230352
 20
11.202445718
 30
0.0
 10
12.1980513039
 20
11.1919835657
 30
0.0
 10
12.2037615637
 20
11.182271283
 30
0.0
 10
12.2106580519
 20
11.1734729423
 30
0.0
 10
12.2186232721
 20
11.1657411196
 30
0.0
 10
12.2245738569
 20
11.1613723061
 30
0.0
 10
12.2276729764
 20
11.1594121727
 30
0.0
  0
SPLINE
  5
2FB
100
AcDbEntity
  8
0
100
AcDbSpline
 62
9
  6
CONTINUOUS
 70
0
 71
3
 72
9
 73
5
 74
0
 42
0.0000001
 43
0.0000001
 44
0.0000000001
 40
0.0
 40
0.0
 40
0.0
 40
0.0
 40
0.2495175664
 40
1.0
 40
1.0
 40
1.0
 40
1.0
 10
12.1869662688
 20
11.1590937129
 30
0.0
 10
12.186071367
 20
11.1591605778
 30
0.0
 10
12.1824823419
 20
11.1593923613
 30
0.0
 10
12.1788821493
 20
11.1594655499
 30
0.0
 10
12.1761835473
 20
11.1594121977
 30
0.0
  0
SPLINE
  5
2FC
100
AcDbEntity
  8
0
100
AcDbSpline
 62
9
  6
CONTINUOUS
 70
0
 71
3
 72
17
 73
13
 74
0
 42
0.0000001
 43
0.0000001
 44
0.0000000001
 40
0.0
 40
0.0
 40
0.0
 40
0.0
 40
0.0224849241
 40
0.0510172586
 40
0.0857006409
 40
0.1265276803
 40
0.2260718477
 40
0.3480276059
 40
0.4898480959
 40
0.6482567815
 40
0.819661824
 40
1.0
 40
1.0
 40
1.0
 40
1.0
 10
12.2256667285
 20
11.1590935133
 30
0.0
 10
12.2253941062
 20
11.1589919709
 30
0.0
 10
12.2247573964
 20
11.1588112333
 30
0.0
 10
12.2236687642
 20
11.1585980089
 30
0.0
 10
12.2223345066
 20
11.1584148175
 30
0.0
 10
12.2200794907
 20
11.15819901
 30
0.0
 10
12.216687806
 20
11.1580345951
 30
0.0
 10
12.2119868819
 20
11.1579766192
 30
0.0
 10
12.2065244879
 20
11.1580549636
 30
0.0
 10
12.2004256651
 20
11.1582673145
 30
0.0
 10
12.1938338401
 20
11.1586122091
 30
0.0
 10
12.1892930865
 20
11.1589200872
 30
0.0
 10
12.1869662688
 20
11.1590937129
 30
0.0
  0
SPLINE
  5
2FD
100
AcDbEntity
  8
0
100
AcDbSpline
 62
9
  6
CONTINUOUS
 70
0
 71
3
 72
9
 73
5
 74
0
 42
0.0000001
 43
0.0000001
 44
0.0000000001
 40
0.0
 40
0.0
 40
0.0
 40
0.0
 40
0.4695302628
 40
1.0
 40
1.0
 40
1.0
 40
1.0
 10
12.2276729764
 20
11.1594121727
 30
0.0
 10
12.2273550955
 20
11.1594499326
 30
0.0
 10
12.2266636966
 20
11.1594116708
 30
0.0
 10
12.2260055563
 20
11.1592199879
 30
0.0
 10
12.2256667285
 20
11.1590935133
 30
0.0
  0
SPLINE
  5
2FE
100
AcDbEntity
  8
0
100
AcDbSpline
 62
9
  6
CONTINUOUS
 70
0
 71
3
 72
15
 73
11
 74
0
 42
0.0000001
 43
0.0000001
 44
0.0000000001
 40
0.0
 40
0.0
 40
0.0
 40
0.0
 40
0.1438492791
 40
0.286273512
 40
0.4251107807
 40
0.5583311743
 40
0.6840123611
 40
0.8004295287
 40
0.9061333923
 40
1.0
 40
1.0
 40
1.0
 40
1.0
 10
12.1523183383
 20
11.2364849804
 30
0.0
 10
12.1527719164
 20
11.2326111385
 30
0.0
 10
12.1538403862
 20
11.2249202091
 30
0.0
 10
12.1559169154
 20
11.2135788682
 30
0.0
 10
12.1584326914
 20
11.2026217993
 30
0.0
 10
12.1613443124
 20
11.192233424
 30
0.0
 10
12.1646025792
 20
11.1825873683
 30
0.0
 10
12.168151832
 20
11.1738430603
 30
0.0
 10
12.1719317029
 20
11.1661459156
 30
0.0
 10
12.1747373475
 20
11.1615059221
 30
0.0
 10
12.1761838014
 20
11.1594118298
 30
0.0
  0
LINE
  5
2FF
100
AcDbEntity
  8
0
100
AcDbLine
 62
9
  6
CONTINUOUS
 10
12.1761838014
 20
11.1594118298
 11
12.1323183383
 21
11.1596697865
  0
LINE
  5
300
100
AcDbEntity
  8
0
100
AcDbLine
 62
9
  6
CONTINUOUS
 10
9.9623182466
 20
11.159669786
 11
9.918453165
 21
11.1594117374
  0
SPLINE
  5
301
100
AcDbEntity
  8
0
100
AcDbSpline
 62
9
  6
CONTINUOUS
 70
0
 71
3
 72
15
 73
11
 74
0
 42
0.0000001
 43
0.0000001
 44
0.0000000001
 40
0.0
 40
0.0
 40
0.0
 40
0.0
 40
0.1438488847
 40
0.2862726953
 40
0.4251095591
 40
0.558329634
 40
0.6840106661
 40
0.8004279457
 40
0.9061323099
 40
1.0
 40
1.0
 40
1.0
 40
1.0
 10
9.9423183383
 20
11.2364849804
 30
0.0
 10
9.9418648039
 20
11.2326111658
 30
0.0
 10
9.9407964187
 20
11.2249202901
 30
0.0
 10
9.9387200297
 20
11.2135790217
 30
0.0
 10
9.9362043916
 20
11.2026220164
 30
0.0
 10
9.9332928915
 20
11.1922336932
 30
0.0
 10
9.9300347172
 20
11.1825876752
 30
0.0
 10
9.9264855154
 20
11.1738433881
 30
0.0
 10
9.9227056407
 20
11.1661462455
 30
0.0
 10
9.9198999549
 20
11.1615062591
 30
0.0
 10
9.9184534657
 20
11.1594121727
 30
0.0
  0
SPLINE
  5
302
100
AcDbEntity
  8
0
100
AcDbSpline
 62
9
  6
CONTINUOUS
 70
0
 71
3
 72
9
 73
5
 74
0
 42
0.0000001
 43
0.0000001
 44
0.0000000001
 40
0.0
 40
0.0
 40
0.0
 40
0.0
 40
0.5305135593
 40
1.0
 40
1.0
 40
1.0
 40
1.0
 10
9.8689695169
 20
11.1590937129
 30
0.0
 10
9.868630739
 20
11.1592201201
 30
0.0
 10
9.8679727418
 20
11.1594115614
 30
0.0
 10
9.8672815504
 20
11.1594499412
 30
0.0
 10
9.8669637869
 20
11.1594121977
 30
0.0
  0
SPLINE
  5
303
100
AcDbEntity
  8
0
100
AcDbSpline
 62
9
  6
CONTINUOUS
 70
0
 71
3
 72
17
 73
13
 74
0
 42
0.0000001
 43
0.0000001
 44
0.0000000001
 40
0.0
 40
0.0
 40
0.0
 40
0.0
 40
0.1803435902
 40
0.3517528105
 40
0.5101650198
 40
0.6519844989
 40
0.7739372651
 40
0.8734818348
 40
0.9143079262
 40
0.9489870186
 40
0.9775148385
 40
1.0
 40
1.0
 40
1.0
 40
1.0
 10
9.9076682577
 20
11.1590935133
 30
0.0
 10
9.9053414768
 20
11.1589198229
 30
0.0
 10
9.9008007863
 20
11.1586120985
 30
0.0
 10
9.8942090772
 20
11.1582672931
 30
0.0
 10
9.8881104371
 20
11.1580548606
 30
0.0
 10
9.8826482851
 20
11.1579766078
 30
0.0
 10
9.8779476153
 20
11.1580346972
 30
0.0
 10
9.8745561244
 20
11.1581990655
 30
0.0
 10
9.8723012666
 20
11.1584148471
 30
0.0
 10
9.8709672062
 20
11.1585981218
 30
0.0
 10
9.8698787573
 20
11.1588114712
 30
0.0
 10
9.8692421507
 20
11.1589922292
 30
0.0
 10
9.8689695169
 20
11.1590937129
 30
0.0
  0
SPLINE
  5
304
100
AcDbEntity
  8
0
100
AcDbSpline
 62
9
  6
CONTINUOUS
 70
0
 71
3
 72
9
 73
5
 74
0
 42
0.0000001
 43
0.0000001
 44
0.0000000001
 40
0.0
 40
0.0
 40
0.0
 40
0.0
 40
0.2506272755
 40
1.0
 40
1.0
 40
1.0
 40
1.0
 10
9.9184534657
 20
11.1594121727
 30
0.0
 10
9.9175520282
 20
11.1594299955
 30
0.0
 10
9.9139543926
 20
11.1594534977
 30
0.0
 10
9.9103565753
 20
11.1592944224
 30
0.0
 10
9.9076682577
 20
11.1590935133
 30
0.0
  0
SPLINE
  5
305
100
AcDbEntity
  8
0
100
AcDbSpline
 62
9
  6
CONTINUOUS
 70
0
 71
3
 72
15
 73
11
 74
0
 42
0.0000001
 43
0.0000001
 44
0.0000000001
 40
0.0
 40
0.0
 40
0.0
 40
0.0
 40
0.1283724543
 40
0.2559067007
 40
0.3824354675
 40
0.5078989064
 40
0.6322857759
 40
0.7556587878
 40
0.8781716562
 40
1.0
 40
1.0
 40
1.0
 40
1.0
 10
9.9057497958
 20
11.2364849804
 30
0.0
 10
9.9059096151
 20
11.2326242974
 30
0.0
 10
9.9057541265
 20
11.2248997703
 30
0.0
 10
9.904087259
 20
11.2134805786
 30
0.0
 10
9.901013674
 20
11.2024454969
 30
0.0
 10
9.896585361
 20
11.1919832869
 30
0.0
 10
9.890875026
 20
11.18227096
 30
0.0
 10
9.8839784314
 20
11.1734725908
 30
0.0
 10
9.8760130723
 20
11.1657407573
 30
0.0
 10
9.8700623815
 20
11.1613719548
 30
0.0
 10
9.8669632052
 20
11.1594118298
 30
0.0
  0
LINE
  5
306
100
AcDbEntity
  8
0
100
AcDbLine
 62
9
  6
CONTINUOUS
 10
9.8669632052
 20
11.1594118298
 11
9.86481834
 21
11.1596697865
  0
SPLINE
  5
307
100
AcDbEntity
  8
0
100
AcDbSpline
 62
7
  6
CONTINUOUS
 70
0
 71
3
 72
24
 73
20
 74
0
 42
0.0000001
 43
0.0000001
 44
0.0000000001
 40
0.0
 40
0.0
 40
0.0
 40
0.0
 40
0.0521062002
 40
0.0783984541
 40
0.1049056744
 40
0.1587152036
 40
0.2138721613
 40
0.2420451987
 40
0.2706395051
 40
0.329142749
 40
0.3894936028
 40
0.451710508
 40
0.5157446671
 40
0.5814872939
 40
0.648777146
 40
0.7174077055
 40
0.7871369302
 40
0.8576883813
 40
1.0
 40
1.0
 40
1.0
 40
1.0
 10
11.4528812334
 20
7.2841608422
 30
0.0
 10
11.4521346248
 20
7.274836128
 30
0.0
 10
11.4500923491
 20
7.2608587231
 30
0.0
 10
11.4456049234
 20
7.2425587326
 30
0.0
 10
11.4398884499
 20
7.2242807348
 30
0.0
 10
11.430481617
 20
7.2017834473
 30
0.0
 10
11.4183502737
 20
7.1802942842
 30
0.0
 10
11.4070508561
 20
7.1636686271
 30
0.0
 10
11.3945057287
 20
7.1471990531
 30
0.0
 10
11.376815243
 20
7.1274397748
 30
0.0
 10
11.3528229724
 20
7.1054352006
 30
0.0
 10
11.3261172009
 20
7.0851349762
 30
0.0
 10
11.2969382139
 20
7.0667105413
 30
0.0
 10
11.2655452266
 20
7.0503149308
 30
0.0
 10
11.2322168238
 20
7.0360846269
 30
0.0
 10
11.1972495073
 20
7.0241372498
 30
0.0
 10
11.1609499826
 20
7.0145706844
 30
0.0
 10
11.1110866823
 20
7.0050678764
 30
0.0
 10
11.0728622421
 20
7.0017570867
 30
0.0
 10
11.0473183383
 20
7.0012461346
 30
0.0
  0
SPLINE
  5
308
100
AcDbEntity
  8
0
100
AcDbSpline
 62
9
  6
CONTINUOUS
 70
0
 71
3
 72
11
 73
7
 74
0
 42
0.0000001
 43
0.0000001
 44
0.0000000001
 40
0.0
 40
0.0
 40
0.0
 40
0.0
 40
0.1788950721
 40
0.3892572201
 40
0.658509278
 40
1.0
 40
1.0
 40
1.0
 40
1.0
 10
12.2423183383
 20
11.1326322732
 30
0.0
 10
12.2423183183
 20
11.1325560692
 30
0.0
 10
12.2422716349
 20
11.1323884892
 30
0.0
 10
12.2420796457
 20
11.1321759178
 30
0.0
 10
12.2417839523
 20
11.1319854436
 30
0.0
 10
12.2415446036
 20
11.1318812442
 30
0.0
 10
12.2414086992
 20
11.1318293787
 30
0.0
  0
SPLINE
  5
309
100
AcDbEntity
  8
0
100
AcDbSpline
 62
9
  6
CONTINUOUS
 70
0
 71
3
 72
19
 73
15
 74
0
 42
0.0000001
 43
0.0000001
 44
0.0000000001
 40
0.0
 40
0.0
 40
0.0
 40
0.0
 40
0.0090527146
 40
0.0198545666
 40
0.0467765505
 40
0.0807789081
 40
0.1216829898
 40
0.1692338764
 40
0.2230871862
 40
0.3480789781
 40
0.4929032894
 40
0.6531465887
 40
0.8239130047
 40
1.0
 40
1.0
 40
1.0
 40
1.0
 10
12.2414086992
 20
11.1318293787
 30
0.0
 10
12.2412416975
 20
11.1317656455
 30
0.0
 10
12.2408673867
 20
11.1316469798
 30
0.0
 10
12.2399689592
 20
11.1314309297
 30
0.0
 10
12.2385684781
 20
11.1312085739
 30
0.0
 10
12.2365681839
 20
11.1310016327
 30
0.0
 10
12.2341550318
 20
11.1308416143
 30
0.0
 10
12.2313472042
 20
11.1307279755
 30
0.0
 10
12.2268776903
 20
11.1306338023
 30
0.0
 10
12.2204859292
 20
11.1306472461
 30
0.0
 10
12.2119960595
 20
11.1308434202
 30
0.0
 10
12.2026078022
 20
11.1312256102
 30
0.0
 10
12.1926112452
 20
11.1318049181
 30
0.0
 10
12.1857820312
 20
11.1323293926
 30
0.0
 10
12.1823183383
 20
11.1326323125
 30
0.0
  0
SPLINE
  5
30A
100
AcDbEntity
  8
0
100
AcDbSpline
 62
9
  6
CONTINUOUS
 70
0
 71
3
 72
27
 73
23
 74
0
 42
0.0000001
 43
0.0000001
 44
0.0000000001
 40
0.0
 40
0.0
 40
0.0
 40
0.0
 40
0.193667043
 40
0.3799116888
 40
0.4680005898
 40
0.5515783544
 40
0.6298368679
 40
0.7020180081
 40
0.767435453
 40
0.8254619476
 40
0.8755665478
 40
0.9173064665
 40
0.9349390873
 40
0.9503731328
 40
0.9636042427
 40
0.9746475024
 40
0.9835526643
 40
0.9904538727
 40
0.9932495424
 40
0.9956937573
 40
0.9978949043
 40
1.0
 40
1.0
 40
1.0
 40
1.0
 10
9.9123183383
 20
11.1326322732
 30
0.0
 10
9.9084264736
 20
11.1322918132
 30
0.0
 10
9.9007837196
 20
11.1317150849
 30
0.0
 10
9.8913564779
 20
11.1311997972
 30
0.0
 10
9.884142211
 20
11.1309114441
 30
0.0
 10
9.8791027841
 20
11.1307606593
 30
0.0
 10
9.8743828716
 20
11.130669815
 30
0.0
 10
9.8700285178
 20
11.1306373043
 30
0.0
 10
9.8660822288
 20
11.1306633511
 30
0.0
 10
9.8625821029
 20
11.1307481503
 30
0.0
 10
9.8595619803
 20
11.1308914668
 30
0.0
 10
9.8573597676
 20
11.1310667454
 30
0.0
 10
9.8558613233
 20
11.131246875
 30
0.0
 10
9.854938137
 20
11.1313898586
 30
0.0
 10
9.8541526559
 20
11.1315483789
 30
0.0
 10
9.8535055455
 20
11.1317225405
 30
0.0
 10
9.8529976153
 20
11.1319125566
 30
0.0
 10
9.8526666862
 20
11.1320963443
 30
0.0
 10
9.8524817455
 20
11.1322584327
 30
0.0
 10
9.852388193
 20
11.1323772372
 30
0.0
 10
9.8523309321
 20
11.1325024568
 30
0.0
 10
9.8523183456
 20
11.1325898476
 30
0.0
 10
9.8523183383
 20
11.1326323125
 30
0.0
  0
SPLINE
  5
30B
100
AcDbEntity
  8
0
100
AcDbSpline
 62
9
  6
CONTINUOUS
 70
0
 71
3
 72
11
 73
7
 74
0
 42
0.0000001
 43
0.0000001
 44
0.0000000001
 40
0.0
 40
0.0
 40
0.0
 40
0.0
 40
0.2441980584
 40
0.4932632492
 40
0.7457303874
 40
1.0
 40
1.0
 40
1.0
 40
1.0
 10
12.1523183383
 20
11.2364849804
 30
0.0
 10
12.1507391715
 20
11.2359643553
 30
0.0
 10
12.1475300709
 20
11.2349685929
 30
0.0
 10
12.1425935943
 20
11.2337600413
 30
0.0
 10
12.137502806
 20
11.2329584759
 30
0.0
 10
12.134049691
 20
11.2327707454
 30
0.0
 10
12.1323183383
 20
11.2327707428
 30
0.0
  0
SPLINE
  5
30C
100
AcDbEntity
  8
0
100
AcDbSpline
 62
9
  6
CONTINUOUS
 70
0
 71
3
 72
18
 73
14
 74
0
 42
0.0000001
 43
0.0000001
 44
0.0000000001
 40
0.0
 40
0.0
 40
0.0
 40
0.0
 40
0.0394274591
 40
0.080580635
 40
0.1710114909
 40
0.2214381096
 40
0.2756191789
 40
0.3952080231
 40
0.5290809626
 40
0.6009381137
 40
0.6757919813
 40
0.8334942027
 40
1.0
 40
1.0
 40
1.0
 40
1.0
 10
12.1888868808
 20
11.2364849804
 30
0.0
 10
12.1885234789
 20
11.2368216301
 30
0.0
 10
12.1877219078
 20
11.2374483714
 30
0.0
 10
12.1858430406
 20
11.2385043974
 30
0.0
 10
12.1836418499
 20
11.2392033344
 30
0.0
 10
12.1812327692
 20
11.2396510262
 30
0.0
 10
12.1784330155
 20
11.239981167
 30
0.0
 10
12.1745645483
 20
11.240115718
 30
0.0
 10
12.1704771637
 20
11.2399541329
 30
0.0
 10
12.166965759
 20
11.2396343283
 30
0.0
 10
12.1631705625
 20
11.2391544477
 30
0.0
 10
12.1582364541
 20
11.2382314702
 30
0.0
 10
12.1543064511
 20
11.2371360472
 30
0.0
 10
12.1523183383
 20
11.2364849804
 30
0.0
  0
LINE
  5
30D
100
AcDbEntity
  8
0
100
AcDbLine
 62
9
  6
CONTINUOUS
 10
12.1923183383
 20
11.2327707428
 11
12.1888868808
 21
11.2364849804
  0
LINE
  5
30E
100
AcDbEntity
  8
0
100
AcDbLine
 62
9
  6
CONTINUOUS
 10
9.9057497958
 20
11.2364849804
 11
9.9023183383
 21
11.2327707428
  0
SPLINE
  5
30F
100
AcDbEntity
  8
0
100
AcDbSpline
 62
9
  6
CONTINUOUS
 70
0
 71
3
 72
18
 73
14
 74
0
 42
0.0000001
 43
0.0000001
 44
0.0000000001
 40
0.0
 40
0.0
 40
0.0
 40
0.0
 40
0.1665056736
 40
0.324208137
 40
0.3990619435
 40
0.4709190332
 40
0.6047920426
 40
0.7243809265
 40
0.7785619628
 40
0.828988409
 40
0.9194192918
 40
0.9605732909
 40
1.0
 40
1.0
 40
1.0
 40
1.0
 10
9.9423183383
 20
11.2364849804
 30
0.0
 10
9.9403302636
 20
11.2371361577
 30
0.0
 10
9.9364002018
 20
11.2382314126
 30
0.0
 10
9.9314661028
 20
11.2391543754
 30
0.0
 10
9.9276709184
 20
11.2396343658
 30
0.0
 10
9.924159517
 20
11.2399542024
 30
0.0
 10
9.9200721271
 20
11.2401157244
 30
0.0
 10
9.9162036648
 20
11.2399810981
 30
0.0
 10
9.9134039117
 20
11.2396509857
 30
0.0
 10
9.910994817
 20
11.2392033958
 30
0.0
 10
9.9087935979
 20
11.2385044619
 30
0.0
 10
9.9069148011
 20
11.2374483085
 30
0.0
 10
9.9061132225
 20
11.2368215894
 30
0.0
 10
9.9057497958
 20
11.2364849804
 30
0.0
  0
SPLINE
  5
310
100
AcDbEntity
  8
0
100
AcDbSpline
 62
9
  6
CONTINUOUS
 70
0
 71
3
 72
11
 73
7
 74
0
 42
0.0000001
 43
0.0000001
 44
0.0000000001
 40
0.0
 40
0.0
 40
0.0
 40
0.0
 40
0.2542713667
 40
0.5067387578
 40
0.7558021435
 40
1.0
 40
1.0
 40
1.0
 40
1.0
 10
9.9623183383
 20
11.2327707428
 30
0.0
 10
9.9605869745
 20
11.23277074
 30
0.0
 10
9.9571338486
 20
11.2329584512
 30
0.0
 10
9.9520430476
 20
11.2337599777
 30
0.0
 10
9.9471066595
 20
11.2349688536
 30
0.0
 10
9.9438975897
 20
11.235964619
 30
0.0
 10
9.9423183383
 20
11.2364849804
 30
0.0
  0
LINE
  5
311
100
AcDbEntity
  8
0
100
AcDbLine
 62
9
  6
CONTINUOUS
 10
12.1823183383
 20
11.1326323125
 11
12.1741367432
 21
11.1337207917
  0
SPLINE
  5
312
100
AcDbEntity
  8
0
100
AcDbSpline
 62
9
  6
CONTINUOUS
 70
0
 71
3
 72
10
 73
6
 74
0
 42
0.0000001
 43
0.0000001
 44
0.0000000001
 40
0.0
 40
0.0
 40
0.0
 40
0.0
 40
0.2500043318
 40
0.500010878
 40
1.0
 40
1.0
 40
1.0
 40
1.0
 10
12.1741367432
 20
11.1337207917
 30
0.0
 10
12.1706595603
 20
11.1339976663
 30
0.0
 10
12.1636982267
 20
11.1344672627
 30
0.0
 10
12.1497602294
 20
11.1351161619
 30
0.0
 10
12.1392943873
 20
11.1353031632
 30
0.0
 10
12.1323182825
 20
11.1353027994
 30
0.0
  0
SPLINE
  5
313
100
AcDbEntity
  8
0
100
AcDbSpline
 62
9
  6
CONTINUOUS
 70
0
 71
3
 72
10
 73
6
 74
0
 42
0.0000001
 43
0.0000001
 44
0.0000000001
 40
0.0
 40
0.0
 40
0.0
 40
0.0
 40
0.4999892596
 40
0.7499956623
 40
1.0
 40
1.0
 40
1.0
 40
1.0
 10
9.9623183993
 20
11.1353027994
 30
0.0
 10
9.9553422836
 20
11.1353027242
 30
0.0
 10
9.9448764485
 20
11.1351156074
 30
0.0
 10
9.9309383959
 20
11.1344673854
 30
0.0
 10
9.9239770714
 20
11.1339975538
 30
0.0
 10
9.9204998753
 20
11.133720787
 30
0.0
  0
LINE
  5
314
100
AcDbEntity
  8
0
100
AcDbLine
 62
9
  6
CONTINUOUS
 10
9.9204998753
 20
11.133720787
 11
9.9123183383
 21
11.1326322732
  0
SPLINE
  5
315
100
AcDbEntity
  8
0
100
AcDbSpline
 62
9
  6
CONTINUOUS
 70
0
 71
3
 72
19
 73
15
 74
0
 42
0.0000001
 43
0.0000001
 44
0.0000000001
 40
0.0
 40
0.0
 40
0.0
 40
0.0
 40
0.0076647939
 40
0.0173277247
 40
0.0425240525
 40
0.0752309898
 40
0.1150444896
 40
0.1615569072
 40
0.2143653407
 40
0.33729514
 40
0.4807293019
 40
0.641437265
 40
0.8159080406
 40
1.0
 40
1.0
 40
1.0
 40
1.0
 10
10.5363761255
 20
9.0483465832
 30
0.0
 10
10.5364513277
 20
9.0483257186
 30
0.0
 10
10.5366244286
 20
9.0482899624
 30
0.0
 10
10.5370533988
 20
9.0482304651
 30
0.0
 10
10.537740005
 20
9.0481796743
 30
0.0
 10
10.53873407
 20
9.0481387771
 30
0.0
 10
10.5399458608
 20
9.048112238
 30
0.0
 10
10.5413624161
 20
9.0480950707
 30
0.0
 10
10.5436253419
 20
9.0480807413
 30
0.0
 10
10.5468751602
 20
9.0480758268
 30
0.0
 10
10.551223608
 20
9.0480819954
 30
0.0
 10
10.5560967998
 20
9.0481092809
 30
0.0
 10
10.5613836122
 20
9.0481789113
 30
0.0
 10
10.5650334549
 20
9.048276331
 30
0.0
 10
10.5669065134
 20
9.0483478866
 30
0.0
  0
SPLINE
  5
316
100
AcDbEntity
  8
0
100
AcDbSpline
 62
9
  6
CONTINUOUS
 70
0
 71
3
 72
12
 73
8
 74
0
 42
0.0000001
 43
0.0000001
 44
0.0000000001
 40
0.0
 40
0.0
 40
0.0
 40
0.0
 40
0.2490430426
 40
0.4986362972
 40
0.7489866066
 40
0.8744304733
 40
1.0
 40
1.0
 40
1.0
 40
1.0
 10
10.5669065134
 20
9.0483478866
 30
0.0
 10
10.5730665978
 20
9.0485833885
 30
0.0
 10
10.585390691
 20
9.0492917905
 30
0.0
 10
10.6038862606
 20
9.0505621389
 30
0.0
 10
10.61934211
 20
9.0514518916
 30
0.0
 10
10.6317436293
 20
9.051928818
 30
0.0
 10
10.6379555619
 20
9.0520748587
 30
0.0
 10
10.6410634122
 20
9.0521236727
 30
0.0
  0
SPLINE
  5
317
100
AcDbEntity
  8
0
100
AcDbSpline
 62
9
  6
CONTINUOUS
 70
0
 71
3
 72
27
 73
23
 74
0
 42
0.0000001
 43
0.0000001
 44
0.0000000001
 40
0.0
 40
0.0
 40
0.0
 40
0.0
 40
0.0003149669
 40
0.0012735588
 40
0.0028720937
 40
0.0051068073
 40
0.0079739293
 40
0.0114696911
 40
0.020332073
 40
0.0316638706
 40
0.0454350634
 40
0.0616156965
 40
0.0801758823
 40
0.1242951451
 40
0.1772280341
 40
0.2381776372
 40
0.3063476458
 40
0.3809471861
 40
0.4610722631
 40
0.6336855638
 40
0.8160166144
 40
1.0
 40
1.0
 40
1.0
 40
1.0
 10
10.529327814
 20
9.0521953749
 30
0.0
 10
10.5293277924
 20
9.0521962215
 30
0.0
 10
10.5293323965
 20
9.0521910443
 30
0.0
 10
10.5293369038
 20
9.052189646
 30
0.0
 10
10.5293483543
 20
9.0521803241
 30
0.0
 10
10.5293625118
 20
9.0521705547
 30
0.0
 10
10.5293814251
 20
9.0521567176
 30
0.0
 10
10.5294145512
 20
9.0521329197
 30
0.0
 10
10.529466333
 20
9.0520956554
 30
0.0
 10
10.529540602
 20
9.0520425788
 30
0.0
 10
10.5296310758
 20
9.0519782356
 30
0.0
 10
10.5297375825
 20
9.0519029366
 30
0.0
 10
10.5299110726
 20
9.0517810179
 30
0.0
 10
10.5301661861
 20
9.0516033839
 30
0.0
 10
10.5305167568
 20
9.0513633911
 30
0.0
 10
10.5309236156
 20
9.051091182
 30
0.0
 10
10.531382712
 20
9.0507923541
 30
0.0
 10
10.5318896399
 20
9.0504725842
 30
0.0
 10
10.5326420638
 20
9.050015865
 30
0.0
 10
10.5336631026
 20
9.0494436215
 30
0.0
 10
10.5349706257
 20
9.0488163203
 30
0.0
 10
10.5358995392
 20
9.0484792336
 30
0.0
 10
10.5363761255
 20
9.0483465832
 30
0.0
  0
SPLINE
  5
318
100
AcDbEntity
  8
0
100
AcDbSpline
 62
9
  6
CONTINUOUS
 70
0
 71
3
 72
27
 73
23
 74
0
 42
0.0000001
 43
0.0000001
 44
0.0000000001
 40
0.0
 40
0.0
 40
0.0
 40
0.0
 40
0.1841963686
 40
0.3662387134
 40
0.5389960862
 40
0.6192327907
 40
0.6938788036
 40
0.7620187694
 40
0.8228947748
 40
0.875743805
 40
0.9198007347
 40
0.9383425231
 40
0.9545123193
 40
0.9682794675
 40
0.9796132747
 40
0.9884830116
 40
0.9919842418
 40
0.994857915
 40
0.9971001802
 40
0.9987071849
 40
0.9996750747
 40
1.0
 40
1.0
 40
1.0
 40
1.0
 10
11.5582586284
 20
9.0483478023
 30
0.0
 10
11.5587360421
 20
9.0484799767
 30
0.0
 10
11.5596655814
 20
9.0488154026
 30
0.0
 10
11.560973679
 20
9.0494426845
 30
0.0
 10
11.5619949898
 20
9.0500147154
 30
0.0
 10
11.5627482724
 20
9.0504719257
 30
0.0
 10
11.5632554379
 20
9.0507921879
 30
0.0
 10
11.5637142026
 20
9.0510914421
 30
0.0
 10
11.5641203924
 20
9.0513639171
 30
0.0
 10
11.5644702714
 20
9.0516040194
 30
0.0
 10
11.5647249917
 20
9.0517815507
 30
0.0
 10
11.5648983892
 20
9.0519032422
 30
0.0
 10
11.5650049315
 20
9.0519783865
 30
0.0
 10
11.5650955001
 20
9.0520425549
 30
0.0
 10
11.5651699021
 20
9.0520955536
 30
0.0
 10
11.5652218019
 20
9.0521326208
 30
0.0
 10
11.5652550255
 20
9.0521565741
 30
0.0
 10
11.565273993
 20
9.0521700381
 30
0.0
 10
11.5652882344
 20
9.0521808245
 30
0.0
 10
11.5652996747
 20
9.0521879647
 30
0.0
 10
11.5653043114
 20
9.0521933606
 30
0.0
 10
11.5653088547
 20
9.0521945726
 30
0.0
 10
11.5653088355
 20
9.0521954463
 30
0.0
  0
SPLINE
  5
319
100
AcDbEntity
  8
0
100
AcDbSpline
 62
9
  6
CONTINUOUS
 70
0
 71
3
 72
12
 73
8
 74
0
 42
0.0000001
 43
0.0000001
 44
0.0000000001
 40
0.0
 40
0.0
 40
0.0
 40
0.0
 40
0.1255694592
 40
0.2510121997
 40
0.5013597549
 40
0.7509548789
 40
1.0
 40
1.0
 40
1.0
 40
1.0
 10
11.4535732929
 20
9.0521239557
 30
0.0
 10
11.4566809758
 20
9.0520750172
 30
0.0
 10
11.4628925391
 20
9.0519283755
 30
0.0
 10
11.4752932731
 20
9.0514507364
 30
0.0
 10
11.4907483112
 20
9.050562088
 30
0.0
 10
11.5092431255
 20
9.0492949997
 30
0.0
 10
11.5215664113
 20
9.0485817411
 30
0.0
 10
11.5277262371
 20
9.0483466251
 30
0.0
  0
SPLINE
  5
31A
100
AcDbEntity
  8
0
100
AcDbSpline
 62
9
  6
CONTINUOUS
 70
0
 71
3
 72
19
 73
15
 74
0
 42
0.0000001
 43
0.0000001
 44
0.0000000001
 40
0.0
 40
0.0
 40
0.0
 40
0.0
 40
0.1840966075
 40
0.358545864
 40
0.5192315925
 40
0.6626835624
 40
0.7856311328
 40
0.8384290787
 40
0.8849209587
 40
0.9247124826
 40
0.9574105974
 40
0.9826237875
 40
0.9923068351
 40
1.0
 40
1.0
 40
1.0
 40
1.0
 10
11.5277262371
 20
9.0483466251
 30
0.0
 10
11.5295994742
 20
9.048275168
 30
0.0
 10
11.5332494192
 20
9.0481784917
 30
0.0
 10
11.5385362123
 20
9.0481105168
 30
0.0
 10
11.5434094703
 20
9.0480836757
 30
0.0
 10
11.5477583446
 20
9.0480758439
 30
0.0
 10
11.5510086434
 20
9.0480792364
 30
0.0
 10
11.5532715889
 20
9.0480935724
 30
0.0
 10
11.5546876974
 20
9.0481111253
 30
0.0
 10
11.555899033
 20
9.0481383458
 30
0.0
 10
11.5568929967
 20
9.0481799855
 30
0.0
 10
11.5575798888
 20
9.0482313495
 30
0.0
 10
11.5580095231
 20
9.0482911202
 30
0.0
 10
11.5581831184
 20
9.0483269467
 30
0.0
 10
11.5582586284
 20
9.0483478023
 30
0.0
  0
SPLINE
  5
31B
100
AcDbEntity
  8
0
100
AcDbSpline
 62
9
  6
CONTINUOUS
 70
0
 71
3
 72
30
 73
26
 74
0
 42
0.0000001
 43
0.0000001
 44
0.0000000001
 40
0.0
 40
0.0
 40
0.0
 40
0.0
 40
0.0006308245
 40
0.0016707516
 40
0.0032488471
 40
0.0053982668
 40
0.0081305888
 40
0.011450593
 40
0.0198597855
 40
0.0306205074
 40
0.043708357
 40
0.0590955128
 40
0.0767505383
 40
0.0966286002
 40
0.1186801723
 40
0.1690977355
 40
0.2275150687
 40
0.2933755269
 40
0.3660377661
 40
0.4448082022
 40
0.5289257084
 40
0.6175811187
 40
0.7099087762
 40
0.8050387385
 40
1.0
 40
1.0
 40
1.0
 40
1.0
 10
10.5083183383
 20
9.0184426514
 30
0.0
 10
10.5083183467
 20
9.0184300256
 30
0.0
 10
10.5083408028
 20
9.0183994754
 30
0.0
 10
10.5084001517
 20
9.0183732295
 30
0.0
 10
10.5084916908
 20
9.0183450628
 30
0.0
 10
10.5086186385
 20
9.0183201638
 30
0.0
 10
10.5087810826
 20
9.0182962271
 30
0.0
 10
10.5090688182
 20
9.0182644369
 30
0.0
 10
10.5095178493
 20
9.0182314686
 30
0.0
 10
10.5101627278
 20
9.0181999206
 30
0.0
 10
10.5109476095
 20
9.0181737544
 30
0.0
 10
10.5118706461
 20
9.018152265
 30
0.0
 10
10.5129296919
 20
9.018134818
 30
0.0
 10
10.5141221829
 20
9.0181208689
 30
0.0
 10
10.5159704245
 20
9.0181056023
 30
0.0
 10
10.5185900574
 20
9.0180934498
 30
0.0
 10
10.522086527
 20
9.0180859761
 30
0.0
 10
10.5260282247
 20
9.018083336
 30
0.0
 10
10.5303772836
 20
9.0180854971
 30
0.0
 10
10.5350917469
 20
9.0180929659
 30
0.0
 10
10.5401262936
 20
9.0181079973
 30
0.0
 10
10.5454321461
 20
9.0181334555
 30
0.0
 10
10.5509583335
 20
9.0181735032
 30
0.0
 10
10.558611912
 20
9.0182540445
 30
0.0
 10
10.5644173198
 20
9.0183524218
 30
0.0
 10
10.5683183383
 20
9.0184439788
 30
0.0
  0
SPLINE
  5
31C
100
AcDbEntity
  8
0
100
AcDbSpline
 62
9
  6
CONTINUOUS
 70
0
 71
3
 72
30
 73
26
 74
0
 42
0.0000001
 43
0.0000001
 44
0.0000000001
 40
0.0
 40
0.0
 40
0.0
 40
0.0
 40
0.1949612273
 40
0.29009117
 40
0.3824186227
 40
0.4710738021
 40
0.5551911048
 40
0.6339612397
 40
0.7066231381
 40
0.7724832353
 40
0.8309001521
 40
0.8813173524
 40
0.9033687416
 40
0.9232466569
 40
0.9409016427
 40
0.9562888331
 40
0.9693767545
 40
0.9801376098
 40
0.9885470251
 40
0.9918671885
 40
0.9945997337
 40
0.9967494709
 40
0.9983280112
 40
0.999368538
 40
1.0
 40
1.0
 40
1.0
 40
1.0
 10
11.5263183383
 20
9.0184426916
 30
0.0
 10
11.530219371
 20
9.0183512425
 30
0.0
 10
11.5360248092
 20
9.0182534983
 30
0.0
 10
11.5436784163
 20
9.0181739078
 30
0.0
 10
11.5492046169
 20
9.0181345431
 30
0.0
 10
11.5545104754
 20
9.0181095647
 30
0.0
 10
11.5595450226
 20
9.018094433
 30
0.0
 10
11.5642594827
 20
9.0180863342
 30
0.0
 10
11.5686085347
 20
9.018083254
 30
0.0
 10
11.5725502229
 20
9.0180849953
 30
0.0
 10
11.5760466821
 20
9.0180919005
 30
0.0
 10
11.578666305
 20
9.0181039967
 30
0.0
 10
11.5805145366
 20
9.0181195339
 30
0.0
 10
11.5817070207
 20
9.0181337636
 30
0.0
 10
11.5827660614
 20
9.0181515436
 30
0.0
 10
11.5836890943
 20
9.0181733795
 30
0.0
 10
11.5844739719
 20
9.0181998932
 30
0.0
 10
11.5851188447
 20
9.0182317767
 30
0.0
 10
11.5855678679
 20
9.0182650226
 30
0.0
 10
11.5858555936
 20
9.0182970208
 30
0.0
 10
11.5860180339
 20
9.0183210858
 30
0.0
 10
11.5861449794
 20
9.0183460988
 30
0.0
 10
11.5862365213
 20
9.0183743531
 30
0.0
 10
11.5862958716
 20
9.0184006796
 30
0.0
 10
11.5863183253
 20
9.0184312535
 30
0.0
 10
11.5863183383
 20
9.0184438921
 30
0.0
  0
SPLINE
  5
31D
100
AcDbEntity
  8
0
100
AcDbSpline
 62
9
  6
CONTINUOUS
 70
0
 71
3
 72
24
 73
20
 74
0
 42
0.0000001
 43
0.0000001
 44
0.0000000001
 40
0.0
 40
0.0
 40
0.0
 40
0.0
 40
0.1985847779
 40
0.3867569016
 40
0.4745886307
 40
0.556963504
 40
0.6329847868
 40
0.7019130138
 40
0.7631566713
 40
0.8164039255
 40
0.861588644
 40
0.8990551517
 40
0.9151368802
 40
0.9296526476
 40
0.9548499625
 40
0.9662367921
 40
0.9772967912
 40
0.9884294338
 40
1.0
 40
1.0
 40
1.0
 40
1.0
 10
10.6410593767
 20
9.1556890197
 30
0.0
 10
10.6376055776
 20
9.1563967571
 30
0.0
 10
10.6308526208
 20
9.1576499202
 30
0.0
 10
10.6225057547
 20
9.1588262276
 30
0.0
 10
10.6161730591
 20
9.1594497405
 30
0.0
 10
10.6118104875
 20
9.1597406173
 30
0.0
 10
10.6077753781
 20
9.1598596258
 30
0.0
 10
10.6041136533
 20
9.1598062919
 30
0.0
 10
10.6008631887
 20
9.1595816456
 30
0.0
 10
10.5980521358
 20
9.1591919936
 30
0.0
 10
10.5956990085
 20
9.1586424498
 30
0.0
 10
10.594047584
 20
9.1580317617
 30
0.0
 10
10.5929841692
 20
9.1574524057
 30
0.0
 10
10.592172115
 20
9.1568840859
 30
0.0
 10
10.5915301066
 20
9.1562169603
 30
0.0
 10
10.5911362218
 20
9.1554627902
 30
0.0
 10
10.5909678454
 20
9.1548867524
 30
0.0
 10
10.5909153192
 20
9.1542860939
 30
0.0
 10
10.5909542211
 20
9.1538825799
 30
0.0
 10
10.590989831
 20
9.1536802724
 30
0.0
  0
SPLINE
  5
31E
100
AcDbEntity
  8
0
100
AcDbSpline
 62
9
  6
CONTINUOUS
 70
0
 71
3
 72
27
 73
23
 74
0
 42
0.0000001
 43
0.0000001
 44
0.0000000001
 40
0.0
 40
0.0
 40
0.0
 40
0.0
 40
0.1950765033
 40
0.3833715382
 40
0.4725895411
 40
0.5572304396
 40
0.6363662226
 40
0.709123568
 40
0.7747296213
 40
0.832504453
 40
0.8819185037
 40
0.9033606204
 40
0.9225833444
 40
0.9395614094
 40
0.9542844074
 40
0.9667684901
 40
0.977050018
 40
0.9852043818
 40
0.9914041616
 40
0.9960378045
 40
0.9980307877
 40
1.0
 40
1.0
 40
1.0
 40
1.0
 10
10.363339356
 20
10.7798576107
 30
0.0
 10
10.3594724887
 20
10.7801729892
 30
0.0
 10
10.351868724
 20
10.7807398652
 30
0.0
 10
10.342485196
 20
10.781286489
 30
0.0
 10
10.3352895752
 20
10.7816049896
 30
0.0
 10
10.3302607819
 20
10.7817757686
 30
0.0
 10
10.3255576078
 20
10.7818806913
 30
0.0
 10
10.3212319634
 20
10.7819180311
 30
0.0
 10
10.3173310266
 20
10.7818878254
 30
0.0
 10
10.3138955811
 20
10.7817904628
 30
0.0
 10
10.3113406807
 20
10.7816502772
 30
0.0
 10
10.3095554171
 20
10.7814994
 30
0.0
 10
10.3084155103
 20
10.7813762862
 30
0.0
 10
10.3074119842
 20
10.7812383654
 30
0.0
 10
10.3065462415
 20
10.7810861613
 30
0.0
 10
10.3058189083
 20
10.7809202361
 30
0.0
 10
10.3052297708
 20
10.780741776
 30
0.0
 10
10.3047772024
 20
10.7805498505
 30
0.0
 10
10.3044569128
 20
10.7803461938
 30
0.0
 10
10.3042875988
 20
10.7801434214
 30
0.0
 10
10.3042412
 20
10.7799762803
 30
0.0
 10
10.3042441074
 20
10.7798961827
 30
0.0
 10
10.3042508908
 20
10.7798576107
 30
0.0
  0
SPLINE
  5
31F
100
AcDbEntity
  8
0
100
AcDbSpline
 62
9
  6
CONTINUOUS
 70
0
 71
3
 72
24
 73
20
 74
0
 42
0.0000001
 43
0.0000001
 44
0.0000000001
 40
0.0
 40
0.0
 40
0.0
 40
0.0
 40
0.0115700055
 40
0.0226831055
 40
0.03371578
 40
0.0450775524
 40
0.0702513748
 40
0.0847653963
 40
0.1008490276
 40
0.1383235131
 40
0.1835151754
 40
0.236768776
 40
0.298020175
 40
0.3669586052
 40
0.4429897431
 40
0.525371075
 40
0.6132080035
 40
0.8013952596
 40
1.0
 40
1.0
 40
1.0
 40
1.0
 10
11.503647957
 20
9.1536865754
 30
0.0
 10
11.5036836131
 20
9.1538888424
 30
0.0
 10
11.5037225981
 20
9.1542919562
 30
0.0
 10
11.5036698495
 20
9.1548917182
 30
0.0
 10
11.5035009364
 20
9.1554662342
 30
0.0
 10
11.5031059595
 20
9.156218217
 30
0.0
 10
11.5024634229
 20
9.1568832735
 30
0.0
 10
11.5016513283
 20
9.1574505841
 30
0.0
 10
11.5005877266
 20
9.1580295845
 30
0.0
 10
11.4989365099
 20
9.158640966
 30
0.0
 10
11.4965835597
 20
9.159191901
 30
0.0
 10
11.4937725234
 20
9.1595823458
 30
0.0
 10
11.4905219555
 20
9.1598069869
 30
0.0
 10
11.4868601097
 20
9.1598593822
 30
0.0
 10
11.4828249914
 20
9.1597398449
 30
0.0
 10
11.4784624751
 20
9.1594495629
 30
0.0
 10
11.4721298345
 20
9.1588276462
 30
0.0
 10
11.4637828425
 20
9.1576531904
 30
0.0
 10
11.4570305091
 20
9.1563968237
 30
0.0
 10
11.4535772794
 20
9.1556864245
 30
0.0
  0
SPLINE
  5
320
100
AcDbEntity
  8
0
100
AcDbSpline
 62
9
  6
CONTINUOUS
 70
0
 71
3
 72
27
 73
23
 74
0
 42
0.0000001
 43
0.0000001
 44
0.0000000001
 40
0.0
 40
0.0
 40
0.0
 40
0.0
 40
0.0019689807
 40
0.0039618515
 40
0.0085955128
 40
0.0147954114
 40
0.0229498584
 40
0.0332314099
 40
0.0457154877
 40
0.0604384741
 40
0.0774165351
 40
0.0966392662
 40
0.1180814008
 40
0.167495539
 40
0.2252704754
 40
0.2908764805
 40
0.3636337474
 40
0.4427695843
 40
0.5274105338
 40
0.6166284967
 40
0.8049234508
 40
1.0
 40
1.0
 40
1.0
 40
1.0
 10
11.7903857857
 20
10.7798576107
 30
0.0
 10
11.7903925694
 20
10.779896178
 30
0.0
 10
11.7903954763
 20
10.779976269
 30
0.0
 10
11.7903490754
 20
10.7801434025
 30
0.0
 10
11.7901797625
 20
10.7803461747
 30
0.0
 10
11.7898594771
 20
10.7805498455
 30
0.0
 10
11.789406909
 20
10.7807417845
 30
0.0
 10
11.7888177715
 20
10.7809202516
 30
0.0
 10
11.7880904389
 20
10.7810861806
 30
0.0
 10
11.7872246971
 20
10.7812383871
 30
0.0
 10
11.7862211719
 20
10.7813763118
 30
0.0
 10
11.785081265
 20
10.7814994286
 30
0.0
 10
11.7832959991
 20
10.7816503046
 30
0.0
 10
11.7807410927
 20
10.7817904606
 30
0.0
 10
11.777305644
 20
10.7818877869
 30
0.0
 10
11.7734047086
 20
10.7819180342
 30
0.0
 10
11.7690790653
 20
10.7818807293
 30
0.0
 10
11.7643758917
 20
10.7817757652
 30
0.0
 10
11.7593470987
 20
10.7816049566
 30
0.0
 10
11.7521514792
 20
10.7812864686
 30
0.0
 10
11.7427679541
 20
10.7807398394
 30
0.0
 10
11.7351641847
 20
10.7801730365
 30
0.0
 10
11.7312973206
 20
10.7798576107
 30
0.0
  0
SPLINE
  5
321
100
AcDbEntity
  8
0
100
AcDbSpline
 62
9
  6
CONTINUOUS
 70
0
 71
3
 72
11
 73
7
 74
0
 42
0.0000001
 43
0.0000001
 44
0.0000000001
 40
0.0
 40
0.0
 40
0.0
 40
0.0
 40
0.2500194734
 40
0.4999998635
 40
0.7500201389
 40
1.0
 40
1.0
 40
1.0
 40
1.0
 10
11.453572935
 20
9.0234621075
 30
0.0
 10
11.4596488106
 20
9.0233136773
 30
0.0
 10
11.4717936452
 20
9.0227307967
 30
0.0
 10
11.4899646188
 20
9.0212252432
 30
0.0
 10
11.5081212435
 20
9.0195853944
 30
0.0
 10
11.5202483356
 20
9.018728452
 30
0.0
 10
11.5263183383
 20
9.0184426916
 30
0.0
  0
SPLINE
  5
322
100
AcDbEntity
  8
0
100
AcDbSpline
 62
9
  6
CONTINUOUS
 70
0
 71
3
 72
11
 73
7
 74
0
 42
0.0000001
 43
0.0000001
 44
0.0000000001
 40
0.0
 40
0.0
 40
0.0
 40
0.0
 40
0.2499783897
 40
0.5000027798
 40
0.7499845842
 40
1.0
 40
1.0
 40
1.0
 40
1.0
 10
10.5683183383
 20
9.0184439788
 30
0.0
 10
10.5743882741
 20
9.0187304492
 30
0.0
 10
10.5865154292
 20
9.0195869836
 30
0.0
 10
10.6046723913
 20
9.0212243674
 30
0.0
 10
10.6228434031
 20
9.0227297776
 30
0.0
 10
10.634988159
 20
9.0233131296
 30
0.0
 10
10.6410639383
 20
9.0234615599
 30
0.0
  0
SPLINE
  5
323
100
AcDbEntity
  8
0
100
AcDbSpline
 62
7
  6
CONTINUOUS
 70
0
 71
3
 72
30
 73
26
 74
0
 42
0.0000001
 43
0.0000001
 44
0.0000000001
 40
0.0
 40
0.0
 40
0.0
 40
0.0
 40
0.0276776742
 40
0.0549501895
 40
0.0818929807
 40
0.1085888157
 40
0.1351263538
 40
0.1615981229
 40
0.1880983123
 40
0.2147204776
 40
0.2415549349
 40
0.2686871467
 40
0.2961955004
 40
0.3241501411
 40
0.3526114496
 40
0.381629861
 40
0.4414540068
 40
0.503851527
 40
0.5688546946
 40
0.63635227
 40
0.7061107881
 40
0.777795627
 40
0.8509935768
 40
0.9252314973
 40
1.0
 40
1.0
 40
1.0
 40
1.0
 10
11.4449178409
 20
6.8463948712
 30
0.0
 10
11.4476973842
 20
6.8408445217
 30
0.0
 10
11.452802782
 20
6.8296118683
 30
0.0
 10
11.4590730987
 20
6.8123289951
 30
0.0
 10
11.4638735051
 20
6.794807913
 30
0.0
 10
11.4671836133
 20
6.7771126022
 30
0.0
 10
11.4689926204
 20
6.7593072068
 30
0.0
 10
11.4692920377
 20
6.7414563926
 30
0.0
 10
11.4680820981
 20
6.7236251624
 30
0.0
 10
11.4653662375
 20
6.705878485
 30
0.0
 10
11.4611558421
 20
6.6882806307
 30
0.0
 10
11.4554660079
 20
6.6708954358
 30
0.0
 10
11.4483187064
 20
6.6537851775
 30
0.0
 10
11.439740253
 20
6.6370114324
 30
0.0
 10
11.4297619892
 20
6.6206331919
 30
0.0
 10
11.4144894661
 20
6.5991884064
 30
0.0
 10
11.3919702473
 20
6.573676322
 30
0.0
 10
11.3603561987
 20
6.5458905481
 30
0.0
 10
11.3243234816
 20
6.5209842445
 30
0.0
 10
11.2843876016
 20
6.4993012192
 30
0.0
 10
11.2411113376
 20
6.4811366046
 30
0.0
 10
11.1951048351
 20
6.4667406348
 30
0.0
 10
11.1470147425
 20
6.4563125643
 30
0.0
 10
11.0975230411
 20
6.4499969315
 30
0.0
 10
11.0640871089
 20
6.4485886284
 30
0.0
 10
11.0473183383
 20
6.4485886284
 30
0.0
  0
SPLINE
  5
324
100
AcDbEntity
  8
0
100
AcDbSpline
 62
9
  6
CONTINUOUS
 70
0
 71
3
 72
22
 73
18
 74
0
 42
0.0000001
 43
0.0000001
 44
0.0000000001
 40
0.0
 40
0.0
 40
0.0
 40
0.0
 40
0.0532330596
 40
0.1068095849
 40
0.1610577125
 40
0.216276439
 40
0.27272498
 40
0.3306153319
 40
0.3901078089
 40
0.4513101381
 40
0.5142789551
 40
0.5790221914
 40
0.645502199
 40
0.7136418602
 40
0.7833269738
 40
0.854408815
 40
1.0
 40
1.0
 40
1.0
 40
1.0
 10
10.5948185265
 20
7.0271790819
 30
0.0
 10
10.5948185265
 20
7.0185634918
 30
0.0
 10
10.5958096201
 20
7.0012606554
 30
0.0
 10
10.6002541319
 20
6.9755223145
 30
0.0
 10
10.6076259359
 20
6.9501287344
 30
0.0
 10
10.6178714173
 20
6.9252529875
 30
0.0
 10
10.6309184557
 20
6.9010570109
 30
0.0
 10
10.6466775796
 20
6.8776983518
 30
0.0
 10
10.6650419189
 20
6.8553270048
 30
0.0
 10
10.685888787
 20
6.8340857383
 30
0.0
 10
10.7090809661
 20
6.8141100395
 30
0.0
 10
10.7344668436
 20
6.7955275296
 30
0.0
 10
10.7618808831
 20
6.7784560653
 30
0.0
 10
10.7911444897
 20
6.7630049901
 30
0.0
 10
10.8220701314
 20
6.7492728202
 30
0.0
 10
10.8655825612
 20
6.7332497343
 30
0.0
 10
10.8995995836
 20
6.7242661049
 30
0.0
 10
10.9226939025
 20
6.7195876321
 30
0.0
  0
SPLINE
  5
325
100
AcDbEntity
  8
0
100
AcDbSpline
 62
9
  6
CONTINUOUS
 70
0
 71
3
 72
45
 73
41
 74
0
 42
0.0000001
 43
0.0000001
 44
0.0000000001
 40
0.0
 40
0.0
 40
0.0
 40
0.0
 40
0.0128542045
 40
0.0257428077
 40
0.0386915015
 40
0.0517296859
 40
0.0648865435
 40
0.0781880679
 40
0.1053037113
 40
0.1332504728
 40
0.1621440126
 40
0.1920544092
 40
0.2230077666
 40
0.2549895168
 40
0.2879487452
 40
0.3218029336
 40
0.3564428014
 40
0.3917370756
 40
0.427537123
 40
0.4636814367
 40
0.5
 40
0.5363185633
 40
0.572462877
 40
0.6082629244
 40
0.6435571986
 40
0.6781970664
 40
0.7120512548
 40
0.7450104832
 40
0.7769922334
 40
0.8079455908
 40
0.8378559874
 40
0.8667495272
 40
0.8946962887
 40
0.9218119321
 40
0.9351134565
 40
0.9482703141
 40
0.9613084985
 40
0.9742571923
 40
0.9871457955
 40
1.0
 40
1.0
 40
1.0
 40
1.0
 10
10.3473183383
 20
6.3657095168
 30
0.0
 10
10.3473183383
 20
6.3576100374
 30
0.0
 10
10.3478829717
 20
6.3413838255
 30
0.0
 10
10.3504164364
 20
6.3171176268
 30
0.0
 10
10.3546340185
 20
6.2929681203
 30
0.0
 10
10.3605227537
 20
6.2689977565
 30
0.0
 10
10.3680698096
 20
6.245262926
 30
0.0
 10
10.38039059
 20
6.2138127847
 30
0.0
 10
10.3999616309
 20
6.1753004713
 30
0.0
 10
10.4295228858
 20
6.1312877414
 30
0.0
 10
10.465017811
 20
6.0895725881
 30
0.0
 10
10.5060921375
 20
6.0505511855
 30
0.0
 10
10.552345765
 20
6.0145853279
 30
0.0
 10
10.60333219
 20
5.982010664
 30
0.0
 10
10.6585623018
 20
5.9531313896
 30
0.0
 10
10.7175077351
 20
5.9282182715
 30
0.0
 10
10.7796052341
 20
5.9075056381
 30
0.0
 10
10.8442615641
 20
5.891188902
 30
0.0
 10
10.9108589536
 20
5.8794223676
 30
0.0
 10
10.9787609148
 20
5.8723175061
 30
0.0
 10
11.0473183383
 20
5.8699417036
 30
0.0
 10
11.1158757618
 20
5.8723175061
 30
0.0
 10
11.1837777229
 20
5.8794223676
 30
0.0
 10
11.2503751125
 20
5.891188902
 30
0.0
 10
11.3150314425
 20
5.9075056381
 30
0.0
 10
11.3771289415
 20
5.9282182715
 30
0.0
 10
11.4360743747
 20
5.9531313896
 30
0.0
 10
11.4913044866
 20
5.982010664
 30
0.0
 10
11.5422909115
 20
6.0145853279
 30
0.0
 10
11.5885445391
 20
6.0505511855
 30
0.0
 10
11.6296188656
 20
6.0895725881
 30
0.0
 10
11.6651137907
 20
6.1312877414
 30
0.0
 10
11.6946750457
 20
6.1753004713
 30
0.0
 10
11.7142460865
 20
6.2138127847
 30
0.0
 10
11.7265668669
 20
6.245262926
 30
0.0
 10
11.7341139229
 20
6.2689977565
 30
0.0
 10
11.7400026581
 20
6.2929681203
 30
0.0
 10
11.7442202401
 20
6.3171176268
 30
0.0
 10
11.7467537048
 20
6.3413838255
 30
0.0
 10
11.7473183383
 20
6.3576100374
 30
0.0
 10
11.7473183383
 20
6.3657095168
 30
0.0
  0
LINE
  5
326
100
AcDbEntity
  8
0
100
AcDbLine
 62
7
  6
CONTINUOUS
 10
11.4529319432
 20
7.3361471804
 11
11.4528792433
 21
7.3354769305
  0
SPLINE
  5
327
100
AcDbEntity
  8
0
100
AcDbSpline
 62
7
  6
CONTINUOUS
 70
0
 71
3
 72
24
 73
20
 74
0
 42
0.0000001
 43
0.0000001
 44
0.0000000001
 40
0.0
 40
0.0
 40
0.0
 40
0.0
 40
0.0521007178
 40
0.0783905598
 40
0.1048956006
 40
0.1587014583
 40
0.2138557089
 40
0.2420277628
 40
0.2706213061
 40
0.3291236478
 40
0.3894744455
 40
0.4516919982
 40
0.5157274128
 40
0.5814718254
 40
0.6487638571
 40
0.7173969019
 40
0.7871288063
 40
0.8576830205
 40
1.0
 40
1.0
 40
1.0
 40
1.0
 10
11.4528792433
 20
7.3354769305
 30
0.0
 10
11.4521315891
 20
7.3261541606
 30
0.0
 10
11.4500878283
 20
7.3121797308
 30
0.0
 10
11.4455986929
 20
7.2938838274
 30
0.0
 10
11.4398805951
 20
7.2756097589
 30
0.0
 10
11.4304719865
 20
7.2531173421
 30
0.0
 10
11.4183393696
 20
7.2316330618
 30
0.0
 10
11.407039178
 20
7.2150111614
 30
0.0
 10
11.3944933223
 20
7.1985451635
 30
0.0
 10
11.3768022118
 20
7.1787901867
 30
0.0
 10
11.3528097297
 20
7.1567904281
 30
0.0
 10
11.3261041815
 20
7.1364945442
 30
0.0
 10
11.2969258199
 20
7.1180739204
 30
0.0
 10
11.2655338358
 20
7.1016815152
 30
0.0
 10
11.2322067705
 20
7.0874537549
 30
0.0
 10
11.1972410875
 20
7.0755081987
 30
0.0
 10
11.1609434456
 20
7.0659426753
 30
0.0
 10
11.1110829376
 20
7.0564401574
 30
0.0
 10
11.0728607994
 20
7.0531282557
 30
0.0
 10
11.0473183383
 20
7.0526159303
 30
0.0
  0
SPLINE
  5
328
100
AcDbEntity
  8
0
100
AcDbSpline
 62
7
  6
CONTINUOUS
 70
0
 71
3
 72
21
 73
17
 74
0
 42
0.0000001
 43
0.0000001
 44
0.0000000001
 40
0.0
 40
0.0
 40
0.0
 40
0.0
 40
0.1171747441
 40
0.178304706
 40
0.2408464399
 40
0.3045639082
 40
0.3691899423
 40
0.4344344316
 40
0.499992174
 40
0.5655501987
 40
0.6307955241
 40
0.6954229256
 40
0.7591422544
 40
0.8216863076
 40
0.8828189841
 40
1.0
 40
1.0
 40
1.0
 40
1.0
 10
10.776357137
 20
7.2463213667
 30
0.0
 10
10.7946515339
 20
7.2334362162
 30
0.0
 10
10.8244086436
 20
7.2164297434
 30
0.0
 10
10.8668174196
 20
7.19856153
 30
0.0
 10
10.9008105576
 20
7.187253672
 30
0.0
 10
10.9361911976
 20
7.1783481909
 30
0.0
 10
10.9726300853
 20
7.1719251027
 30
0.0
 10
11.0097788734
 20
7.1680459892
 30
0.0
 10
11.0472848252
 20
7.1667472284
 30
0.0
 10
11.0847910967
 20
7.1680413566
 30
0.0
 10
11.1219408385
 20
7.1719158966
 30
0.0
 10
11.1583813021
 20
7.178334501
 30
0.0
 10
11.1937641283
 20
7.1872356248
 30
0.0
 10
11.2277600432
 20
7.1985392869
 30
0.0
 10
11.2701733559
 20
7.2164022931
 30
0.0
 10
11.2999344992
 20
7.2334050883
 30
0.0
 10
11.3182320098
 20
7.2462878974
 30
0.0
  0
SPLINE
  5
329
100
AcDbEntity
  8
0
100
AcDbSpline
 62
7
  6
CONTINUOUS
 70
0
 71
3
 72
21
 73
17
 74
0
 42
0.0000001
 43
0.0000001
 44
0.0000000001
 40
0.0
 40
0.0
 40
0.0
 40
0.0
 40
0.1153942012
 40
0.1756814159
 40
0.2374368837
 40
0.3004458011
 40
0.364465168
 40
0.4292309625
 40
0.4944646784
 40
0.5598797958
 40
0.6251884004
 40
0.6901071819
 40
0.7543643069
 40
0.8177056504
 40
0.8799010199
 40
1.0
 40
1.0
 40
1.0
 40
1.0
 10
10.7783333376
 20
7.202453891
 30
0.0
 10
10.7958781641
 20
7.1906691694
 30
0.0
 10
10.8242848927
 20
7.1751404015
 30
0.0
 10
10.8646259977
 20
7.1588378821
 30
0.0
 10
10.8969464631
 20
7.148517235
 30
0.0
 10
10.9305830777
 20
7.1403889973
 30
0.0
 10
10.9652473244
 20
7.1345269591
 30
0.0
 10
11.0006336278
 20
7.1309892279
 30
0.0
 10
11.0364323258
 20
7.129812818
 30
0.0
 10
11.0723295783
 20
7.1310147796
 30
0.0
 10
11.1080106606
 20
7.1345911708
 30
0.0
 10
11.1431633986
 20
7.1405172516
 30
0.0
 10
11.1774783625
 20
7.1487472291
 30
0.0
 10
11.2106608568
 20
7.1592190075
 30
0.0
 10
11.2524883805
 20
7.1758499463
 30
0.0
 10
11.282100573
 20
7.1916751401
 30
0.0
 10
11.3005365271
 20
7.2036744706
 30
0.0
  0
SPLINE
  5
32A
100
AcDbEntity
  8
0
100
AcDbSpline
 62
7
  6
CONTINUOUS
 70
0
 71
3
 72
13
 73
9
 74
0
 42
0.0000001
 43
0.0000001
 44
0.0000000001
 40
0.0
 40
0.0
 40
0.0
 40
0.0
 40
0.2349722626
 40
0.3573292185
 40
0.4823870116
 40
0.609702888
 40
0.7387870506
 40
1.0
 40
1.0
 40
1.0
 40
1.0
 10
10.7932451965
 20
7.1441089115
 30
0.0
 10
10.8111824195
 20
7.1332254435
 30
0.0
 10
10.8399469124
 20
7.1190140887
 30
0.0
 10
10.8804654652
 20
7.1043407833
 30
0.0
 10
10.9126952904
 20
7.0952362416
 30
0.0
 10
10.9460646587
 20
7.0882724018
 30
0.0
 10
10.9918655307
 20
7.081901198
 30
0.0
 10
11.0268211967
 20
7.0805432705
 30
0.0
 10
11.0501372493
 20
7.0811460048
 30
0.0
  0
SPLINE
  5
32B
100
AcDbEntity
  8
0
100
AcDbSpline
 62
7
  6
CONTINUOUS
 70
0
 71
3
 72
12
 73
8
 74
0
 42
0.0000001
 43
0.0000001
 44
0.0000000001
 40
0.0
 40
0.0
 40
0.0
 40
0.0
 40
0.2576745988
 40
0.512303919
 40
0.6374992594
 40
0.7607452384
 40
1.0
 40
1.0
 40
1.0
 40
1.0
 10
11.0501372493
 20
7.0811460048
 30
0.0
 10
11.071329816
 20
7.0816938458
 30
0.0
 10
11.1134403895
 20
7.0852674445
 30
0.0
 10
11.1649338413
 20
7.0959225906
 30
0.0
 10
11.2045239769
 20
7.1080862677
 30
0.0
 10
11.2420568899
 20
7.1223202975
 30
0.0
 10
11.2688736701
 20
7.1356592988
 30
0.0
 10
11.2857974462
 20
7.1457118225
 30
0.0
  0
SPLINE
  5
32C
100
AcDbEntity
  8
0
100
AcDbSpline
 62
7
  6
CONTINUOUS
 70
0
 71
3
 72
33
 73
29
 74
0
 42
0.0000001
 43
0.0000001
 44
0.0000000001
 40
0.0
 40
0.0
 40
0.0
 40
0.0
 40
0.0263945086
 40
0.0534487344
 40
0.0812076199
 40
0.1097063447
 40
0.1689196259
 40
0.1996498276
 40
0.2310766025
 40
0.2631538652
 40
0.2958242072
 40
0.3290205548
 40
0.3626676447
 40
0.4309554481
 40
0.5
 40
0.5690445519
 40
0.6373323553
 40
0.6709794452
 40
0.7041757928
 40
0.7368461348
 40
0.7689233975
 40
0.8003501724
 40
0.8310803741
 40
0.8902936553
 40
0.9187923801
 40
0.9465512656
 40
0.9736054914
 40
1.0
 40
1.0
 40
1.0
 40
1.0
 10
11.6973183383
 20
6.5631283412
 30
0.0
 10
11.6908011617
 20
6.5515989611
 30
0.0
 10
11.6765030275
 20
6.5288580654
 30
0.0
 10
11.6518310292
 20
6.4963702275
 30
0.0
 10
11.6238159873
 20
6.4652774793
 30
0.0
 10
11.5817007445
 20
6.4254170397
 30
0.0
 10
11.5339572868
 20
6.3896152901
 30
0.0
 10
11.4817784289
 20
6.3581577857
 30
0.0
 10
11.4397515303
 20
6.3364132315
 30
0.0
 10
11.3955658423
 20
6.3169405546
 30
0.0
 10
11.3494607099
 20
6.299842635
 30
0.0
 10
11.301689809
 20
6.2852132472
 30
0.0
 10
11.2358148311
 20
6.2690296918
 30
0.0
 10
11.1509157399
 20
6.2554786574
 30
0.0
 10
11.0473183383
 20
6.2500487036
 30
0.0
 10
10.9437209366
 20
6.2554786574
 30
0.0
 10
10.8588218455
 20
6.2690296918
 30
0.0
 10
10.7929468676
 20
6.2852132472
 30
0.0
 10
10.7451759667
 20
6.299842635
 30
0.0
 10
10.6990708343
 20
6.3169405546
 30
0.0
 10
10.6548851462
 20
6.3364132315
 30
0.0
 10
10.6128582476
 20
6.3581577857
 30
0.0
 10
10.5606793898
 20
6.3896152901
 30
0.0
 10
10.5129359321
 20
6.4254170397
 30
0.0
 10
10.4708206893
 20
6.4652774793
 30
0.0
 10
10.4428056473
 20
6.4963702275
 30
0.0
 10
10.4181336491
 20
6.5288580654
 30
0.0
 10
10.4038355148
 20
6.5515989611
 30
0.0
 10
10.3973183383
 20
6.5631283412
 30
0.0
  0
SPLINE
  5
32D
100
AcDbEntity
  8
0
100
AcDbSpline
 62
7
  6
CONTINUOUS
 70
0
 71
3
 72
17
 73
13
 74
0
 42
0.0000001
 43
0.0000001
 44
0.0000000001
 40
0.0
 40
0.0
 40
0.0
 40
0.0
 40
0.1185673308
 40
0.1796642235
 40
0.2417612359
 40
0.3682498912
 40
0.4966710212
 40
0.6255131951
 40
0.753261217
 40
0.8162990617
 40
0.8785412442
 40
1.0
 40
1.0
 40
1.0
 40
1.0
 10
10.8246163129
 20
7.0783039631
 30
0.0
 10
10.8407034436
 20
7.0704455285
 30
0.0
 10
10.8659142983
 20
7.0601689208
 30
0.0
 10
10.9008372488
 20
7.0494880355
 30
0.0
 10
10.9374975386
 20
7.0405972939
 30
0.0
 10
10.9849250345
 20
7.0333516216
 30
0.0
 10
11.0429345695
 20
7.030935378
 30
0.0
 10
11.1010546402
 20
7.0348246311
 30
0.0
 10
11.1486773166
 20
7.0433118161
 30
0.0
 10
11.1856022978
 20
7.0532069381
 30
0.0
 10
11.220981299
 20
7.0649329
 30
0.0
 10
11.2465163805
 20
7.0760077268
 30
0.0
 10
11.262827135
 20
7.0843943122
 30
0.0
  0
SPLINE
  5
32E
100
AcDbEntity
  8
0
100
AcDbSpline
 62
7
  6
CONTINUOUS
 70
0
 71
3
 72
14
 73
10
 74
0
 42
0.0000001
 43
0.0000001
 44
0.0000000001
 40
0.0
 40
0.0
 40
0.0
 40
0.0
 40
0.1222399262
 40
0.2447844708
 40
0.3678654019
 40
0.4917449982
 40
0.6166832591
 40
0.7429244659
 40
1.0
 40
1.0
 40
1.0
 40
1.0
 10
11.7473183383
 20
6.4993526985
 30
0.0
 10
11.7473183383
 20
6.4915098882
 30
0.0
 10
11.7467891558
 20
6.4757996508
 30
0.0
 10
11.7444138866
 20
6.4523007173
 30
0.0
 10
11.7404593256
 20
6.4289077685
 30
0.0
 10
11.7349372428
 20
6.4056776975
 30
0.0
 10
11.7278584842
 20
6.3826603246
 30
0.0
 10
11.7163036604
 20
6.3521503288
 30
0.0
 10
11.7054347454
 20
6.3299995082
 30
0.0
 10
11.6973183383
 20
6.3156409678
 30
0.0
  0
SPLINE
  5
32F
100
AcDbEntity
  8
0
100
AcDbSpline
 62
7
  6
CONTINUOUS
 70
0
 71
3
 72
14
 73
10
 74
0
 42
0.0000001
 43
0.0000001
 44
0.0000000001
 40
0.0
 40
0.0
 40
0.0
 40
0.0
 40
0.2570755341
 40
0.3833167409
 40
0.5082550018
 40
0.6321345981
 40
0.7552155292
 40
0.8777600738
 40
1.0
 40
1.0
 40
1.0
 40
1.0
 10
10.3973183383
 20
6.3156409678
 30
0.0
 10
10.3892019311
 20
6.3299995082
 30
0.0
 10
10.3783330162
 20
6.3521503288
 30
0.0
 10
10.3667781924
 20
6.3826603246
 30
0.0
 10
10.3596994338
 20
6.4056776975
 30
0.0
 10
10.354177351
 20
6.4289077685
 30
0.0
 10
10.35022279
 20
6.4523007173
 30
0.0
 10
10.3478475207
 20
6.4757996508
 30
0.0
 10
10.3473183383
 20
6.4915098882
 30
0.0
 10
10.3473183383
 20
6.4993526985
 30
0.0
  0
SPLINE
  5
330
100
AcDbEntity
  8
0
100
AcDbSpline
 62
7
  6
CONTINUOUS
 70
0
 71
3
 72
30
 73
26
 74
0
 42
0.0000001
 43
0.0000001
 44
0.0000000001
 40
0.0
 40
0.0
 40
0.0
 40
0.0
 40
0.0747682546
 40
0.1490059626
 40
0.2222037667
 40
0.293888555
 40
0.3636471369
 40
0.4311449001
 40
0.4961483755
 40
0.5585463034
 40
0.6183709185
 40
0.6473895685
 40
0.6758511083
 40
0.7038059628
 40
0.7313145028
 40
0.7584468621
 40
0.7852814178
 40
0.8119036222
 40
0.8384037822
 40
0.8648754457
 40
0.8914127961
 40
0.9181083578
 40
0.9450507882
 40
0.9723228566
 40
1.0
 40
1.0
 40
1.0
 40
1.0
 10
11.0473183383
 20
6.4485886284
 30
0.0
 10
11.0305500946
 20
6.4485886284
 30
0.0
 10
10.9971152064
 20
6.4499968435
 30
0.0
 10
10.9476250093
 20
6.4563120822
 30
0.0
 10
10.8995362904
 20
6.4667395086
 30
0.0
 10
10.8535309693
 20
6.4811346013
 30
0.0
 10
10.8102556376
 20
6.4992981305
 30
0.0
 10
10.7703203894
 20
6.5209798917
 30
0.0
 10
10.7342879593
 20
6.5458847874
 30
0.0
 10
10.7026738157
 20
6.5736690496
 30
0.0
 10
10.6801541734
 20
6.5991798035
 30
0.0
 10
10.6648810815
 20
6.6206235317
 30
0.0
 10
10.6549022837
 20
6.6370009932
 30
0.0
 10
10.6463231884
 20
6.6537739724
 30
0.0
 10
10.6391751333
 20
6.6708834821
 30
0.0
 10
10.6334844391
 20
6.6882679547
 30
0.0
 10
10.6292730744
 20
6.7058651181
 30
0.0
 10
10.6265561424
 20
6.7236111439
 30
0.0
 10
10.6253450278
 20
6.7414417678
 30
0.0
 10
10.6256431757
 20
6.7592920277
 30
0.0
 10
10.6274508189
 20
6.7770969272
 30
0.0
 10
10.6307594792
 20
6.7947918056
 30
0.0
 10
10.6355583553
 20
6.8123125255
 30
0.0
 10
10.6418270707
 20
6.8295951101
 30
0.0
 10
10.6469313708
 20
6.8408276403
 30
0.0
 10
10.6497103577
 20
6.8463779402
 30
0.0
  0
SPLINE
  5
331
100
AcDbEntity
  8
0
100
AcDbSpline
 62
9
  6
CONTINUOUS
 70
0
 71
3
 72
21
 73
17
 74
0
 42
0.0000001
 43
0.0000001
 44
0.0000000001
 40
0.0
 40
0.0
 40
0.0
 40
0.0
 40
0.1423161582
 40
0.2128115907
 40
0.2824939882
 40
0.4183642585
 40
0.4842154943
 40
0.5484250013
 40
0.6108735592
 40
0.67148959
 40
0.7302548776
 40
0.7872100907
 40
0.8424597228
 40
0.8961743111
 40
0.9485892923
 40
1.0
 40
1.0
 40
1.0
 40
1.0
 10
11.0473183383
 20
6.5721132582
 30
0.0
 10
11.0269457886
 20
6.5721132582
 30
0.0
 10
10.996435058
 20
6.574015949
 30
0.0
 10
10.9564773381
 20
6.5803746538
 30
0.0
 10
10.9179158814
 20
6.5891045482
 30
0.0
 10
10.8809148429
 20
6.6014284279
 30
0.0
 10
10.8462886381
 20
6.6173135707
 30
0.0
 10
10.8221524078
 20
6.6306721216
 30
0.0
 10
10.7997774904
 20
6.6454921637
 30
0.0
 10
10.7793374735
 20
6.6616606028
 30
0.0
 10
10.7609938461
 20
6.6790534708
 30
0.0
 10
10.7448925634
 20
6.6975381182
 30
0.0
 10
10.731163142
 20
6.7169721729
 30
0.0
 10
10.7199175854
 20
6.7372066316
 30
0.0
 10
10.7112510469
 20
6.7580791209
 30
0.0
 10
10.707211014
 20
6.7724268932
 30
0.0
 10
10.7056577533
 20
6.7796205526
 30
0.0
  0
SPLINE
  5
332
100
AcDbEntity
  8
0
100
AcDbSpline
 62
7
  6
CONTINUOUS
 70
0
 71
3
 72
29
 73
25
 74
0
 42
0.0000001
 43
0.0000001
 44
0.0000000001
 40
0.0
 40
0.0
 40
0.0
 40
0.0
 40
0.0248439632
 40
0.0498314366
 40
0.075083058
 40
0.100725487
 40
0.1268669357
 40
0.1535976297
 40
0.1809903599
 40
0.209098529
 40
0.2379563381
 40
0.2675790535
 40
0.3290592369
 40
0.3933787349
 40
0.4601248961
 40
0.5287242739
 40
0.5984903381
 40
0.6686693096
 40
0.7036828126
 40
0.7385090367
 40
0.807203309
 40
0.8409240142
 40
0.8741135414
 40
1.0
 40
1.0
 40
1.0
 40
1.0
 10
10.6410683389
 20
7.4295766922
 30
0.0
 10
10.6410683646
 20
7.4224332693
 30
0.0
 10
10.6418274742
 20
7.4080938431
 30
0.0
 10
10.6452287702
 20
7.3867369618
 30
0.0
 10
10.6508766946
 20
7.3656224429
 30
0.0
 10
10.6587353692
 20
7.3448747388
 30
0.0
 10
10.668756799
 20
7.3246074341
 30
0.0
 10
10.6808839827
 20
7.304934368
 30
0.0
 10
10.695045973
 20
7.2859637012
 30
0.0
 10
10.7111614475
 20
7.2677990647
 30
0.0
 10
10.729141329
 20
7.2505399385
 30
0.0
 10
10.7557873488
 20
7.2285937076
 30
0.0
 10
10.7933082447
 20
7.2040321707
 30
0.0
 10
10.8433071402
 20
7.179938151
 30
0.0
 10
10.8977619837
 20
7.1613490528
 30
0.0
 10
10.9554795602
 20
7.148663967
 30
0.0
 10
11.0151990194
 20
7.1421513703
 30
0.0
 10
11.0656056705
 20
7.1419842705
 30
0.0
 10
11.1057665118
 20
7.1450346679
 30
0.0
 10
11.1452829958
 20
7.1501617086
 30
0.0
 10
11.1839719424
 20
7.1583842031
 30
0.0
 10
11.2213104151
 20
7.1697007297
 30
0.0
 10
11.2733292648
 20
7.1888186471
 30
0.0
 10
11.3141881242
 20
7.2109418682
 30
0.0
 10
11.3431286757
 20
7.2326816608
 30
0.0
  0
SPLINE
  5
333
100
AcDbEntity
  8
0
100
AcDbSpline
 62
7
  6
CONTINUOUS
 70
0
 71
3
 72
22
 73
18
 74
0
 42
0.0000001
 43
0.0000001
 44
0.0000000001
 40
0.0
 40
0.0
 40
0.0
 40
0.0
 40
0.1448642739
 40
0.2164756896
 40
0.2870772615
 40
0.3563691349
 40
0.4240895916
 40
0.4900197629
 40
0.5539946402
 40
0.6159123425
 40
0.6757437273
 40
0.73354101
 40
0.7894444281
 40
0.843685265
 40
0.8965831797
 40
0.948535872
 40
1.0
 40
1.0
 40
1.0
 40
1.0
 10
11.0473183383
 20
6.9349920507
 30
0.0
 10
11.0178207406
 20
6.9349920507
 30
0.0
 10
10.9736562179
 20
6.9380365004
 30
0.0
 10
10.9160589176
 20
6.9482140826
 30
0.0
 10
10.8742603832
 20
6.9587618361
 30
0.0
 10
10.834119522
 20
6.9721510934
 30
0.0
 10
10.7960152933
 20
6.9882555826
 30
0.0
 10
10.7603129907
 20
7.0069239383
 30
0.0
 10
10.7273538667
 20
7.027981124
 30
0.0
 10
10.697454249
 20
7.0512304616
 30
0.0
 10
10.6709026373
 20
7.0764552558
 30
0.0
 10
10.6479579854
 20
7.1034204416
 30
0.0
 10
10.6288480192
 20
7.1318740181
 30
0.0
 10
10.6137673764
 20
7.1615466188
 30
0.0
 10
10.6028749057
 20
7.1921554171
 30
0.0
 10
10.5962896887
 20
7.2233918899
 30
0.0
 10
10.5948183383
 20
7.2444786248
 30
0.0
 10
10.5948183383
 20
7.2549578692
 30
0.0
  0
SPLINE
  5
334
100
AcDbEntity
  8
0
100
AcDbSpline
 62
9
  6
CONTINUOUS
 70
0
 71
3
 72
21
 73
17
 74
0
 42
0.0000001
 43
0.0000001
 44
0.0000000001
 40
0.0
 40
0.0
 40
0.0
 40
0.0
 40
0.1423204087
 40
0.2128177291
 40
0.282501725
 40
0.4183739861
 40
0.4842255453
 40
0.548434886
 40
0.6108827988
 40
0.6714977514
 40
0.730261612
 40
0.7872151741
 40
0.8424630928
 40
0.8961761066
 40
0.9485898834
 40
1.0
 40
1.0
 40
1.0
 40
1.0
 10
11.0473183383
 20
6.5721132582
 30
0.0
 10
11.0676942809
 20
6.5721132582
 30
0.0
 10
11.098210078
 20
6.5740165801
 30
0.0
 10
11.138174191
 20
6.5803774006
 30
0.0
 10
11.176741355
 20
6.5891101419
 30
0.0
 10
11.213747343
 20
6.6014379962
 30
0.0
 10
11.2483773031
 20
6.6173282087
 30
0.0
 10
11.2725154887
 20
6.6306908957
 30
0.0
 10
11.2948915291
 20
6.6455154208
 30
0.0
 10
11.3153317697
 20
6.6616886184
 30
0.0
 10
11.3336746646
 20
6.6790864426
 30
0.0
 10
11.349774214
 20
6.6975761616
 30
0.0
 10
11.363500863
 20
6.7170153199
 30
0.0
 10
11.3747425876
 20
6.7372548214
 30
0.0
 10
11.3834042322
 20
6.7581321921
 30
0.0
 10
11.3874402378
 20
6.7724829689
 30
0.0
 10
11.388991326
 20
6.7796780394
 30
0.0
  0
SPLINE
  5
335
100
AcDbEntity
  8
0
100
AcDbSpline
 62
7
  6
CONTINUOUS
 70
0
 71
3
 72
22
 73
18
 74
0
 42
0.0000001
 43
0.0000001
 44
0.0000000001
 40
0.0
 40
0.0
 40
0.0
 40
0.0
 40
0.1448642739
 40
0.2164756896
 40
0.2870772615
 40
0.3563691349
 40
0.4240895916
 40
0.4900197629
 40
0.5539946402
 40
0.6159123425
 40
0.6757437273
 40
0.73354101
 40
0.7894444281
 40
0.843685265
 40
0.8965831797
 40
0.948535872
 40
1.0
 40
1.0
 40
1.0
 40
1.0
 10
11.0473183383
 20
6.9349920507
 30
0.0
 10
11.0768159359
 20
6.9349920507
 30
0.0
 10
11.1209804587
 20
6.9380365004
 30
0.0
 10
11.178577759
 20
6.9482140826
 30
0.0
 10
11.2203762934
 20
6.9587618361
 30
0.0
 10
11.2605171545
 20
6.9721510934
 30
0.0
 10
11.2986213833
 20
6.9882555826
 30
0.0
 10
11.3343236858
 20
7.0069239383
 30
0.0
 10
11.3672828098
 20
7.027981124
 30
0.0
 10
11.3971824275
 20
7.0512304616
 30
0.0
 10
11.4237340393
 20
7.0764552558
 30
0.0
 10
11.4466786911
 20
7.1034204416
 30
0.0
 10
11.4657886574
 20
7.1318740181
 30
0.0
 10
11.4808693002
 20
7.1615466188
 30
0.0
 10
11.4917617709
 20
7.1921554171
 30
0.0
 10
11.4983469878
 20
7.2233918899
 30
0.0
 10
11.4998183383
 20
7.2444786248
 30
0.0
 10
11.4998183383
 20
7.2549578692
 30
0.0
  0
SPLINE
  5
336
100
AcDbEntity
  8
0
100
AcDbSpline
 62
9
  6
CONTINUOUS
 70
0
 71
3
 72
22
 73
18
 74
0
 42
0.0000001
 43
0.0000001
 44
0.0000000001
 40
0.0
 40
0.0
 40
0.0
 40
0.0
 40
0.1455911851
 40
0.2166730265
 40
0.2863581399
 40
0.3544978011
 40
0.4209778087
 40
0.4857210451
 40
0.548689862
 40
0.6098921911
 40
0.6693846681
 40
0.7272750201
 40
0.783723561
 40
0.8389422876
 40
0.8931904152
 40
0.9467669404
 40
1.0
 40
1.0
 40
1.0
 40
1.0
 10
11.1719427741
 20
6.7195876321
 30
0.0
 10
11.195037093
 20
6.7242661049
 30
0.0
 10
11.2290541155
 20
6.7332497343
 30
0.0
 10
11.2725665453
 20
6.7492728202
 30
0.0
 10
11.303492187
 20
6.7630049901
 30
0.0
 10
11.3327557935
 20
6.7784560653
 30
0.0
 10
11.360169833
 20
6.7955275296
 30
0.0
 10
11.3855557105
 20
6.8141100396
 30
0.0
 10
11.4087478896
 20
6.8340857384
 30
0.0
 10
11.4295947576
 20
6.8553270048
 30
0.0
 10
11.4479590969
 20
6.8776983519
 30
0.0
 10
11.4637182209
 20
6.9010570109
 30
0.0
 10
11.4767652592
 20
6.9252529876
 30
0.0
 10
11.4870107407
 20
6.9501287344
 30
0.0
 10
11.4943825447
 20
6.9755223145
 30
0.0
 10
11.4988270565
 20
7.0012606554
 30
0.0
 10
11.4998181501
 20
7.0185634918
 30
0.0
 10
11.4998181501
 20
7.0271790819
 30
0.0
  0
SPLINE
  5
337
100
AcDbEntity
  8
0
100
AcDbSpline
 62
7
  6
CONTINUOUS
 70
0
 71
3
 72
24
 73
20
 74
0
 42
0.0000001
 43
0.0000001
 44
0.0000000001
 40
0.0
 40
0.0
 40
0.0
 40
0.0
 40
0.1376831953
 40
0.2746545527
 40
0.3426030696
 40
0.4100230044
 40
0.4767343562
 40
0.5425416471
 40
0.607176738
 40
0.6703305029
 40
0.7316203071
 40
0.7906045041
 40
0.8468728268
 40
0.8739319352
 40
0.9002551706
 40
0.925896848
 40
0.9509603275
 40
0.9756048793
 40
1.0
 40
1.0
 40
1.0
 40
1.0
 10
11.0473183383
 20
6.6635798201
 30
0.0
 10
11.0405633608
 20
6.6635798201
 30
0.0
 10
11.0270838772
 20
6.6640553867
 30
0.0
 10
11.0103557751
 20
6.6658694812
 30
0.0
 10
10.997180996
 20
6.6681161669
 30
0.0
 10
10.9874862347
 20
6.6702083094
 30
0.0
 10
10.978004827
 20
6.6727397633
 30
0.0
 10
10.9688022267
 20
6.6757358438
 30
0.0
 10
10.9599638378
 20
6.6792332819
 30
0.0
 10
10.9515988866
 20
6.683265299
 30
0.0
 10
10.9438500507
 20
6.6878693917
 30
0.0
 10
10.9369028155
 20
6.6930735194
 30
0.0
 10
10.9319031165
 20
6.6979914383
 30
0.0
 10
10.9285881661
 20
6.7022372283
 30
0.0
 10
10.9265054267
 20
6.7055156291
 30
0.0
 10
10.92483511
 20
6.7089147207
 30
0.0
 10
10.9236094723
 20
6.7124129176
 30
0.0
 10
10.9228632353
 20
6.7159816885
 30
0.0
 10
10.9226939025
 20
6.7183907649
 30
0.0
 10
10.9226939025
 20
6.7195876321
 30
0.0
  0
SPLINE
  5
338
100
AcDbEntity
  8
0
100
AcDbSpline
 62
7
  6
CONTINUOUS
 70
0
 71
3
 72
24
 73
20
 74
0
 42
0.0000001
 43
0.0000001
 44
0.0000000001
 40
0.0
 40
0.0
 40
0.0
 40
0.0
 40
0.0243953765
 40
0.0490406358
 40
0.074104653
 40
0.0997467751
 40
0.1260703258
 40
0.1531300147
 40
0.2093989951
 40
0.2683838388
 40
0.3296740359
 40
0.392826962
 40
0.4574621017
 40
0.5232682806
 40
0.5899791495
 40
0.6573980474
 40
0.7253458698
 40
0.8623164139
 40
1.0
 40
1.0
 40
1.0
 40
1.0
 10
11.1719427741
 20
6.7195876321
 30
0.0
 10
11.1719427741
 20
6.7183907524
 30
0.0
 10
11.1717733966
 20
6.7159816323
 30
0.0
 10
11.1710271753
 20
6.7124127846
 30
0.0
 10
11.1698014863
 20
6.708914515
 30
0.0
 10
11.1681311123
 20
6.7055153814
 30
0.0
 10
11.1660483102
 20
6.7022369417
 30
0.0
 10
11.1627332484
 20
6.6979911424
 30
0.0
 10
11.157733474
 20
6.6930731743
 30
0.0
 10
11.1507861377
 20
6.687869034
 30
0.0
 10
11.1430372262
 20
6.6832650566
 30
0.0
 10
11.134672316
 20
6.6792330009
 30
0.0
 10
11.1258339644
 20
6.6757357214
 30
0.0
 10
11.1166314547
 20
6.6727396137
 30
0.0
 10
11.1071501477
 20
6.6702082817
 30
0.0
 10
11.0974555042
 20
6.6681161154
 30
0.0
 10
11.0842808379
 20
6.6658695104
 30
0.0
 10
11.0675527994
 20
6.664055366
 30
0.0
 10
11.0540733347
 20
6.6635798201
 30
0.0
 10
11.0473183383
 20
6.6635798201
 30
0.0
  0
ENDSEC
  0
SECTION
  2
OBJECTS
  0
DICTIONARY
  5
C
100
AcDbDictionary
280
0
281
1
  3
ACAD_GROUP
350
D
  3
ACAD_MLINESTYLE
350
17
  3
ACAD_LAYOUT
350
1A
  3
ACAD_PLOTSETTINGS
350
19
  3
ACAD_PLOTSTYLENAME
350
E
  0
DICTIONARY
  5
D
102
{ACAD_REACTORS
330
C
102
}
100
AcDbDictionary
280
0
281
1
  0
ACDBDICTIONARYWDFLT
  5
E
102
{ACAD_REACTORS
330
C
102
}
100
AcDbDictionary
281
1
  3
Normal
350
F
100
AcDbDictionaryWithDefault
340
F
  0
DICTIONARY
  5
17
102
{ACAD_REACTORS
330
C
102
}
100
AcDbDictionary
280
0
281
1
  3
Standard
350
18
  0
DICTIONARY
  5
19
102
{ACAD_REACTORS
330
C
102
}
100
AcDbDictionary
281
1
  0
DICTIONARY
  5
1A
102
{ACAD_REACTORS
330
C
102
}
100
AcDbDictionary
281
1
  3
Model
350
339
  3
Layout1
350
33A
  0
ACDBPLACEHOLDER
  5
F
102
{ACAD_REACTORS
330
E
102
}
  0
MLINESTYLE
  5
18
102
{ACAD_REACTORS
330
17
102
}
100
AcDbMlineStyle
  2
STANDARD
 70
0
  3

 62
256
 51
90.0
 52
90.0
 71
2
 49
0.5
 62
256
  6
BYLAYER
 49
-0.5
 62
256
  6
BYLAYER
  0
LAYOUT
  5
339
102
{ACAD_REACTORS
330
1A
102
}
100
AcDbPlotSettings
  1

  2
none_device
  4
ANSI_C_(22.00_x_17.00_Inches)
  6

 40
0.0
 41
0.0
 42
0.0
 43
0.0
 44
558.8
 45
431.8
 46
0.0
 47
0.0
 48
0.0
 49
0.0
140
0.0
141
0.0
142
1.0
143
1.0
 70
1024
 72
0
 73
0
 74
0
  7

 75
0
147
1.0
148
0.0
149
0.0
100
AcDbLayout
  1
Model
 70
0
 71
0
 10
0.0
 20
0.0
 11
22.0
 21
17.0
 12
0.0
 22
0.0
 32
0.0
 14
0.0
 24
0.0
 34
0.0
 15
0.0
 25
0.0
 35
0.0
146
0.0
 13
0.0
 23
0.0
 33
0.0
 16
1.0
 26
0.0
 36
0.0
 17
0.0
 27
1.0
 37
0.0
 76
0
330
205
345
0
346
0
  0
LAYOUT
  5
33A
102
{ACAD_REACTORS
330
1A
102
}
100
AcDbPlotSettings
  1

  2
none_device
  4
ANSI_C_(22.00_x_17.00_Inches)
  6

 40
0.0
 41
0.0
 42
0.0
 43
0.0
 44
558.8
 45
431.8
 46
0.0
 47
0.0
 48
0.0
 49
0.0
140
0.0
141
0.0
142
1.0
143
1.0
 70
0
 72
0
 73
0
 74
0
  7

 75
0
147
1.0
148
0.0
149
0.0
100
AcDbLayout
  1
Layout1
 70
0
 71
1
 10
0.0
 20
0.0
 11
22.0
 21
17.0
 12
0.0
 22
0.0
 32
0.0
 14
0.0
 24
0.0
 34
0.0
 15
0.0
 25
0.0
 35
0.0
146
0.0
 13
0.0
 23
0.0
 33
0.0
 16
1.0
 26
0.0
 36
0.0
 17
0.0
 27
1.0
 37
0.0
 76
0
330
206
345
0
346
0
  0
ENDSEC
  0
EOF
