999
DXF file: 3-3154ts_RIGHT.dxf
999
Pro/ENGINEER 2018400 by Parametric Technology Corporation
  0
SECTION
  2
HEADER
  9
$ACADVER
  1
AC1027
  9
$DWGCODEPAGE
  3
ANSI_1252
  9
$EXTMAX
 10
11.0
 20
8.5
 30
0.0
  9
$EXTMIN
 10
0.0
 20
0.0
 30
0.0
  9
$LIMMIN
 10
0.0
 20
0.0
  9
$LIMMAX
 10
11.0
 20
8.5
  9
$VIEWCTR
 10
5.5
 20
4.25
  9
$VIEWSIZE
 40
8.5
  9
$CLAYER
  8
0
  9
$LTSCALE
 40
0.605
  9
$CELTYPE
  6
BYLAYER
  9
$DIMSCALE
 40
1.0
  9
$DIMASZ
 40
0.1
  9
$DIMEXO
 40
0.0625
  9
$DIMDLI
 40
0.418
  9
$DIMEXE
 40
0.125
  9
$DIMCEN
 40
0.099
  9
$DIMLFAC
 40
1.0
  9
$DIMBLK
  1
_FILLED
  9
$DIMALT
 70
1
  9
$DIMALTD
 70
2
  9
$DIMALTTD
 70
2
  9
$DIMALTF
 40
25.4
  9
$DIMTXT
 40
0.08
  9
$DIMTOL
 70
1
  9
$DIMLIM
 70
0
  9
$DIMTFAC
 40
1.0
  9
$DIMTP
 40
0.001
  9
$DIMTM
 40
0.001
  9
$DIMGAP
 40
0.09
  9
$DIMDSEP
 70
46
  9
$AUNITS
 70
0
  9
$PDMODE
 70
3
  9
$PDSIZE
 40
0.3125
  9
$HANDSEED
  5
2DB
  9
$TILEMODE
 70
1
  9
$MEASUREMENT
 70
0
  9
$INSUNITS
 70
1
  0
ENDSEC
  0
SECTION
  2
CLASSES
  0
CLASS
  1
ACDBDICTIONARYWDFLT
  2
AcDbDictionaryWithDefault
  3
AutoCAD 2000
 90
0
 91
1
280
0
281
0
  0
CLASS
  1
ACDBPLACEHOLDER
  2
AcDbPlaceHolder
  3
AutoCAD 2000
 90
0
 91
1
280
0
281
0
  0
CLASS
  1
LAYOUT
  2
AcDbLayout
  3
AutoCAD 2000
 90
0
 91
0
280
0
281
0
  0
ENDSEC
  0
SECTION
  2
TABLES
  0
TABLE
  2
VPORT
  5
8
100
AcDbSymbolTable
 70
2
  0
VPORT
  5
1F4
100
AcDbSymbolTableRecord
100
AcDbViewportTableRecord
  2
*ACTIVE
 70
0
 10
0.0
 20
0.0
 11
1.0
 21
1.0
 12
5.5
 22
4.25
 13
0.0
 23
0.0
 14
1.0
 24
1.0
 15
0.0
 25
0.0
 16
0.0
 26
0.0
 36
1.0
 17
0.0
 27
0.0
 37
0.0
 40
8.5
 41
1.2941176471
 42
50.0
 43
0.0
 44
0.0
 50
0.0
 51
0.0
 71
0
 72
100
 73
1
 74
1
 75
0
 76
0
 77
0
 78
0
  0
ENDTAB
  0
TABLE
  2
LTYPE
  5
5
100
AcDbSymbolTable
 70
6
  0
LTYPE
  5
14
100
AcDbSymbolTableRecord
100
AcDbLinetypeTableRecord
  2
BYBLOCK
 70
0
  3

 72
65
 73
0
 40
0.0
  0
LTYPE
  5
15
100
AcDbSymbolTableRecord
100
AcDbLinetypeTableRecord
  2
BYLAYER
 70
0
  3

 72
65
 73
0
 40
0.0
  0
LTYPE
  5
16
100
AcDbSymbolTableRecord
100
AcDbLinetypeTableRecord
  2
CONTINUOUS
 70
64
  3
Solid line
 72
65
 73
0
 40
0.0
  0
LTYPE
  5
1F5
100
AcDbSymbolTableRecord
100
AcDbLinetypeTableRecord
  2
CENTER
 70
64
  3
____ _ ____ _ ____ _ ____ _ ____ _ ____ _ ____
 72
65
 73
4
 40
0.6
 49
0.375
 74
0
 49
-0.075
 74
0
 49
0.075
 74
0
 49
-0.075
 74
0
  0
LTYPE
  5
1F6
100
AcDbSymbolTableRecord
100
AcDbLinetypeTableRecord
  2
HIDDEN
 70
64
  3
- - - - - - - - - - - - - - - - - - - -
 72
65
 73
2
 40
0.2
 49
0.1
 74
0
 49
-0.1
 74
0
  0
LTYPE
  5
1F7
100
AcDbSymbolTableRecord
100
AcDbLinetypeTableRecord
  2
PHANTOM
 70
64
  3
_____ _ _ _____ _ _ _____ _ _ _____
 72
65
 73
6
 40
0.8
 49
0.45
 74
0
 49
-0.05
 74
0
 49
0.1
 74
0
 49
-0.05
 74
0
 49
0.1
 74
0
 49
-0.05
 74
0
  0
LTYPE
  5
1F8
100
AcDbSymbolTableRecord
100
AcDbLinetypeTableRecord
  2
DOT
 70
64
  3
. . . . . . . . . . . . . . . . . . . .
 72
65
 73
2
 40
0.2
 49
0.1
 74
0
 49
-0.1
 74
0
  0
LTYPE
  5
1F9
100
AcDbSymbolTableRecord
100
AcDbLinetypeTableRecord
  2
DASHED
 70
64
  3
- - - - - - - - - - - - - - - - - - - -
 72
65
 73
2
 40
0.2
 49
0.1
 74
0
 49
-0.1
 74
0
  0
ENDTAB
  0
TABLE
  2
LAYER
  5
2
100
AcDbSymbolTable
 70
36
  0
LAYER
  5
10
100
AcDbSymbolTableRecord
100
AcDbLayerTableRecord
  2
0
 70
0
 62
7
  6
CONTINUOUS
370
-3
390
F
  0
LAYER
  5
1FA
100
AcDbSymbolTableRecord
100
AcDbLayerTableRecord
  2
DEFAULT_1
 70
0
 62
7
  6
CENTER
370
-3
390
F
  0
LAYER
  5
1FB
100
AcDbSymbolTableRecord
100
AcDbLayerTableRecord
  2
DEFAULT_2
 70
0
 62
8
  6
HIDDEN
370
-3
390
F
  0
LAYER
  5
1FC
100
AcDbSymbolTableRecord
100
AcDbLayerTableRecord
  2
DEFAULT_3
 70
0
 62
7
  6
PHANTOM
370
-3
390
F
  0
LAYER
  5
1FD
100
AcDbSymbolTableRecord
100
AcDbLayerTableRecord
  2
01___PRT_ALL_DTM_PLN
 70
0
 62
7
  6
CONTINUOUS
370
-3
390
F
  0
LAYER
  5
1FE
100
AcDbSymbolTableRecord
100
AcDbLayerTableRecord
  2
01___PRT_DEF_DTM_PLN
 70
0
 62
7
  6
CONTINUOUS
370
-3
390
F
  0
LAYER
  5
1FF
100
AcDbSymbolTableRecord
100
AcDbLayerTableRecord
  2
02___PRT_ALL_AXES
 70
0
 62
7
  6
CONTINUOUS
370
-3
390
F
  0
LAYER
  5
200
100
AcDbSymbolTableRecord
100
AcDbLayerTableRecord
  2
03___PRT_ALL_CURVES
 70
0
 62
7
  6
CONTINUOUS
370
-3
390
F
  0
LAYER
  5
201
100
AcDbSymbolTableRecord
100
AcDbLayerTableRecord
  2
04___PRT_ALL_DTM_PNT
 70
0
 62
7
  6
CONTINUOUS
370
-3
390
F
  0
LAYER
  5
202
100
AcDbSymbolTableRecord
100
AcDbLayerTableRecord
  2
05___PRT_ALL_DTM_CSYS
 70
0
 62
7
  6
CONTINUOUS
370
-3
390
F
  0
LAYER
  5
203
100
AcDbSymbolTableRecord
100
AcDbLayerTableRecord
  2
05___PRT_DEF_DTM_CSYS
 70
0
 62
7
  6
CONTINUOUS
370
-3
390
F
  0
LAYER
  5
204
100
AcDbSymbolTableRecord
100
AcDbLayerTableRecord
  2
06___PRT_ALL_SURFS
 70
0
 62
7
  6
CONTINUOUS
370
-3
390
F
  0
LAYER
  5
205
100
AcDbSymbolTableRecord
100
AcDbLayerTableRecord
  2
ALL_ASSEMBLY_MEMBERS
 70
0
 62
7
  6
CONTINUOUS
370
-3
390
F
  0
LAYER
  5
206
100
AcDbSymbolTableRecord
100
AcDbLayerTableRecord
  2
ALL_FEATURES
 70
0
 62
7
  6
CONTINUOUS
370
-3
390
F
  0
LAYER
  5
207
100
AcDbSymbolTableRecord
100
AcDbLayerTableRecord
  2
AXES_FEATURES
 70
0
 62
7
  6
CONTINUOUS
370
-3
390
F
  0
LAYER
  5
208
100
AcDbSymbolTableRecord
100
AcDbLayerTableRecord
  2
BROACH_SKETCH
 70
0
 62
7
  6
CONTINUOUS
370
-3
390
F
  0
LAYER
  5
209
100
AcDbSymbolTableRecord
100
AcDbLayerTableRecord
  2
CHAMFER_FEATURES
 70
0
 62
7
  6
CONTINUOUS
370
-3
390
F
  0
LAYER
  5
20A
100
AcDbSymbolTableRecord
100
AcDbLayerTableRecord
  2
COSMETIC_SKETCHES
 70
0
 62
7
  6
CONTINUOUS
370
-3
390
F
  0
LAYER
  5
20B
100
AcDbSymbolTableRecord
100
AcDbLayerTableRecord
  2
CUT_FEATURES
 70
0
 62
7
  6
CONTINUOUS
370
-3
390
F
  0
LAYER
  5
20C
100
AcDbSymbolTableRecord
100
AcDbLayerTableRecord
  2
DATUM_CURVES
 70
0
 62
7
  6
CONTINUOUS
370
-3
390
F
  0
LAYER
  5
20D
100
AcDbSymbolTableRecord
100
AcDbLayerTableRecord
  2
DATUM_PLANES
 70
0
 62
7
  6
CONTINUOUS
370
-3
390
F
  0
LAYER
  5
20E
100
AcDbSymbolTableRecord
100
AcDbLayerTableRecord
  2
DATUM_POINTS
 70
0
 62
7
  6
CONTINUOUS
370
-3
390
F
  0
LAYER
  5
20F
100
AcDbSymbolTableRecord
100
AcDbLayerTableRecord
  2
DEFAULT_COORDINATE_SYSTEM
 70
0
 62
7
  6
CONTINUOUS
370
-3
390
F
  0
LAYER
  5
210
100
AcDbSymbolTableRecord
100
AcDbLayerTableRecord
  2
DEFAULT_DATUM_AXES
 70
0
 62
7
  6
CONTINUOUS
370
-3
390
F
  0
LAYER
  5
211
100
AcDbSymbolTableRecord
100
AcDbLayerTableRecord
  2
DEFAULT_DATUM_CURVES
 70
0
 62
7
  6
CONTINUOUS
370
-3
390
F
  0
LAYER
  5
212
100
AcDbSymbolTableRecord
100
AcDbLayerTableRecord
  2
DEFAULT_DATUM_PLANES
 70
0
 62
7
  6
CONTINUOUS
370
-3
390
F
  0
LAYER
  5
213
100
AcDbSymbolTableRecord
100
AcDbLayerTableRecord
  2
DEFAULT_SURFACES
 70
0
 62
7
  6
CONTINUOUS
370
-3
390
F
  0
LAYER
  5
214
100
AcDbSymbolTableRecord
100
AcDbLayerTableRecord
  2
DIMENSIONS
 70
0
 62
7
  6
CONTINUOUS
370
-3
390
F
  0
LAYER
  5
215
100
AcDbSymbolTableRecord
100
AcDbLayerTableRecord
  2
HOLE_FEATURES
 70
0
 62
7
  6
CONTINUOUS
370
-3
390
F
  0
LAYER
  5
216
100
AcDbSymbolTableRecord
100
AcDbLayerTableRecord
  2
MIXEDCOLOR
 70
0
 62
7
  6
CONTINUOUS
370
-3
390
F
  0
LAYER
  5
217
100
AcDbSymbolTableRecord
100
AcDbLayerTableRecord
  2
PART_REFERENCE_DIMENSIONS
 70
0
 62
7
  6
CONTINUOUS
370
-3
390
F
  0
LAYER
  5
218
100
AcDbSymbolTableRecord
100
AcDbLayerTableRecord
  2
PLATED_SURFACE_AREA
 70
0
 62
7
  6
CONTINUOUS
370
-3
390
F
  0
LAYER
  5
219
100
AcDbSymbolTableRecord
100
AcDbLayerTableRecord
  2
POINTS
 70
0
 62
7
  6
CONTINUOUS
370
-3
390
F
  0
LAYER
  5
21A
100
AcDbSymbolTableRecord
100
AcDbLayerTableRecord
  2
PROTRUSION
 70
0
 62
7
  6
CONTINUOUS
370
-3
390
F
  0
LAYER
  5
21B
100
AcDbSymbolTableRecord
100
AcDbLayerTableRecord
  2
PROTRUSION_FEATURES
 70
0
 62
7
  6
CONTINUOUS
370
-3
390
F
  0
LAYER
  5
21C
100
AcDbSymbolTableRecord
100
AcDbLayerTableRecord
  2
QUILT
 70
0
 62
7
  6
CONTINUOUS
370
-3
390
F
  0
LAYER
  5
21D
100
AcDbSymbolTableRecord
100
AcDbLayerTableRecord
  2
REFERENCE_DIMENSIONS
 70
0
 62
7
  6
CONTINUOUS
370
-3
390
F
  0
LAYER
  5
21E
100
AcDbSymbolTableRecord
100
AcDbLayerTableRecord
  2
ROUND_FEATURES
 70
0
 62
7
  6
CONTINUOUS
370
-3
390
F
  0
LAYER
  5
21F
100
AcDbSymbolTableRecord
100
AcDbLayerTableRecord
  2
XSEC_DATUMS
 70
0
 62
7
  6
CONTINUOUS
370
-3
390
F
  0
ENDTAB
  0
TABLE
  2
STYLE
  5
3
100
AcDbSymbolTable
 70
1
  0
STYLE
  5
11
100
AcDbSymbolTableRecord
100
AcDbTextStyleTableRecord
  2
STANDARD
 70
0
 40
0.0
 41
0.8
 50
0.0
 71
0
 42
0.2
  3
txt
  4

  0
STYLE
  5
220
100
AcDbSymbolTableRecord
100
AcDbTextStyleTableRecord
  2
TEXTSTYLE_1
 70
0
 40
0.0
 41
0.8
 50
0.0
 71
0
 42
0.2
  3
gdt
  4

  0
ENDTAB
  0
TABLE
  2
VIEW
  5
6
100
AcDbSymbolTable
 70
0
  0
ENDTAB
  0
TABLE
  2
UCS
  5
7
100
AcDbSymbolTable
 70
0
  0
ENDTAB
  0
TABLE
  2
APPID
  5
9
100
AcDbSymbolTable
 70
1
  0
APPID
  5
221
100
AcDbSymbolTableRecord
100
AcDbRegAppTableRecord
  2
ACAD
 70
0
  0
ENDTAB
  0
TABLE
  2
BLOCK_RECORD
  5
1
100
AcDbSymbolTable
 70
0
  0
BLOCK_RECORD
  5
222
100
AcDbSymbolTableRecord
100
AcDbBlockTableRecord
  2
*Model_Space
  0
BLOCK_RECORD
  5
223
100
AcDbSymbolTableRecord
100
AcDbBlockTableRecord
  2
*Paper_Space
  0
BLOCK_RECORD
  5
224
100
AcDbSymbolTableRecord
100
AcDbBlockTableRecord
  2
_FILLED
  0
ENDTAB
  0
TABLE
  2
DIMSTYLE
  5
A
100
AcDbSymbolTable
 70
1
100
AcDbDimStyleTable
 71
0
  0
DIMSTYLE
105
225
100
AcDbSymbolTableRecord
100
AcDbDimStyleTableRecord
  2
STANDARD
 70
0
  3

  4

 40
1.0
 41
0.1
 42
0.0625
 43
0.38
 44
0.125
 45
0.0
 46
0.0
 47
0.001
 48
0.001
140
0.08
141
0.09
142
0.0
143
25.4
144
1.0
145
0.0
146
1.0
147
0.09
 71
1.0
 72
0.0
 73
1
 74
1
 75
0
 76
0
 77
0
 78
4
 79
1
170
1
171
2
172
0
173
0
174
0
175
0
176
0
177
0
178
0
270
2
179
3
271
3
272
3
273
2
274
2
275
0
280
0
281
0
282
0
283
1
284
4
285
0
286
0
287
3
288
0
340
11
278
46
341
224
342
224
343
224
344
224
  0
ENDTAB
  0
ENDSEC
  0
SECTION
  2
BLOCKS
  0
BLOCK
  5
20
100
AcDbEntity
  8
0
100
AcDbBlockBegin
  2
*Model_Space
 70
0
 10
0.0
 20
0.0
 30
0.0
  3
*Model_Space
  1

  0
ENDBLK
  5
21
100
AcDbEntity
  8
0
100
AcDbBlockEnd
  0
BLOCK
  5
1C
100
AcDbEntity
  8
0
100
AcDbBlockBegin
  2
*Paper_Space
 70
0
 10
0.0
 20
0.0
 30
0.0
  3
*Paper_Space
  1

  0
ENDBLK
  5
1D
100
AcDbEntity
  8
0
100
AcDbBlockEnd
  0
BLOCK
  5
226
100
AcDbEntity
  8
0
100
AcDbBlockBegin
  2
_FILLED
 70
64
 10
0.0
 20
0.0
  3
_FILLED
  1

  0
SOLID
  5
227
100
AcDbEntity
  8
0
  6
BYBLOCK
 62
0
100
AcDbTrace
 10
0.0
 20
0.0
 11
-1.0
 21
0.2
 12
-1.0
 22
-0.2
 13
-1.0
 23
-0.2
  0
ENDBLK
  5
228
100
AcDbEntity
  8
0
  6
BYBLOCK
 62
0
100
AcDbBlockEnd
  0
ENDSEC
  0
SECTION
  2
ENTITIES
  0
MTEXT
  5
229
100
AcDbEntity
  8
0
100
AcDbMText
 62
2
  6
CONTINUOUS
  7
STANDARD
 71
3
 72
1
 10
5.1598796584
 20
3.2815333851
 30
0.0
 11
1.0
 21
0.0
 31
0.0
 73
2
 44
0.9
  1
SCALE  .500
 40
0.08
 41
0.704
  0
LINE
  5
22A
100
AcDbEntity
  8
0
100
AcDbLine
 62
7
  6
CONTINUOUS
 10
0.0
 20
0.0
 11
0.0
 21
8.5
  0
LINE
  5
22B
100
AcDbEntity
  8
0
100
AcDbLine
 62
7
  6
CONTINUOUS
 10
0.0
 20
0.0
 11
11.0
 21
0.0
  0
LINE
  5
22C
100
AcDbEntity
  8
0
100
AcDbLine
 62
7
  6
CONTINUOUS
 10
0.0
 20
8.5
 11
11.0
 21
8.5
  0
LINE
  5
22D
100
AcDbEntity
  8
0
100
AcDbLine
 62
7
  6
CONTINUOUS
 10
11.0
 20
0.0
 11
11.0
 21
8.5
  0
LINE
  5
22E
100
AcDbEntity
  8
0
100
AcDbLine
 62
7
  6
CONTINUOUS
 10
5.5880469812
 20
3.3765333851
 11
5.7605469812
 21
3.3765333851
  0
LINE
  5
22F
100
AcDbEntity
  8
0
100
AcDbLine
 62
7
  6
CONTINUOUS
 10
5.5730469812
 20
3.3915333851
 11
5.7605469812
 21
3.3915333851
  0
LINE
  5
230
100
AcDbEntity
  8
0
100
AcDbLine
 62
7
  6
CONTINUOUS
 10
4.1417123356
 20
4.5947833851
 11
4.1417123356
 21
4.9082833851
  0
LINE
  5
231
100
AcDbEntity
  8
0
100
AcDbLine
 62
7
  6
CONTINUOUS
 10
4.1567123356
 20
4.5797833851
 11
4.1567123356
 21
4.9232833851
  0
LINE
  5
232
100
AcDbEntity
  8
0
100
AcDbLine
 62
7
  6
CONTINUOUS
 10
4.1584623356
 20
4.6415333849
 11
4.1584623356
 21
4.8615333853
  0
LINE
  5
233
100
AcDbEntity
  8
0
100
AcDbLine
 62
7
  6
CONTINUOUS
 10
4.1884623356
 20
4.2665333851
 11
4.1884623356
 21
4.5497833851
  0
LINE
  5
234
100
AcDbEntity
  8
0
100
AcDbLine
 62
7
  6
CONTINUOUS
 10
4.1884623356
 20
4.6415333851
 11
4.1884623356
 21
4.8615333851
  0
LINE
  5
235
100
AcDbEntity
  8
0
100
AcDbLine
 62
7
  6
CONTINUOUS
 10
4.1884623356
 20
4.9532833851
 11
4.1884623356
 21
5.2365333851
  0
LINE
  5
236
100
AcDbEntity
  8
0
100
AcDbLine
 62
7
  6
CONTINUOUS
 10
4.2034623356
 20
4.2515333851
 11
4.2034623356
 21
4.5797833851
  0
LINE
  5
237
100
AcDbEntity
  8
0
100
AcDbLine
 62
7
  6
CONTINUOUS
 10
4.2034623356
 20
4.5965333851
 11
4.2034623356
 21
4.9065333851
  0
LINE
  5
238
100
AcDbEntity
  8
0
100
AcDbLine
 62
7
  6
CONTINUOUS
 10
4.2034623356
 20
4.9232833851
 11
4.2034623356
 21
5.2515333851
  0
LINE
  5
239
100
AcDbEntity
  8
0
100
AcDbLine
 62
7
  6
CONTINUOUS
 10
4.4234623356
 20
4.2515333851
 11
4.4234623356
 21
4.5797833851
  0
LINE
  5
23A
100
AcDbEntity
  8
0
100
AcDbLine
 62
7
  6
CONTINUOUS
 10
4.4234623356
 20
4.5965333851
 11
4.4234623356
 21
4.9065333851
  0
LINE
  5
23B
100
AcDbEntity
  8
0
100
AcDbLine
 62
7
  6
CONTINUOUS
 10
4.4234623356
 20
4.9232833851
 11
4.4234623356
 21
5.2515333851
  0
LINE
  5
23C
100
AcDbEntity
  8
0
100
AcDbLine
 62
7
  6
CONTINUOUS
 10
4.4384623356
 20
4.8615333851
 11
4.4384623356
 21
4.6415333851
  0
LINE
  5
23D
100
AcDbEntity
  8
0
100
AcDbLine
 62
7
  6
CONTINUOUS
 10
4.4384623356
 20
4.2665333851
 11
4.4384623356
 21
4.5497833851
  0
LINE
  5
23E
100
AcDbEntity
  8
0
100
AcDbLine
 62
7
  6
CONTINUOUS
 10
4.4384623356
 20
4.9532833851
 11
4.4384623356
 21
5.2365333851
  0
LINE
  5
23F
100
AcDbEntity
  8
0
100
AcDbLine
 62
7
  6
CONTINUOUS
 10
4.4684623356
 20
4.8615333852
 11
4.4684623356
 21
4.6415333849
  0
LINE
  5
240
100
AcDbEntity
  8
0
100
AcDbLine
 62
7
  6
CONTINUOUS
 10
4.4702123356
 20
4.5797833851
 11
4.4702123356
 21
4.6509426301
  0
LINE
  5
241
100
AcDbEntity
  8
0
100
AcDbLine
 62
7
  6
CONTINUOUS
 10
4.4702123356
 20
4.8521241401
 11
4.4702123356
 21
4.9232833851
  0
LINE
  5
242
100
AcDbEntity
  8
0
100
AcDbLine
 62
7
  6
CONTINUOUS
 10
4.4852123356
 20
4.5947833851
 11
4.4852123356
 21
4.6509426297
  0
LINE
  5
243
100
AcDbEntity
  8
0
100
AcDbLine
 62
7
  6
CONTINUOUS
 10
4.4852123356
 20
4.8521241405
 11
4.4852123356
 21
4.9082833851
  0
LINE
  5
244
100
AcDbEntity
  8
0
100
AcDbLine
 62
7
  6
CONTINUOUS
 10
4.5637124036
 20
4.6278742561
 11
4.5637123356
 21
4.6279125663
  0
LINE
  5
245
100
AcDbEntity
  8
0
100
AcDbLine
 62
7
  6
CONTINUOUS
 10
4.5152123356
 20
4.9077833851
 11
4.5152123356
 21
4.5952833851
  0
LINE
  5
246
100
AcDbEntity
  8
ALL_FEATURES
100
AcDbLine
 62
7
  6
CONTINUOUS
 10
4.5861653302
 20
4.6159597015
 11
4.5861653302
 21
4.6359597015
  0
LINE
  5
247
100
AcDbEntity
  8
ALL_FEATURES
100
AcDbLine
 62
7
  6
CONTINUOUS
 10
4.6092593409
 20
4.6159597015
 11
4.6092593409
 21
4.6359597015
  0
LINE
  5
248
100
AcDbEntity
  8
ALL_FEATURES
100
AcDbLine
 62
7
  6
CONTINUOUS
 10
4.6302573355
 20
4.6272977108
 11
4.6302573355
 21
4.6291390929
  0
LINE
  5
249
100
AcDbEntity
  8
0
100
AcDbLine
 62
7
  6
CONTINUOUS
 10
4.6727123356
 20
4.9077833851
 11
4.6727123356
 21
4.5952833851
  0
LINE
  5
24A
100
AcDbEntity
  8
0
100
AcDbLine
 62
7
  6
CONTINUOUS
 10
4.6977123356
 20
4.2740333851
 11
4.6977123356
 21
5.2290333851
  0
LINE
  5
24B
100
AcDbEntity
  8
0
100
AcDbLine
 62
7
  6
CONTINUOUS
 10
4.7127123356
 20
4.2590333851
 11
4.7127123356
 21
5.2440333851
  0
LINE
  5
24C
100
AcDbEntity
  8
0
100
AcDbLine
 62
7
  6
CONTINUOUS
 10
4.2034623356
 20
4.2515333851
 11
4.4234623356
 21
4.2515333851
  0
LINE
  5
24D
100
AcDbEntity
  8
0
100
AcDbLine
 62
7
  6
CONTINUOUS
 10
5.5477123356
 20
4.2590333851
 11
4.7127123356
 21
4.2590333851
  0
LINE
  5
24E
100
AcDbEntity
  8
ALL_FEATURES
100
AcDbLine
 62
7
  6
CONTINUOUS
 10
5.5480469812
 20
4.2590333851
 11
5.5730469812
 21
4.2590333851
  0
LINE
  5
24F
100
AcDbEntity
  8
0
100
AcDbLine
 62
7
  6
CONTINUOUS
 10
4.1884623356
 20
4.2665333851
 11
4.4384623356
 21
4.2665333851
  0
LINE
  5
250
100
AcDbEntity
  8
ALL_FEATURES
100
AcDbLine
 62
7
  6
CONTINUOUS
 10
4.5724009415
 20
4.6170107724
 11
4.5688084397
 21
4.6195510548
  0
LINE
  5
251
100
AcDbEntity
  8
ALL_FEATURES
100
AcDbLine
 62
7
  6
CONTINUOUS
 10
4.5746183248
 20
4.6259597015
 11
4.5861653302
 21
4.6159597015
  0
LINE
  5
252
100
AcDbEntity
  8
ALL_FEATURES
100
AcDbLine
 62
7
  6
CONTINUOUS
 10
4.6208063463
 20
4.6259597015
 11
4.6092593409
 21
4.6359597015
  0
LINE
  5
253
100
AcDbEntity
  8
ALL_FEATURES
100
AcDbLine
 62
7
  6
CONTINUOUS
 10
4.5861653302
 20
4.6359597015
 11
4.5746183248
 21
4.6259597015
  0
LINE
  5
254
100
AcDbEntity
  8
ALL_FEATURES
100
AcDbLine
 62
7
  6
CONTINUOUS
 10
4.6092593409
 20
4.6159597015
 11
4.6208063463
 21
4.6259597015
  0
LINE
  5
255
100
AcDbEntity
  8
0
100
AcDbLine
 62
7
  6
CONTINUOUS
 10
4.9577123356
 20
5.241061246
 11
4.9577123356
 21
5.3435666532
  0
LINE
  5
256
100
AcDbEntity
  8
ALL_FEATURES
100
AcDbLine
 62
7
  6
CONTINUOUS
 10
4.6230237296
 20
4.6170107724
 11
4.6242852167
 21
4.6179027785
  0
LINE
  5
257
100
AcDbEntity
  8
0
100
AcDbLine
 62
7
  6
CONTINUOUS
 10
4.1884623356
 20
4.5497833851
 11
4.4384623356
 21
4.5497833851
  0
LINE
  5
258
100
AcDbEntity
  8
0
100
AcDbLine
 62
7
  6
CONTINUOUS
 10
4.4812307229
 20
4.5797833851
 11
4.1567123356
 21
4.5797833851
  0
LINE
  5
259
100
AcDbEntity
  8
0
100
AcDbLine
 62
7
  6
CONTINUOUS
 10
4.4852123356
 20
4.5947833851
 11
4.1417123356
 21
4.5947833851
  0
LINE
  5
25A
100
AcDbEntity
  8
0
100
AcDbLine
 62
7
  6
CONTINUOUS
 10
4.5152123356
 20
4.5952833851
 11
4.6727123356
 21
4.5952833851
  0
LINE
  5
25B
100
AcDbEntity
  8
0
100
AcDbLine
 62
7
  6
CONTINUOUS
 10
4.4234623357
 20
4.5965333851
 11
4.2034623354
 21
4.5965333851
  0
LINE
  5
25C
100
AcDbEntity
  8
ALL_FEATURES
100
AcDbLine
 62
7
  6
CONTINUOUS
 10
4.5861653302
 20
4.6159597015
 11
4.6092593409
 21
4.6159597015
  0
LINE
  5
25D
100
AcDbEntity
  8
0
100
AcDbLine
 62
7
  6
CONTINUOUS
 10
4.4234623356
 20
4.6265333851
 11
4.2034623356
 21
4.6265333851
  0
LINE
  5
25E
100
AcDbEntity
  8
ALL_FEATURES
100
AcDbLine
 62
7
  6
CONTINUOUS
 10
4.6092593409
 20
4.6359597015
 11
4.5861653302
 21
4.6359597015
  0
LINE
  5
25F
100
AcDbEntity
  8
0
100
AcDbLine
 62
7
  6
CONTINUOUS
 10
4.1584623356
 20
4.6415333851
 11
4.4684623356
 21
4.6415333851
  0
LINE
  5
260
100
AcDbEntity
  8
0
100
AcDbLine
 62
7
  6
CONTINUOUS
 10
4.4702123356
 20
4.6509426301
 11
4.4852123356
 21
4.65094263
  0
LINE
  5
261
100
AcDbEntity
  8
ALL_FEATURES
100
AcDbLine
 62
7
  6
CONTINUOUS
 10
5.0877123356
 20
5.2410618543
 11
5.0877123356
 21
5.3435666532
  0
LINE
  5
262
100
AcDbEntity
  8
0
100
AcDbLine
 62
7
  6
CONTINUOUS
 10
4.6977123356
 20
4.6590333851
 11
4.6727123356
 21
4.6590333851
  0
LINE
  5
263
100
AcDbEntity
  8
0
100
AcDbLine
 62
7
  6
CONTINUOUS
 10
4.6977123356
 20
4.8440333851
 11
4.6727123356
 21
4.8440333851
  0
LINE
  5
264
100
AcDbEntity
  8
0
100
AcDbLine
 62
7
  6
CONTINUOUS
 10
4.4702123356
 20
4.8521241401
 11
4.4852123356
 21
4.8521241401
  0
LINE
  5
265
100
AcDbEntity
  8
0
100
AcDbLine
 62
7
  6
CONTINUOUS
 10
4.1584623356
 20
4.8615333851
 11
4.4684623356
 21
4.8615333851
  0
LINE
  5
266
100
AcDbEntity
  8
0
100
AcDbLine
 62
7
  6
CONTINUOUS
 10
4.2034623356
 20
4.8765333851
 11
4.4234623356
 21
4.8765333851
  0
LINE
  5
267
100
AcDbEntity
  8
0
100
AcDbLine
 62
7
  6
CONTINUOUS
 10
4.2034623354
 20
4.9065333851
 11
4.4234623357
 21
4.9065333851
  0
LINE
  5
268
100
AcDbEntity
  8
0
100
AcDbLine
 62
7
  6
CONTINUOUS
 10
4.5152123356
 20
4.9077833851
 11
4.6727123356
 21
4.9077833851
  0
LINE
  5
269
100
AcDbEntity
  8
0
100
AcDbLine
 62
7
  6
CONTINUOUS
 10
4.1417123356
 20
4.9082833851
 11
4.4852123356
 21
4.9082833851
  0
LINE
  5
26A
100
AcDbEntity
  8
0
100
AcDbLine
 62
7
  6
CONTINUOUS
 10
4.1567123356
 20
4.9232833851
 11
4.481230826
 21
4.9232833851
  0
LINE
  5
26B
100
AcDbEntity
  8
0
100
AcDbLine
 62
7
  6
CONTINUOUS
 10
4.4384623356
 20
4.9532833851
 11
4.1884623356
 21
4.9532833851
  0
LINE
  5
26C
100
AcDbEntity
  8
02___PRT_ALL_AXES
100
AcDbLine
 62
7
  6
CONTINUOUS
 10
5.5477123356
 20
5.2440333851
 11
5.5477123356
 21
4.2590333851
  0
LINE
  5
26D
100
AcDbEntity
  8
ALL_FEATURES
100
AcDbLine
 62
7
  6
CONTINUOUS
 10
5.5480469812
 20
5.2440333851
 11
5.5480469812
 21
4.2590333851
  0
LINE
  5
26E
100
AcDbEntity
  8
0
100
AcDbLine
 62
7
  6
CONTINUOUS
 10
5.5730469812
 20
3.3915333851
 11
5.5730469812
 21
6.1115333851
  0
LINE
  5
26F
100
AcDbEntity
  8
0
100
AcDbLine
 62
7
  6
CONTINUOUS
 10
5.5880469812
 20
3.3765333851
 11
5.5880469812
 21
6.1265333851
  0
LINE
  5
270
100
AcDbEntity
  8
0
100
AcDbLine
 62
7
  6
CONTINUOUS
 10
4.4384623356
 20
5.2365333851
 11
4.1884623356
 21
5.2365333851
  0
LINE
  5
271
100
AcDbEntity
  8
0
100
AcDbLine
 62
7
  6
CONTINUOUS
 10
5.5477123356
 20
5.2440333851
 11
5.1102123356
 21
5.2440333851
  0
LINE
  5
272
100
AcDbEntity
  8
0
100
AcDbLine
 62
7
  6
CONTINUOUS
 10
4.9352123356
 20
5.2440333851
 11
4.7127123356
 21
5.2440333851
  0
LINE
  5
273
100
AcDbEntity
  8
ALL_FEATURES
100
AcDbLine
 62
7
  6
CONTINUOUS
 10
5.5480469812
 20
5.2440333851
 11
5.5730469812
 21
5.2440333851
  0
LINE
  5
274
100
AcDbEntity
  8
0
100
AcDbLine
 62
7
  6
CONTINUOUS
 10
4.4234623356
 20
5.2515333851
 11
4.2034623356
 21
5.2515333851
  0
LINE
  5
275
100
AcDbEntity
  8
0
100
AcDbLine
 62
7
  6
CONTINUOUS
 10
5.7605469812
 20
3.3765333851
 11
5.7605469812
 21
6.1265333851
  0
LINE
  5
276
100
AcDbEntity
  8
ALL_FEATURES
100
AcDbLine
 62
7
  6
CONTINUOUS
 10
4.9577123356
 20
5.3435666532
 11
5.0877123356
 21
5.3435666532
  0
LINE
  5
277
100
AcDbEntity
  8
ALL_FEATURES
100
AcDbLine
 62
7
  6
CONTINUOUS
 10
5.0672577901
 20
5.3720075445
 11
4.978166881
 21
5.3720075445
  0
LINE
  5
278
100
AcDbEntity
  8
0
100
AcDbLine
 62
7
  6
CONTINUOUS
 10
5.5730469812
 20
6.1115333851
 11
5.7605469812
 21
6.1115333851
  0
LINE
  5
279
100
AcDbEntity
  8
0
100
AcDbLine
 62
7
  6
CONTINUOUS
 10
5.5880469812
 20
6.1265333851
 11
5.7605469812
 21
6.1265333851
  0
ARC
  5
27A
100
AcDbEntity
  8
0
100
AcDbCircle
 62
7
  6
CONTINUOUS
 10
4.5954241257
 20
4.7245266421
 40
0.1243746223
100
AcDbArc
 50
263.7386550924
 51
265.6191167187
  0
ARC
  5
27B
100
AcDbEntity
  8
0
100
AcDbCircle
 62
7
  6
CONTINUOUS
 10
4.6019985167
 20
4.6793480462
 40
0.070254419
100
AcDbArc
 50
266.5022475616
 51
273.430668966
  0
ARC
  5
27C
100
AcDbEntity
  8
0
100
AcDbCircle
 62
7
  6
CONTINUOUS
 10
4.6044413275
 20
4.5876940626
 40
0.053004818
100
AcDbArc
 50
59.4318002102
 51
61.2496640807
  0
ARC
  5
27D
100
AcDbEntity
  8
0
100
AcDbCircle
 62
7
  6
CONTINUOUS
 10
4.5904914272
 20
4.588582794
 40
0.0519890965
100
AcDbArc
 50
118.481080664
 51
122.671469176
  0
ARC
  5
27E
100
AcDbEntity
  8
0
100
AcDbCircle
 62
7
  6
CONTINUOUS
 10
4.5877890798
 20
4.5928828449
 40
0.0469106396
100
AcDbArc
 50
122.7282359937
 51
125.0132269176
  0
ARC
  5
27F
100
AcDbEntity
  8
0
100
AcDbCircle
 62
7
  6
CONTINUOUS
 10
4.2034623356
 20
4.6415333851
 40
0.045
100
AcDbArc
 50
180.0000001837
 51
269.9999997946
  0
ARC
  5
280
100
AcDbEntity
  8
0
100
AcDbCircle
 62
7
  6
CONTINUOUS
 10
4.4234623356
 20
4.6415333851
 40
0.045
100
AcDbArc
 50
270.0000001837
 51
359.9999997946
  0
ARC
  5
281
100
AcDbEntity
  8
0
100
AcDbCircle
 62
7
  6
CONTINUOUS
 10
4.5865179468
 20
4.5947269167
 40
0.0446709795
100
AcDbArc
 50
125.0350083682
 51
125.2625131171
  0
ARC
  5
282
100
AcDbEntity
  8
0
100
AcDbCircle
 62
7
  6
CONTINUOUS
 10
4.5901264658
 20
4.6438358028
 40
0.0324264989
100
AcDbArc
 50
236.528541716
 51
239.6796812298
  0
ARC
  5
283
100
AcDbEntity
  8
0
100
AcDbCircle
 62
7
  6
CONTINUOUS
 10
4.5879475986
 20
4.6444476531
 40
0.0319298652
100
AcDbArc
 50
240.4553802692
 51
243.612052754
  0
ARC
  5
284
100
AcDbEntity
  8
0
100
AcDbCircle
 62
7
  6
CONTINUOUS
 10
4.5889625824
 20
4.6420698803
 40
0.0303115293
100
AcDbArc
 50
235.1666673862
 51
236.5227226954
  0
ARC
  5
285
100
AcDbEntity
  8
0
100
AcDbCircle
 62
7
  6
CONTINUOUS
 10
4.5152123356
 20
4.5652833851
 40
0.03
100
AcDbArc
 50
90.0
 51
139.0382114477
  0
ARC
  5
286
100
AcDbEntity
  8
0
100
AcDbCircle
 62
7
  6
CONTINUOUS
 10
4.1584623356
 20
4.5497833851
 40
0.03
100
AcDbArc
 50
0.0
 51
90.0
  0
ARC
  5
287
100
AcDbEntity
  8
0
100
AcDbCircle
 62
7
  6
CONTINUOUS
 10
4.4684623356
 20
4.5497833851
 40
0.03
100
AcDbArc
 50
90.0
 51
180.0
  0
ARC
  5
288
100
AcDbEntity
  8
0
100
AcDbCircle
 62
7
  6
CONTINUOUS
 10
4.5867237392
 20
4.6422432592
 40
0.0294086262
100
AcDbArc
 50
239.3730262003
 51
240.4120002774
  0
ARC
  5
289
100
AcDbEntity
  8
0
100
AcDbCircle
 62
7
  6
CONTINUOUS
 10
4.578801509
 20
4.6113585364
 40
0.0266259966
100
AcDbArc
 50
129.9827346059
 51
132.4126666047
  0
ARC
  5
28A
100
AcDbEntity
  8
0
100
AcDbCircle
 62
7
  6
CONTINUOUS
 10
4.584610081
 20
4.6364993426
 40
0.0232376251
100
AcDbArc
 50
226.0396211169
 51
230.2779132844
  0
ARC
  5
28B
100
AcDbEntity
  8
0
100
AcDbCircle
 62
7
  6
CONTINUOUS
 10
4.5832684284
 20
4.6350988703
 40
0.0212982156
100
AcDbArc
 50
224.6030788788
 51
226.0223916878
  0
ARC
  5
28C
100
AcDbEntity
  8
ALL_FEATURES
100
AcDbCircle
 62
7
  6
CONTINUOUS
 10
4.6125926385
 20
4.632029203
 40
0.0182804408
100
AcDbArc
 50
309.6322339614
 51
310.8927448442
  0
ARC
  5
28D
100
AcDbEntity
  8
0
100
AcDbCircle
 62
7
  6
CONTINUOUS
 10
4.6197970266
 20
4.6206720077
 40
0.0171722464
100
AcDbArc
 50
43.5173917263
 51
47.4702295502
  0
ARC
  5
28E
100
AcDbEntity
  8
0
100
AcDbCircle
 62
7
  6
CONTINUOUS
 10
4.4812307229
 20
4.5947833851
 40
0.015
100
AcDbArc
 50
270.0
 51
319.0382114207
  0
ARC
  5
28F
100
AcDbEntity
  8
0
100
AcDbCircle
 62
7
  6
CONTINUOUS
 10
4.4702123356
 20
4.5947833851
 40
0.015
100
AcDbArc
 50
270.0
 51
360.0
  0
ARC
  5
290
100
AcDbEntity
  8
0
100
AcDbCircle
 62
7
  6
CONTINUOUS
 10
4.1567123356
 20
4.5947833851
 40
0.015
100
AcDbArc
 50
180.0
 51
270.0
  0
ARC
  5
291
100
AcDbEntity
  8
0
100
AcDbCircle
 62
7
  6
CONTINUOUS
 10
4.4234623356
 20
4.6415333851
 40
0.015
100
AcDbArc
 50
270.0
 51
360.0
  0
ARC
  5
292
100
AcDbEntity
  8
0
100
AcDbCircle
 62
7
  6
CONTINUOUS
 10
4.2034623356
 20
4.6415333851
 40
0.015
100
AcDbArc
 50
180.0
 51
270.0
  0
ARC
  5
293
100
AcDbEntity
  8
0
100
AcDbCircle
 62
7
  6
CONTINUOUS
 10
4.4234623356
 20
4.2665333851
 40
0.015
100
AcDbArc
 50
270.0
 51
360.0
  0
ARC
  5
294
100
AcDbEntity
  8
0
100
AcDbCircle
 62
7
  6
CONTINUOUS
 10
4.2034623356
 20
4.2665333851
 40
0.015
100
AcDbArc
 50
180.0
 51
270.0
  0
ARC
  5
295
100
AcDbEntity
  8
0
100
AcDbCircle
 62
7
  6
CONTINUOUS
 10
4.7127123356
 20
4.2740333851
 40
0.015
100
AcDbArc
 50
180.0
 51
270.0
  0
ARC
  5
296
100
AcDbEntity
  8
0
100
AcDbCircle
 62
7
  6
CONTINUOUS
 10
4.5780406565
 20
4.6241010982
 40
0.0148167322
100
AcDbArc
 50
165.2468449282
 51
171.9490523823
  0
ARC
  5
297
100
AcDbEntity
  8
0
100
AcDbCircle
 62
7
  6
CONTINUOUS
 10
4.5777045359
 20
4.6241550683
 40
0.0144763671
100
AcDbArc
 50
171.974237489
 51
176.2185699085
  0
ARC
  5
298
100
AcDbEntity
  8
ALL_FEATURES
100
AcDbCircle
 62
7
  6
CONTINUOUS
 10
4.6171379838
 20
4.6247112762
 40
0.0138179001
100
AcDbArc
 50
37.6764921796
 51
40.9725822048
  0
ARC
  5
299
100
AcDbEntity
  8
0
100
AcDbCircle
 62
7
  6
CONTINUOUS
 10
4.5689988945
 20
4.6238203303
 40
0.0137522346
100
AcDbArc
 50
188.5941893139
 51
197.1548749185
  0
ARC
  5
29A
100
AcDbEntity
  8
0
100
AcDbCircle
 62
7
  6
CONTINUOUS
 10
4.5744441128
 20
4.6279114103
 40
0.0107317766
100
AcDbArc
 50
176.4225611028
 51
179.9938284006
  0
ARC
  5
29B
100
AcDbEntity
  8
0
100
AcDbCircle
 62
7
  6
CONTINUOUS
 10
4.5933390826
 20
4.8264650063
 40
0.2260712527
100
AcDbArc
 50
268.1202740118
 51
268.9001590888
  0
ARC
  5
29C
100
AcDbEntity
  8
0
100
AcDbCircle
 62
7
  6
CONTINUOUS
 10
4.4234623356
 20
4.8615333851
 40
0.045
100
AcDbArc
 50
0.0000001837
 51
89.9999997946
  0
ARC
  5
29D
100
AcDbEntity
  8
0
100
AcDbCircle
 62
7
  6
CONTINUOUS
 10
4.2034623356
 20
4.8615333851
 40
0.045
100
AcDbArc
 50
90.0000001837
 51
179.9999997946
  0
ARC
  5
29E
100
AcDbEntity
  8
0
100
AcDbCircle
 62
7
  6
CONTINUOUS
 10
4.4684623356
 20
4.9532833851
 40
0.03
100
AcDbArc
 50
180.0
 51
270.0
  0
ARC
  5
29F
100
AcDbEntity
  8
0
100
AcDbCircle
 62
7
  6
CONTINUOUS
 10
4.1584623356
 20
4.9532833851
 40
0.03
100
AcDbArc
 50
270.0
 51
360.0
  0
ARC
  5
2A0
100
AcDbEntity
  8
0
100
AcDbCircle
 62
7
  6
CONTINUOUS
 10
4.5152123356
 20
4.9377833851
 40
0.03
100
AcDbArc
 50
220.9617577383
 51
270.0
  0
ARC
  5
2A1
100
AcDbEntity
  8
0
100
AcDbCircle
 62
7
  6
CONTINUOUS
 10
4.1567123356
 20
4.9082833851
 40
0.015
100
AcDbArc
 50
90.0
 51
180.0
  0
ARC
  5
2A2
100
AcDbEntity
  8
0
100
AcDbCircle
 62
7
  6
CONTINUOUS
 10
4.4702123356
 20
4.9082833851
 40
0.015
100
AcDbArc
 50
0.0
 51
90.0
  0
ARC
  5
2A3
100
AcDbEntity
  8
0
100
AcDbCircle
 62
7
  6
CONTINUOUS
 10
4.4812306991
 20
4.9082833851
 40
0.015
100
AcDbArc
 50
40.9617903555
 51
89.9999999927
  0
ARC
  5
2A4
100
AcDbEntity
  8
0
100
AcDbCircle
 62
7
  6
CONTINUOUS
 10
4.4234623356
 20
4.8615333851
 40
0.015
100
AcDbArc
 50
0.0
 51
90.0
  0
ARC
  5
2A5
100
AcDbEntity
  8
0
100
AcDbCircle
 62
7
  6
CONTINUOUS
 10
4.2034623356
 20
4.8615333851
 40
0.015
100
AcDbArc
 50
90.0
 51
180.0
  0
ARC
  5
2A6
100
AcDbEntity
  8
0
100
AcDbCircle
 62
7
  6
CONTINUOUS
 10
4.4234623356
 20
5.2365333851
 40
0.015
100
AcDbArc
 50
0.0
 51
90.0
  0
ARC
  5
2A7
100
AcDbEntity
  8
0
100
AcDbCircle
 62
7
  6
CONTINUOUS
 10
4.2034623356
 20
5.2365333851
 40
0.015
100
AcDbArc
 50
90.0
 51
180.0
  0
ARC
  5
2A8
100
AcDbEntity
  8
0
100
AcDbCircle
 62
7
  6
CONTINUOUS
 10
4.7127123356
 20
5.2290333851
 40
0.015
100
AcDbArc
 50
90.0
 51
180.0
  0
ARC
  5
2A9
100
AcDbEntity
  8
0
100
AcDbCircle
 62
7
  6
CONTINUOUS
 10
5.5880469812
 20
3.3915333851
 40
0.015
100
AcDbArc
 50
180.0
 51
270.0
  0
ARC
  5
2AA
100
AcDbEntity
  8
ALL_FEATURES
100
AcDbCircle
 62
7
  6
CONTINUOUS
 10
5.0227123356
 20
5.2392833851
 40
0.14
100
AcDbArc
 50
71.446995465
 51
108.553004535
  0
ARC
  5
2AB
100
AcDbEntity
  8
ALL_FEATURES
100
AcDbCircle
 62
7
  6
CONTINUOUS
 10
4.9877123356
 20
5.3435666532
 40
0.03
100
AcDbArc
 50
108.553004535
 51
180.0
  0
ARC
  5
2AC
100
AcDbEntity
  8
ALL_FEATURES
100
AcDbCircle
 62
7
  6
CONTINUOUS
 10
5.0577123356
 20
5.3435666532
 40
0.03
100
AcDbArc
 50
0.0
 51
71.446995465
  0
ARC
  5
2AD
100
AcDbEntity
  8
0
100
AcDbCircle
 62
7
  6
CONTINUOUS
 10
5.5880469812
 20
6.1115333851
 40
0.015
100
AcDbArc
 50
90.0
 51
180.0
  0
SPLINE
  5
2AE
100
AcDbEntity
  8
ALL_FEATURES
100
AcDbSpline
 62
7
  6
CONTINUOUS
 70
0
 71
3
 72
33
 73
29
 74
0
 42
0.0000001
 43
0.0000001
 44
0.0000000001
 40
0.0
 40
0.0
 40
0.0
 40
0.0
 40
0.0248724383
 40
0.0507048984
 40
0.0774802624
 40
0.1051737689
 40
0.133749754
 40
0.163166197
 40
0.1933754369
 40
0.2243218703
 40
0.2881764587
 40
0.3542117934
 40
0.3878711876
 40
0.4218541538
 40
0.4904702893
 40
0.5594263898
 40
0.5938328429
 40
0.6280814059
 40
0.6620921574
 40
0.6957870079
 40
0.7619155041
 40
0.8258909262
 40
0.856907103
 40
0.8871918254
 40
0.9166889526
 40
0.9453500147
 40
0.9731325558
 40
1.0
 40
1.0
 40
1.0
 40
1.0
 10
4.623023727
 20
4.6170107733
 30
0.0
 10
4.6226828697
 20
4.6167697422
 30
0.0
 10
4.6219738349
 20
4.6162981562
 30
0.0
 10
4.6208547969
 20
4.6156346438
 30
0.0
 10
4.6196633703
 20
4.6150034408
 30
0.0
 10
4.6184032348
 20
4.6144066968
 30
0.0
 10
4.6170783807
 20
4.6138460904
 30
0.0
 10
4.615692927
 20
4.6133234014
 30
0.0
 10
4.6142511487
 20
4.6128403649
 30
0.0
 10
4.6122388398
 20
4.6122448063
 30
0.0
 10
4.6096122937
 20
4.6116123228
 30
0.0
 10
4.6069067717
 20
4.6111377372
 30
0.0
 10
4.6046815624
 20
4.6108481958
 30
0.0
 10
4.6024057677
 20
4.6106190898
 30
0.0
 10
4.5995294197
 20
4.6104540665
 30
0.0
 10
4.5966412685
 20
4.6104500455
 30
0.0
 10
4.5943332059
 20
4.6105439372
 30
0.0
 10
4.5926138739
 20
4.6106625451
 30
0.0
 10
4.5909105184
 20
4.6108291391
 30
0.0
 10
4.5886818857
 20
4.6111125515
 30
0.0
 10
4.5859708265
 20
4.6115797238
 30
0.0
 10
4.5833376451
 20
4.6122048765
 30
0.0
 10
4.5813190243
 20
4.6127947907
 30
0.0
 10
4.5798719213
 20
4.6132738319
 30
0.0
 10
4.5784807021
 20
4.6137926664
 30
0.0
 10
4.5771496631
 20
4.6143496092
 30
0.0
 10
4.5758829654
 20
4.6149428386
 30
0.0
 10
4.5750701209
 20
4.6153687192
 30
0.0
 10
4.574675871
 20
4.6155876386
 30
0.0
  0
LINE
  5
2AF
100
AcDbEntity
  8
ALL_FEATURES
100
AcDbLine
 62
7
  6
CONTINUOUS
 10
4.574675871
 20
4.6155876386
 11
4.5724009441
 21
4.6170107733
  0
SPLINE
  5
2B0
100
AcDbEntity
  8
ALL_FEATURES
100
AcDbSpline
 62
7
  6
CONTINUOUS
 70
0
 71
3
 72
18
 73
14
 74
0
 42
0.0000001
 43
0.0000001
 44
0.0000000001
 40
0.0
 40
0.0
 40
0.0
 40
0.0
 40
0.1488883156
 40
0.2895444484
 40
0.422332917
 40
0.5478519442
 40
0.6669964781
 40
0.7245771054
 40
0.7810485743
 40
0.8366124093
 40
0.8914817758
 40
0.9458710672
 40
1.0
 40
1.0
 40
1.0
 40
1.0
 10
4.6242852029
 20
4.6179027834
 30
0.0
 10
4.6247539087
 20
4.6182341871
 30
0.0
 10
4.6256418666
 20
4.6189130903
 30
0.0
 10
4.6268475619
 20
4.6200106298
 30
0.0
 10
4.6278821643
 20
4.6211525431
 30
0.0
 10
4.628739121
 20
4.6223324673
 30
0.0
 10
4.6293070822
 20
4.6233539664
 30
0.0
 10
4.6296627483
 20
4.6241803706
 30
0.0
 10
4.6298792105
 20
4.6247980474
 30
0.0
 10
4.6300479581
 20
4.6254196101
 30
0.0
 10
4.6301686482
 20
4.6260441263
 30
0.0
 10
4.6302411699
 20
4.6266704548
 30
0.0
 10
4.6302573355
 20
4.6270890189
 30
0.0
 10
4.6302573355
 20
4.6272977108
 30
0.0
  0
LINE
  5
2B1
100
AcDbEntity
  8
ALL_FEATURES
100
AcDbLine
 62
7
  6
CONTINUOUS
 10
4.625889345
 20
4.6361533847
 11
4.6275889967
 21
4.6347138737
  0
LINE
  5
2B2
100
AcDbEntity
  8
ALL_FEATURES
100
AcDbLine
 62
7
  6
CONTINUOUS
 10
4.6275889967
 20
4.6347138737
 11
4.6287221248
 21
4.6334138034
  0
SPLINE
  5
2B3
100
AcDbEntity
  8
ALL_FEATURES
100
AcDbSpline
 62
7
  6
CONTINUOUS
 70
0
 71
3
 72
14
 73
10
 74
0
 42
0.0000001
 43
0.0000001
 44
0.0000000001
 40
0.0
 40
0.0
 40
0.0
 40
0.0
 40
0.2681604332
 40
0.3963639515
 40
0.5212619128
 40
0.6434250073
 40
0.7634791309
 40
0.8821015873
 40
1.0
 40
1.0
 40
1.0
 40
1.0
 10
4.6287221248
 20
4.6334138034
 30
0.0
 10
4.6289677151
 20
4.6330818688
 30
0.0
 10
4.6293007811
 20
4.6325673453
 30
0.0
 10
4.6296594574
 20
4.6318486523
 30
0.0
 10
4.6298770595
 20
4.6313126761
 30
0.0
 10
4.6300467499
 20
4.6307727984
 30
0.0
 10
4.6301681356
 20
4.6302298912
 30
0.0
 10
4.6302410482
 20
4.6296850276
 30
0.0
 10
4.6302572999
 20
4.6293206315
 30
0.0
 10
4.6302573104
 20
4.6291390928
 30
0.0
  0
SPLINE
  5
2B4
100
AcDbEntity
  8
ALL_FEATURES
100
AcDbSpline
 62
7
  6
CONTINUOUS
 70
0
 71
3
 72
18
 73
14
 74
0
 42
0.0000001
 43
0.0000001
 44
0.0000000001
 40
0.0
 40
0.0
 40
0.0
 40
0.0
 40
0.1488738005
 40
0.2895407806
 40
0.4223304363
 40
0.5478474532
 40
0.6669846483
 40
0.7245707198
 40
0.78105337
 40
0.8366303826
 40
0.8915049971
 40
0.9458884803
 40
1.0
 40
1.0
 40
1.0
 40
1.0
 10
4.5724009441
 20
4.6170107733
 30
0.0
 10
4.5719545484
 20
4.6173264339
 30
0.0
 10
4.5711087826
 20
4.6179731234
 30
0.0
 10
4.5699602578
 20
4.619018476
 30
0.0
 10
4.5689748565
 20
4.6201062968
 30
0.0
 10
4.5681584628
 20
4.6212300789
 30
0.0
 10
4.5676175345
 20
4.6222031076
 30
0.0
 10
4.5672786966
 20
4.6229902888
 30
0.0
 10
4.5670724825
 20
4.623578751
 30
0.0
 10
4.5669118289
 20
4.62417094
 30
0.0
 10
4.5667968629
 20
4.6247658508
 30
0.0
 10
4.5667277526
 20
4.6253623739
 30
0.0
 10
4.5667123356
 20
4.6257609813
 30
0.0
 10
4.5667123356
 20
4.6259597015
 30
0.0
  0
SPLINE
  5
2B5
100
AcDbEntity
  8
ALL_FEATURES
100
AcDbSpline
 62
7
  6
CONTINUOUS
 70
0
 71
3
 72
15
 73
11
 74
0
 42
0.0000001
 43
0.0000001
 44
0.0000000001
 40
0.0
 40
0.0
 40
0.0
 40
0.0
 40
0.1119864835
 40
0.2254705068
 40
0.3417146691
 40
0.4619047979
 40
0.5870880069
 40
0.7181134907
 40
0.8556014139
 40
1.0
 40
1.0
 40
1.0
 40
1.0
 10
4.6287123356
 20
4.6259597015
 30
0.0
 10
4.6287123356
 20
4.625621233
 30
0.0
 10
4.6286672574
 20
4.6249389595
 30
0.0
 10
4.6284660592
 20
4.6239232318
 30
0.0
 10
4.6281319198
 20
4.6229170131
 30
0.0
 10
4.62766686
 20
4.6219253572
 30
0.0
 10
4.6270735283
 20
4.6209522845
 30
0.0
 10
4.6263546342
 20
4.620001817
 30
0.0
 10
4.6255137943
 20
4.6190775925
 30
0.0
 10
4.624889742
 20
4.6184960736
 30
0.0
 10
4.6245598394
 20
4.6182103529
 30
0.0
  0
LINE
  5
2B6
100
AcDbEntity
  8
ALL_FEATURES
100
AcDbLine
 62
7
  6
CONTINUOUS
 10
4.6242529524
 20
4.617950439
 11
4.623023727
 21
4.6170107733
  0
SPLINE
  5
2B7
100
AcDbEntity
  8
ALL_FEATURES
100
AcDbSpline
 62
7
  6
CONTINUOUS
 70
0
 71
3
 72
57
 73
53
 74
0
 42
0.0000001
 43
0.0000001
 44
0.0000000001
 40
0.0
 40
0.0
 40
0.0
 40
0.0
 40
0.0101374816
 40
0.0203545342
 40
0.030717035
 40
0.0412877362
 40
0.0521267712
 40
0.063288665
 40
0.0748210662
 40
0.0867626748
 40
0.1119752046
 40
0.1253000067
 40
0.1391156056
 40
0.1534276382
 40
0.1682369058
 40
0.1835383135
 40
0.1993234256
 40
0.223879815
 40
0.2494418539
 40
0.275941433
 40
0.3032964249
 40
0.3314157675
 40
0.3601988439
 40
0.3895383782
 40
0.4193212881
 40
0.4494298299
 40
0.4797435251
 40
0.5101394032
 40
0.5404941922
 40
0.6005786629
 40
0.6300789135
 40
0.6590595863
 40
0.6874118541
 40
0.7150321017
 40
0.7418265545
 40
0.767709283
 40
0.7926078335
 40
0.8164615261
 40
0.839227236
 40
0.8608793218
 40
0.8814150653
 40
0.9008572423
 40
0.9192578963
 40
0.9280964925
 40
0.9367096793
 40
0.9533223621
 40
0.9613714473
 40
0.9692777895
 40
0.9770670478
 40
0.9847654767
 40
0.9924003759
 40
1.0
 40
1.0
 40
1.0
 40
1.0
 10
4.5667123356
 20
4.6259597015
 30
0.0
 10
4.5667123356
 20
4.6262133856
 30
0.0
 10
4.566737525
 20
4.626723092
 30
0.0
 10
4.5668502864
 20
4.627484599
 30
0.0
 10
4.567037717
 20
4.628242449
 30
0.0
 10
4.5672995132
 20
4.6289943389
 30
0.0
 10
4.5676347761
 20
4.6297383806
 30
0.0
 10
4.5680424866
 20
4.6304728679
 30
0.0
 10
4.5685217274
 20
4.6311960934
 30
0.0
 10
4.5692677407
 20
4.6321604411
 30
0.0
 10
4.5701427842
 20
4.6330771257
 30
0.0
 10
4.5711262574
 20
4.6339432544
 30
0.0
 10
4.5719414053
 20
4.6345856706
 30
0.0
 10
4.5728183872
 20
4.6352071832
 30
0.0
 10
4.5737552256
 20
4.6358063292
 30
0.0
 10
4.5747495779
 20
4.6363817973
 30
0.0
 10
4.575983039
 20
4.6370286534
 30
0.0
 10
4.5774804773
 20
4.6377219195
 30
0.0
 10
4.5792620056
 20
4.6384328845
 30
0.0
 10
4.5811431161
 20
4.639076378
 30
0.0
 10
4.5831135846
 20
4.6396492163
 30
0.0
 10
4.5851628757
 20
4.6401480791
 30
0.0
 10
4.5872799029
 20
4.6405704659
 30
0.0
 10
4.5894532782
 20
4.6409139553
 30
0.0
 10
4.5916712541
 20
4.6411767736
 30
0.0
 10
4.5939218699
 20
4.6413574694
 30
0.0
 10
4.596192947
 20
4.6414550365
 30
0.0
 10
4.5984722862
 20
4.6414690295
 30
0.0
 10
4.6014951709
 20
4.6413762866
 30
0.0
 10
4.6044889285
 20
4.6411186937
 30
0.0
 10
4.6074259754
 20
4.6406938603
 30
0.0
 10
4.6095630947
 20
4.6402974731
 30
0.0
 10
4.6116362109
 20
4.6398238807
 30
0.0
 10
4.6136341488
 20
4.6392753256
 30
0.0
 10
4.6155461978
 20
4.6386550611
 30
0.0
 10
4.6173620155
 20
4.6379661441
 30
0.0
 10
4.6190719214
 20
4.6372125039
 30
0.0
 10
4.6206666881
 20
4.6363979482
 30
0.0
 10
4.6221378417
 20
4.6355269317
 30
0.0
 10
4.6234774857
 20
4.6346039317
 30
0.0
 10
4.624678477
 20
4.6336337069
 30
0.0
 10
4.6257343002
 20
4.632621313
 30
0.0
 10
4.6264984172
 20
4.6317348469
 30
0.0
 10
4.6270279919
 20
4.6310100911
 30
0.0
 10
4.6274918494
 20
4.6302945294
 30
0.0
 10
4.6278833656
 20
4.6295567681
 30
0.0
 10
4.6281936076
 20
4.6288026059
 30
0.0
 10
4.6283825076
 20
4.6282387282
 30
0.0
 10
4.6285296471
 20
4.6276716093
 30
0.0
 10
4.6286349352
 20
4.627102128
 30
0.0
 10
4.6286982207
 20
4.626531259
 30
0.0
 10
4.6287123356
 20
4.6261498773
 30
0.0
 10
4.6287123356
 20
4.6259597015
 30
0.0
  0
SPLINE
  5
2B8
100
AcDbEntity
  8
ALL_FEATURES
100
AcDbSpline
 62
7
  6
CONTINUOUS
 70
0
 71
3
 72
14
 73
10
 74
0
 42
0.0000001
 43
0.0000001
 44
0.0000000001
 40
0.0
 40
0.0
 40
0.0
 40
0.0
 40
0.1177390769
 40
0.236271754
 40
0.3562770779
 40
0.478419735
 40
0.6033396957
 40
0.7316183623
 40
1.0
 40
1.0
 40
1.0
 40
1.0
 10
4.6302573355
 20
4.6272977108
 30
0.0
 10
4.6302573355
 20
4.6275475533
 30
0.0
 10
4.6302341208
 20
4.6280492236
 30
0.0
 10
4.6301300837
 20
4.6287990495
 30
0.0
 10
4.6299569791
 20
4.6295456327
 30
0.0
 10
4.6297151894
 20
4.6302870585
 30
0.0
 10
4.6294054145
 20
4.6310218381
 30
0.0
 10
4.6288951815
 20
4.6320049812
 30
0.0
 10
4.6284224817
 20
4.6327059829
 30
0.0
 10
4.6280744975
 20
4.6331568093
 30
0.0
  0
SPLINE
  5
2B9
100
AcDbEntity
  8
ALL_FEATURES
100
AcDbSpline
 62
7
  6
CONTINUOUS
 70
0
 71
3
 72
11
 73
7
 74
0
 42
0.0000001
 43
0.0000001
 44
0.0000000001
 40
0.0
 40
0.0
 40
0.0
 40
0.0
 40
0.233622254
 40
0.4779629584
 40
0.7333707807
 40
1.0
 40
1.0
 40
1.0
 40
1.0
 10
4.6275708222
 20
4.6337716429
 30
0.0
 10
4.6273067269
 20
4.6340761444
 30
0.0
 10
4.626740432
 20
4.6346769514
 30
0.0
 10
4.6258060055
 20
4.6355315551
 30
0.0
 10
4.6247714664
 20
4.6363564563
 30
0.0
 10
4.6240332805
 20
4.6368735811
 30
0.0
 10
4.6236492884
 20
4.6371268963
 30
0.0
  0
SPLINE
  5
2BA
100
AcDbEntity
  8
0
100
AcDbSpline
 62
7
  6
CONTINUOUS
 70
0
 71
3
 72
23
 73
19
 74
0
 42
0.0000001
 43
0.0000001
 44
0.0000000001
 40
0.0
 40
0.0
 40
0.0
 40
0.0
 40
0.0911446028
 40
0.1796169594
 40
0.2645999943
 40
0.3453735398
 40
0.4213502733
 40
0.4920603688
 40
0.5572622873
 40
0.6169019634
 40
0.6712567393
 40
0.7209478305
 40
0.7670267822
 40
0.8109811789
 40
0.8545834897
 40
0.8996470772
 40
0.9477353676
 40
1.0
 40
1.0
 40
1.0
 40
1.0
 10
4.6062025901
 20
4.6092195274
 30
0.0
 10
4.6075373282
 20
4.6093001597
 30
0.0
 10
4.6101637266
 20
4.609536611
 30
0.0
 10
4.6140038865
 20
4.6101207912
 30
0.0
 10
4.6176500056
 20
4.610919679
 30
0.0
 10
4.6210554782
 20
4.611920847
 30
0.0
 10
4.6241787259
 20
4.6131066511
 30
0.0
 10
4.626981226
 20
4.6144621075
 30
0.0
 10
4.6294311315
 20
4.6159657035
 30
0.0
 10
4.631499406
 20
4.6176002661
 30
0.0
 10
4.6331629711
 20
4.6193450657
 30
0.0
 10
4.6344014012
 20
4.6211813625
 30
0.0
 10
4.635193126
 20
4.6230890248
 30
0.0
 10
4.6355231917
 20
4.6250400572
 30
0.0
 10
4.6353787521
 20
4.6269988962
 30
0.0
 10
4.6347715036
 20
4.6289282471
 30
0.0
 10
4.6337185102
 20
4.6307983269
 30
0.0
 10
4.6327775181
 20
4.6319401549
 30
0.0
 10
4.6322497454
 20
4.6324963826
 30
0.0
  0
LINE
  5
2BB
100
AcDbEntity
  8
0
100
AcDbLine
 62
7
  6
CONTINUOUS
 10
4.5552578562
 20
4.6205860139
 11
4.5556227795
 21
4.623365236
  0
LINE
  5
2BC
100
AcDbEntity
  8
0
100
AcDbLine
 62
7
  6
CONTINUOUS
 10
4.5637332485
 20
4.6285810466
 11
4.5642183869
 21
4.6312040118
  0
SPLINE
  5
2BD
100
AcDbEntity
  8
0
100
AcDbSpline
 62
7
  6
CONTINUOUS
 70
0
 71
3
 72
9
 73
5
 74
0
 42
0.0000001
 43
0.0000001
 44
0.0000000001
 40
0.0
 40
0.0
 40
0.0
 40
0.0
 40
0.4903171332
 40
1.0
 40
1.0
 40
1.0
 40
1.0
 10
4.5642183869
 20
4.6312040118
 30
0.0
 10
4.5643797154
 20
4.6317267823
 30
0.0
 10
4.5647824316
 20
4.6327713482
 30
0.0
 10
4.5653144059
 20
4.6337556161
 30
0.0
 10
4.5656126089
 20
4.6342398697
 30
0.0
  0
LINE
  5
2BE
100
AcDbEntity
  8
0
100
AcDbLine
 62
7
  6
CONTINUOUS
 10
4.5697597429
 20
4.6186260474
 11
4.571648904
 21
4.6171896603
  0
SPLINE
  5
2BF
100
AcDbEntity
  8
0
100
AcDbSpline
 62
7
  6
CONTINUOUS
 70
0
 71
3
 72
10
 73
6
 74
0
 42
0.0000001
 43
0.0000001
 44
0.0000000001
 40
0.0
 40
0.0
 40
0.0
 40
0.0
 40
0.5149657327
 40
0.7634533183
 40
1.0
 40
1.0
 40
1.0
 40
1.0
 10
4.5977123356
 20
4.6420518144
 30
0.0
 10
4.5920094133
 20
4.6420518144
 30
0.0
 10
4.5835048423
 20
4.641044199
 30
0.0
 10
4.572910846
 20
4.637758173
 30
0.0
 10
4.5680016129
 20
4.635529866
 30
0.0
 10
4.5656994624
 20
4.6342798906
 30
0.0
  0
SPLINE
  5
2C0
100
AcDbEntity
  8
0
100
AcDbSpline
 62
7
  6
CONTINUOUS
 70
0
 71
3
 72
11
 73
7
 74
0
 42
0.0000001
 43
0.0000001
 44
0.0000000001
 40
0.0
 40
0.0
 40
0.0
 40
0.0
 40
0.2297052444
 40
0.4714372693
 40
0.7276134909
 40
1.0
 40
1.0
 40
1.0
 40
1.0
 10
4.5556227795
 20
4.623365236
 30
0.0
 10
4.5558407739
 20
4.624048073
 30
0.0
 10
4.556403057
 20
4.6254148013
 30
0.0
 10
4.5575642428
 20
4.6273737164
 30
0.0
 10
4.5590516153
 20
4.629269576
 30
0.0
 10
4.5602157265
 20
4.6304433097
 30
0.0
 10
4.5608431896
 20
4.6310166761
 30
0.0
  0
SPLINE
  5
2C1
100
AcDbEntity
  8
0
100
AcDbSpline
 62
7
  6
CONTINUOUS
 70
0
 71
3
 72
12
 73
8
 74
0
 42
0.0000001
 43
0.0000001
 44
0.0000000001
 40
0.0
 40
0.0
 40
0.0
 40
0.0
 40
0.1095528989
 40
0.2250456082
 40
0.4707719363
 40
0.7313055445
 40
1.0
 40
1.0
 40
1.0
 40
1.0
 10
4.5737564739
 20
4.6158447114
 30
0.0
 10
4.5745401099
 20
4.615371367
 30
0.0
 10
4.5761929775
 20
4.614469157
 30
0.0
 10
4.5797793018
 20
4.6128452808
 30
0.0
 10
4.5847215067
 20
4.611193443
 30
0.0
 10
4.5910662115
 20
4.6098427604
 30
0.0
 10
4.5954711326
 20
4.6093616402
 30
0.0
 10
4.5977123378
 20
4.6092244977
 30
0.0
  0
SPLINE
  5
2C2
100
AcDbEntity
  8
0
100
AcDbSpline
 62
7
  6
CONTINUOUS
 70
0
 71
3
 72
10
 73
6
 74
0
 42
0.0000001
 43
0.0000001
 44
0.0000000001
 40
0.0
 40
0.0
 40
0.0
 40
0.0
 40
0.51523043
 40
0.7636946867
 40
1.0
 40
1.0
 40
1.0
 40
1.0
 10
4.5977123356
 20
4.6420518144
 30
0.0
 10
4.6034592772
 20
4.6420518144
 30
0.0
 10
4.6120286528
 20
4.6410287356
 30
0.0
 10
4.6226912496
 20
4.6376933586
 30
0.0
 10
4.6276255496
 20
4.635432588
 30
0.0
 10
4.6299363221
 20
4.6341646552
 30
0.0
  0
LINE
  5
2C3
100
AcDbEntity
  8
0
100
AcDbLine
 62
7
  6
CONTINUOUS
 10
4.6313976491
 20
4.6333325053
 11
4.6346963197
 21
4.6312014615
  0
LINE
  5
2C4
100
AcDbEntity
  8
0
100
AcDbLine
 62
7
  6
CONTINUOUS
 10
4.5717416151
 20
4.6169370691
 11
4.5699247944
 21
4.6181130313
  0
LINE
  5
2C5
100
AcDbEntity
  8
0
100
AcDbLine
 62
7
  6
CONTINUOUS
 10
4.5699247944
 20
4.6181130313
 11
4.5669388675
 21
4.6206795214
  0
LINE
  5
2C6
100
AcDbEntity
  8
0
100
AcDbLine
 62
7
  6
CONTINUOUS
 10
4.5669388675
 20
4.6206795214
 11
4.5657819792
 21
4.6220670861
  0
SPLINE
  5
2C7
100
AcDbEntity
  8
0
100
AcDbSpline
 62
7
  6
CONTINUOUS
 70
0
 71
3
 72
11
 73
7
 74
0
 42
0.0000001
 43
0.0000001
 44
0.0000000001
 40
0.0
 40
0.0
 40
0.0
 40
0.0
 40
0.2670758532
 40
0.5201604794
 40
0.7630057618
 40
1.0
 40
1.0
 40
1.0
 40
1.0
 10
4.5657819792
 20
4.6220670861
 30
0.0
 10
4.5654527643
 20
4.6225170312
 30
0.0
 10
4.5648652511
 20
4.6234349185
 30
0.0
 10
4.5642085235
 20
4.6248927125
 30
0.0
 10
4.5638077974
 20
4.6263762005
 30
0.0
 10
4.5637143826
 20
4.6273795317
 30
0.0
 10
4.5637124036
 20
4.6278742561
 30
0.0
  0
SPLINE
  5
2C8
100
AcDbEntity
  8
0
100
AcDbSpline
 62
7
  6
CONTINUOUS
 70
0
 71
3
 72
17
 73
13
 74
0
 42
0.0000001
 43
0.0000001
 44
0.0000000001
 40
0.0
 40
0.0
 40
0.0
 40
0.0
 40
0.0504300013
 40
0.1010216215
 40
0.1523546877
 40
0.2049568008
 40
0.3154325765
 40
0.4347904867
 40
0.5637050965
 40
0.7017590523
 40
0.847847198
 40
1.0
 40
1.0
 40
1.0
 40
1.0
 10
4.5632596854
 20
4.625109792
 30
0.0
 10
4.5632173743
 20
4.6244686657
 30
0.0
 10
4.5632188613
 20
4.6231769349
 30
0.0
 10
4.5634829193
 20
4.6212483679
 30
0.0
 10
4.5640020917
 20
4.6193436547
 30
0.0
 10
4.56503899
 20
4.61680999
 30
0.0
 10
4.5669718091
 20
4.6137399813
 30
0.0
 10
4.5701030068
 20
4.610381871
 30
0.0
 10
4.5739832515
 20
4.6073274097
 30
0.0
 10
4.5785071371
 20
4.6046155056
 30
0.0
 10
4.5835609854
 20
4.6022796639
 30
0.0
 10
4.5871477144
 20
4.6010081792
 30
0.0
 10
4.5889997204
 20
4.6004354038
 30
0.0
  0
SPLINE
  5
2C9
100
AcDbEntity
  8
0
100
AcDbSpline
 62
7
  6
CONTINUOUS
 70
0
 71
3
 72
32
 73
28
 74
0
 42
0.0000001
 43
0.0000001
 44
0.0000000001
 40
0.0
 40
0.0
 40
0.0
 40
0.0
 40
0.0651464144
 40
0.0953846096
 40
0.1238962988
 40
0.1506208075
 40
0.1755715258
 40
0.1988495182
 40
0.2206896116
 40
0.2414880802
 40
0.2617468317
 40
0.2820557137
 40
0.3029877698
 40
0.3250143988
 40
0.3484884798
 40
0.3736223451
 40
0.4005135073
 40
0.4291885035
 40
0.4596103771
 40
0.4916938755
 40
0.525339808
 40
0.5968308256
 40
0.6730102591
 40
0.7526871884
 40
0.8346254574
 40
0.9175596547
 40
1.0
 40
1.0
 40
1.0
 40
1.0
 10
4.6346963197
 20
4.6312014615
 30
0.0
 10
4.6361406597
 20
4.6301802244
 30
0.0
 10
4.6381727397
 20
4.6285567849
 30
0.0
 10
4.6405445569
 20
4.6261668994
 30
0.0
 10
4.6420353714
 20
4.6243837823
 30
0.0
 10
4.6432626492
 20
4.6225804289
 30
0.0
 10
4.6442110545
 20
4.6207739606
 30
0.0
 10
4.6448655377
 20
4.6189803576
 30
0.0
 10
4.6452094833
 20
4.6172154203
 30
0.0
 10
4.6452373719
 20
4.6154980292
 30
0.0
 10
4.6449421227
 20
4.6138470891
 30
0.0
 10
4.6443276082
 20
4.6122833155
 30
0.0
 10
4.6434120755
 20
4.6108192565
 30
0.0
 10
4.642210597
 20
4.609464195
 30
0.0
 10
4.6407446474
 20
4.6082193654
 30
0.0
 10
4.6390344301
 20
4.6070819853
 30
0.0
 10
4.6370977259
 20
4.60605087
 30
0.0
 10
4.6349535353
 20
4.6051216752
 30
0.0
 10
4.6326201478
 20
4.6042895977
 30
0.0
 10
4.6301151308
 20
4.6035500137
 30
0.0
 10
4.626495131
 20
4.6026633349
 30
0.0
 10
4.6216472101
 20
4.6017806409
 30
0.0
 10
4.6155178626
 20
4.6010274024
 30
0.0
 10
4.6090784395
 20
4.6005295321
 30
0.0
 10
4.602442161
 20
4.6002652337
 30
0.0
 10
4.5957259537
 20
4.6002206469
 30
0.0
 10
4.591236068
 20
4.6003375036
 30
0.0
 10
4.5889997204
 20
4.6004354038
 30
0.0
  0
SPLINE
  5
2CA
100
AcDbEntity
  8
0
100
AcDbSpline
 62
7
  6
CONTINUOUS
 70
0
 71
3
 72
9
 73
5
 74
0
 42
0.0000001
 43
0.0000001
 44
0.0000000001
 40
0.0
 40
0.0
 40
0.0
 40
0.0
 40
0.5187207214
 40
1.0
 40
1.0
 40
1.0
 40
1.0
 10
4.5607283394
 20
4.6312014634
 30
0.0
 10
4.5596104144
 20
4.6304110217
 30
0.0
 10
4.5575235298
 20
4.6287872417
 30
0.0
 10
4.5556237713
 20
4.6269441388
 30
0.0
 10
4.5547744127
 20
4.6259995231
 30
0.0
  0
LINE
  5
2CB
100
AcDbEntity
  8
0
100
AcDbLine
 62
7
  6
CONTINUOUS
 10
4.5547744127
 20
4.6259995231
 11
4.5533779407
 21
4.6243070556
  0
LINE
  5
2CC
100
AcDbEntity
  8
0
100
AcDbLine
 62
7
  6
CONTINUOUS
 10
4.5533779407
 20
4.6243070556
 11
4.5522464079
 21
4.6226424416
  0
SPLINE
  5
2CD
100
AcDbEntity
  8
0
100
AcDbSpline
 62
7
  6
CONTINUOUS
 70
0
 71
3
 72
23
 73
19
 74
0
 42
0.0000001
 43
0.0000001
 44
0.0000000001
 40
0.0
 40
0.0
 40
0.0
 40
0.0
 40
0.055758556
 40
0.1069788804
 40
0.1546308058
 40
0.1776189551
 40
0.200325232
 40
0.2458455977
 40
0.2932060406
 40
0.3439394158
 40
0.3990324766
 40
0.4589411376
 40
0.5237733751
 40
0.5933619463
 40
0.6674123302
 40
0.7455849446
 40
0.8274489186
 40
1.0
 40
1.0
 40
1.0
 40
1.0
 10
4.5522464079
 20
4.6226424416
 30
0.0
 10
4.5518143045
 20
4.6219319316
 30
0.0
 10
4.5510736632
 20
4.6205105174
 30
0.0
 10
4.5503643662
 20
4.6183029731
 30
0.0
 10
4.5501688476
 20
4.616479993
 30
0.0
 10
4.5502636119
 20
4.6150880509
 30
0.0
 10
4.5505180273
 20
4.6137486821
 30
0.0
 10
4.551147598
 20
4.612125071
 30
0.0
 10
4.5523615552
 20
4.6103412835
 30
0.0
 10
4.5539985393
 20
4.6087306725
 30
0.0
 10
4.5560153197
 20
4.6072879927
 30
0.0
 10
4.5583789894
 20
4.6060089916
 30
0.0
 10
4.5610540809
 20
4.6048844463
 30
0.0
 10
4.5640076018
 20
4.6039051011
 30
0.0
 10
4.5672083842
 20
4.603062415
 30
0.0
 10
4.5706267542
 20
4.6023468588
 30
0.0
 10
4.5755212253
 20
4.6015354583
 30
0.0
 10
4.5792954466
 20
4.6011150742
 30
0.0
 10
4.581859369
 20
4.600893944
 30
0.0
  0
SPLINE
  5
2CE
100
AcDbEntity
  8
0
100
AcDbSpline
 62
7
  6
CONTINUOUS
 70
0
 71
3
 72
11
 73
7
 74
0
 42
0.0000001
 43
0.0000001
 44
0.0000000001
 40
0.0
 40
0.0
 40
0.0
 40
0.0
 40
0.2249440132
 40
0.4669544597
 40
0.7256223544
 40
1.0
 40
1.0
 40
1.0
 40
1.0
 10
4.6340262493
 20
4.6206270243
 30
0.0
 10
4.6333120545
 20
4.6201075136
 30
0.0
 10
4.6317708459
 20
4.6191083962
 30
0.0
 10
4.6292491271
 20
4.6177762931
 30
0.0
 10
4.6264526453
 20
4.6165696464
 30
0.0
 10
4.6244765509
 20
4.6158752606
 30
0.0
 10
4.6234498036
 20
4.6155493256
 30
0.0
  0
LINE
  5
2CF
100
AcDbEntity
  8
0
100
AcDbLine
 62
7
  6
CONTINUOUS
 10
4.6234498036
 20
4.6155493256
 11
4.6173947837
 21
4.6139874059
  0
SPLINE
  5
2D0
100
AcDbEntity
  8
0
100
AcDbSpline
 62
7
  6
CONTINUOUS
 70
0
 71
3
 72
17
 73
13
 74
0
 42
0.0000001
 43
0.0000001
 44
0.0000000001
 40
0.0
 40
0.0
 40
0.0
 40
0.0
 40
0.1539338261
 40
0.3020737199
 40
0.4422663112
 40
0.5732219993
 40
0.694157313
 40
0.8048873517
 40
0.8566615352
 40
0.9062526585
 40
0.9539194054
 40
1.0
 40
1.0
 40
1.0
 40
1.0
 10
4.5859236013
 20
4.6005154059
 30
0.0
 10
4.5840492863
 20
4.6008852554
 30
0.0
 10
4.5803964096
 20
4.6017479649
 30
0.0
 10
4.5751664832
 20
4.6034348372
 30
0.0
 10
4.5703703812
 20
4.6054741424
 30
0.0
 10
4.566101204
 20
4.6078301921
 30
0.0
 10
4.5624392203
 20
4.6104666892
 30
0.0
 10
4.559894238
 20
4.6129192358
 30
0.0
 10
4.5582560281
 20
4.6149839046
 30
0.0
 10
4.5572472013
 20
4.6165379232
 30
0.0
 10
4.5564369706
 20
4.6181253376
 30
0.0
 10
4.5560268921
 20
4.6192174881
 30
0.0
 10
4.5558584836
 20
4.6197640317
 30
0.0
  0
SPLINE
  5
2D1
100
AcDbEntity
  8
0
100
AcDbSpline
 62
7
  6
CONTINUOUS
 70
0
 71
3
 72
16
 73
12
 74
0
 42
0.0000001
 43
0.0000001
 44
0.0000000001
 40
0.0
 40
0.0
 40
0.0
 40
0.0
 40
0.0248671212
 40
0.0965613126
 40
0.3469953216
 40
0.5046945392
 40
0.6702609296
 40
0.7534728117
 40
0.8360827705
 40
0.9180099599
 40
1.0
 40
1.0
 40
1.0
 40
1.0
 10
4.4925579271
 20
4.5849500518
 30
0.0
 10
4.4924713614
 20
4.5850099274
 30
0.0
 10
4.4921344495
 20
4.585241341
 30
0.0
 10
4.490943993
 20
4.5861015438
 30
0.0
 10
4.4893747696
 20
4.5874006833
 30
0.0
 10
4.4876938154
 20
4.5891575585
 30
0.0
 10
4.4866560493
 20
4.5905389101
 30
0.0
 10
4.4859680018
 20
4.5917636607
 30
0.0
 10
4.4855563411
 20
4.5927310159
 30
0.0
 10
4.4852803762
 20
4.5937411704
 30
0.0
 10
4.4852123423
 20
4.5944363446
 30
0.0
 10
4.4852123356
 20
4.5947833851
 30
0.0
  0
SPLINE
  5
2D2
100
AcDbEntity
  8
0
100
AcDbSpline
 62
7
  6
CONTINUOUS
 70
0
 71
3
 72
15
 73
11
 74
0
 42
0.0000001
 43
0.0000001
 44
0.0000000001
 40
0.0
 40
0.0
 40
0.0
 40
0.0
 40
0.1241056496
 40
0.2484475312
 40
0.3730699753
 40
0.4979881467
 40
0.6231912168
 40
0.7486407961
 40
0.8742718916
 40
1.0
 40
1.0
 40
1.0
 40
1.0
 10
4.4852123356
 20
4.6509426301
 30
0.0
 10
4.4852123408
 20
4.6551172503
 30
0.0
 10
4.4854876644
 20
4.6634750373
 30
0.0
 10
4.4864459718
 20
4.6759893984
 30
0.0
 10
4.4877262287
 20
4.6885012781
 30
0.0
 10
4.4891341082
 20
4.7010278093
 30
0.0
 10
4.4904900227
 20
4.7135883516
 30
0.0
 10
4.4916233561
 20
4.7261960415
 30
0.0
 10
4.4923802172
 20
4.7388507915
 30
0.0
 10
4.4925579663
 20
4.7473068739
 30
0.0
 10
4.4925579271
 20
4.7515360698
 30
0.0
  0
SPLINE
  5
2D3
100
AcDbEntity
  8
0
100
AcDbSpline
 62
7
  6
CONTINUOUS
 70
0
 71
3
 72
18
 73
14
 74
0
 42
0.0000001
 43
0.0000001
 44
0.0000000001
 40
0.0
 40
0.0
 40
0.0
 40
0.0
 40
0.1642029338
 40
0.3189350648
 40
0.4620487028
 40
0.5924098138
 40
0.7096518276
 40
0.7636273957
 40
0.8147692662
 40
0.8634355
 40
0.9101192255
 40
0.9554159714
 40
1.0
 40
1.0
 40
1.0
 40
1.0
 10
4.581859369
 20
4.600893944
 30
0.0
 10
4.5799577323
 20
4.6012766689
 30
0.0
 10
4.5762917959
 20
4.6021696844
 30
0.0
 10
4.5711197698
 20
4.6039394026
 30
0.0
 10
4.5665204735
 20
4.6060719136
 30
0.0
 10
4.5625929216
 20
4.6085211938
 30
0.0
 10
4.5598731176
 20
4.6108525125
 30
0.0
 10
4.5581456598
 20
4.6128368645
 30
0.0
 10
4.5571024878
 20
4.6143289066
 30
0.0
 10
4.5562834488
 20
4.6158583661
 30
0.0
 10
4.5556932653
 20
4.6174169755
 30
0.0
 10
4.5553369129
 20
4.6189958692
 30
0.0
 10
4.5552577902
 20
4.6200593322
 30
0.0
 10
4.5552578562
 20
4.6205860139
 30
0.0
  0
SPLINE
  5
2D4
100
AcDbEntity
  8
0
100
AcDbSpline
 62
7
  6
CONTINUOUS
 70
0
 71
3
 72
15
 73
11
 74
0
 42
0.0000001
 43
0.0000001
 44
0.0000000001
 40
0.0
 40
0.0
 40
0.0
 40
0.0
 40
0.125727536
 40
0.2513580215
 40
0.3768069832
 40
0.5020102007
 40
0.6269287645
 40
0.7515513434
 40
0.8758930197
 40
1.0
 40
1.0
 40
1.0
 40
1.0
 10
4.4925579271
 20
4.7515360698
 30
0.0
 10
4.4925578936
 20
4.7557650215
 30
0.0
 10
4.4923800217
 20
4.7642206105
 30
0.0
 10
4.4916231093
 20
4.7768746214
 30
0.0
 10
4.490489674
 20
4.7894815894
 30
0.0
 10
4.4891338369
 20
4.8020414609
 30
0.0
 10
4.4877260239
 20
4.8145673479
 30
0.0
 10
4.4864458575
 20
4.8270785756
 30
0.0
 10
4.4854876565
 20
4.8395923175
 30
0.0
 10
4.485212341
 20
4.8479496972
 30
0.0
 10
4.4852123356
 20
4.8521241401
 30
0.0
  0
SPLINE
  5
2D5
100
AcDbEntity
  8
0
100
AcDbSpline
 62
7
  6
CONTINUOUS
 70
0
 71
3
 72
30
 73
26
 74
0
 42
0.0000001
 43
0.0000001
 44
0.0000000001
 40
0.0
 40
0.0
 40
0.0
 40
0.0
 40
0.0819778759
 40
0.1638826895
 40
0.2464573612
 40
0.3296600199
 40
0.495198307
 40
0.5756494246
 40
0.6529208043
 40
0.7257014896
 40
0.7926296743
 40
0.8523300383
 40
0.879047296
 40
0.9034593168
 40
0.9254130254
 40
0.9447613523
 40
0.9613779892
 40
0.9751413038
 40
0.9859540479
 40
0.9902297542
 40
0.9937388503
 40
0.996473328
 40
0.9984299372
 40
0.9996062907
 40
1.0
 40
1.0
 40
1.0
 40
1.0
 10
4.4852123356
 20
4.9082833851
 30
0.0
 10
4.4852123382
 20
4.9086304412
 30
0.0
 10
4.4852808023
 20
4.9093255719
 30
0.0
 10
4.4855566257
 20
4.9103356086
 30
0.0
 10
4.4859677954
 20
4.9113031197
 30
0.0
 10
4.4866561455
 20
4.9125276053
 30
0.0
 10
4.4874967249
 20
4.9136469551
 30
0.0
 10
4.4884145632
 20
4.914662356
 30
0.0
 10
4.4891053411
 20
4.9153522612
 30
0.0
 10
4.4897827001
 20
4.915973062
 30
0.0
 10
4.4904254043
 20
4.9165206759
 30
0.0
 10
4.4909321241
 20
4.9169266325
 30
0.0
 10
4.4913039178
 20
4.9172128615
 30
0.0
 10
4.4915511773
 20
4.9173988573
 30
0.0
 10
4.4917751585
 20
4.9175638767
 30
0.0
 10
4.4919737998
 20
4.9177076334
 30
0.0
 10
4.4921452781
 20
4.9178297729
 30
0.0
 10
4.492287942
 20
4.9179300601
 30
0.0
 10
4.4923881814
 20
4.9179998778
 30
0.0
 10
4.4924529827
 20
4.9180445641
 30
0.0
 10
4.492489598
 20
4.9180699808
 30
0.0
 10
4.4925183621
 20
4.9180892459
 30
0.0
 10
4.492538484
 20
4.9181042187
 30
0.0
 10
4.4925514307
 20
4.9181110465
 30
0.0
 10
4.4925562649
 20
4.9181164685
 30
0.0
 10
4.4925579132
 20
4.9181167163
 30
0.0
  0
SPLINE
  5
2D6
100
AcDbEntity
  8
0
100
AcDbSpline
 62
7
  6
CONTINUOUS
 70
0
 71
3
 72
16
 73
12
 74
0
 42
0.0000001
 43
0.0000001
 44
0.0000000001
 40
0.0
 40
0.0
 40
0.0
 40
0.0
 40
0.0625023922
 40
0.1250055237
 40
0.2499978407
 40
0.3749959852
 40
0.4999973819
 40
0.6249986629
 40
0.7499987177
 40
0.8749978825
 40
1.0
 40
1.0
 40
1.0
 40
1.0
 10
4.4812307229
 20
4.7515359114
 30
0.0
 10
4.4812306948
 20
4.753646605
 30
0.0
 10
4.4811561372
 20
4.7578683894
 30
0.0
 10
4.4807183972
 20
4.7663007976
 30
0.0
 10
4.4796697043
 20
4.7768075519
 30
0.0
 10
4.4778456628
 20
4.7893408788
 30
0.0
 10
4.4757489689
 20
4.8018299203
 30
0.0
 10
4.473662723
 20
4.8143207247
 30
0.0
 10
4.471849451
 20
4.8268561492
 30
0.0
 10
4.470558313
 20
4.8394585978
 30
0.0
 10
4.4702123537
 20
4.847902843
 30
0.0
 10
4.4702123356
 20
4.8521241401
 30
0.0
  0
SPLINE
  5
2D7
100
AcDbEntity
  8
0
100
AcDbSpline
 62
7
  6
CONTINUOUS
 70
0
 71
3
 72
17
 73
13
 74
0
 42
0.0000001
 43
0.0000001
 44
0.0000000001
 40
0.0
 40
0.0
 40
0.0
 40
0.0
 40
0.1249985995
 40
0.249996913
 40
0.3749956094
 40
0.4999947836
 40
0.6249940578
 40
0.7499911335
 40
0.8124926824
 40
0.8749946838
 40
0.9374981368
 40
1.0
 40
1.0
 40
1.0
 40
1.0
 10
4.4702123356
 20
4.6509426301
 30
0.0
 10
4.4702123511
 20
4.6551640678
 30
0.0
 10
4.4705583416
 20
4.6636086833
 30
0.0
 10
4.4718495782
 20
4.6762117147
 30
0.0
 10
4.4736629935
 20
4.6887477409
 30
0.0
 10
4.4757493256
 20
4.7012391897
 30
0.0
 10
4.4778463021
 20
4.7137285639
 30
0.0
 10
4.4793657128
 20
4.7241746328
 30
0.0
 10
4.4803000987
 20
4.7325666487
 30
0.0
 10
4.4808278438
 20
4.7388780289
 30
0.0
 10
4.481156322
 20
4.7452030776
 30
0.0
 10
4.4812307522
 20
4.7494251059
 30
0.0
 10
4.4812307229
 20
4.7515359114
 30
0.0
  0
SPLINE
  5
2D8
100
AcDbEntity
  8
0
100
AcDbSpline
 62
7
  6
CONTINUOUS
 70
0
 71
3
 72
15
 73
11
 74
0
 42
0.0000001
 43
0.0000001
 44
0.0000000001
 40
0.0
 40
0.0
 40
0.0
 40
0.0
 40
0.0413886599
 40
0.1544241533
 40
0.3154799328
 40
0.4999966735
 40
0.6845138246
 40
0.845569841
 40
0.9586076352
 40
1.0
 40
1.0
 40
1.0
 40
1.0
 10
5.1102123356
 20
5.2440333851
 30
0.0
 10
5.1078160627
 20
5.2436718625
 30
0.0
 10
5.0988674223
 20
5.2423747789
 30
0.0
 10
5.0805293199
 20
5.2401260053
 30
0.0
 10
5.0537553459
 20
5.2379368554
 30
0.0
 10
5.022712896
 20
5.2370463356
 30
0.0
 10
4.9916704303
 20
5.2379367895
 30
0.0
 10
4.9648962798
 20
5.2401259021
 30
0.0
 10
4.9465578117
 20
5.2423746986
 30
0.0
 10
4.9376088229
 20
5.2436718298
 30
0.0
 10
4.9352123356
 20
5.2440333851
 30
0.0
  0
ENDSEC
  0
SECTION
  2
OBJECTS
  0
DICTIONARY
  5
C
100
AcDbDictionary
280
0
281
1
  3
ACAD_GROUP
350
D
  3
ACAD_MLINESTYLE
350
17
  3
ACAD_LAYOUT
350
1A
  3
ACAD_PLOTSETTINGS
350
19
  3
ACAD_PLOTSTYLENAME
350
E
  0
DICTIONARY
  5
D
102
{ACAD_REACTORS
330
C
102
}
100
AcDbDictionary
280
0
281
1
  0
ACDBDICTIONARYWDFLT
  5
E
102
{ACAD_REACTORS
330
C
102
}
100
AcDbDictionary
281
1
  3
Normal
350
F
100
AcDbDictionaryWithDefault
340
F
  0
DICTIONARY
  5
17
102
{ACAD_REACTORS
330
C
102
}
100
AcDbDictionary
280
0
281
1
  3
Standard
350
18
  0
DICTIONARY
  5
19
102
{ACAD_REACTORS
330
C
102
}
100
AcDbDictionary
281
1
  0
DICTIONARY
  5
1A
102
{ACAD_REACTORS
330
C
102
}
100
AcDbDictionary
281
1
  3
Model
350
2D9
  3
Layout1
350
2DA
  0
ACDBPLACEHOLDER
  5
F
102
{ACAD_REACTORS
330
E
102
}
  0
MLINESTYLE
  5
18
102
{ACAD_REACTORS
330
17
102
}
100
AcDbMlineStyle
  2
STANDARD
 70
0
  3

 62
256
 51
90.0
 52
90.0
 71
2
 49
0.5
 62
256
  6
BYLAYER
 49
-0.5
 62
256
  6
BYLAYER
  0
LAYOUT
  5
2D9
102
{ACAD_REACTORS
330
1A
102
}
100
AcDbPlotSettings
  1

  2
none_device
  4
ANSI_A_(11.00_x_8.50_Inches)
  6

 40
0.0
 41
0.0
 42
0.0
 43
0.0
 44
279.4
 45
215.9
 46
0.0
 47
0.0
 48
0.0
 49
0.0
140
0.0
141
0.0
142
1.0
143
1.0
 70
1024
 72
0
 73
0
 74
0
  7

 75
0
147
1.0
148
0.0
149
0.0
100
AcDbLayout
  1
Model
 70
0
 71
0
 10
0.0
 20
0.0
 11
11.0
 21
8.5
 12
0.0
 22
0.0
 32
0.0
 14
0.0
 24
0.0
 34
0.0
 15
0.0
 25
0.0
 35
0.0
146
0.0
 13
0.0
 23
0.0
 33
0.0
 16
1.0
 26
0.0
 36
0.0
 17
0.0
 27
1.0
 37
0.0
 76
0
330
222
345
0
346
0
  0
LAYOUT
  5
2DA
102
{ACAD_REACTORS
330
1A
102
}
100
AcDbPlotSettings
  1

  2
none_device
  4
ANSI_A_(11.00_x_8.50_Inches)
  6

 40
0.0
 41
0.0
 42
0.0
 43
0.0
 44
279.4
 45
215.9
 46
0.0
 47
0.0
 48
0.0
 49
0.0
140
0.0
141
0.0
142
1.0
143
1.0
 70
0
 72
0
 73
0
 74
0
  7

 75
0
147
1.0
148
0.0
149
0.0
100
AcDbLayout
  1
Layout1
 70
0
 71
1
 10
0.0
 20
0.0
 11
11.0
 21
8.5
 12
0.0
 22
0.0
 32
0.0
 14
0.0
 24
0.0
 34
0.0
 15
0.0
 25
0.0
 35
0.0
146
0.0
 13
0.0
 23
0.0
 33
0.0
 16
1.0
 26
0.0
 36
0.0
 17
0.0
 27
1.0
 37
0.0
 76
0
330
223
345
0
346
0
  0
ENDSEC
  0
EOF
