999
DXF file: E:\BT Custom\CADOUTPUT\_TOP.dxf
999
Pro/ENGINEER 2018400 by Parametric Technology Corporation
  0
SECTION
  2
HEADER
  9
$ACADVER
  1
AC1018
  9
$DWGCODEPAGE
  3
ANSI_1252
  9
$EXTMAX
 10
22.0
 20
17.0
 30
0.0
  9
$EXTMIN
 10
0.0
 20
0.0
 30
0.0
  9
$LIMMIN
 10
0.0
 20
0.0
  9
$LIMMAX
 10
22.0
 20
17.0
  9
$VIEWCTR
 10
11.0
 20
8.5
  9
$VIEWSIZE
 40
17.0
  9
$CLAYER
  8
0
  9
$LTSCALE
 40
1.21
  9
$CELTYPE
  6
BYLAYER
  9
$DIMSCALE
 40
1.0
  9
$DIMASZ
 40
0.1
  9
$DIMEXO
 40
0.0625
  9
$DIMDLI
 40
0.836
  9
$DIMEXE
 40
0.125
  9
$DIMCEN
 40
0.198
  9
$DIMLFAC
 40
1.0
  9
$DIMBLK
  1
_FILLED
  9
$DIMALT
 70
1
  9
$DIMALTD
 70
2
  9
$DIMALTTD
 70
2
  9
$DIMALTF
 40
25.4
  9
$DIMTXT
 40
0.08
  9
$DIMTOL
 70
1
  9
$DIMLIM
 70
0
  9
$DIMTFAC
 40
1.0
  9
$DIMTP
 40
0.001
  9
$DIMTM
 40
0.001
  9
$DIMGAP
 40
0.09
  9
$DIMDSEP
 70
46
  9
$AUNITS
 70
0
  9
$PDMODE
 70
3
  9
$PDSIZE
 40
0.06
  9
$HANDSEED
  5
536
  9
$TILEMODE
 70
1
  9
$MEASUREMENT
 70
0
  9
$INSUNITS
 70
1
  0
ENDSEC
  0
SECTION
  2
CLASSES
  0
CLASS
  1
ACDBDICTIONARYWDFLT
  2
AcDbDictionaryWithDefault
  3
AutoCAD 2000
 90
0
 91
1
280
0
281
0
  0
CLASS
  1
ACDBPLACEHOLDER
  2
AcDbPlaceHolder
  3
AutoCAD 2000
 90
0
 91
1
280
0
281
0
  0
CLASS
  1
LAYOUT
  2
AcDbLayout
  3
AutoCAD 2000
 90
0
 91
0
280
0
281
0
  0
ENDSEC
  0
SECTION
  2
TABLES
  0
TABLE
  2
VPORT
  5
8
100
AcDbSymbolTable
 70
2
  0
VPORT
  5
1F4
100
AcDbSymbolTableRecord
100
AcDbViewportTableRecord
  2
*ACTIVE
 70
0
 10
0.0
 20
0.0
 11
1.0
 21
1.0
 12
11.0
 22
8.5
 13
0.0
 23
0.0
 14
1.0
 24
1.0
 15
0.0
 25
0.0
 16
0.0
 26
0.0
 36
1.0
 17
0.0
 27
0.0
 37
0.0
 40
17.0
 41
1.2941176471
 42
50.0
 43
0.0
 44
0.0
 50
0.0
 51
0.0
 71
0
 72
100
 73
1
 74
1
 75
0
 76
0
 77
0
 78
0
  0
ENDTAB
  0
TABLE
  2
LTYPE
  5
5
100
AcDbSymbolTable
 70
6
  0
LTYPE
  5
14
100
AcDbSymbolTableRecord
100
AcDbLinetypeTableRecord
  2
BYBLOCK
 70
0
  3

 72
65
 73
0
 40
0.0
  0
LTYPE
  5
15
100
AcDbSymbolTableRecord
100
AcDbLinetypeTableRecord
  2
BYLAYER
 70
0
  3

 72
65
 73
0
 40
0.0
  0
LTYPE
  5
16
100
AcDbSymbolTableRecord
100
AcDbLinetypeTableRecord
  2
CONTINUOUS
 70
64
  3
Solid line
 72
65
 73
0
 40
0.0
  0
LTYPE
  5
1F5
100
AcDbSymbolTableRecord
100
AcDbLinetypeTableRecord
  2
CENTER
 70
64
  3
____ _ ____ _ ____ _ ____ _ ____ _ ____ _ ____
 72
65
 73
4
 40
0.6
 49
0.375
 74
0
 49
-0.075
 74
0
 49
0.075
 74
0
 49
-0.075
 74
0
  0
LTYPE
  5
1F6
100
AcDbSymbolTableRecord
100
AcDbLinetypeTableRecord
  2
HIDDEN
 70
64
  3
- - - - - - - - - - - - - - - - - - - -
 72
65
 73
2
 40
0.2
 49
0.1
 74
0
 49
-0.1
 74
0
  0
LTYPE
  5
1F7
100
AcDbSymbolTableRecord
100
AcDbLinetypeTableRecord
  2
PHANTOM
 70
64
  3
_____ _ _ _____ _ _ _____ _ _ _____
 72
65
 73
6
 40
0.8
 49
0.45
 74
0
 49
-0.05
 74
0
 49
0.1
 74
0
 49
-0.05
 74
0
 49
0.1
 74
0
 49
-0.05
 74
0
  0
LTYPE
  5
1F8
100
AcDbSymbolTableRecord
100
AcDbLinetypeTableRecord
  2
DOT
 70
64
  3
. . . . . . . . . . . . . . . . . . . .
 72
65
 73
2
 40
0.2
 49
0.1
 74
0
 49
-0.1
 74
0
  0
LTYPE
  5
1F9
100
AcDbSymbolTableRecord
100
AcDbLinetypeTableRecord
  2
DASHED
 70
64
  3
- - - - - - - - - - - - - - - - - - - -
 72
65
 73
2
 40
0.2
 49
0.1
 74
0
 49
-0.1
 74
0
  0
ENDTAB
  0
TABLE
  2
LAYER
  5
2
100
AcDbSymbolTable
 70
36
  0
LAYER
  5
10
100
AcDbSymbolTableRecord
100
AcDbLayerTableRecord
  2
0
 70
0
 62
7
  6
CONTINUOUS
370
-3
390
F
  0
LAYER
  5
1FA
100
AcDbSymbolTableRecord
100
AcDbLayerTableRecord
  2
DEFAULT_1
 70
0
 62
7
  6
CENTER
370
-3
390
F
  0
LAYER
  5
1FB
100
AcDbSymbolTableRecord
100
AcDbLayerTableRecord
  2
DEFAULT_2
 70
0
 62
8
  6
HIDDEN
370
-3
390
F
  0
LAYER
  5
1FC
100
AcDbSymbolTableRecord
100
AcDbLayerTableRecord
  2
DEFAULT_3
 70
0
 62
7
  6
PHANTOM
370
-3
390
F
  0
LAYER
  5
1FD
100
AcDbSymbolTableRecord
100
AcDbLayerTableRecord
  2
ALL_FEATURES
 70
0
 62
7
  6
CONTINUOUS
370
-3
390
F
  0
LAYER
  5
1FE
100
AcDbSymbolTableRecord
100
AcDbLayerTableRecord
  2
AXES_FEATURES
 70
0
 62
7
  6
CONTINUOUS
370
-3
390
F
  0
LAYER
  5
1FF
100
AcDbSymbolTableRecord
100
AcDbLayerTableRecord
  2
DEFAULT_COORDINATE_SYSTEM
 70
0
 62
7
  6
CONTINUOUS
370
-3
390
F
  0
LAYER
  5
200
100
AcDbSymbolTableRecord
100
AcDbLayerTableRecord
  2
DEFAULT_DATUM_AXES
 70
0
 62
7
  6
CONTINUOUS
370
-3
390
F
  0
LAYER
  5
201
100
AcDbSymbolTableRecord
100
AcDbLayerTableRecord
  2
DEFAULT_DATUM_PLANES
 70
0
 62
7
  6
CONTINUOUS
370
-3
390
F
  0
LAYER
  5
202
100
AcDbSymbolTableRecord
100
AcDbLayerTableRecord
  2
DIMENSIONS
 70
0
 62
7
  6
CONTINUOUS
370
-3
390
F
  0
ENDTAB
  0
TABLE
  2
STYLE
  5
3
100
AcDbSymbolTable
 70
1
  0
STYLE
  5
11
100
AcDbSymbolTableRecord
100
AcDbTextStyleTableRecord
  2
STANDARD
 70
0
 40
0.0
 41
0.8
 50
0.0
 71
0
 42
0.2
  3
txt
  4

  0
STYLE
  5
203
100
AcDbSymbolTableRecord
100
AcDbTextStyleTableRecord
  2
TEXTSTYLE_1
 70
0
 40
0.0
 41
0.8
 50
0.0
 71
0
 42
0.2
  3
gdt
  4

  0
ENDTAB
  0
TABLE
  2
VIEW
  5
6
100
AcDbSymbolTable
 70
0
  0
ENDTAB
  0
TABLE
  2
UCS
  5
7
100
AcDbSymbolTable
 70
0
  0
ENDTAB
  0
TABLE
  2
APPID
  5
9
100
AcDbSymbolTable
 70
1
  0
APPID
  5
204
100
AcDbSymbolTableRecord
100
AcDbRegAppTableRecord
  2
ACAD
 70
0
  0
ENDTAB
  0
TABLE
  2
BLOCK_RECORD
  5
1
100
AcDbSymbolTable
 70
0
  0
BLOCK_RECORD
  5
205
100
AcDbSymbolTableRecord
100
AcDbBlockTableRecord
  2
*Model_Space
  0
BLOCK_RECORD
  5
206
100
AcDbSymbolTableRecord
100
AcDbBlockTableRecord
  2
*Paper_Space
  0
BLOCK_RECORD
  5
207
100
AcDbSymbolTableRecord
100
AcDbBlockTableRecord
  2
_FILLED
  0
ENDTAB
  0
TABLE
  2
DIMSTYLE
  5
A
100
AcDbSymbolTable
 70
1
100
AcDbDimStyleTable
 71
0
  0
DIMSTYLE
105
208
100
AcDbSymbolTableRecord
100
AcDbDimStyleTableRecord
  2
STANDARD
 70
0
  3

  4

 40
1.0
 41
0.1
 42
0.0625
 43
0.38
 44
0.125
 45
0.0
 46
0.0
 47
0.001
 48
0.001
140
0.08
141
0.09
142
0.0
143
25.4
144
1.0
145
0.0
146
1.0
147
0.09
 71
1.0
 72
0.0
 73
1
 74
1
 75
0
 76
0
 77
0
 78
4
 79
1
170
1
171
2
172
0
173
0
174
0
175
0
176
0
177
0
178
0
270
2
179
3
271
3
272
3
273
2
274
2
275
0
280
0
281
0
282
0
283
1
284
4
285
0
286
0
287
3
288
0
340
11
278
46
341
207
342
207
343
207
344
207
  0
ENDTAB
  0
ENDSEC
  0
SECTION
  2
BLOCKS
  0
BLOCK
  5
20
100
AcDbEntity
  8
0
100
AcDbBlockBegin
  2
*Model_Space
 70
0
 10
0.0
 20
0.0
 30
0.0
  3
*Model_Space
  1

  0
ENDBLK
  5
21
100
AcDbEntity
  8
0
100
AcDbBlockEnd
  0
BLOCK
  5
1C
100
AcDbEntity
  8
0
100
AcDbBlockBegin
  2
*Paper_Space
 70
0
 10
0.0
 20
0.0
 30
0.0
  3
*Paper_Space
  1

  0
ENDBLK
  5
1D
100
AcDbEntity
  8
0
100
AcDbBlockEnd
  0
BLOCK
  5
209
100
AcDbEntity
  8
0
100
AcDbBlockBegin
  2
_FILLED
 70
64
 10
0.0
 20
0.0
  3
_FILLED
  1

  0
SOLID
  5
20A
100
AcDbEntity
  8
0
  6
BYBLOCK
 62
0
100
AcDbTrace
 10
0.0
 20
0.0
 11
-1.0
 21
0.2
 12
-1.0
 22
-0.2
 13
-1.0
 23
-0.2
  0
ENDBLK
  5
20B
100
AcDbEntity
  8
0
  6
BYBLOCK
 62
0
100
AcDbBlockEnd
  0
ENDSEC
  0
SECTION
  2
ENTITIES
  0
LINE
  5
20C
100
AcDbEntity
  8
0
100
AcDbLine
 62
7
  6
CONTINUOUS
 10
0.8360683383
 20
11.5688007162
 11
0.8360683383
 21
12.0088007162
  0
LINE
  5
20D
100
AcDbEntity
  8
0
100
AcDbLine
 62
9
  6
CONTINUOUS
 10
0.8660683383
 20
11.5388007162
 11
0.8660683383
 21
12.0388007162
  0
LINE
  5
20E
100
AcDbEntity
  8
0
100
AcDbLine
 62
7
  6
CONTINUOUS
 10
1.0785683383
 20
12.9238007162
 11
1.0785683383
 21
12.0388007162
  0
LINE
  5
20F
100
AcDbEntity
  8
0
100
AcDbLine
 62
7
  6
CONTINUOUS
 10
1.0785683383
 20
11.5388007162
 11
1.0785683383
 21
10.6538007162
  0
LINE
  5
210
100
AcDbEntity
  8
0
100
AcDbLine
 62
9
  6
CONTINUOUS
 10
1.1085683383
 20
12.9238007162
 11
1.1085683383
 21
12.0388007162
  0
LINE
  5
211
100
AcDbEntity
  8
0
100
AcDbLine
 62
9
  6
CONTINUOUS
 10
1.1085683383
 20
11.5388007162
 11
1.1085683383
 21
10.6538007162
  0
LINE
  5
212
100
AcDbEntity
  8
0
100
AcDbLine
 62
9
  6
CONTINUOUS
 10
1.1385683383
 20
10.6238007162
 11
1.1385683383
 21
10.5938007162
  0
LINE
  5
213
100
AcDbEntity
  8
0
100
AcDbLine
 62
9
  6
CONTINUOUS
 10
1.1385683383
 20
12.9538007162
 11
1.1385683383
 21
12.9838007162
  0
LINE
  5
214
100
AcDbEntity
  8
0
100
AcDbLine
 62
7
  6
CONTINUOUS
 10
1.4010683383
 20
12.6013007162
 11
1.4010683383
 21
12.0388007162
  0
LINE
  5
215
100
AcDbEntity
  8
0
100
AcDbLine
 62
7
  6
CONTINUOUS
 10
1.4010683383
 20
11.5388007162
 11
1.4010683383
 21
10.9763007162
  0
LINE
  5
216
100
AcDbEntity
  8
0
100
AcDbLine
 62
9
  6
CONTINUOUS
 10
1.4310683383
 20
12.6013007162
 11
1.4310683383
 21
12.0388007162
  0
LINE
  5
217
100
AcDbEntity
  8
0
100
AcDbLine
 62
9
  6
CONTINUOUS
 10
1.4310683383
 20
11.5388007162
 11
1.4310683383
 21
10.9763007162
  0
LINE
  5
218
100
AcDbEntity
  8
0
100
AcDbLine
 62
9
  6
CONTINUOUS
 10
1.4610683383
 20
10.9463007162
 11
1.4610683383
 21
10.9163007162
  0
LINE
  5
219
100
AcDbEntity
  8
0
100
AcDbLine
 62
9
  6
CONTINUOUS
 10
1.4610683383
 20
12.6313007162
 11
1.4610683384
 21
12.6613007162
  0
LINE
  5
21A
100
AcDbEntity
  8
0
100
AcDbLine
 62
9
  6
CONTINUOUS
 10
1.5009566582
 20
12.4727796985
 11
1.5009566582
 21
12.0388007162
  0
LINE
  5
21B
100
AcDbEntity
  8
0
100
AcDbLine
 62
9
  6
CONTINUOUS
 10
1.5009566582
 20
11.5388007162
 11
1.5009566582
 21
11.104821734
  0
LINE
  5
21C
100
AcDbEntity
  8
0
100
AcDbLine
 62
9
  6
CONTINUOUS
 10
1.5305008908
 20
12.4727796985
 11
1.5305008908
 21
12.0388007162
  0
LINE
  5
21D
100
AcDbEntity
  8
0
100
AcDbLine
 62
9
  6
CONTINUOUS
 10
1.5305008908
 20
11.5388007162
 11
1.5305008908
 21
11.104821734
  0
LINE
  5
21E
100
AcDbEntity
  8
0
100
AcDbLine
 62
9
  6
CONTINUOUS
 10
1.589589356
 20
12.5614123963
 11
1.589589356
 21
12.5318681637
  0
LINE
  5
21F
100
AcDbEntity
  8
0
100
AcDbLine
 62
9
  6
CONTINUOUS
 10
1.589589356
 20
11.0161890362
 11
1.589589356
 21
11.0457332688
  0
LINE
  5
220
100
AcDbEntity
  8
0
100
AcDbLine
 62
7
  6
CONTINUOUS
 10
1.7345683383
 20
12.2678007162
 11
1.7345683383
 21
12.0388007162
  0
LINE
  5
221
100
AcDbEntity
  8
0
100
AcDbLine
 62
7
  6
CONTINUOUS
 10
1.7345683383
 20
11.5388007162
 11
1.7345683383
 21
11.3098007162
  0
LINE
  5
222
100
AcDbEntity
  8
0
100
AcDbLine
 62
9
  6
CONTINUOUS
 10
1.7645683383
 20
12.2678007162
 11
1.7645683383
 21
12.0388007162
  0
LINE
  5
223
100
AcDbEntity
  8
0
100
AcDbLine
 62
9
  6
CONTINUOUS
 10
1.7645683383
 20
11.5388007162
 11
1.7645683383
 21
11.3098007162
  0
LINE
  5
224
100
AcDbEntity
  8
0
100
AcDbLine
 62
9
  6
CONTINUOUS
 10
1.7945683383
 20
11.2798007162
 11
1.7945683383
 21
11.2498007162
  0
LINE
  5
225
100
AcDbEntity
  8
0
100
AcDbLine
 62
9
  6
CONTINUOUS
 10
1.7945683383
 20
12.2978007162
 11
1.7945683384
 21
12.3278007162
  0
LINE
  5
226
100
AcDbEntity
  8
0
100
AcDbLine
 62
9
  6
CONTINUOUS
 10
1.8700683383
 20
12.0388007162
 11
1.8700683383
 21
11.5388007162
  0
LINE
  5
227
100
AcDbEntity
  8
0
100
AcDbLine
 62
7
  6
CONTINUOUS
 10
1.9300683383
 20
11.4753007162
 11
1.9300683383
 21
12.1023007162
  0
LINE
  5
228
100
AcDbEntity
  8
0
100
AcDbLine
 62
9
  6
CONTINUOUS
 10
1.9600683383
 20
11.4453007162
 11
1.9600683383
 21
12.1323007162
  0
LINE
  5
229
100
AcDbEntity
  8
0
100
AcDbLine
 62
7
  6
CONTINUOUS
 10
2.0235683383
 20
13.1963007162
 11
2.0235683383
 21
12.1923007162
  0
LINE
  5
22A
100
AcDbEntity
  8
0
100
AcDbLine
 62
7
  6
CONTINUOUS
 10
2.0235683383
 20
11.3853007162
 11
2.0235683383
 21
10.3813007162
  0
LINE
  5
22B
100
AcDbEntity
  8
0
100
AcDbLine
 62
9
  6
CONTINUOUS
 10
2.0535683383
 20
10.3513007162
 11
2.0535683383
 21
11.4453007162
  0
LINE
  5
22C
100
AcDbEntity
  8
0
100
AcDbLine
 62
9
  6
CONTINUOUS
 10
2.0535683383
 20
12.1323007162
 11
2.0535683383
 21
13.2263007162
  0
LINE
  5
22D
100
AcDbEntity
  8
0
100
AcDbLine
 62
9
  6
CONTINUOUS
 10
2.9575473206
 20
12.5318681637
 11
2.7534346004
 21
12.3277554435
  0
LINE
  5
22E
100
AcDbEntity
  8
0
100
AcDbLine
 62
9
  6
CONTINUOUS
 10
1.5305008908
 20
11.104821734
 11
1.7346135515
 21
11.3089343946
  0
LINE
  5
22F
100
AcDbEntity
  8
0
100
AcDbLine
 62
9
  6
CONTINUOUS
 10
3.0166357857
 20
12.4727796985
 11
2.8125231235
 21
12.2686670363
  0
LINE
  5
230
100
AcDbEntity
  8
0
100
AcDbLine
 62
9
  6
CONTINUOUS
 10
1.589589356
 20
11.0457332688
 11
1.7937020777
 21
11.2498459905
  0
LINE
  5
231
100
AcDbEntity
  8
0
100
AcDbLine
 62
9
  6
CONTINUOUS
 10
2.4935683383
 20
13.2263007162
 11
2.4935683383
 21
12.1323007162
  0
LINE
  5
232
100
AcDbEntity
  8
0
100
AcDbLine
 62
9
  6
CONTINUOUS
 10
2.4935683383
 20
10.3513007162
 11
2.4935683383
 21
11.4453007162
  0
LINE
  5
233
100
AcDbEntity
  8
0
100
AcDbLine
 62
7
  6
CONTINUOUS
 10
2.5235683383
 20
13.1963007162
 11
2.5235683383
 21
12.1923007162
  0
LINE
  5
234
100
AcDbEntity
  8
0
100
AcDbLine
 62
7
  6
CONTINUOUS
 10
2.5235683383
 20
11.3853007162
 11
2.5235683383
 21
10.3813007162
  0
LINE
  5
235
100
AcDbEntity
  8
0
100
AcDbLine
 62
9
  6
CONTINUOUS
 10
2.5870683383
 20
12.1323007162
 11
2.5870683383
 21
11.4453007162
  0
LINE
  5
236
100
AcDbEntity
  8
0
100
AcDbLine
 62
7
  6
CONTINUOUS
 10
2.6170683383
 20
12.1023007162
 11
2.6170683383
 21
11.4753007162
  0
LINE
  5
237
100
AcDbEntity
  8
0
100
AcDbLine
 62
9
  6
CONTINUOUS
 10
2.6770683383
 20
11.5388007162
 11
2.6770683383
 21
12.0388007162
  0
LINE
  5
238
100
AcDbEntity
  8
0
100
AcDbLine
 62
9
  6
CONTINUOUS
 10
2.7525683383
 20
11.2798007162
 11
2.7525683382
 21
11.2498007162
  0
LINE
  5
239
100
AcDbEntity
  8
0
100
AcDbLine
 62
9
  6
CONTINUOUS
 10
2.7525683383
 20
12.2978007162
 11
2.7525683383
 21
12.3278007162
  0
LINE
  5
23A
100
AcDbEntity
  8
0
100
AcDbLine
 62
9
  6
CONTINUOUS
 10
2.7825683383
 20
11.3098007162
 11
2.7825683383
 21
11.5388007162
  0
LINE
  5
23B
100
AcDbEntity
  8
0
100
AcDbLine
 62
9
  6
CONTINUOUS
 10
2.7825683383
 20
12.0388007162
 11
2.7825683383
 21
12.2678007162
  0
LINE
  5
23C
100
AcDbEntity
  8
0
100
AcDbLine
 62
7
  6
CONTINUOUS
 10
2.8125683383
 20
11.3098007162
 11
2.8125683383
 21
11.5388007162
  0
LINE
  5
23D
100
AcDbEntity
  8
0
100
AcDbLine
 62
7
  6
CONTINUOUS
 10
2.8125683383
 20
12.0388007162
 11
2.8125683383
 21
12.2678007162
  0
LINE
  5
23E
100
AcDbEntity
  8
0
100
AcDbLine
 62
9
  6
CONTINUOUS
 10
2.9575473206
 20
12.5614123963
 11
2.9575473206
 21
12.5318681637
  0
LINE
  5
23F
100
AcDbEntity
  8
0
100
AcDbLine
 62
9
  6
CONTINUOUS
 10
2.9575473206
 20
11.0161890362
 11
2.9575473206
 21
11.0457332688
  0
LINE
  5
240
100
AcDbEntity
  8
0
100
AcDbLine
 62
9
  6
CONTINUOUS
 10
3.0166357857
 20
11.104821734
 11
3.0166357857
 21
11.5388007162
  0
LINE
  5
241
100
AcDbEntity
  8
0
100
AcDbLine
 62
9
  6
CONTINUOUS
 10
3.0166357857
 20
12.0388007162
 11
3.0166357857
 21
12.4727796985
  0
LINE
  5
242
100
AcDbEntity
  8
0
100
AcDbLine
 62
9
  6
CONTINUOUS
 10
3.0461800183
 20
11.104821734
 11
3.0461800183
 21
11.5388007162
  0
LINE
  5
243
100
AcDbEntity
  8
0
100
AcDbLine
 62
9
  6
CONTINUOUS
 10
3.0461800183
 20
12.0388007162
 11
3.0461800183
 21
12.4727796985
  0
LINE
  5
244
100
AcDbEntity
  8
0
100
AcDbLine
 62
9
  6
CONTINUOUS
 10
3.0860683383
 20
10.9463007162
 11
3.0860683382
 21
10.9163007162
  0
LINE
  5
245
100
AcDbEntity
  8
0
100
AcDbLine
 62
9
  6
CONTINUOUS
 10
3.0860683383
 20
12.6313007162
 11
3.0860683383
 21
12.6613007162
  0
LINE
  5
246
100
AcDbEntity
  8
0
100
AcDbLine
 62
9
  6
CONTINUOUS
 10
3.1160683383
 20
10.9763007162
 11
3.1160683383
 21
11.5388007162
  0
LINE
  5
247
100
AcDbEntity
  8
0
100
AcDbLine
 62
9
  6
CONTINUOUS
 10
3.1160683383
 20
12.0388007162
 11
3.1160683383
 21
12.6013007162
  0
LINE
  5
248
100
AcDbEntity
  8
0
100
AcDbLine
 62
7
  6
CONTINUOUS
 10
3.1460683383
 20
10.9763007162
 11
3.1460683383
 21
11.5388007162
  0
LINE
  5
249
100
AcDbEntity
  8
0
100
AcDbLine
 62
7
  6
CONTINUOUS
 10
3.1460683383
 20
12.0388007162
 11
3.1460683383
 21
12.6013007162
  0
LINE
  5
24A
100
AcDbEntity
  8
0
100
AcDbLine
 62
9
  6
CONTINUOUS
 10
3.4085683383
 20
10.6238007162
 11
3.4085683382
 21
10.5938007162
  0
LINE
  5
24B
100
AcDbEntity
  8
0
100
AcDbLine
 62
9
  6
CONTINUOUS
 10
3.4085683383
 20
12.9538007162
 11
3.4085683383
 21
12.9838007162
  0
LINE
  5
24C
100
AcDbEntity
  8
0
100
AcDbLine
 62
9
  6
CONTINUOUS
 10
3.4385683383
 20
10.6538007162
 11
3.4385683383
 21
11.5388007162
  0
LINE
  5
24D
100
AcDbEntity
  8
0
100
AcDbLine
 62
9
  6
CONTINUOUS
 10
3.4385683383
 20
12.0388007162
 11
3.4385683383
 21
12.9238007162
  0
LINE
  5
24E
100
AcDbEntity
  8
0
100
AcDbLine
 62
7
  6
CONTINUOUS
 10
3.4685683383
 20
10.6538007162
 11
3.4685683383
 21
11.5388007162
  0
LINE
  5
24F
100
AcDbEntity
  8
0
100
AcDbLine
 62
7
  6
CONTINUOUS
 10
3.4685683383
 20
12.0388007162
 11
3.4685683383
 21
12.9238007162
  0
LINE
  5
250
100
AcDbEntity
  8
0
100
AcDbLine
 62
9
  6
CONTINUOUS
 10
3.6810683383
 20
12.0388007162
 11
3.6810683383
 21
11.5388007162
  0
LINE
  5
251
100
AcDbEntity
  8
0
100
AcDbLine
 62
7
  6
CONTINUOUS
 10
3.7110683383
 20
12.0088007162
 11
3.7110683383
 21
11.5688007162
  0
LINE
  5
252
100
AcDbEntity
  8
0
100
AcDbLine
 62
9
  6
CONTINUOUS
 10
6.9919371462
 20
1.5517348312
 11
6.7664801789
 21
1.7771917986
  0
LINE
  5
253
100
AcDbEntity
  8
0
100
AcDbLine
 62
7
  6
CONTINUOUS
 10
4.6485683419
 20
13.3362720868
 11
4.6485683419
 21
10.2413293456
  0
LINE
  5
254
100
AcDbEntity
  8
0
100
AcDbLine
 62
9
  6
CONTINUOUS
 10
4.7260969677
 20
10.1638007199
 11
4.7260969677
 21
13.4138007126
  0
LINE
  5
255
100
AcDbEntity
  8
0
100
AcDbLine
 62
9
  6
CONTINUOUS
 10
5.486640762
 20
11.0634236245
 11
5.1567117118
 21
10.7334945743
  0
LINE
  5
256
100
AcDbEntity
  8
0
100
AcDbLine
 62
9
  6
CONTINUOUS
 10
6.7664801789
 20
12.3432630414
 11
7.3288744802
 21
12.9056573428
  0
LINE
  5
257
100
AcDbEntity
  8
0
100
AcDbLine
 62
9
  6
CONTINUOUS
 10
5.5401807468
 20
10.9938626402
 11
5.2182621963
 21
10.6719440897
  0
LINE
  5
258
100
AcDbEntity
  8
0
100
AcDbLine
 62
9
  6
CONTINUOUS
 10
6.8280306634
 20
12.2817125568
 11
7.3904249648
 21
12.8441068582
  0
LINE
  5
259
100
AcDbEntity
  8
0
100
AcDbLine
 62
9
  6
CONTINUOUS
 10
7.0534876308
 20
1.6132853158
 11
6.8280306634
 21
1.8387422831
  0
LINE
  5
25A
100
AcDbEntity
  8
0
100
AcDbLine
 62
7
  6
CONTINUOUS
 10
4.9985683383
 20
13.0013007162
 11
4.9985683383
 21
10.5763007162
  0
LINE
  5
25B
100
AcDbEntity
  8
0
100
AcDbLine
 62
9
  6
CONTINUOUS
 10
5.0310683383
 20
13.0013007162
 11
5.0310683383
 21
10.5763007162
  0
LINE
  5
25C
100
AcDbEntity
  8
0
100
AcDbLine
 62
9
  6
CONTINUOUS
 10
5.0610683383
 20
10.5463007162
 11
5.0610683383
 21
10.5138007162
  0
LINE
  5
25D
100
AcDbEntity
  8
0
100
AcDbLine
 62
9
  6
CONTINUOUS
 10
5.0610683383
 20
13.0313007162
 11
5.0610683348
 21
13.0638007162
  0
LINE
  5
25E
100
AcDbEntity
  8
0
100
AcDbLine
 62
9
  6
CONTINUOUS
 10
5.1247054598
 20
10.7334945743
 11
5.1247054598
 21
12.8441068582
  0
LINE
  5
25F
100
AcDbEntity
  8
0
100
AcDbLine
 62
9
  6
CONTINUOUS
 10
5.1567117118
 20
10.7334945743
 11
5.1567117118
 21
12.8441068582
  0
LINE
  5
260
100
AcDbEntity
  8
0
100
AcDbLine
 62
9
  6
CONTINUOUS
 10
5.2182621963
 20
10.6719440897
 11
5.2182621963
 21
10.6399378377
  0
LINE
  5
261
100
AcDbEntity
  8
0
100
AcDbLine
 62
9
  6
CONTINUOUS
 10
5.2182621963
 20
12.9056573428
 11
5.2182621963
 21
12.9376635947
  0
LINE
  5
262
100
AcDbEntity
  8
0
100
AcDbLine
 62
7
  6
CONTINUOUS
 10
5.4926995304
 20
1.6132853158
 11
5.4926995304
 21
2.9661800972
  0
LINE
  5
263
100
AcDbEntity
  8
0
100
AcDbLine
 62
9
  6
CONTINUOUS
 10
5.4936490458
 20
1.6132853158
 11
5.4936490458
 21
2.9662608833
  0
LINE
  5
264
100
AcDbEntity
  8
0
100
AcDbLine
 62
9
  6
CONTINUOUS
 10
5.5551995304
 20
1.5507853158
 11
5.5551995304
 21
1.5517348312
  0
LINE
  5
265
100
AcDbEntity
  8
0
100
AcDbLine
 62
7
  6
CONTINUOUS
 10
5.5762300513
 20
3.4021777925
 11
5.5762300513
 21
10.6325702325
  0
LINE
  5
266
100
AcDbEntity
  8
0
100
AcDbLine
 62
9
  6
CONTINUOUS
 10
5.5771795668
 20
3.4021777925
 11
5.5771795668
 21
10.6325702325
  0
LWPOLYLINE
  5
267
100
AcDbEntity
  8
0
100
AcDbPolyline
 62
7
  6
CONTINUOUS
 90
27
 70
0
 10
5.5762300513
 20
3.4021777925
 10
5.5761004346
 20
3.3771111649
 10
5.5756695284
 20
3.35016963
 10
5.5749388733
 20
3.3234849111
 10
5.5739118242
 20
3.2971232786
 10
5.5725910468
 20
3.2711577329
 10
5.5709772603
 20
3.245657766
 10
5.5690792906
 20
3.2207916583
 10
5.5669333722
 20
3.1969623775
 10
5.5645933262
 20
3.1745648294
 10
5.56211746
 20
3.1538541832
 10
5.5595482254
 20
3.1348617657
 10
5.5569231196
 20
3.1175694203
 10
5.5542757735
 20
3.1019285562
 10
5.5516286183
 20
3.0878321506
 10
5.5489992161
 20
3.0751692928
 10
5.5464023342
 20
3.0638368569
 10
5.5438564919
 20
3.0537618965
 10
5.5413891094
 20
3.0449079247
 10
5.5390312457
 20
3.0372426809
 10
5.5368172295
 20
3.0307326159
 10
5.5347839862
 20
3.025337175
 10
5.5329735743
 20
3.0210145374
 10
5.531437744
 20
3.0177279958
 10
5.5302419296
 20
3.0154457174
 10
5.529470663
 20
3.0141393221
 10
5.5293448128
 20
3.0139441764
  0
LINE
  5
268
100
AcDbEntity
  8
0
100
AcDbLine
 62
7
  6
CONTINUOUS
 10
6.9919371462
 20
1.5507853158
 11
5.5551995304
 21
1.5507853158
  0
LINE
  5
269
100
AcDbEntity
  8
0
100
AcDbLine
 62
9
  6
CONTINUOUS
 10
6.9919371462
 20
1.5517348312
 11
5.5551995304
 21
1.5517348312
  0
LINE
  5
26A
100
AcDbEntity
  8
0
100
AcDbLine
 62
9
  6
CONTINUOUS
 10
7.0544371462
 20
1.6132853158
 11
7.0534876308
 21
1.6132853158
  0
LINE
  5
26B
100
AcDbEntity
  8
0
100
AcDbLine
 62
9
  6
CONTINUOUS
 10
5.4936490458
 20
1.6132853158
 11
5.4926995304
 21
1.6132853158
  0
LINE
  5
26C
100
AcDbEntity
  8
0
100
AcDbLine
 62
9
  6
CONTINUOUS
 10
6.7664801789
 20
1.7771917986
 11
5.7806564977
 21
1.7771917986
  0
LINE
  5
26D
100
AcDbEntity
  8
0
100
AcDbLine
 62
9
  6
CONTINUOUS
 10
6.8280306634
 20
1.8387422831
 11
5.7191060131
 21
1.8387422831
  0
LWPOLYLINE
  5
26E
100
AcDbEntity
  8
0
100
AcDbPolyline
 62
7
  6
CONTINUOUS
 90
28
 70
0
 10
7.0178924748
 20
3.0137920629
 10
7.0179206983
 20
3.013753988
 10
7.0176636124
 20
3.0141433441
 10
7.0168877929
 20
3.0154583886
 10
7.0156897311
 20
3.0177464153
 10
7.0141532406
 20
3.0210362638
 10
7.0123431356
 20
3.0253604898
 10
7.0103106818
 20
3.0307566101
 10
7.0080972998
 20
3.0372679773
 10
7.0057402505
 20
3.0449332695
 10
7.0032741908
 20
3.0537846646
 10
7.0007296756
 20
3.063856224
 10
6.9981337738
 20
3.075186087
 10
6.9955051643
 20
3.0878466748
 10
6.9928592648
 20
3.1019377922
 10
6.9902134658
 20
3.1175704751
 10
6.9875896903
 20
3.1348537
 10
6.9850208075
 20
3.1538408888
 10
6.9825446587
 20
3.1745519633
 10
6.980203379
 20
3.196961636
 10
6.9780553802
 20
3.2208162071
 10
6.976155445
 20
3.2457131964
 10
6.9745408411
 20
3.2712394482
 10
6.9732202693
 20
3.2972244312
 10
6.9721939935
 20
3.3236018975
 10
6.9714643384
 20
3.3503035974
 10
6.9710346699
 20
3.3772669739
 10
6.9709066252
 20
3.4021777926
  0
LINE
  5
26F
100
AcDbEntity
  8
0
100
AcDbLine
 62
9
  6
CONTINUOUS
 10
5.7191060131
 20
12.2817125568
 11
5.7191060131
 21
1.8387422831
  0
LINE
  5
270
100
AcDbEntity
  8
0
100
AcDbLine
 62
9
  6
CONTINUOUS
 10
5.7806564977
 20
1.7771917986
 11
5.7806564977
 21
12.3432630414
  0
LINE
  5
271
100
AcDbEntity
  8
0
100
AcDbLine
 62
7
  6
CONTINUOUS
 10
5.8860683383
 20
12.1133007162
 11
5.8860683383
 21
11.4643007162
  0
LINE
  5
272
100
AcDbEntity
  8
0
100
AcDbLine
 62
9
  6
CONTINUOUS
 10
5.9160683383
 20
12.1133007162
 11
5.9160683383
 21
11.4643007162
  0
LINE
  5
273
100
AcDbEntity
  8
0
100
AcDbLine
 62
9
  6
CONTINUOUS
 10
5.9490683383
 20
11.4313007162
 11
5.9490683383
 21
11.4013007162
  0
LINE
  5
274
100
AcDbEntity
  8
0
100
AcDbLine
 62
9
  6
CONTINUOUS
 10
5.9490683383
 20
12.1463007162
 11
5.9490683383
 21
12.1763007162
  0
LINE
  5
275
100
AcDbEntity
  8
0
100
AcDbLine
 62
9
  6
CONTINUOUS
 10
6.5980683383
 20
11.4313007162
 11
6.5980683382
 21
11.4013007162
  0
LINE
  5
276
100
AcDbEntity
  8
0
100
AcDbLine
 62
9
  6
CONTINUOUS
 10
6.5980683383
 20
12.1463007162
 11
6.5980683383
 21
12.1763007162
  0
LINE
  5
277
100
AcDbEntity
  8
0
100
AcDbLine
 62
9
  6
CONTINUOUS
 10
6.6310683383
 20
11.4643007162
 11
6.6310683383
 21
12.1133007162
  0
LINE
  5
278
100
AcDbEntity
  8
0
100
AcDbLine
 62
7
  6
CONTINUOUS
 10
6.6610683383
 20
11.4643007162
 11
6.6610683383
 21
12.1133007162
  0
LINE
  5
279
100
AcDbEntity
  8
0
100
AcDbLine
 62
9
  6
CONTINUOUS
 10
6.7664801789
 20
1.7771917986
 11
6.7664801789
 21
12.3432630414
  0
LINE
  5
27A
100
AcDbEntity
  8
0
100
AcDbLine
 62
9
  6
CONTINUOUS
 10
6.8280306634
 20
1.8387422831
 11
6.8280306634
 21
12.2817125568
  0
LINE
  5
27B
100
AcDbEntity
  8
0
100
AcDbLine
 62
9
  6
CONTINUOUS
 10
6.9699571098
 20
10.6325702325
 11
6.9699571098
 21
3.4021777925
  0
LINE
  5
27C
100
AcDbEntity
  8
0
100
AcDbLine
 62
7
  6
CONTINUOUS
 10
6.9709066252
 20
10.6325702325
 11
6.9709066252
 21
3.4021777926
  0
LINE
  5
27D
100
AcDbEntity
  8
0
100
AcDbLine
 62
9
  6
CONTINUOUS
 10
6.9919371462
 20
1.5517348312
 11
6.9919371462
 21
1.5507853158
  0
LINE
  5
27E
100
AcDbEntity
  8
0
100
AcDbLine
 62
9
  6
CONTINUOUS
 10
7.0534876308
 20
2.9665025777
 11
7.0534876308
 21
1.6132853158
  0
LINE
  5
27F
100
AcDbEntity
  8
0
100
AcDbLine
 62
7
  6
CONTINUOUS
 10
7.0544371462
 20
2.9661800972
 11
7.0544371462
 21
1.6132853158
  0
LWPOLYLINE
  5
280
100
AcDbEntity
  8
0
100
AcDbPolyline
 62
7
  6
CONTINUOUS
 90
26
 70
0
 10
6.9709066252
 20
10.6325702325
 10
6.9710393252
 20
10.6579328869
 10
6.9714800767
 20
10.6851718168
 10
6.9722271734
 20
10.7121443602
 10
6.9732765879
 20
10.7387715743
 10
6.9746247313
 20
10.7649702121
 10
6.9762694693
 20
10.7906597283
 10
6.9782045488
 20
10.8157162074
 10
6.9804009884
 20
10.8398056157
 10
6.9828112041
 20
10.8625570167
 10
6.9853764172
 20
10.8836733507
 10
6.9880482705
 20
10.9030576665
 10
6.9907871241
 20
10.9207101738
 10
6.9935540777
 20
10.9366510405
 10
6.9963186089
 20
10.9509543918
 10
6.9990602833
 20
10.9637335512
 10
7.0017617389
 20
10.9750957686
 10
7.0044045405
 20
10.9851287173
 10
7.0069580769
 20
10.993870653
 10
7.0093803465
 20
11.0013347933
 10
7.01162474
 20
11.0075438058
 10
7.0136371848
 20
11.012525973
 10
7.0153533356
 20
11.0163130435
 10
7.0166971114
 20
11.0189442034
 10
7.0175822574
 20
11.020475242
 10
7.0177379841
 20
11.0207211627
  0
LINE
  5
281
100
AcDbEntity
  8
0
100
AcDbLine
 62
9
  6
CONTINUOUS
 10
5.4926995304
 20
2.9661800972
 11
5.4936490458
 21
2.9661800972
  0
LINE
  5
282
100
AcDbEntity
  8
0
100
AcDbLine
 62
9
  6
CONTINUOUS
 10
7.0534876308
 20
2.9661800972
 11
7.0544371462
 21
2.9661800972
  0
LINE
  5
283
100
AcDbEntity
  8
0
100
AcDbLine
 62
9
  6
CONTINUOUS
 10
6.9709066252
 20
3.4021777926
 11
6.9699571098
 21
3.4021777925
  0
LINE
  5
284
100
AcDbEntity
  8
0
100
AcDbLine
 62
9
  6
CONTINUOUS
 10
5.5762300513
 20
3.4021777925
 11
5.5771795668
 21
3.4021777925
  0
LINE
  5
285
100
AcDbEntity
  8
0
100
AcDbLine
 62
9
  6
CONTINUOUS
 10
7.3288744802
 20
10.6719440897
 11
7.3288744802
 21
10.6399378377
  0
LINE
  5
286
100
AcDbEntity
  8
0
100
AcDbLine
 62
9
  6
CONTINUOUS
 10
7.3288744802
 20
12.9056573428
 11
7.3288744802
 21
12.9376635947
  0
LINE
  5
287
100
AcDbEntity
  8
0
100
AcDbLine
 62
9
  6
CONTINUOUS
 10
7.3904249648
 20
12.8441068582
 11
7.3904249648
 21
10.7334945743
  0
LINE
  5
288
100
AcDbEntity
  8
0
100
AcDbLine
 62
9
  6
CONTINUOUS
 10
7.4224312168
 20
12.8441068582
 11
7.4224312168
 21
10.7334945743
  0
LINE
  5
289
100
AcDbEntity
  8
0
100
AcDbLine
 62
9
  6
CONTINUOUS
 10
7.4860683383
 20
13.0313007162
 11
7.4860683383
 21
13.0638007162
  0
LINE
  5
28A
100
AcDbEntity
  8
0
100
AcDbLine
 62
9
  6
CONTINUOUS
 10
7.4860683383
 20
10.5463007162
 11
7.4860683418
 21
10.5138007162
  0
LINE
  5
28B
100
AcDbEntity
  8
0
100
AcDbLine
 62
9
  6
CONTINUOUS
 10
7.5160683383
 20
10.5763007162
 11
7.5160683383
 21
13.0013007162
  0
LINE
  5
28C
100
AcDbEntity
  8
0
100
AcDbLine
 62
7
  6
CONTINUOUS
 10
7.5485683383
 20
10.5763007162
 11
7.5485683383
 21
13.0013007162
  0
LINE
  5
28D
100
AcDbEntity
  8
0
100
AcDbLine
 62
9
  6
CONTINUOUS
 10
7.8210397088
 20
10.1638007199
 11
7.8210397089
 21
13.4138007126
  0
LINE
  5
28E
100
AcDbEntity
  8
0
100
AcDbLine
 62
7
  6
CONTINUOUS
 10
7.8985683347
 20
10.2413293456
 11
7.8985683347
 21
13.3362720868
  0
LINE
  5
28F
100
AcDbEntity
  8
0
100
AcDbLine
 62
9
  6
CONTINUOUS
 10
10.9575473206
 20
12.5318681637
 11
10.7534314044
 21
12.3277522475
  0
LINE
  5
290
100
AcDbEntity
  8
0
100
AcDbLine
 62
9
  6
CONTINUOUS
 10
9.5305008908
 20
11.104821734
 11
9.734616807
 21
11.3089376502
  0
LINE
  5
291
100
AcDbEntity
  8
0
100
AcDbLine
 62
9
  6
CONTINUOUS
 10
11.0166357857
 20
12.4727796985
 11
10.8125198695
 21
12.2686637823
  0
LINE
  5
292
100
AcDbEntity
  8
0
100
AcDbLine
 62
9
  6
CONTINUOUS
 10
9.589589356
 20
11.0457332688
 11
9.7937052722
 21
11.249849185
  0
LINE
  5
293
100
AcDbEntity
  8
0
100
AcDbLine
 62
9
  6
CONTINUOUS
 10
1.5305008908
 20
12.4727796985
 11
1.7346136121
 21
12.2686669772
  0
LINE
  5
294
100
AcDbEntity
  8
0
100
AcDbLine
 62
9
  6
CONTINUOUS
 10
2.9575473206
 20
11.0457332688
 11
2.7534346587
 21
11.2498459306
  0
LINE
  5
295
100
AcDbEntity
  8
0
100
AcDbLine
 62
9
  6
CONTINUOUS
 10
1.589589356
 20
12.5318681637
 11
1.793702017
 21
12.3277555027
  0
LINE
  5
296
100
AcDbEntity
  8
0
100
AcDbLine
 62
9
  6
CONTINUOUS
 10
3.0166357857
 20
11.104821734
 11
2.8125230657
 21
11.308934454
  0
LWPOLYLINE
  5
297
100
AcDbEntity
  8
0
100
AcDbPolyline
 62
7
  6
CONTINUOUS
 90
27
 70
0
 10
5.5292279689
 20
11.020977714
 10
5.5292158655
 20
11.0209941744
 10
5.5295559526
 20
11.020472472
 10
5.5304441368
 20
11.018935634
 10
5.5317889714
 20
11.0163016103
 10
5.5335052146
 20
11.0125132589
 10
5.5355174711
 20
11.0075300261
 10
5.5377618684
 20
11.0013188053
 10
5.5401848479
 20
10.9938499986
 10
5.5427385424
 20
10.9851053282
 10
5.5453812294
 20
10.9750705824
 10
5.5480825852
 20
10.9637062348
 10
5.5508242585
 20
10.9509241286
 10
5.5535882504
 20
10.9366202336
 10
5.5563540946
 20
10.92068215
 10
5.5590919792
 20
10.9030326857
 10
5.5617639181
 20
10.8836457581
 10
5.5643299402
 20
10.8625189248
 10
5.5667415851
 20
10.8397458732
 10
5.5689394963
 20
10.8156281759
 10
5.5708753587
 20
10.7905454475
 10
5.5725195994
 20
10.7648395355
 10
5.5738664437
 20
10.7386324844
 10
5.5749142571
 20
10.712000585
 10
5.5756597974
 20
10.6850217514
 10
5.576099014
 20
10.6577702831
 10
5.5762300513
 20
10.6325702325
  0
LINE
  5
298
100
AcDbEntity
  8
0
100
AcDbLine
 62
7
  6
CONTINUOUS
 10
8.8360683383
 20
11.5688007162
 11
8.8360683383
 21
12.0088007162
  0
LINE
  5
299
100
AcDbEntity
  8
0
100
AcDbLine
 62
9
  6
CONTINUOUS
 10
8.8660683383
 20
11.5388007162
 11
8.8660683383
 21
12.0388007162
  0
LINE
  5
29A
100
AcDbEntity
  8
0
100
AcDbLine
 62
7
  6
CONTINUOUS
 10
9.0785683383
 20
12.9238007162
 11
9.0785683383
 21
12.0388007162
  0
LINE
  5
29B
100
AcDbEntity
  8
0
100
AcDbLine
 62
7
  6
CONTINUOUS
 10
9.0785683383
 20
11.5388007162
 11
9.0785683383
 21
10.6538007162
  0
LINE
  5
29C
100
AcDbEntity
  8
0
100
AcDbLine
 62
9
  6
CONTINUOUS
 10
9.1085683383
 20
12.9238007162
 11
9.1085683383
 21
12.0388007162
  0
LINE
  5
29D
100
AcDbEntity
  8
0
100
AcDbLine
 62
9
  6
CONTINUOUS
 10
9.1085683383
 20
11.5388007162
 11
9.1085683383
 21
10.6538007162
  0
LINE
  5
29E
100
AcDbEntity
  8
0
100
AcDbLine
 62
9
  6
CONTINUOUS
 10
9.1385683383
 20
12.9538007162
 11
9.1385683383
 21
12.9838007162
  0
LINE
  5
29F
100
AcDbEntity
  8
0
100
AcDbLine
 62
9
  6
CONTINUOUS
 10
9.1385683383
 20
10.6238007162
 11
9.1385683383
 21
10.5938007162
  0
LINE
  5
2A0
100
AcDbEntity
  8
0
100
AcDbLine
 62
7
  6
CONTINUOUS
 10
9.4010683383
 20
12.6013007162
 11
9.4010683383
 21
12.0388007162
  0
LINE
  5
2A1
100
AcDbEntity
  8
0
100
AcDbLine
 62
7
  6
CONTINUOUS
 10
9.4010683383
 20
11.5388007162
 11
9.4010683383
 21
10.9763007162
  0
LINE
  5
2A2
100
AcDbEntity
  8
0
100
AcDbLine
 62
9
  6
CONTINUOUS
 10
9.4310683383
 20
12.6013007162
 11
9.4310683383
 21
12.0388007162
  0
LINE
  5
2A3
100
AcDbEntity
  8
0
100
AcDbLine
 62
9
  6
CONTINUOUS
 10
9.4310683383
 20
11.5388007162
 11
9.4310683383
 21
10.9763007162
  0
LINE
  5
2A4
100
AcDbEntity
  8
0
100
AcDbLine
 62
9
  6
CONTINUOUS
 10
9.4610683383
 20
10.9463007162
 11
9.4610683383
 21
10.9163007162
  0
LINE
  5
2A5
100
AcDbEntity
  8
0
100
AcDbLine
 62
9
  6
CONTINUOUS
 10
9.4610683383
 20
12.6313007162
 11
9.4610683384
 21
12.6613007162
  0
LINE
  5
2A6
100
AcDbEntity
  8
0
100
AcDbLine
 62
9
  6
CONTINUOUS
 10
9.5009566582
 20
12.4727796985
 11
9.5009566582
 21
12.0388007162
  0
LINE
  5
2A7
100
AcDbEntity
  8
0
100
AcDbLine
 62
9
  6
CONTINUOUS
 10
9.5009566582
 20
11.5388007162
 11
9.5009566582
 21
11.104821734
  0
LINE
  5
2A8
100
AcDbEntity
  8
0
100
AcDbLine
 62
9
  6
CONTINUOUS
 10
9.5305008908
 20
12.4727796985
 11
9.5305008908
 21
12.0388007162
  0
LINE
  5
2A9
100
AcDbEntity
  8
0
100
AcDbLine
 62
9
  6
CONTINUOUS
 10
9.5305008908
 20
11.5388007162
 11
9.5305008908
 21
11.104821734
  0
LINE
  5
2AA
100
AcDbEntity
  8
0
100
AcDbLine
 62
7
  6
CONTINUOUS
 10
19.8385683383
 20
5.3408107782
 11
20.7085683383
 21
5.3408107782
  0
LINE
  5
2AB
100
AcDbEntity
  8
0
100
AcDbLine
 62
9
  6
CONTINUOUS
 10
19.8385683383
 20
5.3443829021
 11
20.7085683383
 21
5.3443829021
  0
LINE
  5
2AC
100
AcDbEntity
  8
0
100
AcDbLine
 62
7
  6
CONTINUOUS
 10
19.8900683383
 20
5.3623435242
 11
20.6570683383
 21
5.3623435242
  0
LINE
  5
2AD
100
AcDbEntity
  8
0
100
AcDbLine
 62
9
  6
CONTINUOUS
 10
19.8900683383
 20
5.3659156481
 11
20.6570683383
 21
5.3659156481
  0
LINE
  5
2AE
100
AcDbEntity
  8
0
100
AcDbLine
 62
9
  6
CONTINUOUS
 10
9.589589356
 20
12.5614123963
 11
9.589589356
 21
12.5318681637
  0
LINE
  5
2AF
100
AcDbEntity
  8
0
100
AcDbLine
 62
9
  6
CONTINUOUS
 10
9.589589356
 20
11.0161890362
 11
9.589589356
 21
11.0457332688
  0
LINE
  5
2B0
100
AcDbEntity
  8
0
100
AcDbLine
 62
7
  6
CONTINUOUS
 10
9.7345683383
 20
12.2678007162
 11
9.7345683383
 21
12.0388007162
  0
LINE
  5
2B1
100
AcDbEntity
  8
0
100
AcDbLine
 62
7
  6
CONTINUOUS
 10
9.7345683383
 20
11.5388007162
 11
9.7345683383
 21
11.3098007162
  0
LINE
  5
2B2
100
AcDbEntity
  8
0
100
AcDbLine
 62
9
  6
CONTINUOUS
 10
9.7645683383
 20
12.2678007162
 11
9.7645683383
 21
12.0388007162
  0
LINE
  5
2B3
100
AcDbEntity
  8
0
100
AcDbLine
 62
9
  6
CONTINUOUS
 10
9.7645683383
 20
11.5388007162
 11
9.7645683383
 21
11.3098007162
  0
LINE
  5
2B4
100
AcDbEntity
  8
0
100
AcDbLine
 62
9
  6
CONTINUOUS
 10
9.7945683383
 20
12.2978007162
 11
9.7945683384
 21
12.3278007162
  0
LINE
  5
2B5
100
AcDbEntity
  8
0
100
AcDbLine
 62
9
  6
CONTINUOUS
 10
9.7945683383
 20
11.2798007162
 11
9.7945683383
 21
11.2498007162
  0
LINE
  5
2B6
100
AcDbEntity
  8
0
100
AcDbLine
 62
9
  6
CONTINUOUS
 10
9.8700683383
 20
12.0388007162
 11
9.8700683383
 21
11.5388007162
  0
LINE
  5
2B7
100
AcDbEntity
  8
0
100
AcDbLine
 62
7
  6
CONTINUOUS
 10
9.9300683383
 20
11.4753007162
 11
9.9300683383
 21
12.1023007162
  0
LINE
  5
2B8
100
AcDbEntity
  8
0
100
AcDbLine
 62
9
  6
CONTINUOUS
 10
9.9600683383
 20
11.4453007162
 11
9.9600683383
 21
12.1323007162
  0
LINE
  5
2B9
100
AcDbEntity
  8
0
100
AcDbLine
 62
7
  6
CONTINUOUS
 10
10.0235683383
 20
10.3813007162
 11
10.0235683383
 21
11.3853007162
  0
LINE
  5
2BA
100
AcDbEntity
  8
0
100
AcDbLine
 62
7
  6
CONTINUOUS
 10
10.0235683383
 20
12.1923007162
 11
10.0235683383
 21
13.1963007162
  0
LINE
  5
2BB
100
AcDbEntity
  8
0
100
AcDbLine
 62
9
  6
CONTINUOUS
 10
10.0535683383
 20
10.3513007162
 11
10.0535683383
 21
11.4453007162
  0
LINE
  5
2BC
100
AcDbEntity
  8
0
100
AcDbLine
 62
9
  6
CONTINUOUS
 10
10.0535683383
 20
12.1323007162
 11
10.0535683383
 21
13.2263007162
  0
LINE
  5
2BD
100
AcDbEntity
  8
0
100
AcDbLine
 62
9
  6
CONTINUOUS
 10
20.6570683383
 20
6.0607179581
 11
19.8900683383
 21
6.0607179581
  0
LINE
  5
2BE
100
AcDbEntity
  8
0
100
AcDbLine
 62
7
  6
CONTINUOUS
 10
19.8900683383
 20
6.0748062786
 11
20.6570683383
 21
6.0748062786
  0
LINE
  5
2BF
100
AcDbEntity
  8
0
100
AcDbLine
 62
9
  6
CONTINUOUS
 10
20.7085683383
 20
6.0951064563
 11
19.8385683383
 21
6.0951064563
  0
LINE
  5
2C0
100
AcDbEntity
  8
0
100
AcDbLine
 62
9
  6
CONTINUOUS
 10
20.7085683383
 20
6.1091947769
 11
19.8385683383
 21
6.1091947769
  0
LINE
  5
2C1
100
AcDbEntity
  8
0
100
AcDbLine
 62
9
  6
CONTINUOUS
 10
10.4935683383
 20
10.3513007162
 11
10.4935683383
 21
11.4453007162
  0
LINE
  5
2C2
100
AcDbEntity
  8
0
100
AcDbLine
 62
9
  6
CONTINUOUS
 10
10.4935683383
 20
12.1323007162
 11
10.4935683383
 21
13.2263007162
  0
LINE
  5
2C3
100
AcDbEntity
  8
0
100
AcDbLine
 62
7
  6
CONTINUOUS
 10
10.5235683383
 20
10.3813007162
 11
10.5235683383
 21
11.3853007162
  0
LINE
  5
2C4
100
AcDbEntity
  8
0
100
AcDbLine
 62
7
  6
CONTINUOUS
 10
10.5235683383
 20
12.1923007162
 11
10.5235683383
 21
13.1963007162
  0
LINE
  5
2C5
100
AcDbEntity
  8
0
100
AcDbLine
 62
9
  6
CONTINUOUS
 10
10.5870683383
 20
12.1323007162
 11
10.5870683383
 21
11.4453007162
  0
LINE
  5
2C6
100
AcDbEntity
  8
0
100
AcDbLine
 62
7
  6
CONTINUOUS
 10
10.6170683383
 20
12.1023007162
 11
10.6170683383
 21
11.4753007162
  0
LINE
  5
2C7
100
AcDbEntity
  8
0
100
AcDbLine
 62
9
  6
CONTINUOUS
 10
10.6770683383
 20
11.5388007162
 11
10.6770683383
 21
12.0388007162
  0
LINE
  5
2C8
100
AcDbEntity
  8
0
100
AcDbLine
 62
9
  6
CONTINUOUS
 10
10.7525683383
 20
11.2798007162
 11
10.7525683382
 21
11.2498007162
  0
LINE
  5
2C9
100
AcDbEntity
  8
0
100
AcDbLine
 62
9
  6
CONTINUOUS
 10
10.7525683383
 20
12.2978007162
 11
10.7525683383
 21
12.3278007162
  0
LINE
  5
2CA
100
AcDbEntity
  8
0
100
AcDbLine
 62
9
  6
CONTINUOUS
 10
10.7825683383
 20
11.3098007162
 11
10.7825683383
 21
11.5388007162
  0
LINE
  5
2CB
100
AcDbEntity
  8
0
100
AcDbLine
 62
9
  6
CONTINUOUS
 10
10.7825683383
 20
12.0388007162
 11
10.7825683383
 21
12.2678007162
  0
LINE
  5
2CC
100
AcDbEntity
  8
0
100
AcDbLine
 62
7
  6
CONTINUOUS
 10
10.8125683383
 20
11.3098007162
 11
10.8125683383
 21
11.5388007162
  0
LINE
  5
2CD
100
AcDbEntity
  8
0
100
AcDbLine
 62
7
  6
CONTINUOUS
 10
10.8125683383
 20
12.0388007162
 11
10.8125683383
 21
12.2678007162
  0
LINE
  5
2CE
100
AcDbEntity
  8
0
100
AcDbLine
 62
9
  6
CONTINUOUS
 10
10.9575473206
 20
12.5614123963
 11
10.9575473206
 21
12.5318681637
  0
LINE
  5
2CF
100
AcDbEntity
  8
0
100
AcDbLine
 62
9
  6
CONTINUOUS
 10
10.9575473206
 20
11.0161890362
 11
10.9575473206
 21
11.0457332688
  0
LINE
  5
2D0
100
AcDbEntity
  8
0
100
AcDbLine
 62
9
  6
CONTINUOUS
 10
11.0166357857
 20
11.104821734
 11
11.0166357857
 21
11.5388007162
  0
LINE
  5
2D1
100
AcDbEntity
  8
0
100
AcDbLine
 62
9
  6
CONTINUOUS
 10
11.0166357857
 20
12.0388007162
 11
11.0166357857
 21
12.4727796985
  0
LINE
  5
2D2
100
AcDbEntity
  8
0
100
AcDbLine
 62
9
  6
CONTINUOUS
 10
11.0461800183
 20
11.104821734
 11
11.0461800183
 21
11.5388007162
  0
LINE
  5
2D3
100
AcDbEntity
  8
0
100
AcDbLine
 62
9
  6
CONTINUOUS
 10
11.0461800183
 20
12.0388007162
 11
11.0461800183
 21
12.4727796985
  0
LINE
  5
2D4
100
AcDbEntity
  8
0
100
AcDbLine
 62
9
  6
CONTINUOUS
 10
11.0860683383
 20
10.9463007162
 11
11.0860683382
 21
10.9163007162
  0
LINE
  5
2D5
100
AcDbEntity
  8
0
100
AcDbLine
 62
9
  6
CONTINUOUS
 10
11.0860683383
 20
12.6313007162
 11
11.0860683383
 21
12.6613007162
  0
LINE
  5
2D6
100
AcDbEntity
  8
0
100
AcDbLine
 62
9
  6
CONTINUOUS
 10
11.1160683383
 20
10.9763007162
 11
11.1160683383
 21
11.5388007162
  0
LINE
  5
2D7
100
AcDbEntity
  8
0
100
AcDbLine
 62
9
  6
CONTINUOUS
 10
11.1160683383
 20
12.0388007162
 11
11.1160683383
 21
12.6013007162
  0
LINE
  5
2D8
100
AcDbEntity
  8
0
100
AcDbLine
 62
7
  6
CONTINUOUS
 10
11.1460683383
 20
10.9763007162
 11
11.1460683383
 21
11.5388007162
  0
LINE
  5
2D9
100
AcDbEntity
  8
0
100
AcDbLine
 62
7
  6
CONTINUOUS
 10
11.1460683383
 20
12.0388007162
 11
11.1460683383
 21
12.6013007162
  0
LINE
  5
2DA
100
AcDbEntity
  8
0
100
AcDbLine
 62
9
  6
CONTINUOUS
 10
15.9575473206
 20
12.5318681637
 11
15.7534345989
 21
12.327755442
  0
LINE
  5
2DB
100
AcDbEntity
  8
0
100
AcDbLine
 62
9
  6
CONTINUOUS
 10
14.5305008908
 20
11.104821734
 11
14.7346135531
 21
11.3089343962
  0
LINE
  5
2DC
100
AcDbEntity
  8
0
100
AcDbLine
 62
9
  6
CONTINUOUS
 10
16.0166357857
 20
12.4727796985
 11
15.8125231251
 21
12.2686670379
  0
LINE
  5
2DD
100
AcDbEntity
  8
0
100
AcDbLine
 62
9
  6
CONTINUOUS
 10
14.589589356
 20
11.0457332688
 11
14.7937020762
 21
11.249845989
  0
LINE
  5
2DE
100
AcDbEntity
  8
0
100
AcDbLine
 62
9
  6
CONTINUOUS
 10
5.1567117118
 20
12.8441068582
 11
5.7191060131
 21
12.2817125568
  0
LINE
  5
2DF
100
AcDbEntity
  8
0
100
AcDbLine
 62
9
  6
CONTINUOUS
 10
7.3288744802
 20
10.6719440897
 11
7.0069557801
 21
10.9938627899
  0
LINE
  5
2E0
100
AcDbEntity
  8
0
100
AcDbLine
 62
9
  6
CONTINUOUS
 10
5.2182621963
 20
12.9056573428
 11
5.7806564977
 21
12.3432630414
  0
LINE
  5
2E1
100
AcDbEntity
  8
0
100
AcDbLine
 62
9
  6
CONTINUOUS
 10
7.3904249648
 20
10.7334945743
 11
7.0604959146
 21
11.0634236245
  0
LINE
  5
2E2
100
AcDbEntity
  8
0
100
AcDbLine
 62
9
  6
CONTINUOUS
 10
11.4085683383
 20
10.6238007162
 11
11.4085683382
 21
10.5938007162
  0
LINE
  5
2E3
100
AcDbEntity
  8
0
100
AcDbLine
 62
9
  6
CONTINUOUS
 10
11.4085683383
 20
12.9538007162
 11
11.4085683383
 21
12.9838007162
  0
LINE
  5
2E4
100
AcDbEntity
  8
0
100
AcDbLine
 62
9
  6
CONTINUOUS
 10
11.4385683383
 20
10.6538007162
 11
11.4385683383
 21
11.5388007162
  0
LINE
  5
2E5
100
AcDbEntity
  8
0
100
AcDbLine
 62
9
  6
CONTINUOUS
 10
11.4385683383
 20
12.0388007162
 11
11.4385683383
 21
12.9238007162
  0
LINE
  5
2E6
100
AcDbEntity
  8
0
100
AcDbLine
 62
7
  6
CONTINUOUS
 10
11.4685683383
 20
10.6538007162
 11
11.4685683383
 21
11.5388007162
  0
LINE
  5
2E7
100
AcDbEntity
  8
0
100
AcDbLine
 62
7
  6
CONTINUOUS
 10
11.4685683383
 20
12.0388007162
 11
11.4685683383
 21
12.9238007162
  0
LINE
  5
2E8
100
AcDbEntity
  8
0
100
AcDbLine
 62
9
  6
CONTINUOUS
 10
11.6810683383
 20
12.0388007162
 11
11.6810683383
 21
11.5388007162
  0
LINE
  5
2E9
100
AcDbEntity
  8
0
100
AcDbLine
 62
7
  6
CONTINUOUS
 10
11.7110683383
 20
12.0088007162
 11
11.7110683383
 21
11.5688007162
  0
LINE
  5
2EA
100
AcDbEntity
  8
0
100
AcDbLine
 62
9
  6
CONTINUOUS
 10
5.7191060131
 20
1.8387422831
 11
5.4936490458
 21
1.6132853158
  0
LINE
  5
2EB
100
AcDbEntity
  8
0
100
AcDbLine
 62
9
  6
CONTINUOUS
 10
5.7806564977
 20
1.7771917986
 11
5.5551995304
 21
1.5517348312
  0
LINE
  5
2EC
100
AcDbEntity
  8
0
100
AcDbLine
 62
9
  6
CONTINUOUS
 10
9.5305008908
 20
12.4727796985
 11
9.734616807
 21
12.2686637823
  0
LINE
  5
2ED
100
AcDbEntity
  8
0
100
AcDbLine
 62
9
  6
CONTINUOUS
 10
10.9575473206
 20
11.0457332688
 11
10.7534314044
 21
11.249849185
  0
LINE
  5
2EE
100
AcDbEntity
  8
0
100
AcDbLine
 62
7
  6
CONTINUOUS
 10
13.8360683383
 20
11.5688007162
 11
13.8360683383
 21
12.0088007162
  0
LINE
  5
2EF
100
AcDbEntity
  8
0
100
AcDbLine
 62
9
  6
CONTINUOUS
 10
13.8660683383
 20
11.5388007162
 11
13.8660683383
 21
12.0388007162
  0
LINE
  5
2F0
100
AcDbEntity
  8
0
100
AcDbLine
 62
7
  6
CONTINUOUS
 10
14.0785683383
 20
12.9238007162
 11
14.0785683383
 21
12.0388007162
  0
LINE
  5
2F1
100
AcDbEntity
  8
0
100
AcDbLine
 62
7
  6
CONTINUOUS
 10
14.0785683383
 20
11.5388007162
 11
14.0785683383
 21
10.6538007162
  0
LINE
  5
2F2
100
AcDbEntity
  8
0
100
AcDbLine
 62
9
  6
CONTINUOUS
 10
14.1085683383
 20
12.9238007162
 11
14.1085683383
 21
12.0388007162
  0
LINE
  5
2F3
100
AcDbEntity
  8
0
100
AcDbLine
 62
9
  6
CONTINUOUS
 10
14.1085683383
 20
11.5388007162
 11
14.1085683383
 21
10.6538007162
  0
LINE
  5
2F4
100
AcDbEntity
  8
0
100
AcDbLine
 62
9
  6
CONTINUOUS
 10
14.1385683383
 20
10.6238007162
 11
14.1385683383
 21
10.5938007162
  0
LINE
  5
2F5
100
AcDbEntity
  8
0
100
AcDbLine
 62
9
  6
CONTINUOUS
 10
14.1385683383
 20
12.9538007162
 11
14.1385683383
 21
12.9838007162
  0
LINE
  5
2F6
100
AcDbEntity
  8
0
100
AcDbLine
 62
7
  6
CONTINUOUS
 10
4.7260969677
 20
10.1638007199
 11
5.5762300513
 21
10.1638007199
  0
LINE
  5
2F7
100
AcDbEntity
  8
0
100
AcDbLine
 62
7
  6
CONTINUOUS
 10
6.9709066252
 20
10.1638007199
 11
7.8210397089
 21
10.1638007199
  0
LINE
  5
2F8
100
AcDbEntity
  8
0
100
AcDbLine
 62
9
  6
CONTINUOUS
 10
4.6485683419
 20
10.2413293457
 11
5.5762300513
 21
10.2413293456
  0
LINE
  5
2F9
100
AcDbEntity
  8
0
100
AcDbLine
 62
9
  6
CONTINUOUS
 10
6.9709066252
 20
10.2413293456
 11
7.8985683347
 21
10.2413293456
  0
LINE
  5
2FA
100
AcDbEntity
  8
0
100
AcDbLine
 62
7
  6
CONTINUOUS
 10
15.4935683383
 20
10.3513007162
 11
15.0535683383
 21
10.3513007162
  0
LINE
  5
2FB
100
AcDbEntity
  8
0
100
AcDbLine
 62
7
  6
CONTINUOUS
 10
10.4935683383
 20
10.3513007162
 11
10.0535683383
 21
10.3513007162
  0
LINE
  5
2FC
100
AcDbEntity
  8
0
100
AcDbLine
 62
7
  6
CONTINUOUS
 10
2.4935683383
 20
10.3513007162
 11
2.0535683383
 21
10.3513007162
  0
LINE
  5
2FD
100
AcDbEntity
  8
0
100
AcDbLine
 62
9
  6
CONTINUOUS
 10
15.5235683383
 20
10.3813007162
 11
15.0235683383
 21
10.3813007162
  0
LINE
  5
2FE
100
AcDbEntity
  8
0
100
AcDbLine
 62
9
  6
CONTINUOUS
 10
10.5235683383
 20
10.3813007162
 11
10.0235683383
 21
10.3813007162
  0
LINE
  5
2FF
100
AcDbEntity
  8
0
100
AcDbLine
 62
9
  6
CONTINUOUS
 10
2.5235683383
 20
10.3813007162
 11
2.0235683383
 21
10.3813007162
  0
LINE
  5
300
100
AcDbEntity
  8
0
100
AcDbLine
 62
7
  6
CONTINUOUS
 10
5.0610683383
 20
10.5138007162
 11
5.5762300513
 21
10.5138007162
  0
LINE
  5
301
100
AcDbEntity
  8
0
100
AcDbLine
 62
7
  6
CONTINUOUS
 10
6.9709066252
 20
10.5138007162
 11
7.4860683383
 21
10.5138007162
  0
LINE
  5
302
100
AcDbEntity
  8
0
100
AcDbLine
 62
7
  6
CONTINUOUS
 10
19.3285683383
 20
10.5388007162
 11
19.7735683383
 21
10.5388007162
  0
LINE
  5
303
100
AcDbEntity
  8
0
100
AcDbLine
 62
7
  6
CONTINUOUS
 10
20.7735683383
 20
10.5388007162
 11
21.2185683383
 21
10.5388007162
  0
LINE
  5
304
100
AcDbEntity
  8
0
100
AcDbLine
 62
9
  6
CONTINUOUS
 10
5.0610683383
 20
10.5463007162
 11
5.5762300513
 21
10.5463007162
  0
LINE
  5
305
100
AcDbEntity
  8
0
100
AcDbLine
 62
9
  6
CONTINUOUS
 10
6.9709066252
 20
10.5463007162
 11
7.4860683383
 21
10.5463007162
  0
LINE
  5
306
100
AcDbEntity
  8
0
100
AcDbLine
 62
9
  6
CONTINUOUS
 10
7.5160683383
 20
10.5763007162
 11
7.5485683383
 21
10.5763007162
  0
LINE
  5
307
100
AcDbEntity
  8
0
100
AcDbLine
 62
9
  6
CONTINUOUS
 10
5.0310683383
 20
10.5763007162
 11
4.9985683383
 21
10.5763007127
  0
LINE
  5
308
100
AcDbEntity
  8
0
100
AcDbLine
 62
9
  6
CONTINUOUS
 10
19.2885683383
 20
10.5788007162
 11
19.7735683383
 21
10.5788007162
  0
LINE
  5
309
100
AcDbEntity
  8
0
100
AcDbLine
 62
9
  6
CONTINUOUS
 10
20.7735683383
 20
10.5788007162
 11
21.2585683383
 21
10.5788007162
  0
LINE
  5
30A
100
AcDbEntity
  8
0
100
AcDbLine
 62
7
  6
CONTINUOUS
 10
1.1385683383
 20
10.5938007162
 11
2.0235683383
 21
10.5938007162
  0
LINE
  5
30B
100
AcDbEntity
  8
0
100
AcDbLine
 62
7
  6
CONTINUOUS
 10
2.5235683383
 20
10.5938007162
 11
3.4085683383
 21
10.5938007162
  0
LINE
  5
30C
100
AcDbEntity
  8
0
100
AcDbLine
 62
7
  6
CONTINUOUS
 10
9.1385683383
 20
10.5938007162
 11
10.0235683383
 21
10.5938007162
  0
LINE
  5
30D
100
AcDbEntity
  8
0
100
AcDbLine
 62
7
  6
CONTINUOUS
 10
10.5235683383
 20
10.5938007162
 11
11.4085683383
 21
10.5938007162
  0
LINE
  5
30E
100
AcDbEntity
  8
0
100
AcDbLine
 62
7
  6
CONTINUOUS
 10
14.1385683383
 20
10.5938007162
 11
15.0235683383
 21
10.5938007162
  0
LINE
  5
30F
100
AcDbEntity
  8
0
100
AcDbLine
 62
7
  6
CONTINUOUS
 10
15.5235683383
 20
10.5938007162
 11
16.4085683383
 21
10.5938007162
  0
LINE
  5
310
100
AcDbEntity
  8
0
100
AcDbLine
 62
9
  6
CONTINUOUS
 10
1.1385683383
 20
10.6238007162
 11
2.0235683383
 21
10.6238007162
  0
LINE
  5
311
100
AcDbEntity
  8
0
100
AcDbLine
 62
9
  6
CONTINUOUS
 10
2.5235683383
 20
10.6238007162
 11
3.4085683383
 21
10.6238007162
  0
LINE
  5
312
100
AcDbEntity
  8
0
100
AcDbLine
 62
9
  6
CONTINUOUS
 10
9.1385683383
 20
10.6238007162
 11
10.0235683383
 21
10.6238007162
  0
LINE
  5
313
100
AcDbEntity
  8
0
100
AcDbLine
 62
9
  6
CONTINUOUS
 10
10.5235683383
 20
10.6238007162
 11
11.4085683383
 21
10.6238007162
  0
LINE
  5
314
100
AcDbEntity
  8
0
100
AcDbLine
 62
9
  6
CONTINUOUS
 10
14.1385683383
 20
10.6238007162
 11
15.0235683383
 21
10.6238007162
  0
LINE
  5
315
100
AcDbEntity
  8
0
100
AcDbLine
 62
9
  6
CONTINUOUS
 10
15.5235683383
 20
10.6238007162
 11
16.4085683383
 21
10.6238007162
  0
LINE
  5
316
100
AcDbEntity
  8
0
100
AcDbLine
 62
9
  6
CONTINUOUS
 10
6.9709066252
 20
10.6325702325
 11
6.9699571098
 21
10.6325702325
  0
LINE
  5
317
100
AcDbEntity
  8
0
100
AcDbLine
 62
9
  6
CONTINUOUS
 10
5.5762300513
 20
10.6325702325
 11
5.5771795668
 21
10.6325702325
  0
LINE
  5
318
100
AcDbEntity
  8
0
100
AcDbLine
 62
9
  6
CONTINUOUS
 10
7.3288744802
 20
10.6399378377
 11
6.9709451733
 21
10.6399378377
  0
LINE
  5
319
100
AcDbEntity
  8
0
100
AcDbLine
 62
9
  6
CONTINUOUS
 10
5.5761917407
 20
10.6399378377
 11
5.2182621963
 21
10.6399378377
  0
LINE
  5
31A
100
AcDbEntity
  8
0
100
AcDbLine
 62
9
  6
CONTINUOUS
 10
14.1085683383
 20
10.6538007162
 11
14.0785683383
 21
10.6538007163
  0
LINE
  5
31B
100
AcDbEntity
  8
0
100
AcDbLine
 62
9
  6
CONTINUOUS
 10
9.1085683383
 20
10.6538007162
 11
9.0785683383
 21
10.6538007163
  0
LINE
  5
31C
100
AcDbEntity
  8
0
100
AcDbLine
 62
9
  6
CONTINUOUS
 10
1.1085683383
 20
10.6538007162
 11
1.0785683383
 21
10.6538007163
  0
LINE
  5
31D
100
AcDbEntity
  8
0
100
AcDbLine
 62
9
  6
CONTINUOUS
 10
3.4385683383
 20
10.6538007162
 11
3.4685683383
 21
10.6538007162
  0
LINE
  5
31E
100
AcDbEntity
  8
0
100
AcDbLine
 62
9
  6
CONTINUOUS
 10
11.4385683383
 20
10.6538007162
 11
11.4685683383
 21
10.6538007162
  0
LINE
  5
31F
100
AcDbEntity
  8
0
100
AcDbLine
 62
9
  6
CONTINUOUS
 10
16.4385683383
 20
10.6538007162
 11
16.4685683383
 21
10.6538007162
  0
LINE
  5
320
100
AcDbEntity
  8
0
100
AcDbLine
 62
9
  6
CONTINUOUS
 10
7.3288744802
 20
10.6719440897
 11
6.9712660396
 21
10.6719440897
  0
LINE
  5
321
100
AcDbEntity
  8
0
100
AcDbLine
 62
9
  6
CONTINUOUS
 10
5.5758705723
 20
10.6719440897
 11
5.2182621963
 21
10.6719440897
  0
LINE
  5
322
100
AcDbEntity
  8
0
100
AcDbLine
 62
9
  6
CONTINUOUS
 10
5.1567117118
 20
10.7334945743
 11
5.1247054598
 21
10.7334945743
  0
LINE
  5
323
100
AcDbEntity
  8
0
100
AcDbLine
 62
9
  6
CONTINUOUS
 10
7.3904249648
 20
10.7334945743
 11
7.4224312168
 21
10.7334945743
  0
LINE
  5
324
100
AcDbEntity
  8
0
100
AcDbLine
 62
9
  6
CONTINUOUS
 10
9.589589356
 20
12.5318681637
 11
9.7937052722
 21
12.3277522475
  0
LINE
  5
325
100
AcDbEntity
  8
0
100
AcDbLine
 62
9
  6
CONTINUOUS
 10
11.0166357857
 20
11.104821734
 11
10.8125198695
 21
11.3089376502
  0
LINE
  5
326
100
AcDbEntity
  8
0
100
AcDbLine
 62
7
  6
CONTINUOUS
 10
14.4010683383
 20
12.6013007162
 11
14.4010683383
 21
12.0388007162
  0
LINE
  5
327
100
AcDbEntity
  8
0
100
AcDbLine
 62
7
  6
CONTINUOUS
 10
14.4010683383
 20
11.5388007162
 11
14.4010683383
 21
10.9763007162
  0
LINE
  5
328
100
AcDbEntity
  8
0
100
AcDbLine
 62
9
  6
CONTINUOUS
 10
14.4310683383
 20
12.6013007162
 11
14.4310683383
 21
12.0388007162
  0
LINE
  5
329
100
AcDbEntity
  8
0
100
AcDbLine
 62
9
  6
CONTINUOUS
 10
14.4310683383
 20
11.5388007162
 11
14.4310683383
 21
10.9763007162
  0
LINE
  5
32A
100
AcDbEntity
  8
0
100
AcDbLine
 62
9
  6
CONTINUOUS
 10
14.4610683383
 20
10.9463007162
 11
14.4610683383
 21
10.9163007162
  0
LINE
  5
32B
100
AcDbEntity
  8
0
100
AcDbLine
 62
9
  6
CONTINUOUS
 10
14.4610683383
 20
12.6313007162
 11
14.4610683384
 21
12.6613007162
  0
LINE
  5
32C
100
AcDbEntity
  8
0
100
AcDbLine
 62
9
  6
CONTINUOUS
 10
14.5009566582
 20
12.4727796985
 11
14.5009566582
 21
12.0388007162
  0
LINE
  5
32D
100
AcDbEntity
  8
0
100
AcDbLine
 62
9
  6
CONTINUOUS
 10
14.5009566582
 20
11.5388007162
 11
14.5009566582
 21
11.104821734
  0
LINE
  5
32E
100
AcDbEntity
  8
0
100
AcDbLine
 62
9
  6
CONTINUOUS
 10
14.5305008908
 20
12.4727796985
 11
14.5305008908
 21
12.0388007162
  0
LINE
  5
32F
100
AcDbEntity
  8
0
100
AcDbLine
 62
9
  6
CONTINUOUS
 10
14.5305008908
 20
11.5388007162
 11
14.5305008908
 21
11.104821734
  0
LINE
  5
330
100
AcDbEntity
  8
0
100
AcDbLine
 62
9
  6
CONTINUOUS
 10
14.589589356
 20
12.5614123963
 11
14.589589356
 21
12.5318681637
  0
LINE
  5
331
100
AcDbEntity
  8
0
100
AcDbLine
 62
9
  6
CONTINUOUS
 10
14.589589356
 20
11.0161890362
 11
14.589589356
 21
11.0457332688
  0
LINE
  5
332
100
AcDbEntity
  8
0
100
AcDbLine
 62
7
  6
CONTINUOUS
 10
14.7345683383
 20
12.2678007162
 11
14.7345683383
 21
12.0388007162
  0
LINE
  5
333
100
AcDbEntity
  8
0
100
AcDbLine
 62
7
  6
CONTINUOUS
 10
14.7345683383
 20
11.5388007162
 11
14.7345683383
 21
11.3098007162
  0
LINE
  5
334
100
AcDbEntity
  8
0
100
AcDbLine
 62
9
  6
CONTINUOUS
 10
14.7645683383
 20
12.2678007162
 11
14.7645683383
 21
12.0388007162
  0
LINE
  5
335
100
AcDbEntity
  8
0
100
AcDbLine
 62
9
  6
CONTINUOUS
 10
14.7645683383
 20
11.5388007162
 11
14.7645683383
 21
11.3098007162
  0
LINE
  5
336
100
AcDbEntity
  8
0
100
AcDbLine
 62
9
  6
CONTINUOUS
 10
14.7945683383
 20
11.2798007162
 11
14.7945683383
 21
11.2498007162
  0
LINE
  5
337
100
AcDbEntity
  8
0
100
AcDbLine
 62
9
  6
CONTINUOUS
 10
14.7945683383
 20
12.2978007162
 11
14.7945683384
 21
12.3278007162
  0
LINE
  5
338
100
AcDbEntity
  8
0
100
AcDbLine
 62
9
  6
CONTINUOUS
 10
14.8700683383
 20
12.0388007162
 11
14.8700683383
 21
11.5388007162
  0
LINE
  5
339
100
AcDbEntity
  8
0
100
AcDbLine
 62
7
  6
CONTINUOUS
 10
14.9300683383
 20
11.4753007162
 11
14.9300683383
 21
12.1023007162
  0
LINE
  5
33A
100
AcDbEntity
  8
0
100
AcDbLine
 62
9
  6
CONTINUOUS
 10
14.9600683383
 20
11.4453007162
 11
14.9600683383
 21
12.1323007162
  0
LINE
  5
33B
100
AcDbEntity
  8
0
100
AcDbLine
 62
7
  6
CONTINUOUS
 10
15.0235683383
 20
10.3813007162
 11
15.0235683383
 21
11.3853007162
  0
LINE
  5
33C
100
AcDbEntity
  8
0
100
AcDbLine
 62
7
  6
CONTINUOUS
 10
15.0235683383
 20
12.1923007162
 11
15.0235683383
 21
13.1963007162
  0
LINE
  5
33D
100
AcDbEntity
  8
0
100
AcDbLine
 62
9
  6
CONTINUOUS
 10
15.0535683383
 20
10.3513007162
 11
15.0535683383
 21
11.4453007162
  0
LINE
  5
33E
100
AcDbEntity
  8
0
100
AcDbLine
 62
9
  6
CONTINUOUS
 10
15.0535683383
 20
12.1323007162
 11
15.0535683383
 21
13.2263007162
  0
LINE
  5
33F
100
AcDbEntity
  8
0
100
AcDbLine
 62
7
  6
CONTINUOUS
 10
1.4610683383
 20
10.9163007162
 11
2.0235683383
 21
10.9163007162
  0
LINE
  5
340
100
AcDbEntity
  8
0
100
AcDbLine
 62
7
  6
CONTINUOUS
 10
2.5235683383
 20
10.9163007162
 11
3.0860683383
 21
10.9163007162
  0
LINE
  5
341
100
AcDbEntity
  8
0
100
AcDbLine
 62
7
  6
CONTINUOUS
 10
9.4610683383
 20
10.9163007162
 11
10.0235683383
 21
10.9163007162
  0
LINE
  5
342
100
AcDbEntity
  8
0
100
AcDbLine
 62
7
  6
CONTINUOUS
 10
10.5235683383
 20
10.9163007162
 11
11.0860683383
 21
10.9163007162
  0
LINE
  5
343
100
AcDbEntity
  8
0
100
AcDbLine
 62
7
  6
CONTINUOUS
 10
14.4610683383
 20
10.9163007162
 11
15.0235683383
 21
10.9163007162
  0
LINE
  5
344
100
AcDbEntity
  8
0
100
AcDbLine
 62
7
  6
CONTINUOUS
 10
15.5235683383
 20
10.9163007162
 11
16.0860683383
 21
10.9163007162
  0
LINE
  5
345
100
AcDbEntity
  8
0
100
AcDbLine
 62
9
  6
CONTINUOUS
 10
1.4610683383
 20
10.9463007162
 11
2.0235683383
 21
10.9463007162
  0
LINE
  5
346
100
AcDbEntity
  8
0
100
AcDbLine
 62
9
  6
CONTINUOUS
 10
2.5235683383
 20
10.9463007162
 11
3.0860683383
 21
10.9463007162
  0
LINE
  5
347
100
AcDbEntity
  8
0
100
AcDbLine
 62
9
  6
CONTINUOUS
 10
9.4610683383
 20
10.9463007162
 11
10.0235683383
 21
10.9463007162
  0
LINE
  5
348
100
AcDbEntity
  8
0
100
AcDbLine
 62
9
  6
CONTINUOUS
 10
10.5235683383
 20
10.9463007162
 11
11.0860683383
 21
10.9463007162
  0
LINE
  5
349
100
AcDbEntity
  8
0
100
AcDbLine
 62
9
  6
CONTINUOUS
 10
14.4610683383
 20
10.9463007162
 11
15.0235683383
 21
10.9463007162
  0
LINE
  5
34A
100
AcDbEntity
  8
0
100
AcDbLine
 62
9
  6
CONTINUOUS
 10
15.5235683383
 20
10.9463007162
 11
16.0860683383
 21
10.9463007162
  0
LINE
  5
34B
100
AcDbEntity
  8
0
100
AcDbLine
 62
9
  6
CONTINUOUS
 10
14.4310683383
 20
10.9763007162
 11
14.4010683383
 21
10.9763007163
  0
LINE
  5
34C
100
AcDbEntity
  8
0
100
AcDbLine
 62
9
  6
CONTINUOUS
 10
9.4310683383
 20
10.9763007162
 11
9.4010683383
 21
10.9763007163
  0
LINE
  5
34D
100
AcDbEntity
  8
0
100
AcDbLine
 62
9
  6
CONTINUOUS
 10
1.4310683383
 20
10.9763007162
 11
1.4010683383
 21
10.9763007163
  0
LINE
  5
34E
100
AcDbEntity
  8
0
100
AcDbLine
 62
9
  6
CONTINUOUS
 10
3.1160683383
 20
10.9763007162
 11
3.1460683383
 21
10.9763007162
  0
LINE
  5
34F
100
AcDbEntity
  8
0
100
AcDbLine
 62
9
  6
CONTINUOUS
 10
11.1160683383
 20
10.9763007162
 11
11.1460683383
 21
10.9763007162
  0
LINE
  5
350
100
AcDbEntity
  8
0
100
AcDbLine
 62
9
  6
CONTINUOUS
 10
16.1160683383
 20
10.9763007162
 11
16.1460683383
 21
10.9763007162
  0
LINE
  5
351
100
AcDbEntity
  8
0
100
AcDbLine
 62
9
  6
CONTINUOUS
 10
1.589589356
 20
11.0161890362
 11
2.0235683383
 21
11.0161890362
  0
LINE
  5
352
100
AcDbEntity
  8
0
100
AcDbLine
 62
9
  6
CONTINUOUS
 10
2.5235683383
 20
11.0161890362
 11
2.9575473206
 21
11.0161890362
  0
LINE
  5
353
100
AcDbEntity
  8
0
100
AcDbLine
 62
9
  6
CONTINUOUS
 10
9.589589356
 20
11.0161890362
 11
10.0235683383
 21
11.0161890362
  0
LINE
  5
354
100
AcDbEntity
  8
0
100
AcDbLine
 62
9
  6
CONTINUOUS
 10
10.5235683383
 20
11.0161890362
 11
10.9575473206
 21
11.0161890362
  0
LINE
  5
355
100
AcDbEntity
  8
0
100
AcDbLine
 62
9
  6
CONTINUOUS
 10
14.589589356
 20
11.0161890362
 11
15.0235683383
 21
11.0161890362
  0
LINE
  5
356
100
AcDbEntity
  8
0
100
AcDbLine
 62
9
  6
CONTINUOUS
 10
15.5235683383
 20
11.0161890362
 11
15.9575473206
 21
11.0161890362
  0
LINE
  5
357
100
AcDbEntity
  8
0
100
AcDbLine
 62
9
  6
CONTINUOUS
 10
1.589589356
 20
11.0457332688
 11
2.0235683383
 21
11.0457332688
  0
LINE
  5
358
100
AcDbEntity
  8
0
100
AcDbLine
 62
9
  6
CONTINUOUS
 10
2.5235683383
 20
11.0457332688
 11
2.9575473206
 21
11.0457332688
  0
LINE
  5
359
100
AcDbEntity
  8
0
100
AcDbLine
 62
9
  6
CONTINUOUS
 10
9.589589356
 20
11.0457332688
 11
10.0235683383
 21
11.0457332688
  0
LINE
  5
35A
100
AcDbEntity
  8
0
100
AcDbLine
 62
9
  6
CONTINUOUS
 10
10.5235683383
 20
11.0457332688
 11
10.9575473206
 21
11.0457332688
  0
LINE
  5
35B
100
AcDbEntity
  8
0
100
AcDbLine
 62
9
  6
CONTINUOUS
 10
14.589589356
 20
11.0457332688
 11
15.0235683383
 21
11.0457332688
  0
LINE
  5
35C
100
AcDbEntity
  8
0
100
AcDbLine
 62
9
  6
CONTINUOUS
 10
15.5235683383
 20
11.0457332688
 11
15.9575473206
 21
11.0457332688
  0
LINE
  5
35D
100
AcDbEntity
  8
0
100
AcDbLine
 62
9
  6
CONTINUOUS
 10
16.0461800183
 20
11.104821734
 11
16.0166357857
 21
11.104821734
  0
LINE
  5
35E
100
AcDbEntity
  8
0
100
AcDbLine
 62
9
  6
CONTINUOUS
 10
11.0461800183
 20
11.104821734
 11
11.0166357857
 21
11.104821734
  0
LINE
  5
35F
100
AcDbEntity
  8
0
100
AcDbLine
 62
9
  6
CONTINUOUS
 10
3.0461800183
 20
11.104821734
 11
3.0166357857
 21
11.104821734
  0
LINE
  5
360
100
AcDbEntity
  8
0
100
AcDbLine
 62
9
  6
CONTINUOUS
 10
1.5009566582
 20
11.104821734
 11
1.5305008908
 21
11.104821734
  0
LINE
  5
361
100
AcDbEntity
  8
0
100
AcDbLine
 62
9
  6
CONTINUOUS
 10
9.5009566582
 20
11.104821734
 11
9.5305008908
 21
11.104821734
  0
LINE
  5
362
100
AcDbEntity
  8
0
100
AcDbLine
 62
9
  6
CONTINUOUS
 10
14.5009566582
 20
11.104821734
 11
14.5305008908
 21
11.104821734
  0
LINE
  5
363
100
AcDbEntity
  8
0
100
AcDbLine
 62
7
  6
CONTINUOUS
 10
1.7945683383
 20
11.2498007162
 11
2.0235683383
 21
11.2498007162
  0
LINE
  5
364
100
AcDbEntity
  8
0
100
AcDbLine
 62
7
  6
CONTINUOUS
 10
2.5235683383
 20
11.2498007162
 11
2.7525683383
 21
11.2498007162
  0
LINE
  5
365
100
AcDbEntity
  8
0
100
AcDbLine
 62
7
  6
CONTINUOUS
 10
9.7945683383
 20
11.2498007162
 11
10.0235683383
 21
11.2498007162
  0
LINE
  5
366
100
AcDbEntity
  8
0
100
AcDbLine
 62
7
  6
CONTINUOUS
 10
10.5235683383
 20
11.2498007162
 11
10.7525683383
 21
11.2498007162
  0
LINE
  5
367
100
AcDbEntity
  8
0
100
AcDbLine
 62
7
  6
CONTINUOUS
 10
14.7945683383
 20
11.2498007162
 11
15.0235683383
 21
11.2498007162
  0
LINE
  5
368
100
AcDbEntity
  8
0
100
AcDbLine
 62
7
  6
CONTINUOUS
 10
15.5235683383
 20
11.2498007162
 11
15.7525683383
 21
11.2498007162
  0
LINE
  5
369
100
AcDbEntity
  8
0
100
AcDbLine
 62
9
  6
CONTINUOUS
 10
1.7945683383
 20
11.2798007162
 11
2.0235683383
 21
11.2798007162
  0
LINE
  5
36A
100
AcDbEntity
  8
0
100
AcDbLine
 62
9
  6
CONTINUOUS
 10
2.5235683383
 20
11.2798007162
 11
2.7525683383
 21
11.2798007162
  0
LINE
  5
36B
100
AcDbEntity
  8
0
100
AcDbLine
 62
9
  6
CONTINUOUS
 10
9.7945683383
 20
11.2798007162
 11
10.0235683383
 21
11.2798007162
  0
LINE
  5
36C
100
AcDbEntity
  8
0
100
AcDbLine
 62
9
  6
CONTINUOUS
 10
10.5235683383
 20
11.2798007162
 11
10.7525683383
 21
11.2798007162
  0
LINE
  5
36D
100
AcDbEntity
  8
0
100
AcDbLine
 62
9
  6
CONTINUOUS
 10
14.7945683383
 20
11.2798007162
 11
15.0235683383
 21
11.2798007162
  0
LINE
  5
36E
100
AcDbEntity
  8
0
100
AcDbLine
 62
9
  6
CONTINUOUS
 10
15.5235683383
 20
11.2798007162
 11
15.7525683383
 21
11.2798007162
  0
LINE
  5
36F
100
AcDbEntity
  8
0
100
AcDbLine
 62
9
  6
CONTINUOUS
 10
14.7645683383
 20
11.3098007162
 11
14.7345683383
 21
11.3098007163
  0
LINE
  5
370
100
AcDbEntity
  8
0
100
AcDbLine
 62
9
  6
CONTINUOUS
 10
9.7645683383
 20
11.3098007162
 11
9.7345683383
 21
11.3098007163
  0
LINE
  5
371
100
AcDbEntity
  8
0
100
AcDbLine
 62
9
  6
CONTINUOUS
 10
1.7645683383
 20
11.3098007162
 11
1.7345683383
 21
11.3098007163
  0
LINE
  5
372
100
AcDbEntity
  8
0
100
AcDbLine
 62
9
  6
CONTINUOUS
 10
2.7825683383
 20
11.3098007162
 11
2.8125683383
 21
11.3098007162
  0
LINE
  5
373
100
AcDbEntity
  8
0
100
AcDbLine
 62
9
  6
CONTINUOUS
 10
10.7825683383
 20
11.3098007162
 11
10.8125683383
 21
11.3098007162
  0
LINE
  5
374
100
AcDbEntity
  8
0
100
AcDbLine
 62
9
  6
CONTINUOUS
 10
15.7825683383
 20
11.3098007162
 11
15.8125683383
 21
11.3098007162
  0
LINE
  5
375
100
AcDbEntity
  8
0
100
AcDbLine
 62
9
  6
CONTINUOUS
 10
2.0235683383
 20
11.3853007162
 11
2.5235683383
 21
11.3853007162
  0
LINE
  5
376
100
AcDbEntity
  8
0
100
AcDbLine
 62
9
  6
CONTINUOUS
 10
10.0235683383
 20
11.3853007162
 11
10.5235683383
 21
11.3853007162
  0
LINE
  5
377
100
AcDbEntity
  8
0
100
AcDbLine
 62
9
  6
CONTINUOUS
 10
15.0235683383
 20
11.3853007162
 11
15.5235683383
 21
11.3853007162
  0
LINE
  5
378
100
AcDbEntity
  8
0
100
AcDbLine
 62
7
  6
CONTINUOUS
 10
5.9490683383
 20
11.4013007162
 11
6.5980683383
 21
11.4013007162
  0
LINE
  5
379
100
AcDbEntity
  8
0
100
AcDbLine
 62
9
  6
CONTINUOUS
 10
5.9490683383
 20
11.4313007162
 11
6.5980683383
 21
11.4313007162
  0
LINE
  5
37A
100
AcDbEntity
  8
0
100
AcDbLine
 62
7
  6
CONTINUOUS
 10
2.5870683383
 20
11.4453007162
 11
1.9600683383
 21
11.4453007162
  0
LINE
  5
37B
100
AcDbEntity
  8
0
100
AcDbLine
 62
7
  6
CONTINUOUS
 10
9.9600683383
 20
11.4453007162
 11
10.5870683383
 21
11.4453007162
  0
LINE
  5
37C
100
AcDbEntity
  8
0
100
AcDbLine
 62
7
  6
CONTINUOUS
 10
14.9600683383
 20
11.4453007162
 11
15.5870683383
 21
11.4453007162
  0
LINE
  5
37D
100
AcDbEntity
  8
0
100
AcDbLine
 62
9
  6
CONTINUOUS
 10
5.9160683383
 20
11.4643007162
 11
5.8860683383
 21
11.4643007163
  0
LINE
  5
37E
100
AcDbEntity
  8
0
100
AcDbLine
 62
9
  6
CONTINUOUS
 10
6.6310683383
 20
11.4643007162
 11
6.6610683383
 21
11.4643007162
  0
LINE
  5
37F
100
AcDbEntity
  8
0
100
AcDbLine
 62
9
  6
CONTINUOUS
 10
2.6170683383
 20
11.4753007162
 11
1.9300683383
 21
11.4753007162
  0
LINE
  5
380
100
AcDbEntity
  8
0
100
AcDbLine
 62
9
  6
CONTINUOUS
 10
9.9300683383
 20
11.4753007162
 11
10.6170683383
 21
11.4753007162
  0
LINE
  5
381
100
AcDbEntity
  8
0
100
AcDbLine
 62
9
  6
CONTINUOUS
 10
14.9300683383
 20
11.4753007162
 11
15.6170683383
 21
11.4753007162
  0
LINE
  5
382
100
AcDbEntity
  8
0
100
AcDbLine
 62
9
  6
CONTINUOUS
 10
15.4935683383
 20
10.3513007162
 11
15.4935683383
 21
11.4453007162
  0
LINE
  5
383
100
AcDbEntity
  8
0
100
AcDbLine
 62
9
  6
CONTINUOUS
 10
15.4935683383
 20
12.1323007162
 11
15.4935683383
 21
13.2263007162
  0
LINE
  5
384
100
AcDbEntity
  8
0
100
AcDbLine
 62
7
  6
CONTINUOUS
 10
15.5235683383
 20
10.3813007162
 11
15.5235683383
 21
11.3853007162
  0
LINE
  5
385
100
AcDbEntity
  8
0
100
AcDbLine
 62
7
  6
CONTINUOUS
 10
15.5235683383
 20
12.1923007162
 11
15.5235683383
 21
13.1963007162
  0
LINE
  5
386
100
AcDbEntity
  8
0
100
AcDbLine
 62
9
  6
CONTINUOUS
 10
15.5870683383
 20
12.1323007162
 11
15.5870683383
 21
11.4453007162
  0
LINE
  5
387
100
AcDbEntity
  8
0
100
AcDbLine
 62
7
  6
CONTINUOUS
 10
15.6170683383
 20
12.1023007162
 11
15.6170683383
 21
11.4753007162
  0
LINE
  5
388
100
AcDbEntity
  8
0
100
AcDbLine
 62
9
  6
CONTINUOUS
 10
15.6770683383
 20
11.5388007162
 11
15.6770683383
 21
12.0388007162
  0
LINE
  5
389
100
AcDbEntity
  8
0
100
AcDbLine
 62
9
  6
CONTINUOUS
 10
15.7525683383
 20
11.2798007162
 11
15.7525683382
 21
11.2498007162
  0
LINE
  5
38A
100
AcDbEntity
  8
0
100
AcDbLine
 62
9
  6
CONTINUOUS
 10
15.7525683383
 20
12.2978007162
 11
15.7525683383
 21
12.3278007162
  0
LINE
  5
38B
100
AcDbEntity
  8
0
100
AcDbLine
 62
9
  6
CONTINUOUS
 10
15.7825683383
 20
11.3098007162
 11
15.7825683383
 21
11.5388007162
  0
LINE
  5
38C
100
AcDbEntity
  8
0
100
AcDbLine
 62
9
  6
CONTINUOUS
 10
15.7825683383
 20
12.0388007162
 11
15.7825683383
 21
12.2678007162
  0
LINE
  5
38D
100
AcDbEntity
  8
0
100
AcDbLine
 62
7
  6
CONTINUOUS
 10
15.8125683383
 20
11.3098007162
 11
15.8125683383
 21
11.5388007162
  0
LINE
  5
38E
100
AcDbEntity
  8
0
100
AcDbLine
 62
7
  6
CONTINUOUS
 10
15.8125683383
 20
12.0388007162
 11
15.8125683383
 21
12.2678007162
  0
LINE
  5
38F
100
AcDbEntity
  8
0
100
AcDbLine
 62
7
  6
CONTINUOUS
 10
3.6810683383
 20
11.5388007162
 11
2.6770683383
 21
11.5388007162
  0
LINE
  5
390
100
AcDbEntity
  8
0
100
AcDbLine
 62
7
  6
CONTINUOUS
 10
1.8700683383
 20
11.5388007162
 11
0.8660683383
 21
11.5388007162
  0
LINE
  5
391
100
AcDbEntity
  8
0
100
AcDbLine
 62
7
  6
CONTINUOUS
 10
8.8660683383
 20
11.5388007162
 11
9.8700683383
 21
11.5388007162
  0
LINE
  5
392
100
AcDbEntity
  8
0
100
AcDbLine
 62
7
  6
CONTINUOUS
 10
10.6770683383
 20
11.5388007162
 11
11.6810683383
 21
11.5388007162
  0
LINE
  5
393
100
AcDbEntity
  8
0
100
AcDbLine
 62
7
  6
CONTINUOUS
 10
13.8660683383
 20
11.5388007162
 11
14.8700683383
 21
11.5388007162
  0
LINE
  5
394
100
AcDbEntity
  8
0
100
AcDbLine
 62
7
  6
CONTINUOUS
 10
15.6770683383
 20
11.5388007162
 11
16.6810683383
 21
11.5388007162
  0
LINE
  5
395
100
AcDbEntity
  8
0
100
AcDbLine
 62
9
  6
CONTINUOUS
 10
19.8385683383
 20
11.560033707
 11
20.7085683383
 21
11.560033707
  0
LINE
  5
396
100
AcDbEntity
  8
0
100
AcDbLine
 62
7
  6
CONTINUOUS
 10
19.8385683383
 20
11.5623732626
 11
20.7085683383
 21
11.5623732626
  0
LINE
  5
397
100
AcDbEntity
  8
0
100
AcDbLine
 62
9
  6
CONTINUOUS
 10
3.7110683383
 20
11.5688007162
 11
2.6170683383
 21
11.5688007162
  0
LINE
  5
398
100
AcDbEntity
  8
0
100
AcDbLine
 62
9
  6
CONTINUOUS
 10
0.8360683383
 20
11.5688007162
 11
1.9300683383
 21
11.5688007162
  0
LINE
  5
399
100
AcDbEntity
  8
0
100
AcDbLine
 62
9
  6
CONTINUOUS
 10
8.8360683383
 20
11.5688007162
 11
9.9300683383
 21
11.5688007162
  0
LINE
  5
39A
100
AcDbEntity
  8
0
100
AcDbLine
 62
9
  6
CONTINUOUS
 10
10.6170683383
 20
11.5688007162
 11
11.7110683383
 21
11.5688007162
  0
LINE
  5
39B
100
AcDbEntity
  8
0
100
AcDbLine
 62
9
  6
CONTINUOUS
 10
13.8360683383
 20
11.5688007162
 11
14.9300683383
 21
11.5688007162
  0
LINE
  5
39C
100
AcDbEntity
  8
0
100
AcDbLine
 62
9
  6
CONTINUOUS
 10
15.6170683383
 20
11.5688007162
 11
16.7110683383
 21
11.5688007162
  0
LINE
  5
39D
100
AcDbEntity
  8
0
100
AcDbLine
 62
9
  6
CONTINUOUS
 10
0.8360683383
 20
12.0088007162
 11
1.9300683383
 21
12.0088007162
  0
LINE
  5
39E
100
AcDbEntity
  8
0
100
AcDbLine
 62
9
  6
CONTINUOUS
 10
2.6170683383
 20
12.0088007162
 11
3.7110683383
 21
12.0088007162
  0
LINE
  5
39F
100
AcDbEntity
  8
0
100
AcDbLine
 62
9
  6
CONTINUOUS
 10
8.8360683383
 20
12.0088007162
 11
9.9300683383
 21
12.0088007162
  0
LINE
  5
3A0
100
AcDbEntity
  8
0
100
AcDbLine
 62
9
  6
CONTINUOUS
 10
10.6170683383
 20
12.0088007162
 11
11.7110683383
 21
12.0088007162
  0
LINE
  5
3A1
100
AcDbEntity
  8
0
100
AcDbLine
 62
9
  6
CONTINUOUS
 10
13.8360683383
 20
12.0088007162
 11
14.9300683383
 21
12.0088007162
  0
LINE
  5
3A2
100
AcDbEntity
  8
0
100
AcDbLine
 62
9
  6
CONTINUOUS
 10
15.6170683383
 20
12.0088007162
 11
16.7110683383
 21
12.0088007162
  0
LINE
  5
3A3
100
AcDbEntity
  8
0
100
AcDbLine
 62
7
  6
CONTINUOUS
 10
3.6810683383
 20
12.0388007162
 11
2.6770683383
 21
12.0388007162
  0
LINE
  5
3A4
100
AcDbEntity
  8
0
100
AcDbLine
 62
7
  6
CONTINUOUS
 10
1.8700683383
 20
12.0388007162
 11
0.8660683383
 21
12.0388007162
  0
LINE
  5
3A5
100
AcDbEntity
  8
0
100
AcDbLine
 62
7
  6
CONTINUOUS
 10
8.8660683383
 20
12.0388007162
 11
9.8700683383
 21
12.0388007162
  0
LINE
  5
3A6
100
AcDbEntity
  8
0
100
AcDbLine
 62
7
  6
CONTINUOUS
 10
10.6770683383
 20
12.0388007162
 11
11.6810683383
 21
12.0388007162
  0
LINE
  5
3A7
100
AcDbEntity
  8
0
100
AcDbLine
 62
7
  6
CONTINUOUS
 10
13.8660683383
 20
12.0388007162
 11
14.8700683383
 21
12.0388007162
  0
LINE
  5
3A8
100
AcDbEntity
  8
0
100
AcDbLine
 62
7
  6
CONTINUOUS
 10
15.6770683383
 20
12.0388007162
 11
16.6810683383
 21
12.0388007162
  0
LINE
  5
3A9
100
AcDbEntity
  8
0
100
AcDbLine
 62
9
  6
CONTINUOUS
 10
1.9300683383
 20
12.1023007162
 11
2.6170683383
 21
12.1023007162
  0
LINE
  5
3AA
100
AcDbEntity
  8
0
100
AcDbLine
 62
9
  6
CONTINUOUS
 10
9.9300683383
 20
12.1023007162
 11
10.6170683383
 21
12.1023007162
  0
LINE
  5
3AB
100
AcDbEntity
  8
0
100
AcDbLine
 62
9
  6
CONTINUOUS
 10
14.9300683383
 20
12.1023007162
 11
15.6170683383
 21
12.1023007162
  0
LINE
  5
3AC
100
AcDbEntity
  8
0
100
AcDbLine
 62
9
  6
CONTINUOUS
 10
5.9160683383
 20
12.1133007162
 11
5.8860683383
 21
12.1133007162
  0
LINE
  5
3AD
100
AcDbEntity
  8
0
100
AcDbLine
 62
9
  6
CONTINUOUS
 10
6.6310683383
 20
12.1133007162
 11
6.6610683383
 21
12.1133007162
  0
LINE
  5
3AE
100
AcDbEntity
  8
0
100
AcDbLine
 62
7
  6
CONTINUOUS
 10
2.5870683383
 20
12.1323007162
 11
1.9600683383
 21
12.1323007162
  0
LINE
  5
3AF
100
AcDbEntity
  8
0
100
AcDbLine
 62
7
  6
CONTINUOUS
 10
9.9600683383
 20
12.1323007162
 11
10.5870683383
 21
12.1323007162
  0
LINE
  5
3B0
100
AcDbEntity
  8
0
100
AcDbLine
 62
7
  6
CONTINUOUS
 10
14.9600683383
 20
12.1323007162
 11
15.5870683383
 21
12.1323007162
  0
LINE
  5
3B1
100
AcDbEntity
  8
0
100
AcDbLine
 62
9
  6
CONTINUOUS
 10
6.5980683383
 20
12.1463007162
 11
5.9490683383
 21
12.1463007162
  0
LINE
  5
3B2
100
AcDbEntity
  8
0
100
AcDbLine
 62
7
  6
CONTINUOUS
 10
6.5980683383
 20
12.1763007162
 11
5.9490683383
 21
12.1763007162
  0
LINE
  5
3B3
100
AcDbEntity
  8
0
100
AcDbLine
 62
9
  6
CONTINUOUS
 10
15.5235683383
 20
12.1923007162
 11
15.0235683383
 21
12.1923007162
  0
LINE
  5
3B4
100
AcDbEntity
  8
0
100
AcDbLine
 62
9
  6
CONTINUOUS
 10
10.5235683383
 20
12.1923007162
 11
10.0235683383
 21
12.1923007162
  0
LINE
  5
3B5
100
AcDbEntity
  8
0
100
AcDbLine
 62
9
  6
CONTINUOUS
 10
2.5235683383
 20
12.1923007162
 11
2.0235683383
 21
12.1923007162
  0
LINE
  5
3B6
100
AcDbEntity
  8
0
100
AcDbLine
 62
9
  6
CONTINUOUS
 10
14.7645683383
 20
12.2678007162
 11
14.7345683383
 21
12.2678007162
  0
LINE
  5
3B7
100
AcDbEntity
  8
0
100
AcDbLine
 62
9
  6
CONTINUOUS
 10
9.7645683383
 20
12.2678007162
 11
9.7345683383
 21
12.2678007162
  0
LINE
  5
3B8
100
AcDbEntity
  8
0
100
AcDbLine
 62
9
  6
CONTINUOUS
 10
1.7645683383
 20
12.2678007162
 11
1.7345683383
 21
12.2678007162
  0
LINE
  5
3B9
100
AcDbEntity
  8
0
100
AcDbLine
 62
9
  6
CONTINUOUS
 10
2.7825683383
 20
12.2678007162
 11
2.8125683383
 21
12.2678007162
  0
LINE
  5
3BA
100
AcDbEntity
  8
0
100
AcDbLine
 62
9
  6
CONTINUOUS
 10
10.7825683383
 20
12.2678007162
 11
10.8125683383
 21
12.2678007162
  0
LINE
  5
3BB
100
AcDbEntity
  8
0
100
AcDbLine
 62
9
  6
CONTINUOUS
 10
15.7825683383
 20
12.2678007162
 11
15.8125683383
 21
12.2678007162
  0
LINE
  5
3BC
100
AcDbEntity
  8
0
100
AcDbLine
 62
9
  6
CONTINUOUS
 10
5.7191060131
 20
12.2817125568
 11
6.8280306634
 21
12.2817125568
  0
LINE
  5
3BD
100
AcDbEntity
  8
0
100
AcDbLine
 62
9
  6
CONTINUOUS
 10
15.7525683383
 20
12.2978007162
 11
15.5235683383
 21
12.2978007162
  0
LINE
  5
3BE
100
AcDbEntity
  8
0
100
AcDbLine
 62
9
  6
CONTINUOUS
 10
15.0235683383
 20
12.2978007162
 11
14.7945683383
 21
12.2978007162
  0
LINE
  5
3BF
100
AcDbEntity
  8
0
100
AcDbLine
 62
9
  6
CONTINUOUS
 10
10.7525683383
 20
12.2978007162
 11
10.5235683383
 21
12.2978007162
  0
LINE
  5
3C0
100
AcDbEntity
  8
0
100
AcDbLine
 62
9
  6
CONTINUOUS
 10
10.0235683383
 20
12.2978007162
 11
9.7945683383
 21
12.2978007162
  0
LINE
  5
3C1
100
AcDbEntity
  8
0
100
AcDbLine
 62
9
  6
CONTINUOUS
 10
2.7525683383
 20
12.2978007162
 11
2.5235683383
 21
12.2978007162
  0
LINE
  5
3C2
100
AcDbEntity
  8
0
100
AcDbLine
 62
9
  6
CONTINUOUS
 10
2.0235683383
 20
12.2978007162
 11
1.7945683383
 21
12.2978007162
  0
LINE
  5
3C3
100
AcDbEntity
  8
0
100
AcDbLine
 62
9
  6
CONTINUOUS
 10
15.9575473206
 20
12.5614123963
 11
15.9575473206
 21
12.5318681637
  0
LINE
  5
3C4
100
AcDbEntity
  8
0
100
AcDbLine
 62
9
  6
CONTINUOUS
 10
15.9575473206
 20
11.0161890362
 11
15.9575473206
 21
11.0457332688
  0
LINE
  5
3C5
100
AcDbEntity
  8
0
100
AcDbLine
 62
9
  6
CONTINUOUS
 10
16.0166357857
 20
11.104821734
 11
16.0166357857
 21
11.5388007162
  0
LINE
  5
3C6
100
AcDbEntity
  8
0
100
AcDbLine
 62
9
  6
CONTINUOUS
 10
16.0166357857
 20
12.0388007162
 11
16.0166357857
 21
12.4727796985
  0
LINE
  5
3C7
100
AcDbEntity
  8
0
100
AcDbLine
 62
9
  6
CONTINUOUS
 10
16.0461800183
 20
11.104821734
 11
16.0461800183
 21
11.5388007162
  0
LINE
  5
3C8
100
AcDbEntity
  8
0
100
AcDbLine
 62
9
  6
CONTINUOUS
 10
16.0461800183
 20
12.0388007162
 11
16.0461800183
 21
12.4727796985
  0
LINE
  5
3C9
100
AcDbEntity
  8
0
100
AcDbLine
 62
9
  6
CONTINUOUS
 10
16.0860683383
 20
10.9463007162
 11
16.0860683382
 21
10.9163007162
  0
LINE
  5
3CA
100
AcDbEntity
  8
0
100
AcDbLine
 62
9
  6
CONTINUOUS
 10
16.0860683383
 20
12.6313007162
 11
16.0860683383
 21
12.6613007162
  0
LINE
  5
3CB
100
AcDbEntity
  8
0
100
AcDbLine
 62
9
  6
CONTINUOUS
 10
16.1160683383
 20
10.9763007162
 11
16.1160683383
 21
11.5388007162
  0
LINE
  5
3CC
100
AcDbEntity
  8
0
100
AcDbLine
 62
9
  6
CONTINUOUS
 10
16.1160683383
 20
12.0388007162
 11
16.1160683383
 21
12.6013007162
  0
LINE
  5
3CD
100
AcDbEntity
  8
0
100
AcDbLine
 62
7
  6
CONTINUOUS
 10
16.1460683383
 20
10.9763007162
 11
16.1460683383
 21
11.5388007162
  0
LINE
  5
3CE
100
AcDbEntity
  8
0
100
AcDbLine
 62
7
  6
CONTINUOUS
 10
16.1460683383
 20
12.0388007162
 11
16.1460683383
 21
12.6013007162
  0
LINE
  5
3CF
100
AcDbEntity
  8
0
100
AcDbLine
 62
9
  6
CONTINUOUS
 10
16.4085683383
 20
10.6238007162
 11
16.4085683382
 21
10.5938007162
  0
LINE
  5
3D0
100
AcDbEntity
  8
0
100
AcDbLine
 62
9
  6
CONTINUOUS
 10
16.4085683383
 20
12.9538007162
 11
16.4085683383
 21
12.9838007162
  0
LINE
  5
3D1
100
AcDbEntity
  8
0
100
AcDbLine
 62
9
  6
CONTINUOUS
 10
16.4385683383
 20
10.6538007162
 11
16.4385683383
 21
11.5388007162
  0
LINE
  5
3D2
100
AcDbEntity
  8
0
100
AcDbLine
 62
9
  6
CONTINUOUS
 10
16.4385683383
 20
12.0388007162
 11
16.4385683383
 21
12.9238007162
  0
LINE
  5
3D3
100
AcDbEntity
  8
0
100
AcDbLine
 62
7
  6
CONTINUOUS
 10
16.4685683383
 20
10.6538007162
 11
16.4685683383
 21
11.5388007162
  0
LINE
  5
3D4
100
AcDbEntity
  8
0
100
AcDbLine
 62
7
  6
CONTINUOUS
 10
16.4685683383
 20
12.0388007162
 11
16.4685683383
 21
12.9238007162
  0
LINE
  5
3D5
100
AcDbEntity
  8
0
100
AcDbLine
 62
7
  6
CONTINUOUS
 10
15.7525683383
 20
12.3278007162
 11
15.5235683383
 21
12.3278007162
  0
LINE
  5
3D6
100
AcDbEntity
  8
0
100
AcDbLine
 62
7
  6
CONTINUOUS
 10
15.0235683383
 20
12.3278007162
 11
14.7945683383
 21
12.3278007162
  0
LINE
  5
3D7
100
AcDbEntity
  8
0
100
AcDbLine
 62
7
  6
CONTINUOUS
 10
10.7525683383
 20
12.3278007162
 11
10.5235683383
 21
12.3278007162
  0
LINE
  5
3D8
100
AcDbEntity
  8
0
100
AcDbLine
 62
7
  6
CONTINUOUS
 10
10.0235683383
 20
12.3278007162
 11
9.7945683383
 21
12.3278007162
  0
LINE
  5
3D9
100
AcDbEntity
  8
0
100
AcDbLine
 62
7
  6
CONTINUOUS
 10
2.7525683383
 20
12.3278007162
 11
2.5235683383
 21
12.3278007162
  0
LINE
  5
3DA
100
AcDbEntity
  8
0
100
AcDbLine
 62
7
  6
CONTINUOUS
 10
2.0235683383
 20
12.3278007162
 11
1.7945683383
 21
12.3278007162
  0
LINE
  5
3DB
100
AcDbEntity
  8
0
100
AcDbLine
 62
9
  6
CONTINUOUS
 10
6.7664801789
 20
12.3432630414
 11
5.7806564977
 21
12.3432630414
  0
LINE
  5
3DC
100
AcDbEntity
  8
0
100
AcDbLine
 62
9
  6
CONTINUOUS
 10
16.0461800183
 20
12.4727796985
 11
16.0166357857
 21
12.4727796985
  0
LINE
  5
3DD
100
AcDbEntity
  8
0
100
AcDbLine
 62
9
  6
CONTINUOUS
 10
11.0461800183
 20
12.4727796985
 11
11.0166357857
 21
12.4727796985
  0
LINE
  5
3DE
100
AcDbEntity
  8
0
100
AcDbLine
 62
9
  6
CONTINUOUS
 10
3.0461800183
 20
12.4727796985
 11
3.0166357857
 21
12.4727796985
  0
LINE
  5
3DF
100
AcDbEntity
  8
0
100
AcDbLine
 62
9
  6
CONTINUOUS
 10
1.5009566582
 20
12.4727796985
 11
1.5305008908
 21
12.4727796985
  0
LINE
  5
3E0
100
AcDbEntity
  8
0
100
AcDbLine
 62
9
  6
CONTINUOUS
 10
9.5009566582
 20
12.4727796985
 11
9.5305008908
 21
12.4727796985
  0
LINE
  5
3E1
100
AcDbEntity
  8
0
100
AcDbLine
 62
9
  6
CONTINUOUS
 10
14.5009566582
 20
12.4727796985
 11
14.5305008908
 21
12.4727796985
  0
LINE
  5
3E2
100
AcDbEntity
  8
0
100
AcDbLine
 62
9
  6
CONTINUOUS
 10
15.9575473206
 20
12.5318681637
 11
15.5235683383
 21
12.5318681637
  0
LINE
  5
3E3
100
AcDbEntity
  8
0
100
AcDbLine
 62
9
  6
CONTINUOUS
 10
15.0235683383
 20
12.5318681637
 11
14.589589356
 21
12.5318681637
  0
LINE
  5
3E4
100
AcDbEntity
  8
0
100
AcDbLine
 62
9
  6
CONTINUOUS
 10
10.9575473206
 20
12.5318681637
 11
10.5235683383
 21
12.5318681637
  0
LINE
  5
3E5
100
AcDbEntity
  8
0
100
AcDbLine
 62
9
  6
CONTINUOUS
 10
10.0235683383
 20
12.5318681637
 11
9.589589356
 21
12.5318681637
  0
LINE
  5
3E6
100
AcDbEntity
  8
0
100
AcDbLine
 62
9
  6
CONTINUOUS
 10
2.9575473206
 20
12.5318681637
 11
2.5235683383
 21
12.5318681637
  0
LINE
  5
3E7
100
AcDbEntity
  8
0
100
AcDbLine
 62
9
  6
CONTINUOUS
 10
2.0235683383
 20
12.5318681637
 11
1.589589356
 21
12.5318681637
  0
LINE
  5
3E8
100
AcDbEntity
  8
0
100
AcDbLine
 62
9
  6
CONTINUOUS
 10
15.9575473206
 20
12.5614123963
 11
15.5235683383
 21
12.5614123963
  0
LINE
  5
3E9
100
AcDbEntity
  8
0
100
AcDbLine
 62
9
  6
CONTINUOUS
 10
15.0235683383
 20
12.5614123963
 11
14.589589356
 21
12.5614123963
  0
LINE
  5
3EA
100
AcDbEntity
  8
0
100
AcDbLine
 62
9
  6
CONTINUOUS
 10
10.9575473206
 20
12.5614123963
 11
10.5235683383
 21
12.5614123963
  0
LINE
  5
3EB
100
AcDbEntity
  8
0
100
AcDbLine
 62
9
  6
CONTINUOUS
 10
10.0235683383
 20
12.5614123963
 11
9.589589356
 21
12.5614123963
  0
LINE
  5
3EC
100
AcDbEntity
  8
0
100
AcDbLine
 62
9
  6
CONTINUOUS
 10
2.9575473206
 20
12.5614123963
 11
2.5235683383
 21
12.5614123963
  0
LINE
  5
3ED
100
AcDbEntity
  8
0
100
AcDbLine
 62
9
  6
CONTINUOUS
 10
2.0235683383
 20
12.5614123963
 11
1.589589356
 21
12.5614123963
  0
LINE
  5
3EE
100
AcDbEntity
  8
0
100
AcDbLine
 62
9
  6
CONTINUOUS
 10
14.4310683383
 20
12.6013007162
 11
14.4010683383
 21
12.6013007162
  0
LINE
  5
3EF
100
AcDbEntity
  8
0
100
AcDbLine
 62
9
  6
CONTINUOUS
 10
9.4310683383
 20
12.6013007162
 11
9.4010683383
 21
12.6013007162
  0
LINE
  5
3F0
100
AcDbEntity
  8
0
100
AcDbLine
 62
9
  6
CONTINUOUS
 10
1.4310683383
 20
12.6013007162
 11
1.4010683383
 21
12.6013007162
  0
LINE
  5
3F1
100
AcDbEntity
  8
0
100
AcDbLine
 62
9
  6
CONTINUOUS
 10
3.1160683383
 20
12.6013007162
 11
3.1460683383
 21
12.6013007162
  0
LINE
  5
3F2
100
AcDbEntity
  8
0
100
AcDbLine
 62
9
  6
CONTINUOUS
 10
11.1160683383
 20
12.6013007162
 11
11.1460683383
 21
12.6013007162
  0
LINE
  5
3F3
100
AcDbEntity
  8
0
100
AcDbLine
 62
9
  6
CONTINUOUS
 10
16.1160683383
 20
12.6013007162
 11
16.1460683383
 21
12.6013007162
  0
LINE
  5
3F4
100
AcDbEntity
  8
0
100
AcDbLine
 62
9
  6
CONTINUOUS
 10
16.0860683383
 20
12.6313007162
 11
15.5235683383
 21
12.6313007162
  0
LINE
  5
3F5
100
AcDbEntity
  8
0
100
AcDbLine
 62
9
  6
CONTINUOUS
 10
15.0235683383
 20
12.6313007162
 11
14.4610683383
 21
12.6313007162
  0
LINE
  5
3F6
100
AcDbEntity
  8
0
100
AcDbLine
 62
9
  6
CONTINUOUS
 10
11.0860683383
 20
12.6313007162
 11
10.5235683383
 21
12.6313007162
  0
LINE
  5
3F7
100
AcDbEntity
  8
0
100
AcDbLine
 62
9
  6
CONTINUOUS
 10
10.0235683383
 20
12.6313007162
 11
9.4610683383
 21
12.6313007162
  0
LINE
  5
3F8
100
AcDbEntity
  8
0
100
AcDbLine
 62
9
  6
CONTINUOUS
 10
3.0860683383
 20
12.6313007162
 11
2.5235683383
 21
12.6313007162
  0
LINE
  5
3F9
100
AcDbEntity
  8
0
100
AcDbLine
 62
9
  6
CONTINUOUS
 10
2.0235683383
 20
12.6313007162
 11
1.4610683383
 21
12.6313007162
  0
LINE
  5
3FA
100
AcDbEntity
  8
0
100
AcDbLine
 62
7
  6
CONTINUOUS
 10
16.0860683383
 20
12.6613007162
 11
15.5235683383
 21
12.6613007162
  0
LINE
  5
3FB
100
AcDbEntity
  8
0
100
AcDbLine
 62
7
  6
CONTINUOUS
 10
15.0235683383
 20
12.6613007162
 11
14.4610683383
 21
12.6613007162
  0
LINE
  5
3FC
100
AcDbEntity
  8
0
100
AcDbLine
 62
7
  6
CONTINUOUS
 10
11.0860683383
 20
12.6613007162
 11
10.5235683383
 21
12.6613007162
  0
LINE
  5
3FD
100
AcDbEntity
  8
0
100
AcDbLine
 62
7
  6
CONTINUOUS
 10
10.0235683383
 20
12.6613007162
 11
9.4610683383
 21
12.6613007162
  0
LINE
  5
3FE
100
AcDbEntity
  8
0
100
AcDbLine
 62
7
  6
CONTINUOUS
 10
3.0860683383
 20
12.6613007162
 11
2.5235683383
 21
12.6613007162
  0
LINE
  5
3FF
100
AcDbEntity
  8
0
100
AcDbLine
 62
7
  6
CONTINUOUS
 10
2.0235683383
 20
12.6613007162
 11
1.4610683383
 21
12.6613007162
  0
LINE
  5
400
100
AcDbEntity
  8
0
100
AcDbLine
 62
9
  6
CONTINUOUS
 10
5.1567117118
 20
12.8441068582
 11
5.1247054598
 21
12.8441068582
  0
LINE
  5
401
100
AcDbEntity
  8
0
100
AcDbLine
 62
9
  6
CONTINUOUS
 10
7.3904249648
 20
12.8441068582
 11
7.4224312168
 21
12.8441068582
  0
LINE
  5
402
100
AcDbEntity
  8
0
100
AcDbLine
 62
9
  6
CONTINUOUS
 10
5.2182621963
 20
12.9056573428
 11
7.3288744802
 21
12.9056573428
  0
LINE
  5
403
100
AcDbEntity
  8
0
100
AcDbLine
 62
9
  6
CONTINUOUS
 10
14.1085683383
 20
12.9238007162
 11
14.0785683383
 21
12.9238007162
  0
LINE
  5
404
100
AcDbEntity
  8
0
100
AcDbLine
 62
9
  6
CONTINUOUS
 10
9.1085683383
 20
12.9238007162
 11
9.0785683383
 21
12.9238007162
  0
LINE
  5
405
100
AcDbEntity
  8
0
100
AcDbLine
 62
9
  6
CONTINUOUS
 10
1.1085683383
 20
12.9238007162
 11
1.0785683383
 21
12.9238007162
  0
LINE
  5
406
100
AcDbEntity
  8
0
100
AcDbLine
 62
9
  6
CONTINUOUS
 10
3.4385683383
 20
12.9238007162
 11
3.4685683383
 21
12.9238007162
  0
LINE
  5
407
100
AcDbEntity
  8
0
100
AcDbLine
 62
9
  6
CONTINUOUS
 10
11.4385683383
 20
12.9238007162
 11
11.4685683383
 21
12.9238007162
  0
LINE
  5
408
100
AcDbEntity
  8
0
100
AcDbLine
 62
9
  6
CONTINUOUS
 10
16.4385683383
 20
12.9238007162
 11
16.4685683383
 21
12.9238007162
  0
LINE
  5
409
100
AcDbEntity
  8
0
100
AcDbLine
 62
9
  6
CONTINUOUS
 10
5.2182621963
 20
12.9376635947
 11
7.3288744802
 21
12.9376635947
  0
LINE
  5
40A
100
AcDbEntity
  8
0
100
AcDbLine
 62
9
  6
CONTINUOUS
 10
16.4085683383
 20
12.9538007162
 11
15.5235683383
 21
12.9538007162
  0
LINE
  5
40B
100
AcDbEntity
  8
0
100
AcDbLine
 62
9
  6
CONTINUOUS
 10
15.0235683383
 20
12.9538007162
 11
14.1385683383
 21
12.9538007162
  0
LINE
  5
40C
100
AcDbEntity
  8
0
100
AcDbLine
 62
9
  6
CONTINUOUS
 10
11.4085683383
 20
12.9538007162
 11
10.5235683383
 21
12.9538007162
  0
LINE
  5
40D
100
AcDbEntity
  8
0
100
AcDbLine
 62
9
  6
CONTINUOUS
 10
10.0235683383
 20
12.9538007162
 11
9.1385683383
 21
12.9538007162
  0
LINE
  5
40E
100
AcDbEntity
  8
0
100
AcDbLine
 62
9
  6
CONTINUOUS
 10
3.4085683383
 20
12.9538007162
 11
2.5235683383
 21
12.9538007162
  0
LINE
  5
40F
100
AcDbEntity
  8
0
100
AcDbLine
 62
9
  6
CONTINUOUS
 10
2.0235683383
 20
12.9538007162
 11
1.1385683383
 21
12.9538007162
  0
LINE
  5
410
100
AcDbEntity
  8
0
100
AcDbLine
 62
7
  6
CONTINUOUS
 10
16.4085683383
 20
12.9838007162
 11
15.5235683383
 21
12.9838007162
  0
LINE
  5
411
100
AcDbEntity
  8
0
100
AcDbLine
 62
7
  6
CONTINUOUS
 10
15.0235683383
 20
12.9838007162
 11
14.1385683383
 21
12.9838007162
  0
LINE
  5
412
100
AcDbEntity
  8
0
100
AcDbLine
 62
7
  6
CONTINUOUS
 10
11.4085683383
 20
12.9838007162
 11
10.5235683383
 21
12.9838007162
  0
LINE
  5
413
100
AcDbEntity
  8
0
100
AcDbLine
 62
7
  6
CONTINUOUS
 10
10.0235683383
 20
12.9838007162
 11
9.1385683383
 21
12.9838007162
  0
LINE
  5
414
100
AcDbEntity
  8
0
100
AcDbLine
 62
7
  6
CONTINUOUS
 10
3.4085683383
 20
12.9838007162
 11
2.5235683383
 21
12.9838007162
  0
LINE
  5
415
100
AcDbEntity
  8
0
100
AcDbLine
 62
7
  6
CONTINUOUS
 10
2.0235683383
 20
12.9838007162
 11
1.1385683383
 21
12.9838007162
  0
LINE
  5
416
100
AcDbEntity
  8
0
100
AcDbLine
 62
9
  6
CONTINUOUS
 10
21.2585683383
 20
12.9988007162
 11
19.2885683383
 21
12.9988007162
  0
LINE
  5
417
100
AcDbEntity
  8
0
100
AcDbLine
 62
9
  6
CONTINUOUS
 10
5.0310683383
 20
13.0013007162
 11
4.9985683383
 21
13.0013007162
  0
LINE
  5
418
100
AcDbEntity
  8
0
100
AcDbLine
 62
9
  6
CONTINUOUS
 10
7.5160683383
 20
13.0013007162
 11
7.5485683383
 21
13.0013007198
  0
LINE
  5
419
100
AcDbEntity
  8
0
100
AcDbLine
 62
9
  6
CONTINUOUS
 10
7.4860683383
 20
13.0313007162
 11
5.0610683383
 21
13.0313007162
  0
LINE
  5
41A
100
AcDbEntity
  8
0
100
AcDbLine
 62
7
  6
CONTINUOUS
 10
21.2185683383
 20
13.0388007162
 11
19.3285683383
 21
13.0388007162
  0
LINE
  5
41B
100
AcDbEntity
  8
0
100
AcDbLine
 62
7
  6
CONTINUOUS
 10
7.4860683383
 20
13.0638007162
 11
5.0610683383
 21
13.0638007162
  0
LINE
  5
41C
100
AcDbEntity
  8
0
100
AcDbLine
 62
9
  6
CONTINUOUS
 10
16.6810683383
 20
12.0388007162
 11
16.6810683383
 21
11.5388007162
  0
LINE
  5
41D
100
AcDbEntity
  8
0
100
AcDbLine
 62
7
  6
CONTINUOUS
 10
16.7110683383
 20
12.0088007162
 11
16.7110683383
 21
11.5688007162
  0
LINE
  5
41E
100
AcDbEntity
  8
0
100
AcDbLine
 62
9
  6
CONTINUOUS
 10
2.0235683383
 20
13.1963007162
 11
2.5235683383
 21
13.1963007162
  0
LINE
  5
41F
100
AcDbEntity
  8
0
100
AcDbLine
 62
9
  6
CONTINUOUS
 10
10.0235683383
 20
13.1963007162
 11
10.5235683383
 21
13.1963007162
  0
LINE
  5
420
100
AcDbEntity
  8
0
100
AcDbLine
 62
9
  6
CONTINUOUS
 10
15.0235683383
 20
13.1963007162
 11
15.5235683383
 21
13.1963007162
  0
LINE
  5
421
100
AcDbEntity
  8
0
100
AcDbLine
 62
7
  6
CONTINUOUS
 10
2.0535683383
 20
13.2263007162
 11
2.4935683383
 21
13.2263007162
  0
LINE
  5
422
100
AcDbEntity
  8
0
100
AcDbLine
 62
7
  6
CONTINUOUS
 10
10.0535683383
 20
13.2263007162
 11
10.4935683383
 21
13.2263007162
  0
LINE
  5
423
100
AcDbEntity
  8
0
100
AcDbLine
 62
7
  6
CONTINUOUS
 10
15.0535683383
 20
13.2263007162
 11
15.4935683383
 21
13.2263007162
  0
LINE
  5
424
100
AcDbEntity
  8
0
100
AcDbLine
 62
9
  6
CONTINUOUS
 10
4.6485683419
 20
13.3362720868
 11
7.8985683347
 21
13.3362720868
  0
LINE
  5
425
100
AcDbEntity
  8
0
100
AcDbLine
 62
7
  6
CONTINUOUS
 10
7.8210397089
 20
13.4138007126
 11
4.7260969677
 21
13.4138007126
  0
LINE
  5
426
100
AcDbEntity
  8
0
100
AcDbLine
 62
9
  6
CONTINUOUS
 10
15.9575473206
 20
11.0457332688
 11
15.7534346596
 21
11.2498459298
  0
LINE
  5
427
100
AcDbEntity
  8
0
100
AcDbLine
 62
9
  6
CONTINUOUS
 10
14.5305008908
 20
12.4727796985
 11
14.7346136109
 21
12.2686669785
  0
LINE
  5
428
100
AcDbEntity
  8
0
100
AcDbLine
 62
9
  6
CONTINUOUS
 10
16.0166357857
 20
11.104821734
 11
15.8125230645
 21
11.3089344552
  0
LINE
  5
429
100
AcDbEntity
  8
0
100
AcDbLine
 62
9
  6
CONTINUOUS
 10
14.589589356
 20
12.5318681637
 11
14.7937020179
 21
12.3277555018
  0
LINE
  5
42A
100
AcDbEntity
  8
0
100
AcDbLine
 62
7
  6
CONTINUOUS
 10
19.2885683383
 20
12.9988007162
 11
19.2885683383
 21
10.5788007162
  0
LINE
  5
42B
100
AcDbEntity
  8
0
100
AcDbLine
 62
9
  6
CONTINUOUS
 10
19.3285683383
 20
13.0388007162
 11
19.3285683383
 21
10.5388007162
  0
LINE
  5
42C
100
AcDbEntity
  8
0
100
AcDbLine
 62
7
  6
CONTINUOUS
 10
19.7735683383
 20
5.3929432225
 11
19.7735683383
 21
11.5102408182
  0
LINE
  5
42D
100
AcDbEntity
  8
0
100
AcDbLine
 62
9
  6
CONTINUOUS
 10
19.7835683383
 20
6.052974012
 11
19.7835683383
 21
5.3865153464
  0
LINE
  5
42E
100
AcDbEntity
  8
0
100
AcDbLine
 62
7
  6
CONTINUOUS
 10
19.7860683383
 20
11.7888007162
 11
19.7860683383
 21
11.5410412042
  0
LINE
  5
42F
100
AcDbEntity
  8
0
100
AcDbLine
 62
7
  6
CONTINUOUS
 10
19.8100683383
 20
5.4259666353
 11
19.8100683383
 21
6.0135227231
  0
LINE
  5
430
100
AcDbEntity
  8
0
100
AcDbLine
 62
9
  6
CONTINUOUS
 10
19.8200683383
 20
6.007094847
 11
19.8200683383
 21
5.4195387592
  0
LINE
  5
431
100
AcDbEntity
  8
0
100
AcDbLine
 62
9
  6
CONTINUOUS
 10
19.8385683383
 20
5.3443829021
 11
19.8385683383
 21
5.3408107782
  0
LINE
  5
432
100
AcDbEntity
  8
0
100
AcDbLine
 62
9
  6
CONTINUOUS
 10
19.8385683383
 20
6.0951064563
 11
19.8385683383
 21
11.5623732626
  0
LINE
  5
433
100
AcDbEntity
  8
0
100
AcDbLine
 62
9
  6
CONTINUOUS
 10
19.8900683383
 20
5.3659156481
 11
19.8900683383
 21
5.3623435242
  0
LINE
  5
434
100
AcDbEntity
  8
0
100
AcDbLine
 62
9
  6
CONTINUOUS
 10
19.8900683383
 20
6.0607179581
 11
19.8900683383
 21
6.0748062786
  0
LINE
  5
435
100
AcDbEntity
  8
0
100
AcDbLine
 62
9
  6
CONTINUOUS
 10
20.6570683383
 20
5.3659156481
 11
20.6570683383
 21
5.3623435242
  0
LINE
  5
436
100
AcDbEntity
  8
0
100
AcDbLine
 62
9
  6
CONTINUOUS
 10
20.6570683383
 20
6.0607179581
 11
20.6570683383
 21
6.0748062786
  0
LINE
  5
437
100
AcDbEntity
  8
0
100
AcDbLine
 62
9
  6
CONTINUOUS
 10
20.7085683383
 20
5.3443829021
 11
20.7085683383
 21
5.3408107782
  0
LINE
  5
438
100
AcDbEntity
  8
0
100
AcDbLine
 62
9
  6
CONTINUOUS
 10
20.7085683383
 20
11.5623732626
 11
20.7085683383
 21
6.0951064563
  0
LINE
  5
439
100
AcDbEntity
  8
0
100
AcDbLine
 62
9
  6
CONTINUOUS
 10
20.7270683383
 20
5.4195387592
 11
20.7270683383
 21
6.007094847
  0
LINE
  5
43A
100
AcDbEntity
  8
0
100
AcDbLine
 62
7
  6
CONTINUOUS
 10
20.7370683383
 20
6.0135227231
 11
20.7370683383
 21
5.4259666353
  0
LINE
  5
43B
100
AcDbEntity
  8
0
100
AcDbLine
 62
7
  6
CONTINUOUS
 10
20.7610683383
 20
11.7888007162
 11
20.7610683383
 21
11.5410403612
  0
LINE
  5
43C
100
AcDbEntity
  8
0
100
AcDbLine
 62
9
  6
CONTINUOUS
 10
20.7635683383
 20
5.3865153464
 11
20.7635683383
 21
6.052974012
  0
LINE
  5
43D
100
AcDbEntity
  8
0
100
AcDbLine
 62
7
  6
CONTINUOUS
 10
20.7735683383
 20
5.3929432225
 11
20.7735683383
 21
11.5102408182
  0
LINE
  5
43E
100
AcDbEntity
  8
0
100
AcDbLine
 62
9
  6
CONTINUOUS
 10
21.2185683383
 20
10.5388007162
 11
21.2185683383
 21
13.0388007162
  0
LINE
  5
43F
100
AcDbEntity
  8
0
100
AcDbLine
 62
7
  6
CONTINUOUS
 10
21.2585683383
 20
10.5788007162
 11
21.2585683383
 21
12.9988007162
  0
ARC
  5
440
100
AcDbEntity
  8
0
100
AcDbCircle
 62
7
  6
CONTINUOUS
 10
5.5551995438
 20
2.9661800863
 40
0.0625000136
100
AcDbArc
 50
109.1489811522
 51
179.9999899506
  0
ARC
  5
441
100
AcDbEntity
  8
0
100
AcDbCircle
 62
7
  6
CONTINUOUS
 10
5.5551995325
 20
1.6132853199
 40
0.0625000041
100
AcDbArc
 50
180.0000037774
 51
269.9999980009
  0
ARC
  5
442
100
AcDbEntity
  8
0
100
AcDbCircle
 62
7
  6
CONTINUOUS
 10
6.9919371421
 20
1.613285318
 40
0.0625000041
100
AcDbArc
 50
270.0000037774
 51
359.9999980009
  0
ARC
  5
443
100
AcDbEntity
  8
0
100
AcDbCircle
 62
7
  6
CONTINUOUS
 10
6.9919371418
 20
2.9661800856
 40
0.0625000033
100
AcDbArc
 50
0.0000106276
 51
70.8383661043
  0
ARC
  5
444
100
AcDbEntity
  8
0
100
AcDbCircle
 62
7
  6
CONTINUOUS
 10
4.7260969677
 20
10.2413293456
 40
0.0775286258
100
AcDbArc
 50
180.0
 51
270.0
  0
ARC
  5
445
100
AcDbEntity
  8
0
100
AcDbCircle
 62
7
  6
CONTINUOUS
 10
5.0610683383
 20
10.5763007162
 40
0.0625
100
AcDbArc
 50
180.0
 51
270.0
  0
ARC
  5
446
100
AcDbEntity
  8
0
100
AcDbCircle
 62
7
  6
CONTINUOUS
 10
1.9635683383
 20
11.3853007162
 40
0.06
100
AcDbArc
 50
0.0
 51
90.0
  0
ARC
  5
447
100
AcDbEntity
  8
0
100
AcDbCircle
 62
7
  6
CONTINUOUS
 10
2.5835683383
 20
11.3853007162
 40
0.06
100
AcDbArc
 50
90.0
 51
180.0
  0
ARC
  5
448
100
AcDbEntity
  8
0
100
AcDbCircle
 62
7
  6
CONTINUOUS
 10
2.6770683383
 20
11.4788007162
 40
0.06
100
AcDbArc
 50
90.0
 51
180.0
  0
ARC
  5
449
100
AcDbEntity
  8
0
100
AcDbCircle
 62
7
  6
CONTINUOUS
 10
1.8700683383
 20
11.4788007162
 40
0.06
100
AcDbArc
 50
0.0
 51
90.0
  0
ARC
  5
44A
100
AcDbEntity
  8
0
100
AcDbCircle
 62
7
  6
CONTINUOUS
 10
1.1385683383
 20
10.6538007162
 40
0.06
100
AcDbArc
 50
180.0
 51
270.0
  0
ARC
  5
44B
100
AcDbEntity
  8
0
100
AcDbCircle
 62
7
  6
CONTINUOUS
 10
3.4085683383
 20
10.6538007162
 40
0.06
100
AcDbArc
 50
270.0
 51
360.0
  0
ARC
  5
44C
100
AcDbEntity
  8
0
100
AcDbCircle
 62
7
  6
CONTINUOUS
 10
2.7525683383
 20
11.3098007162
 40
0.06
100
AcDbArc
 50
270.0
 51
360.0
  0
ARC
  5
44D
100
AcDbEntity
  8
0
100
AcDbCircle
 62
7
  6
CONTINUOUS
 10
1.7945683383
 20
11.3098007162
 40
0.06
100
AcDbArc
 50
180.0
 51
270.0
  0
ARC
  5
44E
100
AcDbEntity
  8
0
100
AcDbCircle
 62
7
  6
CONTINUOUS
 10
3.0860683383
 20
10.9763007162
 40
0.06
100
AcDbArc
 50
270.0
 51
360.0
  0
ARC
  5
44F
100
AcDbEntity
  8
0
100
AcDbCircle
 62
7
  6
CONTINUOUS
 10
1.4610683383
 20
10.9763007162
 40
0.06
100
AcDbArc
 50
180.0
 51
270.0
  0
ARC
  5
450
100
AcDbEntity
  8
0
100
AcDbCircle
 62
7
  6
CONTINUOUS
 10
2.4935683383
 20
10.3813007162
 40
0.03
100
AcDbArc
 50
270.0
 51
360.0
  0
ARC
  5
451
100
AcDbEntity
  8
0
100
AcDbCircle
 62
7
  6
CONTINUOUS
 10
2.0535683383
 20
10.3813007162
 40
0.03
100
AcDbArc
 50
180.0
 51
270.0
  0
ARC
  5
452
100
AcDbEntity
  8
0
100
AcDbCircle
 62
7
  6
CONTINUOUS
 10
2.5870683383
 20
11.4753007162
 40
0.03
100
AcDbArc
 50
270.0
 51
360.0
  0
ARC
  5
453
100
AcDbEntity
  8
0
100
AcDbCircle
 62
7
  6
CONTINUOUS
 10
1.9600683383
 20
11.4753007162
 40
0.03
100
AcDbArc
 50
180.0
 51
270.0
  0
ARC
  5
454
100
AcDbEntity
  8
0
100
AcDbCircle
 62
7
  6
CONTINUOUS
 10
3.6810683383
 20
11.5688007162
 40
0.03
100
AcDbArc
 50
270.0
 51
360.0
  0
ARC
  5
455
100
AcDbEntity
  8
0
100
AcDbCircle
 62
7
  6
CONTINUOUS
 10
0.8660683383
 20
11.5688007162
 40
0.03
100
AcDbArc
 50
180.0
 51
270.0
  0
ARC
  5
456
100
AcDbEntity
  8
0
100
AcDbCircle
 62
9
  6
CONTINUOUS
 10
5.0610683383
 20
10.5763007162
 40
0.03
100
AcDbArc
 50
180.0
 51
270.0
  0
ARC
  5
457
100
AcDbEntity
  8
0
100
AcDbCircle
 62
9
  6
CONTINUOUS
 10
3.4085683383
 20
10.6538007162
 40
0.03
100
AcDbArc
 50
270.0
 51
360.0
  0
ARC
  5
458
100
AcDbEntity
  8
0
100
AcDbCircle
 62
9
  6
CONTINUOUS
 10
1.1385683383
 20
10.6538007162
 40
0.03
100
AcDbArc
 50
180.0
 51
270.0
  0
ARC
  5
459
100
AcDbEntity
  8
0
100
AcDbCircle
 62
9
  6
CONTINUOUS
 10
3.0860683383
 20
10.9763007162
 40
0.03
100
AcDbArc
 50
270.0
 51
360.0
  0
ARC
  5
45A
100
AcDbEntity
  8
0
100
AcDbCircle
 62
9
  6
CONTINUOUS
 10
1.4610683383
 20
10.9763007162
 40
0.03
100
AcDbArc
 50
180.0
 51
270.0
  0
ARC
  5
45B
100
AcDbEntity
  8
0
100
AcDbCircle
 62
9
  6
CONTINUOUS
 10
2.7525683383
 20
11.3098007162
 40
0.03
100
AcDbArc
 50
270.0
 51
360.0
  0
ARC
  5
45C
100
AcDbEntity
  8
0
100
AcDbCircle
 62
9
  6
CONTINUOUS
 10
1.7945683383
 20
11.3098007162
 40
0.03
100
AcDbArc
 50
180.0
 51
270.0
  0
ARC
  5
45D
100
AcDbEntity
  8
0
100
AcDbCircle
 62
7
  6
CONTINUOUS
 10
1.9635683383
 20
12.1923007162
 40
0.06
100
AcDbArc
 50
270.0
 51
360.0
  0
ARC
  5
45E
100
AcDbEntity
  8
0
100
AcDbCircle
 62
7
  6
CONTINUOUS
 10
2.5835683383
 20
12.1923007162
 40
0.06
100
AcDbArc
 50
180.0
 51
270.0
  0
ARC
  5
45F
100
AcDbEntity
  8
0
100
AcDbCircle
 62
7
  6
CONTINUOUS
 10
2.6770683383
 20
12.0988007162
 40
0.06
100
AcDbArc
 50
180.0
 51
270.0
  0
ARC
  5
460
100
AcDbEntity
  8
0
100
AcDbCircle
 62
7
  6
CONTINUOUS
 10
1.8700683383
 20
12.0988007162
 40
0.06
100
AcDbArc
 50
270.0
 51
360.0
  0
ARC
  5
461
100
AcDbEntity
  8
0
100
AcDbCircle
 62
7
  6
CONTINUOUS
 10
1.7945683383
 20
12.2678007162
 40
0.06
100
AcDbArc
 50
90.0
 51
180.0
  0
ARC
  5
462
100
AcDbEntity
  8
0
100
AcDbCircle
 62
7
  6
CONTINUOUS
 10
2.7525683383
 20
12.2678007162
 40
0.06
100
AcDbArc
 50
0.0
 51
90.0
  0
ARC
  5
463
100
AcDbEntity
  8
0
100
AcDbCircle
 62
7
  6
CONTINUOUS
 10
1.4610683383
 20
12.6013007162
 40
0.06
100
AcDbArc
 50
90.0
 51
180.0
  0
ARC
  5
464
100
AcDbEntity
  8
0
100
AcDbCircle
 62
7
  6
CONTINUOUS
 10
2.5870683383
 20
12.1023007162
 40
0.03
100
AcDbArc
 50
0.0
 51
90.0
  0
ARC
  5
465
100
AcDbEntity
  8
0
100
AcDbCircle
 62
7
  6
CONTINUOUS
 10
1.9600683383
 20
12.1023007162
 40
0.03
100
AcDbArc
 50
90.0
 51
180.0
  0
ARC
  5
466
100
AcDbEntity
  8
0
100
AcDbCircle
 62
7
  6
CONTINUOUS
 10
0.8660683383
 20
12.0088007162
 40
0.03
100
AcDbArc
 50
90.0
 51
180.0
  0
ARC
  5
467
100
AcDbEntity
  8
0
100
AcDbCircle
 62
9
  6
CONTINUOUS
 10
1.4610683383
 20
12.6013007162
 40
0.03
100
AcDbArc
 50
90.0
 51
180.0
  0
ARC
  5
468
100
AcDbEntity
  8
0
100
AcDbCircle
 62
9
  6
CONTINUOUS
 10
1.7945683383
 20
12.2678007162
 40
0.03
100
AcDbArc
 50
90.0
 51
180.0
  0
ARC
  5
469
100
AcDbEntity
  8
0
100
AcDbCircle
 62
9
  6
CONTINUOUS
 10
2.7525683383
 20
12.2678007162
 40
0.03
100
AcDbArc
 50
0.0
 51
90.0
  0
ARC
  5
46A
100
AcDbEntity
  8
0
100
AcDbCircle
 62
7
  6
CONTINUOUS
 10
1.1385683383
 20
12.9238007162
 40
0.06
100
AcDbArc
 50
90.0
 51
180.0
  0
ARC
  5
46B
100
AcDbEntity
  8
0
100
AcDbCircle
 62
7
  6
CONTINUOUS
 10
2.0535683383
 20
13.1963007162
 40
0.03
100
AcDbArc
 50
90.0
 51
180.0
  0
ARC
  5
46C
100
AcDbEntity
  8
0
100
AcDbCircle
 62
7
  6
CONTINUOUS
 10
2.4935683383
 20
13.1963007162
 40
0.03
100
AcDbArc
 50
0.0
 51
90.0
  0
ARC
  5
46D
100
AcDbEntity
  8
0
100
AcDbCircle
 62
9
  6
CONTINUOUS
 10
1.1385683383
 20
12.9238007162
 40
0.03
100
AcDbArc
 50
90.0
 51
180.0
  0
ARC
  5
46E
100
AcDbEntity
  8
0
100
AcDbCircle
 62
7
  6
CONTINUOUS
 10
3.0860683383
 20
12.6013007162
 40
0.06
100
AcDbArc
 50
0.0
 51
90.0
  0
ARC
  5
46F
100
AcDbEntity
  8
0
100
AcDbCircle
 62
7
  6
CONTINUOUS
 10
3.6810683383
 20
12.0088007162
 40
0.03
100
AcDbArc
 50
0.0
 51
90.0
  0
ARC
  5
470
100
AcDbEntity
  8
0
100
AcDbCircle
 62
9
  6
CONTINUOUS
 10
3.0860683383
 20
12.6013007162
 40
0.03
100
AcDbArc
 50
0.0
 51
90.0
  0
ARC
  5
471
100
AcDbEntity
  8
0
100
AcDbCircle
 62
7
  6
CONTINUOUS
 10
4.7260969677
 20
13.3362720868
 40
0.0775286258
100
AcDbArc
 50
90.0
 51
180.0
  0
ARC
  5
472
100
AcDbEntity
  8
0
100
AcDbCircle
 62
7
  6
CONTINUOUS
 10
5.0610683383
 20
13.0013007162
 40
0.0625
100
AcDbArc
 50
90.0
 51
180.0
  0
ARC
  5
473
100
AcDbEntity
  8
0
100
AcDbCircle
 62
7
  6
CONTINUOUS
 10
3.4085683383
 20
12.9238007162
 40
0.06
100
AcDbArc
 50
0.0
 51
90.0
  0
ARC
  5
474
100
AcDbEntity
  8
0
100
AcDbCircle
 62
9
  6
CONTINUOUS
 10
5.0610683383
 20
13.0013007162
 40
0.03
100
AcDbArc
 50
90.0
 51
180.0
  0
ARC
  5
475
100
AcDbEntity
  8
0
100
AcDbCircle
 62
9
  6
CONTINUOUS
 10
3.4085683383
 20
12.9238007162
 40
0.03
100
AcDbArc
 50
0.0
 51
90.0
  0
ARC
  5
476
100
AcDbEntity
  8
0
100
AcDbCircle
 62
7
  6
CONTINUOUS
 10
7.8210397089
 20
10.2413293456
 40
0.0775286258
100
AcDbArc
 50
270.0
 51
360.0
  0
ARC
  5
477
100
AcDbEntity
  8
0
100
AcDbCircle
 62
7
  6
CONTINUOUS
 10
5.9490683383
 20
11.4643007162
 40
0.063
100
AcDbArc
 50
180.0
 51
270.0
  0
ARC
  5
478
100
AcDbEntity
  8
0
100
AcDbCircle
 62
7
  6
CONTINUOUS
 10
6.5980683383
 20
11.4643007162
 40
0.063
100
AcDbArc
 50
270.0
 51
360.0
  0
ARC
  5
479
100
AcDbEntity
  8
0
100
AcDbCircle
 62
7
  6
CONTINUOUS
 10
7.4860683383
 20
10.5763007162
 40
0.0625
100
AcDbArc
 50
270.0
 51
360.0
  0
ARC
  5
47A
100
AcDbEntity
  8
0
100
AcDbCircle
 62
7
  6
CONTINUOUS
 10
9.1385683383
 20
10.6538007162
 40
0.06
100
AcDbArc
 50
180.0
 51
270.0
  0
ARC
  5
47B
100
AcDbEntity
  8
0
100
AcDbCircle
 62
7
  6
CONTINUOUS
 10
9.4610683383
 20
10.9763007162
 40
0.06
100
AcDbArc
 50
180.0
 51
270.0
  0
ARC
  5
47C
100
AcDbEntity
  8
0
100
AcDbCircle
 62
7
  6
CONTINUOUS
 10
9.7945683383
 20
11.3098007162
 40
0.06
100
AcDbArc
 50
180.0
 51
270.0
  0
ARC
  5
47D
100
AcDbEntity
  8
0
100
AcDbCircle
 62
7
  6
CONTINUOUS
 10
10.7525683383
 20
11.3098007162
 40
0.06
100
AcDbArc
 50
270.0
 51
360.0
  0
ARC
  5
47E
100
AcDbEntity
  8
0
100
AcDbCircle
 62
7
  6
CONTINUOUS
 10
10.6770683383
 20
11.4788007162
 40
0.06
100
AcDbArc
 50
90.0
 51
180.0
  0
ARC
  5
47F
100
AcDbEntity
  8
0
100
AcDbCircle
 62
7
  6
CONTINUOUS
 10
9.8700683383
 20
11.4788007162
 40
0.06
100
AcDbArc
 50
0.0
 51
90.0
  0
ARC
  5
480
100
AcDbEntity
  8
0
100
AcDbCircle
 62
7
  6
CONTINUOUS
 10
9.9635683383
 20
11.3853007162
 40
0.06
100
AcDbArc
 50
0.0
 51
90.0
  0
ARC
  5
481
100
AcDbEntity
  8
0
100
AcDbCircle
 62
7
  6
CONTINUOUS
 10
10.5835683383
 20
11.3853007162
 40
0.06
100
AcDbArc
 50
90.0
 51
180.0
  0
ARC
  5
482
100
AcDbEntity
  8
0
100
AcDbCircle
 62
9
  6
CONTINUOUS
 10
6.5980683383
 20
11.4643007162
 40
0.033
100
AcDbArc
 50
270.0
 51
360.0
  0
ARC
  5
483
100
AcDbEntity
  8
0
100
AcDbCircle
 62
9
  6
CONTINUOUS
 10
5.9490683383
 20
11.4643007162
 40
0.033
100
AcDbArc
 50
180.0
 51
270.0
  0
ARC
  5
484
100
AcDbEntity
  8
0
100
AcDbCircle
 62
7
  6
CONTINUOUS
 10
8.8660683383
 20
11.5688007162
 40
0.03
100
AcDbArc
 50
180.0
 51
270.0
  0
ARC
  5
485
100
AcDbEntity
  8
0
100
AcDbCircle
 62
7
  6
CONTINUOUS
 10
10.5870683383
 20
11.4753007162
 40
0.03
100
AcDbArc
 50
270.0
 51
360.0
  0
ARC
  5
486
100
AcDbEntity
  8
0
100
AcDbCircle
 62
7
  6
CONTINUOUS
 10
9.9600683383
 20
11.4753007162
 40
0.03
100
AcDbArc
 50
180.0
 51
270.0
  0
ARC
  5
487
100
AcDbEntity
  8
0
100
AcDbCircle
 62
7
  6
CONTINUOUS
 10
10.4935683383
 20
10.3813007162
 40
0.03
100
AcDbArc
 50
270.0
 51
360.0
  0
ARC
  5
488
100
AcDbEntity
  8
0
100
AcDbCircle
 62
7
  6
CONTINUOUS
 10
10.0535683383
 20
10.3813007162
 40
0.03
100
AcDbArc
 50
180.0
 51
270.0
  0
ARC
  5
489
100
AcDbEntity
  8
0
100
AcDbCircle
 62
9
  6
CONTINUOUS
 10
7.4860683383
 20
10.5763007162
 40
0.03
100
AcDbArc
 50
270.0
 51
360.0
  0
ARC
  5
48A
100
AcDbEntity
  8
0
100
AcDbCircle
 62
9
  6
CONTINUOUS
 10
9.1385683383
 20
10.6538007162
 40
0.03
100
AcDbArc
 50
180.0
 51
270.0
  0
ARC
  5
48B
100
AcDbEntity
  8
0
100
AcDbCircle
 62
9
  6
CONTINUOUS
 10
9.4610683383
 20
10.9763007162
 40
0.03
100
AcDbArc
 50
180.0
 51
270.0
  0
ARC
  5
48C
100
AcDbEntity
  8
0
100
AcDbCircle
 62
9
  6
CONTINUOUS
 10
10.7525683383
 20
11.3098007162
 40
0.03
100
AcDbArc
 50
270.0
 51
360.0
  0
ARC
  5
48D
100
AcDbEntity
  8
0
100
AcDbCircle
 62
9
  6
CONTINUOUS
 10
9.7945683383
 20
11.3098007162
 40
0.03
100
AcDbArc
 50
180.0
 51
270.0
  0
ARC
  5
48E
100
AcDbEntity
  8
0
100
AcDbCircle
 62
7
  6
CONTINUOUS
 10
6.5980683383
 20
12.1133007162
 40
0.063
100
AcDbArc
 50
0.0
 51
90.0
  0
ARC
  5
48F
100
AcDbEntity
  8
0
100
AcDbCircle
 62
7
  6
CONTINUOUS
 10
5.9490683383
 20
12.1133007162
 40
0.063
100
AcDbArc
 50
90.0
 51
180.0
  0
ARC
  5
490
100
AcDbEntity
  8
0
100
AcDbCircle
 62
9
  6
CONTINUOUS
 10
5.9490683383
 20
12.1133007162
 40
0.033
100
AcDbArc
 50
90.0
 51
180.0
  0
ARC
  5
491
100
AcDbEntity
  8
0
100
AcDbCircle
 62
9
  6
CONTINUOUS
 10
6.5980683383
 20
12.1133007162
 40
0.033
100
AcDbArc
 50
0.0
 51
90.0
  0
ARC
  5
492
100
AcDbEntity
  8
0
100
AcDbCircle
 62
7
  6
CONTINUOUS
 10
7.8210397089
 20
13.3362720868
 40
0.0775286258
100
AcDbArc
 50
0.0
 51
90.0
  0
ARC
  5
493
100
AcDbEntity
  8
0
100
AcDbCircle
 62
7
  6
CONTINUOUS
 10
7.4860683383
 20
13.0013007162
 40
0.0625
100
AcDbArc
 50
0.0
 51
90.0
  0
ARC
  5
494
100
AcDbEntity
  8
0
100
AcDbCircle
 62
9
  6
CONTINUOUS
 10
7.4860683383
 20
13.0013007162
 40
0.03
100
AcDbArc
 50
0.0
 51
90.0
  0
ARC
  5
495
100
AcDbEntity
  8
0
100
AcDbCircle
 62
7
  6
CONTINUOUS
 10
9.4610683383
 20
12.6013007162
 40
0.06
100
AcDbArc
 50
90.0
 51
180.0
  0
ARC
  5
496
100
AcDbEntity
  8
0
100
AcDbCircle
 62
7
  6
CONTINUOUS
 10
10.7525683383
 20
12.2678007162
 40
0.06
100
AcDbArc
 50
0.0
 51
90.0
  0
ARC
  5
497
100
AcDbEntity
  8
0
100
AcDbCircle
 62
7
  6
CONTINUOUS
 10
9.7945683383
 20
12.2678007162
 40
0.06
100
AcDbArc
 50
90.0
 51
180.0
  0
ARC
  5
498
100
AcDbEntity
  8
0
100
AcDbCircle
 62
7
  6
CONTINUOUS
 10
10.6770683383
 20
12.0988007162
 40
0.06
100
AcDbArc
 50
180.0
 51
270.0
  0
ARC
  5
499
100
AcDbEntity
  8
0
100
AcDbCircle
 62
7
  6
CONTINUOUS
 10
9.8700683383
 20
12.0988007162
 40
0.06
100
AcDbArc
 50
270.0
 51
360.0
  0
ARC
  5
49A
100
AcDbEntity
  8
0
100
AcDbCircle
 62
7
  6
CONTINUOUS
 10
9.9635683383
 20
12.1923007162
 40
0.06
100
AcDbArc
 50
270.0
 51
360.0
  0
ARC
  5
49B
100
AcDbEntity
  8
0
100
AcDbCircle
 62
7
  6
CONTINUOUS
 10
10.5835683383
 20
12.1923007162
 40
0.06
100
AcDbArc
 50
180.0
 51
270.0
  0
ARC
  5
49C
100
AcDbEntity
  8
0
100
AcDbCircle
 62
7
  6
CONTINUOUS
 10
8.8660683383
 20
12.0088007162
 40
0.03
100
AcDbArc
 50
90.0
 51
180.0
  0
ARC
  5
49D
100
AcDbEntity
  8
0
100
AcDbCircle
 62
7
  6
CONTINUOUS
 10
10.5870683383
 20
12.1023007162
 40
0.03
100
AcDbArc
 50
0.0
 51
90.0
  0
ARC
  5
49E
100
AcDbEntity
  8
0
100
AcDbCircle
 62
7
  6
CONTINUOUS
 10
9.9600683383
 20
12.1023007162
 40
0.03
100
AcDbArc
 50
90.0
 51
180.0
  0
ARC
  5
49F
100
AcDbEntity
  8
0
100
AcDbCircle
 62
9
  6
CONTINUOUS
 10
9.4610683383
 20
12.6013007162
 40
0.03
100
AcDbArc
 50
90.0
 51
180.0
  0
ARC
  5
4A0
100
AcDbEntity
  8
0
100
AcDbCircle
 62
9
  6
CONTINUOUS
 10
9.7945683383
 20
12.2678007162
 40
0.03
100
AcDbArc
 50
90.0
 51
180.0
  0
ARC
  5
4A1
100
AcDbEntity
  8
0
100
AcDbCircle
 62
9
  6
CONTINUOUS
 10
10.7525683383
 20
12.2678007162
 40
0.03
100
AcDbArc
 50
0.0
 51
90.0
  0
ARC
  5
4A2
100
AcDbEntity
  8
0
100
AcDbCircle
 62
7
  6
CONTINUOUS
 10
9.1385683383
 20
12.9238007162
 40
0.06
100
AcDbArc
 50
90.0
 51
180.0
  0
ARC
  5
4A3
100
AcDbEntity
  8
0
100
AcDbCircle
 62
7
  6
CONTINUOUS
 10
10.4935683383
 20
13.1963007162
 40
0.03
100
AcDbArc
 50
0.0
 51
90.0
  0
ARC
  5
4A4
100
AcDbEntity
  8
0
100
AcDbCircle
 62
7
  6
CONTINUOUS
 10
10.0535683383
 20
13.1963007162
 40
0.03
100
AcDbArc
 50
90.0
 51
180.0
  0
ARC
  5
4A5
100
AcDbEntity
  8
0
100
AcDbCircle
 62
9
  6
CONTINUOUS
 10
9.1385683383
 20
12.9238007162
 40
0.03
100
AcDbArc
 50
90.0
 51
180.0
  0
ARC
  5
4A6
100
AcDbEntity
  8
0
100
AcDbCircle
 62
7
  6
CONTINUOUS
 10
15.5835683383
 20
11.3853007162
 40
0.06
100
AcDbArc
 50
90.0
 51
180.0
  0
ARC
  5
4A7
100
AcDbEntity
  8
0
100
AcDbCircle
 62
7
  6
CONTINUOUS
 10
14.9635683383
 20
11.3853007162
 40
0.06
100
AcDbArc
 50
0.0
 51
90.0
  0
ARC
  5
4A8
100
AcDbEntity
  8
0
100
AcDbCircle
 62
7
  6
CONTINUOUS
 10
14.8700683383
 20
11.4788007162
 40
0.06
100
AcDbArc
 50
0.0
 51
90.0
  0
ARC
  5
4A9
100
AcDbEntity
  8
0
100
AcDbCircle
 62
7
  6
CONTINUOUS
 10
15.6770683383
 20
11.4788007162
 40
0.06
100
AcDbArc
 50
90.0
 51
180.0
  0
ARC
  5
4AA
100
AcDbEntity
  8
0
100
AcDbCircle
 62
7
  6
CONTINUOUS
 10
15.7525683383
 20
11.3098007162
 40
0.06
100
AcDbArc
 50
270.0
 51
360.0
  0
ARC
  5
4AB
100
AcDbEntity
  8
0
100
AcDbCircle
 62
7
  6
CONTINUOUS
 10
14.7945683383
 20
11.3098007162
 40
0.06
100
AcDbArc
 50
180.0
 51
270.0
  0
ARC
  5
4AC
100
AcDbEntity
  8
0
100
AcDbCircle
 62
7
  6
CONTINUOUS
 10
16.0860683383
 20
10.9763007162
 40
0.06
100
AcDbArc
 50
270.0
 51
360.0
  0
ARC
  5
4AD
100
AcDbEntity
  8
0
100
AcDbCircle
 62
7
  6
CONTINUOUS
 10
14.4610683383
 20
10.9763007162
 40
0.06
100
AcDbArc
 50
180.0
 51
270.0
  0
ARC
  5
4AE
100
AcDbEntity
  8
0
100
AcDbCircle
 62
7
  6
CONTINUOUS
 10
11.4085683383
 20
10.6538007162
 40
0.06
100
AcDbArc
 50
270.0
 51
360.0
  0
ARC
  5
4AF
100
AcDbEntity
  8
0
100
AcDbCircle
 62
7
  6
CONTINUOUS
 10
14.1385683383
 20
10.6538007162
 40
0.06
100
AcDbArc
 50
180.0
 51
270.0
  0
ARC
  5
4B0
100
AcDbEntity
  8
0
100
AcDbCircle
 62
7
  6
CONTINUOUS
 10
11.0860683383
 20
10.9763007162
 40
0.06
100
AcDbArc
 50
270.0
 51
360.0
  0
ARC
  5
4B1
100
AcDbEntity
  8
0
100
AcDbCircle
 62
7
  6
CONTINUOUS
 10
15.4935683383
 20
10.3813007162
 40
0.03
100
AcDbArc
 50
270.0
 51
360.0
  0
ARC
  5
4B2
100
AcDbEntity
  8
0
100
AcDbCircle
 62
7
  6
CONTINUOUS
 10
15.0535683383
 20
10.3813007162
 40
0.03
100
AcDbArc
 50
180.0
 51
270.0
  0
ARC
  5
4B3
100
AcDbEntity
  8
0
100
AcDbCircle
 62
7
  6
CONTINUOUS
 10
14.9600683383
 20
11.4753007162
 40
0.03
100
AcDbArc
 50
180.0
 51
270.0
  0
ARC
  5
4B4
100
AcDbEntity
  8
0
100
AcDbCircle
 62
7
  6
CONTINUOUS
 10
15.5870683383
 20
11.4753007162
 40
0.03
100
AcDbArc
 50
270.0
 51
360.0
  0
ARC
  5
4B5
100
AcDbEntity
  8
0
100
AcDbCircle
 62
7
  6
CONTINUOUS
 10
13.8660683383
 20
11.5688007162
 40
0.03
100
AcDbArc
 50
180.0
 51
270.0
  0
ARC
  5
4B6
100
AcDbEntity
  8
0
100
AcDbCircle
 62
7
  6
CONTINUOUS
 10
11.6810683383
 20
11.5688007162
 40
0.03
100
AcDbArc
 50
270.0
 51
360.0
  0
ARC
  5
4B7
100
AcDbEntity
  8
0
100
AcDbCircle
 62
9
  6
CONTINUOUS
 10
11.4085683383
 20
10.6538007162
 40
0.03
100
AcDbArc
 50
270.0
 51
360.0
  0
ARC
  5
4B8
100
AcDbEntity
  8
0
100
AcDbCircle
 62
9
  6
CONTINUOUS
 10
14.7945683383
 20
11.3098007162
 40
0.03
100
AcDbArc
 50
180.0
 51
270.0
  0
ARC
  5
4B9
100
AcDbEntity
  8
0
100
AcDbCircle
 62
9
  6
CONTINUOUS
 10
15.7525683383
 20
11.3098007162
 40
0.03
100
AcDbArc
 50
270.0
 51
360.0
  0
ARC
  5
4BA
100
AcDbEntity
  8
0
100
AcDbCircle
 62
9
  6
CONTINUOUS
 10
14.4610683383
 20
10.9763007162
 40
0.03
100
AcDbArc
 50
180.0
 51
270.0
  0
ARC
  5
4BB
100
AcDbEntity
  8
0
100
AcDbCircle
 62
9
  6
CONTINUOUS
 10
16.0860683383
 20
10.9763007162
 40
0.03
100
AcDbArc
 50
270.0
 51
360.0
  0
ARC
  5
4BC
100
AcDbEntity
  8
0
100
AcDbCircle
 62
9
  6
CONTINUOUS
 10
11.0860683383
 20
10.9763007162
 40
0.03
100
AcDbArc
 50
270.0
 51
360.0
  0
ARC
  5
4BD
100
AcDbEntity
  8
0
100
AcDbCircle
 62
9
  6
CONTINUOUS
 10
14.1385683383
 20
10.6538007162
 40
0.03
100
AcDbArc
 50
180.0
 51
270.0
  0
ARC
  5
4BE
100
AcDbEntity
  8
0
100
AcDbCircle
 62
7
  6
CONTINUOUS
 10
11.0860683383
 20
12.6013007162
 40
0.06
100
AcDbArc
 50
0.0
 51
90.0
  0
ARC
  5
4BF
100
AcDbEntity
  8
0
100
AcDbCircle
 62
7
  6
CONTINUOUS
 10
11.6810683383
 20
12.0088007162
 40
0.03
100
AcDbArc
 50
0.0
 51
90.0
  0
ARC
  5
4C0
100
AcDbEntity
  8
0
100
AcDbCircle
 62
9
  6
CONTINUOUS
 10
11.0860683383
 20
12.6013007162
 40
0.03
100
AcDbArc
 50
0.0
 51
90.0
  0
ARC
  5
4C1
100
AcDbEntity
  8
0
100
AcDbCircle
 62
7
  6
CONTINUOUS
 10
11.4085683383
 20
12.9238007162
 40
0.06
100
AcDbArc
 50
0.0
 51
90.0
  0
ARC
  5
4C2
100
AcDbEntity
  8
0
100
AcDbCircle
 62
9
  6
CONTINUOUS
 10
11.4085683383
 20
12.9238007162
 40
0.03
100
AcDbArc
 50
0.0
 51
90.0
  0
ARC
  5
4C3
100
AcDbEntity
  8
0
100
AcDbCircle
 62
7
  6
CONTINUOUS
 10
15.5835683383
 20
12.1923007162
 40
0.06
100
AcDbArc
 50
180.0
 51
270.0
  0
ARC
  5
4C4
100
AcDbEntity
  8
0
100
AcDbCircle
 62
7
  6
CONTINUOUS
 10
14.9635683383
 20
12.1923007162
 40
0.06
100
AcDbArc
 50
270.0
 51
360.0
  0
ARC
  5
4C5
100
AcDbEntity
  8
0
100
AcDbCircle
 62
7
  6
CONTINUOUS
 10
14.8700683383
 20
12.0988007162
 40
0.06
100
AcDbArc
 50
270.0
 51
360.0
  0
ARC
  5
4C6
100
AcDbEntity
  8
0
100
AcDbCircle
 62
7
  6
CONTINUOUS
 10
15.6770683383
 20
12.0988007162
 40
0.06
100
AcDbArc
 50
180.0
 51
270.0
  0
ARC
  5
4C7
100
AcDbEntity
  8
0
100
AcDbCircle
 62
7
  6
CONTINUOUS
 10
14.7945683383
 20
12.2678007162
 40
0.06
100
AcDbArc
 50
90.0
 51
180.0
  0
ARC
  5
4C8
100
AcDbEntity
  8
0
100
AcDbCircle
 62
7
  6
CONTINUOUS
 10
15.7525683383
 20
12.2678007162
 40
0.06
100
AcDbArc
 50
0.0
 51
90.0
  0
ARC
  5
4C9
100
AcDbEntity
  8
0
100
AcDbCircle
 62
7
  6
CONTINUOUS
 10
14.4610683383
 20
12.6013007162
 40
0.06
100
AcDbArc
 50
90.0
 51
180.0
  0
ARC
  5
4CA
100
AcDbEntity
  8
0
100
AcDbCircle
 62
7
  6
CONTINUOUS
 10
16.0860683383
 20
12.6013007162
 40
0.06
100
AcDbArc
 50
0.0
 51
90.0
  0
ARC
  5
4CB
100
AcDbEntity
  8
0
100
AcDbCircle
 62
7
  6
CONTINUOUS
 10
14.9600683383
 20
12.1023007162
 40
0.03
100
AcDbArc
 50
90.0
 51
180.0
  0
ARC
  5
4CC
100
AcDbEntity
  8
0
100
AcDbCircle
 62
7
  6
CONTINUOUS
 10
15.5870683383
 20
12.1023007162
 40
0.03
100
AcDbArc
 50
0.0
 51
90.0
  0
ARC
  5
4CD
100
AcDbEntity
  8
0
100
AcDbCircle
 62
7
  6
CONTINUOUS
 10
13.8660683383
 20
12.0088007162
 40
0.03
100
AcDbArc
 50
90.0
 51
180.0
  0
ARC
  5
4CE
100
AcDbEntity
  8
0
100
AcDbCircle
 62
9
  6
CONTINUOUS
 10
15.7525683383
 20
12.2678007162
 40
0.03
100
AcDbArc
 50
0.0
 51
90.0
  0
ARC
  5
4CF
100
AcDbEntity
  8
0
100
AcDbCircle
 62
9
  6
CONTINUOUS
 10
14.7945683383
 20
12.2678007162
 40
0.03
100
AcDbArc
 50
90.0
 51
180.0
  0
ARC
  5
4D0
100
AcDbEntity
  8
0
100
AcDbCircle
 62
9
  6
CONTINUOUS
 10
16.0860683383
 20
12.6013007162
 40
0.03
100
AcDbArc
 50
0.0
 51
90.0
  0
ARC
  5
4D1
100
AcDbEntity
  8
0
100
AcDbCircle
 62
9
  6
CONTINUOUS
 10
14.4610683383
 20
12.6013007162
 40
0.03
100
AcDbArc
 50
90.0
 51
180.0
  0
ARC
  5
4D2
100
AcDbEntity
  8
0
100
AcDbCircle
 62
7
  6
CONTINUOUS
 10
14.1385683383
 20
12.9238007162
 40
0.06
100
AcDbArc
 50
90.0
 51
180.0
  0
ARC
  5
4D3
100
AcDbEntity
  8
0
100
AcDbCircle
 62
7
  6
CONTINUOUS
 10
15.0535683383
 20
13.1963007162
 40
0.03
100
AcDbArc
 50
90.0
 51
180.0
  0
ARC
  5
4D4
100
AcDbEntity
  8
0
100
AcDbCircle
 62
7
  6
CONTINUOUS
 10
15.4935683383
 20
13.1963007162
 40
0.03
100
AcDbArc
 50
0.0
 51
90.0
  0
ARC
  5
4D5
100
AcDbEntity
  8
0
100
AcDbCircle
 62
9
  6
CONTINUOUS
 10
14.1385683383
 20
12.9238007162
 40
0.03
100
AcDbArc
 50
90.0
 51
180.0
  0
ARC
  5
4D6
100
AcDbEntity
  8
0
100
AcDbCircle
 62
7
  6
CONTINUOUS
 10
20.0794529787
 20
11.5038353455
 40
0.2934608478
100
AcDbArc
 50
167.9455860258
 51
169.0218373491
  0
ARC
  5
4D7
100
AcDbEntity
  8
0
100
AcDbCircle
 62
7
  6
CONTINUOUS
 10
20.4678992357
 20
11.5038792549
 40
0.2932408928
100
AcDbArc
 50
10.9943711345
 51
12.0587774053
  0
ARC
  5
4D8
100
AcDbEntity
  8
0
100
AcDbCircle
 62
7
  6
CONTINUOUS
 10
16.4085683383
 20
10.6538007162
 40
0.06
100
AcDbArc
 50
270.0
 51
360.0
  0
ARC
  5
4D9
100
AcDbEntity
  8
0
100
AcDbCircle
 62
7
  6
CONTINUOUS
 10
19.3285683383
 20
10.5788007162
 40
0.04
100
AcDbArc
 50
180.0
 51
270.0
  0
ARC
  5
4DA
100
AcDbEntity
  8
0
100
AcDbCircle
 62
7
  6
CONTINUOUS
 10
21.2185683383
 20
10.5788007162
 40
0.04
100
AcDbArc
 50
270.0
 51
360.0
  0
ARC
  5
4DB
100
AcDbEntity
  8
0
100
AcDbCircle
 62
7
  6
CONTINUOUS
 10
16.6810683383
 20
11.5688007162
 40
0.03
100
AcDbArc
 50
270.0
 51
360.0
  0
ARC
  5
4DC
100
AcDbEntity
  8
0
100
AcDbCircle
 62
9
  6
CONTINUOUS
 10
16.4085683383
 20
10.6538007162
 40
0.03
100
AcDbArc
 50
270.0
 51
360.0
  0
ARC
  5
4DD
100
AcDbEntity
  8
0
100
AcDbCircle
 62
7
  6
CONTINUOUS
 10
16.6810683383
 20
12.0088007162
 40
0.03
100
AcDbArc
 50
0.0
 51
90.0
  0
ARC
  5
4DE
100
AcDbEntity
  8
0
100
AcDbCircle
 62
7
  6
CONTINUOUS
 10
16.4085683383
 20
12.9238007162
 40
0.06
100
AcDbArc
 50
0.0
 51
90.0
  0
ARC
  5
4DF
100
AcDbEntity
  8
0
100
AcDbCircle
 62
9
  6
CONTINUOUS
 10
16.4085683383
 20
12.9238007162
 40
0.03
100
AcDbArc
 50
0.0
 51
90.0
  0
ARC
  5
4E0
100
AcDbEntity
  8
0
100
AcDbCircle
 62
7
  6
CONTINUOUS
 10
20.2735683383
 20
11.7888007162
 40
0.5475
100
AcDbArc
 50
333.0425544095
 51
206.9573553021
  0
ARC
  5
4E1
100
AcDbEntity
  8
0
100
AcDbCircle
 62
9
  6
CONTINUOUS
 10
20.2735683383
 20
11.7888007162
 40
0.5175
100
AcDbArc
 50
340.4526544923
 51
199.5473455077
  0
ARC
  5
4E2
100
AcDbEntity
  8
0
100
AcDbCircle
 62
7
  6
CONTINUOUS
 10
20.2735683383
 20
11.7888007162
 40
0.4875
100
AcDbArc
 50
0.0
 51
180.0
  0
ARC
  5
4E3
100
AcDbEntity
  8
0
100
AcDbCircle
 62
7
  6
CONTINUOUS
 10
19.3285683383
 20
12.9988007162
 40
0.04
100
AcDbArc
 50
90.0
 51
180.0
  0
ARC
  5
4E4
100
AcDbEntity
  8
0
100
AcDbCircle
 62
7
  6
CONTINUOUS
 10
21.2185683383
 20
12.9988007162
 40
0.04
100
AcDbArc
 50
0.0
 51
90.0
  0
SPLINE
  5
4E5
100
AcDbEntity
  8
0
100
AcDbSpline
 62
7
  6
CONTINUOUS
 70
0
 71
3
 72
21
 73
17
 74
0
 42
0.0000001
 43
0.0000001
 44
0.0000000001
 40
0.0
 40
0.0
 40
0.0
 40
0.0
 40
0.0567280102
 40
0.1136679844
 40
0.1710265599
 40
0.2289993128
 40
0.2877634883
 40
0.3474692205
 40
0.4082321915
 40
0.4701264369
 40
0.5331807338
 40
0.5973763996
 40
0.6626488903
 40
0.7288904101
 40
0.8635615093
 40
1.0
 40
1.0
 40
1.0
 40
1.0
 10
19.8100683383
 20
5.4259666353
 30
0.0
 10
19.8100683383
 20
5.4238268797
 30
0.0
 10
19.8103388284
 20
5.4195345357
 30
0.0
 10
19.8115484321
 20
5.4131818176
 30
0.0
 10
19.813542413
 20
5.4069803129
 30
0.0
 10
19.8162901358
 20
5.4009994284
 30
0.0
 10
19.8197527018
 20
5.3952992008
 30
0.0
 10
19.8238854194
 20
5.3899323319
 30
0.0
 10
19.8286396205
 20
5.3849443704
 30
0.0
 10
19.8339637398
 20
5.3803749836
 30
0.0
 10
19.839803753
 20
5.3762589478
 30
0.0
 10
19.8461030779
 20
5.3726269717
 30
0.0
 10
19.8528030845
 20
5.3695058451
 30
0.0
 10
19.8622365433
 20
5.3660389398
 30
0.0
 10
19.874679658
 20
5.3631218106
 30
0.0
 10
19.8849219386
 20
5.3623435242
 30
0.0
 10
19.8900683383
 20
5.3623435242
 30
0.0
  0
SPLINE
  5
4E6
100
AcDbEntity
  8
0
100
AcDbSpline
 62
7
  6
CONTINUOUS
 70
0
 71
3
 72
21
 73
17
 74
0
 42
0.0000001
 43
0.0000001
 44
0.0000000001
 40
0.0
 40
0.0
 40
0.0
 40
0.0
 40
0.1364388665
 40
0.271110114
 40
0.3373516426
 40
0.4026240989
 40
0.4668196951
 40
0.5298738897
 40
0.5917680143
 40
0.652530854
 40
0.7122364604
 40
0.7710005331
 40
0.828973222
 40
0.8863317946
 40
0.943271829
 40
1.0
 40
1.0
 40
1.0
 40
1.0
 10
20.6570683383
 20
5.3623435242
 30
0.0
 10
20.6622147522
 20
5.3623435242
 30
0.0
 10
20.6724570527
 20
5.3631218139
 30
0.0
 10
20.6849001855
 20
5.3660389547
 30
0.0
 10
20.6943336463
 20
5.3695058681
 30
0.0
 10
20.7010336476
 20
5.3726269976
 30
0.0
 10
20.7073329633
 20
5.3762589739
 30
0.0
 10
20.7131729652
 20
5.3803750065
 30
0.0
 10
20.7184970725
 20
5.3849443867
 30
0.0
 10
20.7232512625
 20
5.3899323389
 30
0.0
 10
20.7273839717
 20
5.3952991971
 30
0.0
 10
20.7308465331
 20
5.4009994144
 30
0.0
 10
20.7335942557
 20
5.406980292
 30
0.0
 10
20.7355882392
 20
5.4131817956
 30
0.0
 10
20.7367978471
 20
5.4195345212
 30
0.0
 10
20.7370683383
 20
5.4238268737
 30
0.0
 10
20.7370683383
 20
5.4259666353
 30
0.0
  0
SPLINE
  5
4E7
100
AcDbEntity
  8
0
100
AcDbSpline
 62
7
  6
CONTINUOUS
 70
0
 71
3
 72
21
 73
17
 74
0
 42
0.0000001
 43
0.0000001
 44
0.0000000001
 40
0.0
 40
0.0
 40
0.0
 40
0.0
 40
0.1355980676
 40
0.2695193207
 40
0.3354501524
 40
0.400470829
 40
0.4644856274
 40
0.5274409833
 40
0.5893277748
 40
0.6501813364
 40
0.7100781855
 40
0.7691314991
 40
0.8274823941
 40
0.8852933449
 40
0.9427386292
 40
1.0
 40
1.0
 40
1.0
 40
1.0
 10
20.7085683383
 20
11.5623732626
 30
0.0
 10
20.7127390741
 20
11.5623732626
 30
0.0
 10
20.7210421746
 20
11.5617394994
 30
0.0
 10
20.7311295536
 20
11.5593637379
 30
0.0
 10
20.7387799567
 20
11.5565393232
 30
0.0
 10
20.7442182146
 20
11.5539942421
 30
0.0
 10
20.7493347442
 20
11.5510302637
 30
0.0
 10
20.7540820878
 20
11.5476681407
 30
0.0
 10
20.7584141037
 20
11.5439317542
 30
0.0
 10
20.7622863668
 20
11.5398484104
 30
0.0
 10
20.7656560194
 20
11.5354496266
 30
0.0
 10
20.7684822121
 20
11.5307721656
 30
0.0
 10
20.770727079
 20
11.5258591772
 30
0.0
 10
20.7723574283
 20
11.5207604822
 30
0.0
 10
20.7733470065
 20
11.5155341643
 30
0.0
 10
20.7735683383
 20
11.5120020678
 30
0.0
 10
20.7735683383
 20
11.5102408182
 30
0.0
  0
SPLINE
  5
4E8
100
AcDbEntity
  8
0
100
AcDbSpline
 62
7
  6
CONTINUOUS
 70
0
 71
3
 72
21
 73
17
 74
0
 42
0.0000001
 43
0.0000001
 44
0.0000000001
 40
0.0
 40
0.0
 40
0.0
 40
0.0
 40
0.0572611322
 40
0.1147063318
 40
0.1725172907
 40
0.2308682788
 40
0.2899217455
 40
0.3498187777
 40
0.410672528
 40
0.4725594997
 40
0.535514999
 40
0.5995299001
 40
0.6645506212
 40
0.7304814389
 40
0.864402484
 40
1.0
 40
1.0
 40
1.0
 40
1.0
 10
19.7735683383
 20
11.5102408182
 30
0.0
 10
19.7735683383
 20
11.5120020605
 30
0.0
 10
19.7737896686
 20
11.515534147
 30
0.0
 10
19.7747792414
 20
11.520760456
 30
0.0
 10
19.7764095875
 20
11.5258591526
 30
0.0
 10
19.7786544551
 20
11.5307721493
 30
0.0
 10
19.7814806536
 20
11.5354496224
 30
0.0
 10
19.7848503164
 20
11.5398484188
 30
0.0
 10
19.7887225929
 20
11.5439317735
 30
0.0
 10
19.7930546231
 20
11.5476681676
 30
0.0
 10
19.7978019802
 20
11.5510302944
 30
0.0
 10
19.8029185203
 20
11.5539942726
 30
0.0
 10
19.8083567843
 20
11.5565393503
 30
0.0
 10
19.8160071849
 20
11.5593637559
 30
0.0
 10
19.8260945425
 20
11.5617395035
 30
0.0
 10
19.8343976194
 20
11.5623732626
 30
0.0
 10
19.8385683383
 20
11.5623732626
 30
0.0
  0
SPLINE
  5
4E9
100
AcDbEntity
  8
0
100
AcDbSpline
 62
7
  6
CONTINUOUS
 70
0
 71
3
 72
21
 73
17
 74
0
 42
0.0000001
 43
0.0000001
 44
0.0000000001
 40
0.0
 40
0.0
 40
0.0
 40
0.0
 40
0.1355980676
 40
0.2695193207
 40
0.3354501524
 40
0.400470829
 40
0.4644856274
 40
0.5274409833
 40
0.5893277748
 40
0.6501813364
 40
0.7100781855
 40
0.7691314991
 40
0.8274823941
 40
0.8852933449
 40
0.9427386292
 40
1.0
 40
1.0
 40
1.0
 40
1.0
 10
19.8385683383
 20
5.3408107782
 30
0.0
 10
19.8343976025
 20
5.3408107782
 30
0.0
 10
19.826094502
 20
5.3414445414
 30
0.0
 10
19.8160071229
 20
5.3438203028
 30
0.0
 10
19.8083567199
 20
5.3466447176
 30
0.0
 10
19.802918462
 20
5.3491897986
 30
0.0
 10
19.7978019324
 20
5.3521537771
 30
0.0
 10
19.7930545888
 20
5.3555159
 30
0.0
 10
19.7887225729
 20
5.3592522865
 30
0.0
 10
19.7848503098
 20
5.3633356303
 30
0.0
 10
19.7814806571
 20
5.3677344141
 30
0.0
 10
19.7786544645
 20
5.3724118752
 30
0.0
 10
19.7764095976
 20
5.3773248635
 30
0.0
 10
19.7747792483
 20
5.3824235585
 30
0.0
 10
19.7737896701
 20
5.3876498764
 30
0.0
 10
19.7735683383
 20
5.3911819729
 30
0.0
 10
19.7735683383
 20
5.3929432225
 30
0.0
  0
SPLINE
  5
4EA
100
AcDbEntity
  8
0
100
AcDbSpline
 62
7
  6
CONTINUOUS
 70
0
 71
3
 72
21
 73
17
 74
0
 42
0.0000001
 43
0.0000001
 44
0.0000000001
 40
0.0
 40
0.0
 40
0.0
 40
0.0
 40
0.0572611322
 40
0.1147063318
 40
0.1725172907
 40
0.2308682788
 40
0.2899217455
 40
0.3498187777
 40
0.410672528
 40
0.4725594997
 40
0.535514999
 40
0.5995299001
 40
0.6645506212
 40
0.7304814389
 40
0.864402484
 40
1.0
 40
1.0
 40
1.0
 40
1.0
 10
20.7735683383
 20
5.3929432225
 30
0.0
 10
20.7735683383
 20
5.3911819802
 30
0.0
 10
20.773347008
 20
5.3876498937
 30
0.0
 10
20.7723574352
 20
5.3824235847
 30
0.0
 10
20.770727089
 20
5.3773248882
 30
0.0
 10
20.7684822215
 20
5.3724118915
 30
0.0
 10
20.765656023
 20
5.3677344184
 30
0.0
 10
20.7622863601
 20
5.3633356219
 30
0.0
 10
20.7584140837
 20
5.3592522672
 30
0.0
 10
20.7540820535
 20
5.3555158731
 30
0.0
 10
20.7493346964
 20
5.3521537464
 30
0.0
 10
20.7442181563
 20
5.3491897682
 30
0.0
 10
20.7387798923
 20
5.3466446904
 30
0.0
 10
20.7311294917
 20
5.3438202848
 30
0.0
 10
20.7210421341
 20
5.3414445372
 30
0.0
 10
20.7127390571
 20
5.3408107782
 30
0.0
 10
20.7085683383
 20
5.3408107782
 30
0.0
  0
SPLINE
  5
4EB
100
AcDbEntity
  8
0
100
AcDbSpline
 62
7
  6
CONTINUOUS
 70
0
 71
3
 72
51
 73
47
 74
0
 42
0.0000001
 43
0.0000001
 44
0.0000000001
 40
0.0
 40
0.0
 40
0.0
 40
0.0
 40
0.0136809654
 40
0.0274240849
 40
0.0412438093
 40
0.0551538737
 40
0.0691670916
 40
0.0832952954
 40
0.097549206
 40
0.1119383417
 40
0.1264709642
 40
0.1411540234
 40
0.1559931145
 40
0.1709924501
 40
0.2014740731
 40
0.2326134283
 40
0.2643955671
 40
0.2967858318
 40
0.3297317107
 40
0.363165029
 40
0.3970043973
 40
0.4311577162
 40
0.4655248339
 40
0.5000002007
 40
0.5344755645
 40
0.5688426736
 40
0.6029959777
 40
0.6368353267
 40
0.6702686202
 40
0.7032144702
 40
0.735604703
 40
0.7673868069
 40
0.7985261258
 40
0.8290077122
 40
0.8440070297
 40
0.8588461028
 40
0.8735291447
 40
0.8880617506
 40
0.9024508704
 40
0.9167047661
 40
0.9308329561
 40
0.9448461616
 40
0.9587562148
 40
0.9725759295
 40
0.9863190409
 40
1.0
 40
1.0
 40
1.0
 40
1.0
 10
20.7591299386
 20
11.5431018805
 30
0.0
 10
20.7581351632
 20
11.5488044901
 30
0.0
 10
20.7558105855
 20
11.5601807087
 30
0.0
 10
20.7513443259
 20
11.5770599105
 30
0.0
 10
20.7459029862
 20
11.5937528893
 30
0.0
 10
20.7395001696
 20
11.6102234899
 30
0.0
 10
20.7321513811
 20
11.6264375374
 30
0.0
 10
20.7238742299
 20
11.6423617449
 30
0.0
 10
20.7146880205
 20
11.6579640025
 30
0.0
 10
20.7046136776
 20
11.6732132703
 30
0.0
 10
20.6936737676
 20
11.6880797467
 30
0.0
 10
20.6818924108
 20
11.7025346587
 30
0.0
 10
20.6692946272
 20
11.7165506416
 30
0.0
 10
20.6513514828
 20
11.73471259
 30
0.0
 10
20.6269846329
 20
11.7561702035
 30
0.0
 10
20.5951088475
 20
11.779612989
 30
0.0
 10
20.5606927628
 20
11.8007226378
 30
0.0
 10
20.5240130425
 20
11.8193430914
 30
0.0
 10
20.4853599667
 20
11.8353383363
 30
0.0
 10
20.4450387806
 20
11.8485905795
 30
0.0
 10
20.40336705
 20
11.8590016606
 30
0.0
 10
20.3606729138
 20
11.8664942285
 30
0.0
 10
20.3172925626
 20
11.8710123364
 30
0.0
 10
20.2735677086
 20
11.8725220747
 30
0.0
 10
20.2298428617
 20
11.8710122471
 30
0.0
 10
20.1864625298
 20
11.8664940597
 30
0.0
 10
20.1437684276
 20
11.8590014029
 30
0.0
 10
20.1020967414
 20
11.8485902477
 30
0.0
 10
20.061775612
 20
11.8353379301
 30
0.0
 10
20.0231226046
 20
11.819342615
 30
0.0
 10
19.9864429577
 20
11.8007221062
 30
0.0
 10
19.9520269586
 20
11.7796124012
 30
0.0
 10
19.9201512607
 20
11.7561695737
 30
0.0
 10
19.8957844893
 20
11.7347119294
 30
0.0
 10
19.8778414076
 20
11.7165499623
 30
0.0
 10
19.8652436738
 20
11.7025339651
 30
0.0
 10
19.8534623639
 20
11.6880790432
 30
0.0
 10
19.8425225011
 20
11.6732125582
 30
0.0
 10
19.8324482071
 20
11.657963282
 30
0.0
 10
19.8232620448
 20
11.6423610187
 30
0.0
 10
19.8149849398
 20
11.6264368067
 30
0.0
 10
19.8076361979
 20
11.6102227555
 30
0.0
 10
19.8012334275
 20
11.5937521521
 30
0.0
 10
19.7957921325
 20
11.5770591716
 30
0.0
 10
19.7913259175
 20
11.5601799685
 30
0.0
 10
19.7890013697
 20
11.5488037501
 30
0.0
 10
19.7880066089
 20
11.5431011406
 30
0.0
  0
SPLINE
  5
4EC
100
AcDbEntity
  8
0
100
AcDbSpline
 62
9
  6
CONTINUOUS
 70
0
 71
3
 72
22
 73
18
 74
0
 42
0.0000001
 43
0.0000001
 44
0.0000000001
 40
0.0
 40
0.0
 40
0.0
 40
0.0
 40
0.0540385391
 40
0.1084404086
 40
0.1635446037
 40
0.2196543814
 40
0.2481778494
 40
0.2770407722
 40
0.3358441328
 40
0.3962073279
 40
0.4581835107
 40
0.5217621361
 40
0.5868740807
 40
0.7210525722
 40
0.7898641695
 40
0.8594825404
 40
1.0
 40
1.0
 40
1.0
 40
1.0
 10
20.7270683383
 20
6.007094847
 30
0.0
 10
20.7270683383
 20
6.0088504133
 30
0.0
 10
20.7268414816
 20
6.0123774564
 30
0.0
 10
20.7258254137
 20
6.017606341
 30
0.0
 10
20.7241441058
 20
6.022731595
 30
0.0
 10
20.7222129756
 20
6.0268527347
 30
0.0
 10
20.7203643125
 20
6.0300449281
 30
0.0
 10
20.7182894472
 20
6.0332003676
 30
0.0
 10
20.7153144531
 20
6.0369918744
 30
0.0
 10
20.7112083073
 20
6.0412214158
 30
0.0
 10
20.7065831185
 20
6.0451206051
 30
0.0
 10
20.7014833835
 20
6.0486525953
 30
0.0
 10
20.6940461533
 20
6.0528682737
 30
0.0
 10
20.6859316144
 20
6.0561620593
 30
0.0
 10
20.6773824251
 20
6.0585000417
 30
0.0
 10
20.6684751614
 20
6.0602061335
 30
0.0
 10
20.6616333712
 20
6.0607179581
 30
0.0
 10
20.6570683383
 20
6.0607179581
 30
0.0
  0
SPLINE
  5
4ED
100
AcDbEntity
  8
0
100
AcDbSpline
 62
9
  6
CONTINUOUS
 70
0
 71
3
 72
22
 73
18
 74
0
 42
0.0000001
 43
0.0000001
 44
0.0000000001
 40
0.0
 40
0.0
 40
0.0
 40
0.0
 40
0.1405174595
 40
0.2101358305
 40
0.2789474277
 40
0.4131259193
 40
0.4782378639
 40
0.5418164892
 40
0.6037926721
 40
0.6641558672
 40
0.7229592277
 40
0.7518221506
 40
0.7803456186
 40
0.8364553962
 40
0.8915595914
 40
0.9459614609
 40
1.0
 40
1.0
 40
1.0
 40
1.0
 10
20.6570683383
 20
5.3659156481
 30
0.0
 10
20.6616333712
 20
5.3659156481
 30
0.0
 10
20.6684751614
 20
5.3664274727
 30
0.0
 10
20.6773824251
 20
5.3681335645
 30
0.0
 10
20.6859316144
 20
5.3704715469
 30
0.0
 10
20.6940461533
 20
5.3737653325
 30
0.0
 10
20.7014833835
 20
5.3779810109
 30
0.0
 10
20.7065831185
 20
5.3815130011
 30
0.0
 10
20.7112083073
 20
5.3854121904
 30
0.0
 10
20.7153144531
 20
5.3896417318
 30
0.0
 10
20.7182894472
 20
5.3934332385
 30
0.0
 10
20.7203643125
 20
5.3965886781
 30
0.0
 10
20.7222129756
 20
5.3997808715
 30
0.0
 10
20.7241441058
 20
5.4039020112
 30
0.0
 10
20.7258254137
 20
5.4090272652
 30
0.0
 10
20.7268414816
 20
5.4142561498
 30
0.0
 10
20.7270683383
 20
5.4177831929
 30
0.0
 10
20.7270683383
 20
5.4195387592
 30
0.0
  0
SPLINE
  5
4EE
100
AcDbEntity
  8
0
100
AcDbSpline
 62
9
  6
CONTINUOUS
 70
0
 71
3
 72
22
 73
18
 74
0
 42
0.0000001
 43
0.0000001
 44
0.0000000001
 40
0.0
 40
0.0
 40
0.0
 40
0.0
 40
0.0540385391
 40
0.1084404086
 40
0.1635446037
 40
0.2196543814
 40
0.2481778494
 40
0.2770407722
 40
0.3358441328
 40
0.3962073279
 40
0.4581835107
 40
0.5217621361
 40
0.5868740807
 40
0.7210525722
 40
0.7898641695
 40
0.8594825404
 40
1.0
 40
1.0
 40
1.0
 40
1.0
 10
19.8200683383
 20
5.4195387592
 30
0.0
 10
19.8200683383
 20
5.4177831929
 30
0.0
 10
19.820295195
 20
5.4142561498
 30
0.0
 10
19.8213112629
 20
5.4090272652
 30
0.0
 10
19.8229925707
 20
5.4039020112
 30
0.0
 10
19.824923701
 20
5.3997808715
 30
0.0
 10
19.8267723641
 20
5.3965886781
 30
0.0
 10
19.8288472293
 20
5.3934332385
 30
0.0
 10
19.8318222234
 20
5.3896417318
 30
0.0
 10
19.8359283693
 20
5.3854121904
 30
0.0
 10
19.8405535581
 20
5.3815130011
 30
0.0
 10
19.8456532931
 20
5.3779810109
 30
0.0
 10
19.8530905232
 20
5.3737653325
 30
0.0
 10
19.8612050622
 20
5.3704715469
 30
0.0
 10
19.8697542515
 20
5.3681335645
 30
0.0
 10
19.8786615151
 20
5.3664274727
 30
0.0
 10
19.8855033054
 20
5.3659156481
 30
0.0
 10
19.8900683383
 20
5.3659156481
 30
0.0
  0
SPLINE
  5
4EF
100
AcDbEntity
  8
0
100
AcDbSpline
 62
9
  6
CONTINUOUS
 70
0
 71
3
 72
22
 73
18
 74
0
 42
0.0000001
 43
0.0000001
 44
0.0000000001
 40
0.0
 40
0.0
 40
0.0
 40
0.0
 40
0.1405174595
 40
0.2101358305
 40
0.2789474277
 40
0.4131259193
 40
0.4782378639
 40
0.5418164892
 40
0.6037926721
 40
0.6641558672
 40
0.7229592277
 40
0.7518221506
 40
0.7803456186
 40
0.8364553962
 40
0.8915595914
 40
0.9459614609
 40
1.0
 40
1.0
 40
1.0
 40
1.0
 10
19.8900683383
 20
6.0607179581
 30
0.0
 10
19.8855033054
 20
6.0607179581
 30
0.0
 10
19.8786615152
 20
6.0602061335
 30
0.0
 10
19.8697542515
 20
6.0585000417
 30
0.0
 10
19.8612050622
 20
6.0561620593
 30
0.0
 10
19.8530905232
 20
6.0528682737
 30
0.0
 10
19.8456532931
 20
6.0486525953
 30
0.0
 10
19.8405535581
 20
6.0451206051
 30
0.0
 10
19.8359283693
 20
6.0412214158
 30
0.0
 10
19.8318222234
 20
6.0369918744
 30
0.0
 10
19.8288472293
 20
6.0332003677
 30
0.0
 10
19.8267723641
 20
6.0300449281
 30
0.0
 10
19.824923701
 20
6.0268527347
 30
0.0
 10
19.8229925707
 20
6.022731595
 30
0.0
 10
19.8213112629
 20
6.017606341
 30
0.0
 10
19.820295195
 20
6.0123774564
 30
0.0
 10
19.8200683383
 20
6.0088504133
 30
0.0
 10
19.8200683383
 20
6.007094847
 30
0.0
  0
SPLINE
  5
4F0
100
AcDbEntity
  8
0
100
AcDbSpline
 62
9
  6
CONTINUOUS
 70
0
 71
3
 72
17
 73
13
 74
0
 42
0.0000001
 43
0.0000001
 44
0.0000000001
 40
0.0
 40
0.0
 40
0.0
 40
0.0
 40
0.149900237
 40
0.296450235
 40
0.436629184
 40
0.5680042033
 40
0.6891349728
 40
0.799963754
 40
0.8520828496
 40
0.9024407213
 40
0.9515627623
 40
1.0
 40
1.0
 40
1.0
 40
1.0
 10
20.7270683383
 20
5.4195387592
 30
0.0
 10
20.7277199602
 20
5.4195387592
 30
0.0
 10
20.7290101715
 20
5.4196194629
 30
0.0
 10
20.7308790517
 20
5.4199796747
 30
0.0
 10
20.7326062366
 20
5.4205653476
 30
0.0
 10
20.7341276391
 20
5.4213562634
 30
0.0
 10
20.7353868
 20
5.4223249069
 30
0.0
 10
20.7361939685
 20
5.4232759531
 30
0.0
 10
20.7366481961
 20
5.4240871531
 30
0.0
 10
20.7368896813
 20
5.4247027581
 30
0.0
 10
20.7370355758
 20
5.4253312979
 30
0.0
 10
20.7370683383
 20
5.4257560768
 30
0.0
 10
20.7370683383
 20
5.4259666353
 30
0.0
  0
SPLINE
  5
4F1
100
AcDbEntity
  8
0
100
AcDbSpline
 62
9
  6
CONTINUOUS
 70
0
 71
3
 72
17
 73
13
 74
0
 42
0.0000001
 43
0.0000001
 44
0.0000000001
 40
0.0
 40
0.0
 40
0.0
 40
0.0
 40
0.149900237
 40
0.296450235
 40
0.436629184
 40
0.5680042033
 40
0.6891349728
 40
0.799963754
 40
0.8520828496
 40
0.9024407213
 40
0.9515627623
 40
1.0
 40
1.0
 40
1.0
 40
1.0
 10
19.8200683383
 20
5.4195387592
 30
0.0
 10
19.8194167163
 20
5.4195387592
 30
0.0
 10
19.8181265051
 20
5.4196194629
 30
0.0
 10
19.8162576249
 20
5.4199796747
 30
0.0
 10
19.8145304399
 20
5.4205653476
 30
0.0
 10
19.8130090374
 20
5.4213562634
 30
0.0
 10
19.8117498765
 20
5.4223249069
 30
0.0
 10
19.8109427081
 20
5.4232759531
 30
0.0
 10
19.8104884804
 20
5.4240871531
 30
0.0
 10
19.8102469953
 20
5.4247027581
 30
0.0
 10
19.8101011008
 20
5.4253312979
 30
0.0
 10
19.8100683383
 20
5.4257560768
 30
0.0
 10
19.8100683383
 20
5.4259666353
 30
0.0
  0
SPLINE
  5
4F2
100
AcDbEntity
  8
0
100
AcDbSpline
 62
9
  6
CONTINUOUS
 70
0
 71
3
 72
17
 73
13
 74
0
 42
0.0000001
 43
0.0000001
 44
0.0000000001
 40
0.0
 40
0.0
 40
0.0
 40
0.0
 40
0.149900237
 40
0.296450235
 40
0.436629184
 40
0.5680042033
 40
0.6891349728
 40
0.799963754
 40
0.8520828496
 40
0.9024407213
 40
0.9515627623
 40
1.0
 40
1.0
 40
1.0
 40
1.0
 10
19.8200683383
 20
6.007094847
 30
0.0
 10
19.8194167163
 20
6.007094847
 30
0.0
 10
19.8181265051
 20
6.0071755508
 30
0.0
 10
19.8162576249
 20
6.0075357626
 30
0.0
 10
19.8145304399
 20
6.0081214355
 30
0.0
 10
19.8130090374
 20
6.0089123513
 30
0.0
 10
19.8117498765
 20
6.0098809948
 30
0.0
 10
19.8109427081
 20
6.010832041
 30
0.0
 10
19.8104884804
 20
6.011643241
 30
0.0
 10
19.8102469953
 20
6.012258846
 30
0.0
 10
19.8101011008
 20
6.0128873857
 30
0.0
 10
19.8100683383
 20
6.0133121646
 30
0.0
 10
19.8100683383
 20
6.0135227231
 30
0.0
  0
SPLINE
  5
4F3
100
AcDbEntity
  8
0
100
AcDbSpline
 62
9
  6
CONTINUOUS
 70
0
 71
3
 72
17
 73
13
 74
0
 42
0.0000001
 43
0.0000001
 44
0.0000000001
 40
0.0
 40
0.0
 40
0.0
 40
0.0
 40
0.149900237
 40
0.296450235
 40
0.436629184
 40
0.5680042033
 40
0.6891349728
 40
0.799963754
 40
0.8520828496
 40
0.9024407213
 40
0.9515627623
 40
1.0
 40
1.0
 40
1.0
 40
1.0
 10
20.7270683383
 20
6.007094847
 30
0.0
 10
20.7277199602
 20
6.007094847
 30
0.0
 10
20.7290101715
 20
6.0071755508
 30
0.0
 10
20.7308790517
 20
6.0075357626
 30
0.0
 10
20.7326062366
 20
6.0081214355
 30
0.0
 10
20.7341276391
 20
6.0089123513
 30
0.0
 10
20.7353868
 20
6.0098809948
 30
0.0
 10
20.7361939685
 20
6.010832041
 30
0.0
 10
20.7366481961
 20
6.011643241
 30
0.0
 10
20.7368896813
 20
6.012258846
 30
0.0
 10
20.7370355758
 20
6.0128873857
 30
0.0
 10
20.7370683383
 20
6.0133121646
 30
0.0
 10
20.7370683383
 20
6.0135227231
 30
0.0
  0
SPLINE
  5
4F4
100
AcDbEntity
  8
0
100
AcDbSpline
 62
9
  6
CONTINUOUS
 70
0
 71
3
 72
22
 73
18
 74
0
 42
0.0000001
 43
0.0000001
 44
0.0000000001
 40
0.0
 40
0.0
 40
0.0
 40
0.0
 40
0.1405182112
 40
0.2101364038
 40
0.2789478304
 40
0.4131261447
 40
0.4782379889
 40
0.5418164906
 40
0.6037925555
 40
0.6641556647
 40
0.7229589742
 40
0.7518218682
 40
0.7803452855
 40
0.8364549355
 40
0.8915590048
 40
0.9459610953
 40
1.0
 40
1.0
 40
1.0
 40
1.0
 10
20.7085683383
 20
11.560033707
 30
0.0
 10
20.7128073201
 20
11.560033707
 30
0.0
 10
20.7191604286
 20
11.5595584382
 30
0.0
 10
20.7274314695
 20
11.5579742001
 30
0.0
 10
20.7353699861
 20
11.5558032175
 30
0.0
 10
20.7429049011
 20
11.552744704
 30
0.0
 10
20.7498108891
 20
11.5488301501
 30
0.0
 10
20.7545463485
 20
11.5455504504
 30
0.0
 10
20.7588411594
 20
11.5419297814
 30
0.0
 10
20.7626540048
 20
11.5380023567
 30
0.0
 10
20.765416497
 20
11.5344816765
 30
0.0
 10
20.767343158
 20
11.5315516305
 30
0.0
 10
20.7690597717
 20
11.5285874569
 30
0.0
 10
20.7708529624
 20
11.524760694
 30
0.0
 10
20.7724141844
 20
11.520001533
 30
0.0
 10
20.7733576805
 20
11.5151461269
 30
0.0
 10
20.7735683383
 20
11.5118709979
 30
0.0
 10
20.7735683383
 20
11.5102408182
 30
0.0
  0
SPLINE
  5
4F5
100
AcDbEntity
  8
0
100
AcDbSpline
 62
9
  6
CONTINUOUS
 70
0
 71
3
 72
22
 73
18
 74
0
 42
0.0000001
 43
0.0000001
 44
0.0000000001
 40
0.0
 40
0.0
 40
0.0
 40
0.0
 40
0.0540389047
 40
0.1084409952
 40
0.1635450645
 40
0.2196547145
 40
0.2481781318
 40
0.2770410258
 40
0.3358443353
 40
0.3962074445
 40
0.4581835094
 40
0.5217620111
 40
0.5868738553
 40
0.7210521696
 40
0.7898635962
 40
0.8594817888
 40
1.0
 40
1.0
 40
1.0
 40
1.0
 10
20.7735683383
 20
6.0594018881
 30
0.0
 10
20.7735683383
 20
6.0610320677
 30
0.0
 10
20.7733576805
 20
6.0643071967
 30
0.0
 10
20.7724141844
 20
6.0691626029
 30
0.0
 10
20.7708529624
 20
6.0739217638
 30
0.0
 10
20.7690597717
 20
6.0777485267
 30
0.0
 10
20.767343158
 20
6.0807127003
 30
0.0
 10
20.765416497
 20
6.0836427463
 30
0.0
 10
20.7626540048
 20
6.0871634265
 30
0.0
 10
20.7588411594
 20
6.0910908513
 30
0.0
 10
20.7545463485
 20
6.0947115203
 30
0.0
 10
20.7498108891
 20
6.09799122
 30
0.0
 10
20.7429049011
 20
6.1019057738
 30
0.0
 10
20.7353699861
 20
6.1049642874
 30
0.0
 10
20.7274314695
 20
6.10713527
 30
0.0
 10
20.7191604286
 20
6.1087195081
 30
0.0
 10
20.7128073201
 20
6.1091947768
 30
0.0
 10
20.7085683383
 20
6.1091947769
 30
0.0
  0
SPLINE
  5
4F6
100
AcDbEntity
  8
0
100
AcDbSpline
 62
9
  6
CONTINUOUS
 70
0
 71
3
 72
22
 73
18
 74
0
 42
0.0000001
 43
0.0000001
 44
0.0000000001
 40
0.0
 40
0.0
 40
0.0
 40
0.0
 40
0.0540389047
 40
0.1084409952
 40
0.1635450645
 40
0.2196547145
 40
0.2481781318
 40
0.2770410258
 40
0.3358443353
 40
0.3962074445
 40
0.4581835094
 40
0.5217620111
 40
0.5868738553
 40
0.7210521696
 40
0.7898635962
 40
0.8594817888
 40
1.0
 40
1.0
 40
1.0
 40
1.0
 10
19.7735683383
 20
11.5102408182
 30
0.0
 10
19.7735683383
 20
11.5118709979
 30
0.0
 10
19.7737789961
 20
11.5151461269
 30
0.0
 10
19.7747224921
 20
11.520001533
 30
0.0
 10
19.7762837142
 20
11.524760694
 30
0.0
 10
19.7780769049
 20
11.5285874569
 30
0.0
 10
19.7797935186
 20
11.5315516305
 30
0.0
 10
19.7817201796
 20
11.5344816765
 30
0.0
 10
19.7844826718
 20
11.5380023567
 30
0.0
 10
19.7882955172
 20
11.5419297814
 30
0.0
 10
19.792590328
 20
11.5455504504
 30
0.0
 10
19.7973257874
 20
11.5488301501
 30
0.0
 10
19.8042317755
 20
11.552744704
 30
0.0
 10
19.8117666904
 20
11.5558032175
 30
0.0
 10
19.819705207
 20
11.5579742001
 30
0.0
 10
19.8279762479
 20
11.5595584382
 30
0.0
 10
19.8343293565
 20
11.560033707
 30
0.0
 10
19.8385683383
 20
11.560033707
 30
0.0
  0
SPLINE
  5
4F7
100
AcDbEntity
  8
0
100
AcDbSpline
 62
9
  6
CONTINUOUS
 70
0
 71
3
 72
22
 73
18
 74
0
 42
0.0000001
 43
0.0000001
 44
0.0000000001
 40
0.0
 40
0.0
 40
0.0
 40
0.0
 40
0.1405182112
 40
0.2101364038
 40
0.2789478304
 40
0.4131261447
 40
0.4782379889
 40
0.5418164906
 40
0.6037925555
 40
0.6641556647
 40
0.7229589742
 40
0.7518218682
 40
0.7803452855
 40
0.8364549355
 40
0.8915590048
 40
0.9459610953
 40
1.0
 40
1.0
 40
1.0
 40
1.0
 10
19.8385683383
 20
6.1091947769
 30
0.0
 10
19.8343293565
 20
6.1091947768
 30
0.0
 10
19.8279762479
 20
6.1087195081
 30
0.0
 10
19.819705207
 20
6.10713527
 30
0.0
 10
19.8117666904
 20
6.1049642874
 30
0.0
 10
19.8042317755
 20
6.1019057738
 30
0.0
 10
19.7973257874
 20
6.09799122
 30
0.0
 10
19.792590328
 20
6.0947115203
 30
0.0
 10
19.7882955172
 20
6.0910908513
 30
0.0
 10
19.7844826718
 20
6.0871634265
 30
0.0
 10
19.7817201796
 20
6.0836427463
 30
0.0
 10
19.7797935186
 20
6.0807127003
 30
0.0
 10
19.7780769049
 20
6.0777485267
 30
0.0
 10
19.7762837142
 20
6.0739217638
 30
0.0
 10
19.7747224921
 20
6.0691626029
 30
0.0
 10
19.7737789961
 20
6.0643071967
 30
0.0
 10
19.7735683383
 20
6.0610320677
 30
0.0
 10
19.7735683383
 20
6.0594018881
 30
0.0
  0
SPLINE
  5
4F8
100
AcDbEntity
  8
0
100
AcDbSpline
 62
9
  6
CONTINUOUS
 70
0
 71
3
 72
13
 73
9
 74
0
 42
0.0000001
 43
0.0000001
 44
0.0000000001
 40
0.0
 40
0.0
 40
0.0
 40
0.0
 40
0.2488754016
 40
0.3743018708
 40
0.5
 40
0.6256981292
 40
0.7511245984
 40
1.0
 40
1.0
 40
1.0
 40
1.0
 10
20.1335955287
 20
11.5624439609
 30
0.0
 10
20.1564177536
 20
11.5676552012
 30
0.0
 10
20.1912342929
 20
11.5735174941
 30
0.0
 10
20.2381179222
 20
11.5774296129
 30
0.0
 10
20.2735683382
 20
11.5784126707
 30
0.0
 10
20.3090187542
 20
11.5774296129
 30
0.0
 10
20.3559023836
 20
11.5735174941
 30
0.0
 10
20.3907189229
 20
11.5676552012
 30
0.0
 10
20.4135411478
 20
11.5624439609
 30
0.0
  0
SPLINE
  5
4F9
100
AcDbEntity
  8
0
100
AcDbSpline
 62
9
  6
CONTINUOUS
 70
0
 71
3
 72
21
 73
17
 74
0
 42
0.0000001
 43
0.0000001
 44
0.0000000001
 40
0.0
 40
0.0
 40
0.0
 40
0.0
 40
0.0540383147
 40
0.1084418043
 40
0.1635466401
 40
0.2196580828
 40
0.277023079
 40
0.3358282945
 40
0.3961931782
 40
0.4581709115
 40
0.5217511611
 40
0.5868650073
 40
0.721047799
 40
0.7898615253
 40
0.8594806966
 40
1.0
 40
1.0
 40
1.0
 40
1.0
 10
20.7635683383
 20
6.052974012
 30
0.0
 10
20.7635683383
 20
6.0543533477
 30
0.0
 10
20.763390079
 20
6.0571245756
 30
0.0
 10
20.7625918135
 20
6.0612329024
 30
0.0
 10
20.7612706568
 20
6.0652600565
 30
0.0
 10
20.7594406313
 20
6.0691657318
 30
0.0
 10
20.7571203578
 20
6.0729124491
 30
0.0
 10
20.7543332691
 20
6.0764643453
 30
0.0
 10
20.7511068782
 20
6.0797877875
 30
0.0
 10
20.7474728288
 20
6.0828513924
 30
0.0
 10
20.7434658671
 20
6.0856265486
 30
0.0
 10
20.7376222854
 20
6.0889388684
 30
0.0
 10
20.7312465196
 20
6.0915268559
 30
0.0
 10
20.72452927
 20
6.09336382
 30
0.0
 10
20.7175307511
 20
6.094704327
 30
0.0
 10
20.7121551138
 20
6.0951064563
 30
0.0
 10
20.7085683383
 20
6.0951064563
 30
0.0
  0
SPLINE
  5
4FA
100
AcDbEntity
  8
0
100
AcDbSpline
 62
9
  6
CONTINUOUS
 70
0
 71
3
 72
17
 73
13
 74
0
 42
0.0000001
 43
0.0000001
 44
0.0000000001
 40
0.0
 40
0.0
 40
0.0
 40
0.0
 40
0.1499002244
 40
0.2964502101
 40
0.4366291473
 40
0.5680041557
 40
0.6891349144
 40
0.799963689
 40
0.8520827714
 40
0.9024406394
 40
0.9515627256
 40
1.0
 40
1.0
 40
1.0
 40
1.0
 10
20.7635683383
 20
6.052974012
 30
0.0
 10
20.7642199602
 20
6.052974012
 30
0.0
 10
20.7655101715
 20
6.0530547157
 30
0.0
 10
20.7673790517
 20
6.0534149275
 30
0.0
 10
20.7691062366
 20
6.0540006004
 30
0.0
 10
20.7706276391
 20
6.0547915162
 30
0.0
 10
20.7718868001
 20
6.0557601597
 30
0.0
 10
20.7726939684
 20
6.0567112059
 30
0.0
 10
20.7731481962
 20
6.0575224058
 30
0.0
 10
20.7733896814
 20
6.058138011
 30
0.0
 10
20.7735355757
 20
6.0587665512
 30
0.0
 10
20.7735683383
 20
6.0591913305
 30
0.0
 10
20.7735683383
 20
6.0594018892
 30
0.0
  0
SPLINE
  5
4FB
100
AcDbEntity
  8
0
100
AcDbSpline
 62
9
  6
CONTINUOUS
 70
0
 71
3
 72
17
 73
13
 74
0
 42
0.0000001
 43
0.0000001
 44
0.0000000001
 40
0.0
 40
0.0
 40
0.0
 40
0.0
 40
0.149900237
 40
0.296450235
 40
0.436629184
 40
0.5680042033
 40
0.6891349728
 40
0.799963754
 40
0.8520828496
 40
0.9024407213
 40
0.9515627623
 40
1.0
 40
1.0
 40
1.0
 40
1.0
 10
20.7635683383
 20
5.3865153464
 30
0.0
 10
20.7642199602
 20
5.3865153464
 30
0.0
 10
20.7655101715
 20
5.3865960502
 30
0.0
 10
20.7673790517
 20
5.386956262
 30
0.0
 10
20.7691062366
 20
5.3875419349
 30
0.0
 10
20.7706276391
 20
5.3883328507
 30
0.0
 10
20.7718868
 20
5.3893014942
 30
0.0
 10
20.7726939685
 20
5.3902525404
 30
0.0
 10
20.7731481961
 20
5.3910637404
 30
0.0
 10
20.7733896813
 20
5.3916793454
 30
0.0
 10
20.7735355758
 20
5.3923078851
 30
0.0
 10
20.7735683383
 20
5.392732664
 30
0.0
 10
20.7735683383
 20
5.3929432225
 30
0.0
  0
SPLINE
  5
4FC
100
AcDbEntity
  8
0
100
AcDbSpline
 62
9
  6
CONTINUOUS
 70
0
 71
3
 72
21
 73
17
 74
0
 42
0.0000001
 43
0.0000001
 44
0.0000000001
 40
0.0
 40
0.0
 40
0.0
 40
0.0
 40
0.1405193033
 40
0.2101384747
 40
0.2789522009
 40
0.4131349926
 40
0.4782488388
 40
0.5418290885
 40
0.6038068218
 40
0.6641717054
 40
0.7229769209
 40
0.7803419171
 40
0.8364533598
 40
0.8915581957
 40
0.9459616852
 40
1.0
 40
1.0
 40
1.0
 40
1.0
 10
20.7085683383
 20
5.3443829021
 30
0.0
 10
20.7121551138
 20
5.3443829021
 30
0.0
 10
20.7175307511
 20
5.3447850314
 30
0.0
 10
20.72452927
 20
5.3461255384
 30
0.0
 10
20.7312465195
 20
5.3479625025
 30
0.0
 10
20.7376222854
 20
5.35055049
 30
0.0
 10
20.7434658671
 20
5.3538628097
 30
0.0
 10
20.7474728288
 20
5.356637966
 30
0.0
 10
20.7511068782
 20
5.3597015709
 30
0.0
 10
20.7543332691
 20
5.3630250131
 30
0.0
 10
20.7571203578
 20
5.3665769093
 30
0.0
 10
20.7594406313
 20
5.3703236266
 30
0.0
 10
20.7612706568
 20
5.3742293019
 30
0.0
 10
20.7625918135
 20
5.378256456
 30
0.0
 10
20.763390079
 20
5.3823647828
 30
0.0
 10
20.7635683383
 20
5.3851360106
 30
0.0
 10
20.7635683383
 20
5.3865153464
 30
0.0
  0
SPLINE
  5
4FD
100
AcDbEntity
  8
0
100
AcDbSpline
 62
9
  6
CONTINUOUS
 70
0
 71
3
 72
21
 73
17
 74
0
 42
0.0000001
 43
0.0000001
 44
0.0000000001
 40
0.0
 40
0.0
 40
0.0
 40
0.0
 40
0.0540383147
 40
0.1084418043
 40
0.1635466401
 40
0.2196580828
 40
0.277023079
 40
0.3358282945
 40
0.3961931782
 40
0.4581709115
 40
0.5217511611
 40
0.5868650073
 40
0.721047799
 40
0.7898615253
 40
0.8594806966
 40
1.0
 40
1.0
 40
1.0
 40
1.0
 10
19.7835683383
 20
5.3865153464
 30
0.0
 10
19.7835683383
 20
5.3851360106
 30
0.0
 10
19.7837465976
 20
5.3823647828
 30
0.0
 10
19.784544863
 20
5.378256456
 30
0.0
 10
19.7858660198
 20
5.3742293019
 30
0.0
 10
19.7876960452
 20
5.3703236266
 30
0.0
 10
19.7900163188
 20
5.3665769093
 30
0.0
 10
19.7928034075
 20
5.3630250131
 30
0.0
 10
19.7960297984
 20
5.3597015709
 30
0.0
 10
19.7996638477
 20
5.356637966
 30
0.0
 10
19.8036708094
 20
5.3538628097
 30
0.0
 10
19.8095143912
 20
5.35055049
 30
0.0
 10
19.815890157
 20
5.3479625025
 30
0.0
 10
19.8226074066
 20
5.3461255384
 30
0.0
 10
19.8296059255
 20
5.3447850314
 30
0.0
 10
19.8349815628
 20
5.3443829021
 30
0.0
 10
19.8385683383
 20
5.3443829021
 30
0.0
  0
SPLINE
  5
4FE
100
AcDbEntity
  8
0
100
AcDbSpline
 62
9
  6
CONTINUOUS
 70
0
 71
3
 72
17
 73
13
 74
0
 42
0.0000001
 43
0.0000001
 44
0.0000000001
 40
0.0
 40
0.0
 40
0.0
 40
0.0
 40
0.1499002496
 40
0.2964502599
 40
0.4366292207
 40
0.5680042509
 40
0.6891350313
 40
0.7999638189
 40
0.8520829277
 40
0.9024408032
 40
0.9515627989
 40
1.0
 40
1.0
 40
1.0
 40
1.0
 10
19.7835683383
 20
5.3865153464
 30
0.0
 10
19.7829167163
 20
5.3865153464
 30
0.0
 10
19.7816265051
 20
5.3865960502
 30
0.0
 10
19.7797576249
 20
5.386956262
 30
0.0
 10
19.7780304399
 20
5.3875419349
 30
0.0
 10
19.7765090374
 20
5.3883328507
 30
0.0
 10
19.7752498766
 20
5.3893014942
 30
0.0
 10
19.774442708
 20
5.3902525404
 30
0.0
 10
19.7739884804
 20
5.3910637404
 30
0.0
 10
19.7737469954
 20
5.3916793453
 30
0.0
 10
19.7736011008
 20
5.3923078846
 30
0.0
 10
19.7735683383
 20
5.3927326631
 30
0.0
 10
19.7735683383
 20
5.3929432214
 30
0.0
  0
SPLINE
  5
4FF
100
AcDbEntity
  8
0
100
AcDbSpline
 62
9
  6
CONTINUOUS
 70
0
 71
3
 72
46
 73
42
 74
0
 42
0.0000001
 43
0.0000001
 44
0.0000000001
 40
0.0
 40
0.0
 40
0.0
 40
0.0
 40
0.0059543336
 40
0.0114876514
 40
0.0166508444
 40
0.0215069077
 40
0.026132132
 40
0.0306149882
 40
0.0350527192
 40
0.0395459775
 40
0.0441925002
 40
0.0490805581
 40
0.0542849256
 40
0.0598667289
 40
0.0658746954
 40
0.0723471095
 40
0.0793137811
 40
0.0867975367
 40
0.0948158991
 40
0.1033817951
 40
0.1125032254
 40
0.122185285
 40
0.132431206
 40
0.1432429323
 40
0.1665637188
 40
0.1921386818
 40
0.2199345514
 40
0.2498969068
 40
0.2819672793
 40
0.3160781597
 40
0.3521489551
 40
0.3900847772
 40
0.4297895714
 40
0.4711620413
 40
0.5140894775
 40
0.5584491464
 40
0.604116429
 40
0.6988528342
 40
0.7971972341
 40
0.8979840368
 40
1.0
 40
1.0
 40
1.0
 40
1.0
 10
7.0604959146
 20
11.0634236245
 30
0.0
 10
7.059835011
 20
11.0640842483
 30
0.0
 10
7.058510345
 20
11.0653109124
 30
0.0
 10
7.0564350556
 20
11.0669056125
 30
0.0
 10
7.0543489844
 20
11.0681828342
 30
0.0
 10
7.0522529125
 20
11.06914065
 30
0.0
 10
7.0501479985
 20
11.0697764066
 30
0.0
 10
7.048036801
 20
11.0700872386
 30
0.0
 10
7.0459233165
 20
11.0700708848
 30
0.0
 10
7.0438122517
 20
11.0697265558
 30
0.0
 10
7.0417079416
 20
11.069055113
 30
0.0
 10
7.0396130632
 20
11.0680597625
 30
0.0
 10
7.0375285271
 20
11.066744165
 30
0.0
 10
7.0354547307
 20
11.0651108925
 30
0.0
 10
7.0333919654
 20
11.06316185
 30
0.0
 10
7.0313407307
 20
11.0608984433
 30
0.0
 10
7.0293018309
 20
11.058321886
 30
0.0
 10
7.027276195
 20
11.055433475
 30
0.0
 10
7.0252650336
 20
11.052234592
 30
0.0
 10
7.0232697731
 20
11.0487270446
 30
0.0
 10
7.0212914506
 20
11.0449133988
 30
0.0
 10
7.0193313936
 20
11.0407964339
 30
0.0
 10
7.0173909041
 20
11.036378946
 30
0.0
 10
7.0147650168
 20
11.0299274916
 30
0.0
 10
7.0115609767
 20
11.0211181515
 30
0.0
 10
7.0079069455
 20
11.0096477231
 30
0.0
 10
7.0043642564
 20
10.9970562712
 30
0.0
 10
7.0009419903
 20
10.9833786991
 30
0.0
 10
6.9976517991
 20
10.968651751
 30
0.0
 10
6.9945043426
 20
10.9529150018
 30
0.0
 10
6.9915098017
 20
10.9362125701
 30
0.0
 10
6.9886761877
 20
10.9185924555
 30
0.0
 10
6.9860132064
 20
10.9001048198
 30
0.0
 10
6.9835300524
 20
10.8808021519
 30
0.0
 10
6.9812348309
 20
10.8607408415
 30
0.0
 10
6.9791338708
 20
10.8399807166
 30
0.0
 10
6.9765700136
 20
10.8110972878
 30
0.0
 10
6.9739197791
 20
10.7737190231
 30
0.0
 10
6.9716424577
 20
10.7276530655
 30
0.0
 10
6.9702665796
 20
10.6804087022
 30
0.0
 10
6.969957255
 20
10.6485804102
 30
0.0
 10
6.9699571098
 20
10.6325702325
 30
0.0
  0
SPLINE
  5
500
100
AcDbEntity
  8
0
100
AcDbSpline
 62
9
  6
CONTINUOUS
 70
0
 71
3
 72
46
 73
42
 74
0
 42
0.0000001
 43
0.0000001
 44
0.0000000001
 40
0.0
 40
0.0
 40
0.0
 40
0.0
 40
0.0984522764
 40
0.1958396439
 40
0.2911102504
 40
0.3832494708
 40
0.4712874293
 40
0.5134873975
 40
0.5543327856
 40
0.5937197477
 40
0.6315501173
 40
0.6677393248
 40
0.7022060977
 40
0.7348717234
 40
0.7656640134
 40
0.7945254611
 40
0.8214079629
 40
0.8462665951
 40
0.8690674553
 40
0.8897948584
 40
0.899384171
 40
0.9084595397
 40
0.9170242294
 40
0.9250834933
 40
0.9326467868
 40
0.939727723
 40
0.946343118
 40
0.9525110537
 40
0.9582538567
 40
0.9636034622
 40
0.9686125356
 40
0.973345494
 40
0.9756300988
 40
0.9778682718
 40
0.9822278536
 40
0.9865098397
 40
0.9886654113
 40
0.9908520434
 40
0.9930786394
 40
0.9953478109
 40
1.0
 40
1.0
 40
1.0
 40
1.0
 10
6.9699571098
 20
3.4021777925
 30
0.0
 10
6.9699572545
 20
3.3870102337
 30
0.0
 10
6.9702350841
 20
3.3568384535
 30
0.0
 10
6.9714716015
 20
3.3120045774
 30
0.0
 10
6.9735198613
 20
3.2681736863
 30
0.0
 10
6.9763507726
 20
3.2258298077
 30
0.0
 10
6.979376254
 20
3.1917009139
 30
0.0
 10
6.9821805725
 20
3.1654928361
 30
0.0
 10
6.9844258894
 20
3.1467644678
 30
0.0
 10
6.9868368264
 20
3.1287356095
 30
0.0
 10
6.989407364
 20
3.1114536426
 30
0.0
 10
6.9921288685
 20
3.0949625235
 30
0.0
 10
6.9949934345
 20
3.0793037754
 30
0.0
 10
6.9979933022
 20
3.0645177056
 30
0.0
 10
7.0011208156
 20
3.0506418475
 30
0.0
 10
7.0043667099
 20
3.0377097271
 30
0.0
 10
7.0077209881
 20
3.0257518489
 30
0.0
 10
7.0111750947
 20
3.0147972247
 30
0.0
 10
7.0147200492
 20
3.0048729291
 30
0.0
 10
7.0178176515
 20
2.9972943958
 30
0.0
 10
7.0203484786
 20
2.9917776827
 30
0.0
 10
7.0222140138
 20
2.9880195357
 30
0.0
 10
7.0240953139
 20
2.9845348332
 30
0.0
 10
7.0259915759
 20
2.9813259062
 30
0.0
 10
7.0279016288
 20
2.9783942825
 30
0.0
 10
7.0298242756
 20
2.9757408569
 30
0.0
 10
7.0317579713
 20
2.9733664951
 30
0.0
 10
7.0337021105
 20
2.971273734
 30
0.0
 10
7.0356562927
 20
2.9694659669
 30
0.0
 10
7.0376226732
 20
2.9679476519
 30
0.0
 10
7.0395988822
 20
2.9667150067
 30
0.0
 10
7.0412716282
 20
2.9659085163
 30
0.0
 10
7.0426055633
 20
2.9654024356
 30
0.0
 10
7.0439129713
 20
2.9649960135
 30
0.0
 10
7.0455631177
 20
2.9646655674
 30
0.0
 10
7.047236559
 20
2.9646222436
 30
0.0
 10
7.0485570195
 20
2.9647851505
 30
0.0
 10
7.0495475036
 20
2.9649982151
 30
0.0
 10
7.0505360549
 20
2.9652883151
 30
0.0
 10
7.0518627154
 20
2.9657657787
 30
0.0
 10
7.0528391332
 20
2.9661974005
 30
0.0
 10
7.0534876308
 20
2.9665025777
 30
0.0
  0
SPLINE
  5
501
100
AcDbEntity
  8
0
100
AcDbSpline
 62
9
  6
CONTINUOUS
 70
0
 71
3
 72
43
 73
39
 74
0
 42
0.0000001
 43
0.0000001
 44
0.0000000001
 40
0.0
 40
0.0
 40
0.0
 40
0.0
 40
0.0046097305
 40
0.0090394495
 40
0.0133521395
 40
0.0176367119
 40
0.0219901442
 40
0.0264965191
 40
0.0312258616
 40
0.0362419202
 40
0.0416001264
 40
0.0473457336
 40
0.0535125248
 40
0.0601264742
 40
0.0672079092
 40
0.0747730631
 40
0.0828346605
 40
0.0914017885
 40
0.1004797352
 40
0.1100717667
 40
0.1308038677
 40
0.1536061751
 40
0.1784663857
 40
0.2053543776
 40
0.2342225499
 40
0.2650199176
 40
0.2976894085
 40
0.332162574
 40
0.3683591514
 40
0.4061950286
 40
0.4455854903
 40
0.4864359781
 40
0.5286435713
 40
0.616695278
 40
0.7088471293
 40
0.8041321187
 40
0.9015336451
 40
1.0
 40
1.0
 40
1.0
 40
1.0
 10
5.4936490458
 20
2.9662608833
 30
0.0
 10
5.4942915073
 20
2.9659585111
 30
0.0
 10
5.4955827371
 20
2.965428435
 30
0.0
 10
5.4975722499
 20
2.9648845661
 30
0.0
 10
5.4995713588
 20
2.9646357485
 30
0.0
 10
5.5015732353
 20
2.9647060013
 30
0.0
 10
5.5035697932
 20
2.9650826916
 30
0.0
 10
5.5055590671
 20
2.9657529677
 30
0.0
 10
5.5075417588
 20
2.9667070239
 30
0.0
 10
5.5095160792
 20
2.9679458695
 30
0.0
 10
5.5114810755
 20
2.9694696548
 30
0.0
 10
5.5134358636
 20
2.97127833
 30
0.0
 10
5.5153805546
 20
2.9733699908
 30
0.0
 10
5.5173145237
 20
2.9757430948
 30
0.0
 10
5.5192369851
 20
2.9783961928
 30
0.0
 10
5.5211468882
 20
2.9813281033
 30
0.0
 10
5.5230430643
 20
2.9845375688
 30
0.0
 10
5.5249243041
 20
2.9880228633
 30
0.0
 10
5.5267897557
 20
2.9917816255
 30
0.0
 10
5.5293203722
 20
2.9972990509
 30
0.0
 10
5.5324175857
 20
3.0048777766
 30
0.0
 10
5.5359629603
 20
3.0148013677
 30
0.0
 10
5.5394173746
 20
3.0257553364
 30
0.0
 10
5.542771226
 20
3.037713464
 30
0.0
 10
5.5460167236
 20
3.0506462068
 30
0.0
 10
5.5491441817
 20
3.0645221918
 30
0.0
 10
5.5521443375
 20
3.0793081283
 30
0.0
 10
5.5550085842
 20
3.094967085
 30
0.0
 10
5.5577297019
 20
3.1114585386
 30
0.0
 10
5.5603001649
 20
3.1287402108
 30
0.0
 10
5.5627115319
 20
3.1467682391
 30
0.0
 10
5.5649569252
 20
3.16549605
 30
0.0
 10
5.5677606612
 20
3.1917040102
 30
0.0
 10
5.5707860257
 20
3.2258326099
 30
0.0
 10
5.5736172254
 20
3.2681758954
 30
0.0
 10
5.5756650252
 20
3.3120060644
 30
0.0
 10
5.5769014748
 20
3.3568392591
 30
0.0
 10
5.5771794321
 20
3.387010515
 30
0.0
 10
5.5771795668
 20
3.4021777925
 30
0.0
  0
SPLINE
  5
502
100
AcDbEntity
  8
0
100
AcDbSpline
 62
9
  6
CONTINUOUS
 70
0
 71
3
 72
47
 73
43
 74
0
 42
0.0000001
 43
0.0000001
 44
0.0000000001
 40
0.0
 40
0.0
 40
0.0
 40
0.0
 40
0.1020158431
 40
0.2028022844
 40
0.3011459935
 40
0.3490368228
 40
0.395884708
 40
0.4415515503
 40
0.4859097866
 40
0.5288368227
 40
0.5702116991
 40
0.6099176414
 40
0.6478520943
 40
0.6839213007
 40
0.7180333534
 40
0.7501039869
 40
0.7800643022
 40
0.8078591199
 40
0.8334368983
 40
0.856760325
 40
0.8675716685
 40
0.8778165441
 40
0.8874974093
 40
0.8966178703
 40
0.9051833183
 40
0.9132019397
 40
0.9206863557
 40
0.9276536466
 40
0.9341263551
 40
0.9401343489
 40
0.9457160233
 40
0.9509201979
 40
0.9558080665
 40
0.9604544524
 40
0.9649476482
 40
0.9693853715
 40
0.9738682279
 40
0.9784934133
 40
0.9833493817
 40
0.9885124354
 40
0.9940456376
 40
1.0
 40
1.0
 40
1.0
 40
1.0
 10
5.5771795668
 20
10.6325702325
 30
0.0
 10
5.5771794128
 20
10.648580416
 30
0.0
 10
5.5768702716
 20
10.6804087173
 30
0.0
 10
5.575494193
 20
10.7276528177
 30
0.0
 10
5.5735799797
 20
10.7663757127
 30
0.0
 10
5.5715930934
 20
10.7966130256
 30
0.0
 10
5.5699023766
 20
10.8185835645
 30
0.0
 10
5.5680028314
 20
10.8399805232
 30
0.0
 10
5.5659016265
 20
10.8607402824
 30
0.0
 10
5.5636061966
 20
10.880801692
 30
0.0
 10
5.5611235996
 20
10.9001049584
 30
0.0
 10
5.5584608129
 20
10.9185930013
 30
0.0
 10
5.555626966
 20
10.9362128215
 30
0.0
 10
5.5526320554
 20
10.9529149257
 30
0.0
 10
5.5494849518
 20
10.9686517425
 30
0.0
 10
5.5461949176
 20
10.9833786569
 30
0.0
 10
5.5427722956
 20
10.9970557087
 30
0.0
 10
5.539229255
 20
11.0096470303
 30
0.0
 10
5.5355756487
 20
11.0211183246
 30
0.0
 10
5.5323720479
 20
11.029928699
 30
0.0
 10
5.529745945
 20
11.0363802869
 30
0.0
 10
5.5278053682
 20
11.0407972961
 30
0.0
 10
5.5258452302
 20
11.0449136726
 30
0.0
 10
5.5238668427
 20
11.0487268296
 30
0.0
 10
5.5218715302
 20
11.0522341423
 30
0.0
 10
5.5198604066
 20
11.0554331389
 30
0.0
 10
5.5178348466
 20
11.058321902
 30
0.0
 10
5.515796015
 20
11.0608988365
 30
0.0
 10
5.5137447814
 20
11.0631624546
 30
0.0
 10
5.5116820015
 20
11.0651115366
 30
0.0
 10
5.5096081866
 20
11.0667447219
 30
0.0
 10
5.5075236339
 20
11.0680601542
 30
0.0
 10
5.5054287402
 20
11.0690552953
 30
0.0
 10
5.5033244202
 20
11.069726517
 30
0.0
 10
5.5012133574
 20
11.0700706627
 30
0.0
 10
5.499099884
 20
11.0700868985
 30
0.0
 10
5.4969886984
 20
11.0697760459
 30
0.0
 10
5.4948837868
 20
11.0691403522
 30
0.0
 10
5.4927877083
 20
11.068182649
 30
0.0
 10
5.4907016138
 20
11.0669055622
 30
0.0
 10
5.4886262974
 20
11.0653109445
 30
0.0
 10
5.4873016484
 20
11.0640842739
 30
0.0
 10
5.486640762
 20
11.0634236245
 30
0.0
  0
SPLINE
  5
503
100
AcDbEntity
  8
0
100
AcDbSpline
 62
9
  6
CONTINUOUS
 70
0
 71
3
 72
26
 73
22
 74
0
 42
0.0000001
 43
0.0000001
 44
0.0000000001
 40
0.0
 40
0.0
 40
0.0
 40
0.0
 40
0.0624942298
 40
0.1249923986
 40
0.1874884252
 40
0.2187461279
 40
0.2500038372
 40
0.2812621098
 40
0.3125205458
 40
0.3750169275
 40
0.437513702
 40
0.5000102604
 40
0.5625070842
 40
0.6250033569
 40
0.6875002798
 40
0.7499975026
 40
0.7812552528
 40
0.8125127099
 40
0.8750086233
 40
0.9375060883
 40
1.0
 40
1.0
 40
1.0
 40
1.0
 10
5.2182621963
 20
10.6399378377
 30
0.0
 10
5.2151978607
 20
10.6399383468
 30
0.0
 10
5.2090650023
 20
10.6402363681
 30
0.0
 10
5.1999541469
 20
10.6415581171
 30
0.0
 10
5.1924998121
 20
10.643385298
 30
0.0
 10
5.186667741
 20
10.6452791242
 30
0.0
 10
5.1823684445
 20
10.6469150911
 30
0.0
 10
5.1781549967
 20
10.6487609702
 30
0.0
 10
5.1726660129
 20
10.6514943175
 30
0.0
 10
5.1660676665
 20
10.6554152492
 30
0.0
 10
5.1586607367
 20
10.6608862381
 30
0.0
 10
5.1518350202
 20
10.6670672753
 30
0.0
 10
5.145651479
 20
10.6738908077
 30
0.0
 10
5.1401838987
 20
10.6813009384
 30
0.0
 10
5.1354800388
 20
10.6892168265
 30
0.0
 10
5.1322276047
 20
10.69616874
 30
0.0
 10
5.1300470437
 20
10.7018999595
 30
0.0
 10
5.1281541609
 20
10.7077324466
 30
0.0
 10
5.1263283202
 20
10.7151869368
 30
0.0
 10
5.1250048738
 20
10.7242974447
 30
0.0
 10
5.1247061208
 20
10.7304302542
 30
0.0
 10
5.1247054598
 20
10.7334945743
 30
0.0
  0
SPLINE
  5
504
100
AcDbEntity
  8
0
100
AcDbSpline
 62
9
  6
CONTINUOUS
 70
0
 71
3
 72
26
 73
22
 74
0
 42
0.0000001
 43
0.0000001
 44
0.0000000001
 40
0.0
 40
0.0
 40
0.0
 40
0.0
 40
0.0624942469
 40
0.1249925279
 40
0.1874884687
 40
0.2187462544
 40
0.2500039435
 40
0.2812621745
 40
0.3125206348
 40
0.375016962
 40
0.4375137731
 40
0.5000103147
 40
0.5625071277
 40
0.6250033857
 40
0.6875003292
 40
0.749997509
 40
0.7812552789
 40
0.8125127261
 40
0.8750086428
 40
0.937506088
 40
1.0
 40
1.0
 40
1.0
 40
1.0
 10
7.4224312168
 20
10.7334945743
 30
0.0
 10
7.4224307049
 20
10.7304302376
 30
0.0
 10
7.4221331768
 20
10.724297379
 30
0.0
 10
7.4208124113
 20
10.715186337
 30
0.0
 10
7.4189843696
 20
10.70773216
 30
0.0
 10
7.4170896753
 20
10.7019003782
 30
0.0
 10
7.4154533502
 20
10.6976012215
 30
0.0
 10
7.4136073554
 20
10.6933878312
 30
0.0
 10
7.4108742491
 20
10.6878987386
 30
0.0
 10
7.4069538188
 20
10.6813000829
 30
0.0
 10
7.401482813
 20
10.6738931477
 30
0.0
 10
7.3953017851
 20
10.6670674251
 30
0.0
 10
7.3884782289
 20
10.6608839143
 30
0.0
 10
7.3810682243
 20
10.6554161805
 30
0.0
 10
7.3731525013
 20
10.650712031
 30
0.0
 10
7.3662004996
 20
10.647459742
 30
0.0
 10
7.3604691519
 20
10.6452795212
 30
0.0
 10
7.354636563
 20
10.6433869502
 30
0.0
 10
7.3471820499
 20
10.6415612783
 30
0.0
 10
7.3380716128
 20
10.6402374234
 30
0.0
 10
7.3319388005
 20
10.639938481
 30
0.0
 10
7.3288744802
 20
10.6399378377
 30
0.0
  0
SPLINE
  5
505
100
AcDbEntity
  8
0
100
AcDbSpline
 62
9
  6
CONTINUOUS
 70
0
 71
3
 72
26
 73
22
 74
0
 42
0.0000001
 43
0.0000001
 44
0.0000000001
 40
0.0
 40
0.0
 40
0.0
 40
0.0
 40
0.0624942298
 40
0.1249923986
 40
0.1874884252
 40
0.2187461279
 40
0.2500038372
 40
0.2812621098
 40
0.3125205458
 40
0.3750169275
 40
0.437513702
 40
0.5000102604
 40
0.5625070842
 40
0.6250033569
 40
0.6875002798
 40
0.7499975026
 40
0.7812552528
 40
0.8125127099
 40
0.8750086233
 40
0.9375060883
 40
1.0
 40
1.0
 40
1.0
 40
1.0
 10
7.3288744802
 20
12.9376635947
 30
0.0
 10
7.3319388159
 20
12.9376630857
 30
0.0
 10
7.3380716743
 20
12.9373650644
 30
0.0
 10
7.3471825297
 20
12.9360433154
 30
0.0
 10
7.3546368645
 20
12.9342161345
 30
0.0
 10
7.3604689356
 20
12.9323223082
 30
0.0
 10
7.3647682321
 20
12.9306863414
 30
0.0
 10
7.3689816799
 20
12.9288404623
 30
0.0
 10
7.3744706636
 20
12.9261071149
 30
0.0
 10
7.3810690101
 20
12.9221861833
 30
0.0
 10
7.3884759399
 20
12.9167151944
 30
0.0
 10
7.3953016564
 20
12.9105341572
 30
0.0
 10
7.4014851975
 20
12.9037106247
 30
0.0
 10
7.4069527778
 20
12.896300494
 30
0.0
 10
7.4116566377
 20
12.8883846059
 30
0.0
 10
7.4149090719
 20
12.8814326925
 30
0.0
 10
7.4170896328
 20
12.875701473
 30
0.0
 10
7.4189825156
 20
12.8698689859
 30
0.0
 10
7.4208083564
 20
12.8624144957
 30
0.0
 10
7.4221318028
 20
12.8533039877
 30
0.0
 10
7.4224305558
 20
12.8471711782
 30
0.0
 10
7.4224312168
 20
12.8441068582
 30
0.0
  0
SPLINE
  5
506
100
AcDbEntity
  8
0
100
AcDbSpline
 62
9
  6
CONTINUOUS
 70
0
 71
3
 72
26
 73
22
 74
0
 42
0.0000001
 43
0.0000001
 44
0.0000000001
 40
0.0
 40
0.0
 40
0.0
 40
0.0
 40
0.0624942469
 40
0.1249925279
 40
0.1874884687
 40
0.2187462544
 40
0.2500039435
 40
0.2812621745
 40
0.3125206348
 40
0.375016962
 40
0.4375137731
 40
0.5000103147
 40
0.5625071277
 40
0.6250033857
 40
0.6875003292
 40
0.749997509
 40
0.7812552789
 40
0.8125127261
 40
0.8750086428
 40
0.937506088
 40
1.0
 40
1.0
 40
1.0
 40
1.0
 10
5.1247054598
 20
12.8441068582
 30
0.0
 10
5.1247059716
 20
12.8471711949
 30
0.0
 10
5.1250034998
 20
12.8533040535
 30
0.0
 10
5.1263242652
 20
12.8624150954
 30
0.0
 10
5.128152307
 20
12.8698692724
 30
0.0
 10
5.1300470012
 20
12.8757010542
 30
0.0
 10
5.1316833263
 20
12.880000211
 30
0.0
 10
5.1335293212
 20
12.8842136013
 30
0.0
 10
5.1362624275
 20
12.8897026938
 30
0.0
 10
5.1401828578
 20
12.8963013495
 30
0.0
 10
5.1456538636
 20
12.9037082848
 30
0.0
 10
5.1518348914
 20
12.9105340074
 30
0.0
 10
5.1586584477
 20
12.9167175182
 30
0.0
 10
5.1660684523
 20
12.9221852519
 30
0.0
 10
5.1739841753
 20
12.9268894014
 30
0.0
 10
5.1809361769
 20
12.9301416905
 30
0.0
 10
5.1866675246
 20
12.9323219113
 30
0.0
 10
5.1925001135
 20
12.9342144822
 30
0.0
 10
5.1999546266
 20
12.9360401542
 30
0.0
 10
5.2090650638
 20
12.9373640091
 30
0.0
 10
5.215197876
 20
12.9376629515
 30
0.0
 10
5.2182621963
 20
12.9376635947
 30
0.0
  0
SPLINE
  5
507
100
AcDbEntity
  8
0
100
AcDbSpline
 62
9
  6
CONTINUOUS
 70
0
 71
3
 72
17
 73
13
 74
0
 42
0.0000001
 43
0.0000001
 44
0.0000000001
 40
0.0
 40
0.0
 40
0.0
 40
0.0
 40
0.149900237
 40
0.296450235
 40
0.436629184
 40
0.5680042033
 40
0.6891349728
 40
0.799963754
 40
0.8520828496
 40
0.9024407213
 40
0.9515627623
 40
1.0
 40
1.0
 40
1.0
 40
1.0
 10
19.7835683383
 20
6.052974012
 30
0.0
 10
19.7829167163
 20
6.052974012
 30
0.0
 10
19.7816265051
 20
6.0530547157
 30
0.0
 10
19.7797576249
 20
6.0534149275
 30
0.0
 10
19.7780304399
 20
6.0540006004
 30
0.0
 10
19.7765090374
 20
6.0547915162
 30
0.0
 10
19.7752498765
 20
6.0557601597
 30
0.0
 10
19.7744427081
 20
6.0567112059
 30
0.0
 10
19.7739884804
 20
6.0575224059
 30
0.0
 10
19.7737469953
 20
6.0581380109
 30
0.0
 10
19.7736011008
 20
6.0587665507
 30
0.0
 10
19.7735683383
 20
6.0591913296
 30
0.0
 10
19.7735683383
 20
6.0594018881
 30
0.0
  0
SPLINE
  5
508
100
AcDbEntity
  8
0
100
AcDbSpline
 62
9
  6
CONTINUOUS
 70
0
 71
3
 72
21
 73
17
 74
0
 42
0.0000001
 43
0.0000001
 44
0.0000000001
 40
0.0
 40
0.0
 40
0.0
 40
0.0
 40
0.1405193033
 40
0.2101384747
 40
0.2789522009
 40
0.4131349926
 40
0.4782488388
 40
0.5418290885
 40
0.6038068218
 40
0.6641717054
 40
0.7229769209
 40
0.7803419171
 40
0.8364533598
 40
0.8915581957
 40
0.9459616852
 40
1.0
 40
1.0
 40
1.0
 40
1.0
 10
19.8385683383
 20
6.0951064563
 30
0.0
 10
19.8349815628
 20
6.0951064563
 30
0.0
 10
19.8296059255
 20
6.094704327
 30
0.0
 10
19.8226074066
 20
6.09336382
 30
0.0
 10
19.815890157
 20
6.0915268559
 30
0.0
 10
19.8095143912
 20
6.0889388684
 30
0.0
 10
19.8036708094
 20
6.0856265487
 30
0.0
 10
19.7996638477
 20
6.0828513924
 30
0.0
 10
19.7960297984
 20
6.0797877875
 30
0.0
 10
19.7928034075
 20
6.0764643453
 30
0.0
 10
19.7900163188
 20
6.0729124491
 30
0.0
 10
19.7876960452
 20
6.0691657318
 30
0.0
 10
19.7858660198
 20
6.0652600565
 30
0.0
 10
19.784544863
 20
6.0612329024
 30
0.0
 10
19.7837465976
 20
6.0571245756
 30
0.0
 10
19.7835683383
 20
6.0543533477
 30
0.0
 10
19.7835683383
 20
6.052974012
 30
0.0
  0
SPLINE
  5
509
100
AcDbEntity
  8
0
100
AcDbSpline
 62
9
  6
CONTINUOUS
 70
0
 71
3
 72
23
 73
19
 74
0
 42
0.0000001
 43
0.0000001
 44
0.0000000001
 40
0.0
 40
0.0
 40
0.0
 40
0.0
 40
0.0623791419
 40
0.1248054162
 40
0.1872635252
 40
0.2497620038
 40
0.3122910786
 40
0.3748458766
 40
0.4374185363
 40
0.5000002537
 40
0.5625819408
 40
0.6251544986
 40
0.6877091311
 40
0.750238299
 40
0.8127365801
 40
0.8751944305
 40
0.9376205558
 40
1.0
 40
1.0
 40
1.0
 40
1.0
 10
7.3288744802
 20
12.9056573428
 30
0.0
 10
7.3308978307
 20
12.9056872964
 30
0.0
 10
7.3349515664
 20
12.9055567677
 30
0.0
 10
7.3409856597
 20
12.9047801404
 30
0.0
 10
7.3469198579
 20
12.9034175072
 30
0.0
 10
7.3526931564
 20
12.901472535
 30
0.0
 10
7.3582450133
 20
12.8989560189
 30
0.0
 10
7.3635144523
 20
12.89588663
 30
0.0
 10
7.3684424448
 20
12.8922913809
 30
0.0
 10
7.3729739578
 20
12.8882063146
 30
0.0
 10
7.3770591113
 20
12.8836748777
 30
0.0
 10
7.3806542765
 20
12.878746827
 30
0.0
 10
7.3837235416
 20
12.8734773319
 30
0.0
 10
7.3862402043
 20
12.8679255531
 30
0.0
 10
7.3881851212
 20
12.8621522405
 30
0.0
 10
7.389547663
 20
12.8562180445
 30
0.0
 10
7.3903242847
 20
12.8501839545
 30
0.0
 10
7.3904548408
 20
12.8461302196
 30
0.0
 10
7.3904249648
 20
12.8441068582
 30
0.0
  0
SPLINE
  5
50A
100
AcDbEntity
  8
0
100
AcDbSpline
 62
9
  6
CONTINUOUS
 70
0
 71
3
 72
23
 73
19
 74
0
 42
0.0000001
 43
0.0000001
 44
0.0000000001
 40
0.0
 40
0.0
 40
0.0
 40
0.0
 40
0.0623789655
 40
0.1248053598
 40
0.1872636421
 40
0.2497622167
 40
0.3122912162
 40
0.3748459816
 40
0.4374186306
 40
0.5000003337
 40
0.5625820102
 40
0.6251545659
 40
0.6877092137
 40
0.7502384064
 40
0.8127366225
 40
0.8751944059
 40
0.9376204921
 40
1.0
 40
1.0
 40
1.0
 40
1.0
 10
5.1567117118
 20
12.8441068582
 30
0.0
 10
5.1566817329
 20
12.8461302026
 30
0.0
 10
5.1568122223
 20
12.850183939
 30
0.0
 10
5.1575888607
 20
12.8562180371
 30
0.0
 10
5.1589515685
 20
12.8621522324
 30
0.0
 10
5.1608965865
 20
12.8679255187
 30
0.0
 10
5.1634130506
 20
12.8734773976
 30
0.0
 10
5.1664824304
 20
12.8787468395
 30
0.0
 10
5.1700776789
 20
12.88367483
 30
0.0
 10
5.1741627462
 20
12.8882063407
 30
0.0
 10
5.1786941834
 20
12.8922914924
 30
0.0
 10
5.1836222328
 20
12.8958866593
 30
0.0
 10
5.1888917224
 20
12.898955935
 30
0.0
 10
5.1944434939
 20
12.9014726144
 30
0.0
 10
5.2002168145
 20
12.9034175005
 30
0.0
 10
5.2061510111
 20
12.9047800104
 30
0.0
 10
5.2121850974
 20
12.9055566403
 30
0.0
 10
5.2162388328
 20
12.9056872139
 30
0.0
 10
5.2182621963
 20
12.9056573428
 30
0.0
  0
SPLINE
  5
50B
100
AcDbEntity
  8
0
100
AcDbSpline
 62
9
  6
CONTINUOUS
 70
0
 71
3
 72
15
 73
11
 74
0
 42
0.0000001
 43
0.0000001
 44
0.0000000001
 40
0.0
 40
0.0
 40
0.0
 40
0.0
 40
0.1246744322
 40
0.2498137734
 40
0.3752494808
 40
0.5007822011
 40
0.6262022649
 40
0.7513121215
 40
0.8759459495
 40
1.0
 40
1.0
 40
1.0
 40
1.0
 10
7.0101238799
 20
11.0032328676
 30
0.0
 10
7.0135540414
 20
11.0039692192
 30
0.0
 10
7.0203162543
 20
11.006027126
 30
0.0
 10
7.0298108538
 20
11.0107524845
 30
0.0
 10
7.0384213626
 20
11.0169897372
 30
0.0
 10
7.0458976364
 20
11.0245594346
 30
0.0
 10
7.0520268029
 20
11.0332448209
 30
0.0
 10
7.0566327805
 20
11.0427985391
 30
0.0
 10
7.0595828747
 20
11.0529435227
 30
0.0
 10
7.0603907004
 20
11.0599343603
 30
0.0
 10
7.0604959146
 20
11.0634236244
 30
0.0
  0
SPLINE
  5
50C
100
AcDbEntity
  8
0
100
AcDbSpline
 62
9
  6
CONTINUOUS
 70
0
 71
3
 72
23
 73
19
 74
0
 42
0.0000001
 43
0.0000001
 44
0.0000000001
 40
0.0
 40
0.0
 40
0.0
 40
0.0
 40
0.0623789655
 40
0.1248053598
 40
0.1872636421
 40
0.2497622167
 40
0.3122912162
 40
0.3748459816
 40
0.4374186306
 40
0.5000003337
 40
0.5625820102
 40
0.6251545659
 40
0.6877092137
 40
0.7502384064
 40
0.8127366225
 40
0.8751944059
 40
0.9376204921
 40
1.0
 40
1.0
 40
1.0
 40
1.0
 10
7.3904249648
 20
10.7334945743
 30
0.0
 10
7.3904549437
 20
10.7314712299
 30
0.0
 10
7.3903244543
 20
10.7274174935
 30
0.0
 10
7.3895478158
 20
10.7213833953
 30
0.0
 10
7.3881851081
 20
10.7154492
 30
0.0
 10
7.38624009
 20
10.7096759138
 30
0.0
 10
7.3837236259
 20
10.7041240349
 30
0.0
 10
7.3806542461
 20
10.698854593
 30
0.0
 10
7.3770589977
 20
10.6939266025
 30
0.0
 10
7.3729739304
 20
10.6893950917
 30
0.0
 10
7.3684424932
 20
10.6853099401
 30
0.0
 10
7.3635144438
 20
10.6817147732
 30
0.0
 10
7.3582449541
 20
10.6786454975
 30
0.0
 10
7.3526931827
 20
10.6761288181
 30
0.0
 10
7.3469198621
 20
10.6741839319
 30
0.0
 10
7.3409856654
 20
10.672821422
 30
0.0
 10
7.3349515791
 20
10.6720447922
 30
0.0
 10
7.3308978438
 20
10.6719142186
 30
0.0
 10
7.3288744802
 20
10.6719440897
 30
0.0
  0
SPLINE
  5
50D
100
AcDbEntity
  8
0
100
AcDbSpline
 62
9
  6
CONTINUOUS
 70
0
 71
3
 72
23
 73
19
 74
0
 42
0.0000001
 43
0.0000001
 44
0.0000000001
 40
0.0
 40
0.0
 40
0.0
 40
0.0
 40
0.0623791419
 40
0.1248054162
 40
0.1872635252
 40
0.2497620038
 40
0.3122910786
 40
0.3748458766
 40
0.4374185363
 40
0.5000002537
 40
0.5625819408
 40
0.6251544986
 40
0.6877091311
 40
0.750238299
 40
0.8127365801
 40
0.8751944305
 40
0.9376205558
 40
1.0
 40
1.0
 40
1.0
 40
1.0
 10
5.2182621963
 20
10.6719440897
 30
0.0
 10
5.2162388459
 20
10.6719141361
 30
0.0
 10
5.2121851102
 20
10.6720446647
 30
0.0
 10
5.2061510169
 20
10.672821292
 30
0.0
 10
5.2002168186
 20
10.6741839253
 30
0.0
 10
5.1944435202
 20
10.6761288975
 30
0.0
 10
5.1888916633
 20
10.6786454136
 30
0.0
 10
5.1836222242
 20
10.6817148025
 30
0.0
 10
5.1786942318
 20
10.6853100516
 30
0.0
 10
5.1741627187
 20
10.6893951179
 30
0.0
 10
5.1700775653
 20
10.6939265548
 30
0.0
 10
5.1664824001
 20
10.6988546055
 30
0.0
 10
5.1634131349
 20
10.7041241005
 30
0.0
 10
5.1608964722
 20
10.7096758794
 30
0.0
 10
5.1589515554
 20
10.715449192
 30
0.0
 10
5.1575890135
 20
10.721383388
 30
0.0
 10
5.1568123919
 20
10.7274174779
 30
0.0
 10
5.1566818358
 20
10.7314712129
 30
0.0
 10
5.1567117118
 20
10.7334945743
 30
0.0
  0
SPLINE
  5
50E
100
AcDbEntity
  8
0
100
AcDbSpline
 62
9
  6
CONTINUOUS
 70
0
 71
3
 72
15
 73
11
 74
0
 42
0.0000001
 43
0.0000001
 44
0.0000000001
 40
0.0
 40
0.0
 40
0.0
 40
0.0
 40
0.1246744315
 40
0.2498137722
 40
0.3752494794
 40
0.5007821999
 40
0.626202264
 40
0.751312121
 40
0.8759459494
 40
1.0
 40
1.0
 40
1.0
 40
1.0
 10
5.5370128155
 20
11.0032328635
 30
0.0
 10
5.533582653
 20
11.0039692142
 30
0.0
 10
5.5268204379
 20
11.0060271195
 30
0.0
 10
5.5173258351
 20
11.0107524767
 30
0.0
 10
5.5087153231
 20
11.0169897291
 30
0.0
 10
5.5012390463
 20
11.024559427
 30
0.0
 10
5.4951098772
 20
11.0332448145
 30
0.0
 10
5.4905038977
 20
11.0427985346
 30
0.0
 10
5.4875538023
 20
11.0529435203
 30
0.0
 10
5.4867459762
 20
11.0599343595
 30
0.0
 10
5.486640762
 20
11.0634236245
 30
0.0
  0
SPLINE
  5
50F
100
AcDbEntity
  8
0
100
AcDbSpline
 62
9
  6
CONTINUOUS
 70
0
 71
3
 72
23
 73
19
 74
0
 42
0.0000001
 43
0.0000001
 44
0.0000000001
 40
0.0
 40
0.0
 40
0.0
 40
0.0
 40
0.0620101786
 40
0.1241945562
 40
0.186542314
 40
0.2490359553
 40
0.3116533206
 40
0.3743682271
 40
0.4371507266
 40
0.4999677375
 40
0.5627851234
 40
0.6255694438
 40
0.6882885681
 40
0.7509124464
 40
0.8134156267
 40
0.8757721988
 40
0.9379767162
 40
1.0
 40
1.0
 40
1.0
 40
1.0
 10
7.0534876308
 20
1.6132853158
 30
0.0
 10
7.0534279745
 20
1.6113069092
 30
0.0
 10
7.0531174344
 20
1.607347705
 30
0.0
 10
7.0520857367
 20
1.6014748033
 30
0.0
 10
7.0504970556
 20
1.5957109841
 30
0.0
 10
7.0483661724
 20
1.5901102904
 30
0.0
 10
7.0457128585
 20
1.5847243114
 30
0.0
 10
7.042561677
 20
1.5796028773
 30
0.0
 10
7.038941785
 20
1.5747933255
 30
0.0
 10
7.0348866737
 20
1.5703401586
 30
0.0
 10
7.0304338527
 20
1.5662845814
 30
0.0
 10
7.0256244797
 20
1.562664109
 30
0.0
 10
7.0205029808
 20
1.5595122677
 30
0.0
 10
7.0151166453
 20
1.5568582004
 30
0.0
 10
7.0095153306
 20
1.5547267183
 30
0.0
 10
7.0037504464
 20
1.5531372496
 30
0.0
 10
6.9978762218
 20
1.5521052799
 30
0.0
 10
6.9939159709
 20
1.5517945001
 30
0.0
 10
6.9919371462
 20
1.5517348312
 30
0.0
  0
SPLINE
  5
510
100
AcDbEntity
  8
0
100
AcDbSpline
 62
9
  6
CONTINUOUS
 70
0
 71
3
 72
23
 73
19
 74
0
 42
0.0000001
 43
0.0000001
 44
0.0000000001
 40
0.0
 40
0.0
 40
0.0
 40
0.0
 40
0.0620101786
 40
0.1241945562
 40
0.186542314
 40
0.2490359553
 40
0.3116533206
 40
0.3743682271
 40
0.4371507266
 40
0.4999677375
 40
0.5627851234
 40
0.6255694438
 40
0.6882885681
 40
0.7509124464
 40
0.8134156267
 40
0.8757721988
 40
0.9379767162
 40
1.0
 40
1.0
 40
1.0
 40
1.0
 10
5.5551995304
 20
1.5517348312
 30
0.0
 10
5.5532211238
 20
1.5517944875
 30
0.0
 10
5.5492619196
 20
1.5521050275
 30
0.0
 10
5.5433890179
 20
1.5531367253
 30
0.0
 10
5.5376251987
 20
1.5547254064
 30
0.0
 10
5.532024505
 20
1.5568562896
 30
0.0
 10
5.526638526
 20
1.5595096035
 30
0.0
 10
5.5215170919
 20
1.562660785
 30
0.0
 10
5.5167075401
 20
1.566280677
 30
0.0
 10
5.5122543732
 20
1.5703357883
 30
0.0
 10
5.508198796
 20
1.5747886092
 30
0.0
 10
5.5045783236
 20
1.5795979822
 30
0.0
 10
5.5014264823
 20
1.5847194811
 30
0.0
 10
5.498772415
 20
1.5901058166
 30
0.0
 10
5.4966409328
 20
1.5957071314
 30
0.0
 10
5.4950514642
 20
1.6014720155
 30
0.0
 10
5.4940194945
 20
1.6073462401
 30
0.0
 10
5.4937087147
 20
1.6113064911
 30
0.0
 10
5.4936490458
 20
1.6132853158
 30
0.0
  0
SPLINE
  5
511
100
AcDbEntity
  8
0
100
AcDbSpline
 62
9
  6
CONTINUOUS
 70
0
 71
3
 72
23
 73
19
 74
0
 42
0.0000001
 43
0.0000001
 44
0.0000000001
 40
0.0
 40
0.0
 40
0.0
 40
0.0
 40
0.0620115698
 40
0.1242039684
 40
0.1865537912
 40
0.2490524121
 40
0.3116742217
 40
0.3743932483
 40
0.4371789283
 40
0.4999984391
 40
0.5628178691
 40
0.6256034058
 40
0.6883224102
 40
0.7509444618
 40
0.813443621
 40
0.8757940804
 40
0.9379877927
 40
1.0
 40
1.0
 40
1.0
 40
1.0
 10
6.7664801789
 20
1.7771917986
 30
0.0
 10
6.7684586295
 20
1.7772514561
 30
0.0
 10
6.7724181248
 20
1.7775620945
 30
0.0
 10
6.7782914006
 20
1.778593797
 30
0.0
 10
6.7840556292
 20
1.7801828085
 30
0.0
 10
6.7896566446
 20
1.7823138702
 30
0.0
 10
6.7950429381
 20
1.7849675315
 30
0.0
 10
6.8001645871
 20
1.7881190798
 30
0.0
 10
6.804974231
 20
1.7917393715
 30
0.0
 10
6.8094273924
 20
1.7957948536
 30
0.0
 10
6.8134828906
 20
1.8002479944
 30
0.0
 10
6.8171031988
 20
1.8050576155
 30
0.0
 10
6.8202547818
 20
1.8101792459
 30
0.0
 10
6.8229084804
 20
1.8155655487
 30
0.0
 10
6.8250395759
 20
1.8211665995
 30
0.0
 10
6.8266286332
 20
1.8269308984
 30
0.0
 10
6.8276603528
 20
1.8328042554
 30
0.0
 10
6.8279710052
 20
1.8367638122
 30
0.0
 10
6.8280306634
 20
1.8387422831
 30
0.0
  0
SPLINE
  5
512
100
AcDbEntity
  8
0
100
AcDbSpline
 62
9
  6
CONTINUOUS
 70
0
 71
3
 72
23
 73
19
 74
0
 42
0.0000001
 43
0.0000001
 44
0.0000000001
 40
0.0
 40
0.0
 40
0.0
 40
0.0
 40
0.0620115698
 40
0.1242039684
 40
0.1865537912
 40
0.2490524121
 40
0.3116742217
 40
0.3743932483
 40
0.4371789283
 40
0.4999984391
 40
0.5628178691
 40
0.6256034058
 40
0.6883224102
 40
0.7509444618
 40
0.813443621
 40
0.8757940804
 40
0.9379877927
 40
1.0
 40
1.0
 40
1.0
 40
1.0
 10
6.8280306634
 20
12.2817125568
 30
0.0
 10
6.8279710058
 20
12.2836910074
 30
0.0
 10
6.8276603675
 20
12.2876505028
 30
0.0
 10
6.826628665
 20
12.2935237785
 30
0.0
 10
6.8250396535
 20
12.2992880071
 30
0.0
 10
6.8229085918
 20
12.3048890225
 30
0.0
 10
6.8202549305
 20
12.3102753161
 30
0.0
 10
6.8171033822
 20
12.3153969651
 30
0.0
 10
6.8134830905
 20
12.3202066089
 30
0.0
 10
6.8094276084
 20
12.3246597704
 30
0.0
 10
6.8049744676
 20
12.3287152685
 30
0.0
 10
6.8001648465
 20
12.3323355768
 30
0.0
 10
6.7950432161
 20
12.3354871598
 30
0.0
 10
6.7896569133
 20
12.3381408584
 30
0.0
 10
6.7840558625
 20
12.3402719539
 30
0.0
 10
6.7782915636
 20
12.3418610112
 30
0.0
 10
6.7724182066
 20
12.3428927308
 30
0.0
 10
6.7684586498
 20
12.3432033832
 30
0.0
 10
6.7664801789
 20
12.3432630414
 30
0.0
  0
SPLINE
  5
513
100
AcDbEntity
  8
0
100
AcDbSpline
 62
9
  6
CONTINUOUS
 70
0
 71
3
 72
23
 73
19
 74
0
 42
0.0000001
 43
0.0000001
 44
0.0000000001
 40
0.0
 40
0.0
 40
0.0
 40
0.0
 40
0.0620115698
 40
0.1242039684
 40
0.1865537912
 40
0.2490524121
 40
0.3116742217
 40
0.3743932483
 40
0.4371789283
 40
0.4999984391
 40
0.5628178691
 40
0.6256034058
 40
0.6883224102
 40
0.7509444618
 40
0.813443621
 40
0.8757940804
 40
0.9379877927
 40
1.0
 40
1.0
 40
1.0
 40
1.0
 10
5.7191060131
 20
1.8387422831
 30
0.0
 10
5.7191656707
 20
1.8367638325
 30
0.0
 10
5.7194763091
 20
1.8328043372
 30
0.0
 10
5.7205080116
 20
1.8269310614
 30
0.0
 10
5.7220970231
 20
1.8211668328
 30
0.0
 10
5.7242280847
 20
1.8155658174
 30
0.0
 10
5.7268817461
 20
1.8101795239
 30
0.0
 10
5.7300332944
 20
1.8050578749
 30
0.0
 10
5.7336535861
 20
1.800248231
 30
0.0
 10
5.7377090682
 20
1.7957950695
 30
0.0
 10
5.742162209
 20
1.7917395714
 30
0.0
 10
5.7469718301
 20
1.7881192631
 30
0.0
 10
5.7520934605
 20
1.7849676802
 30
0.0
 10
5.7574797633
 20
1.7823139815
 30
0.0
 10
5.7630808141
 20
1.780182886
 30
0.0
 10
5.768845113
 20
1.7785938288
 30
0.0
 10
5.77471847
 20
1.7775621091
 30
0.0
 10
5.7786780268
 20
1.7772514568
 30
0.0
 10
5.7806564977
 20
1.7771917986
 30
0.0
  0
SPLINE
  5
514
100
AcDbEntity
  8
0
100
AcDbSpline
 62
9
  6
CONTINUOUS
 70
0
 71
3
 72
23
 73
19
 74
0
 42
0.0000001
 43
0.0000001
 44
0.0000000001
 40
0.0
 40
0.0
 40
0.0
 40
0.0
 40
0.0620115698
 40
0.1242039684
 40
0.1865537912
 40
0.2490524121
 40
0.3116742217
 40
0.3743932483
 40
0.4371789283
 40
0.4999984391
 40
0.5628178691
 40
0.6256034058
 40
0.6883224102
 40
0.7509444618
 40
0.813443621
 40
0.8757940804
 40
0.9379877927
 40
1.0
 40
1.0
 40
1.0
 40
1.0
 10
5.7806564977
 20
12.3432630414
 30
0.0
 10
5.7786780471
 20
12.3432033838
 30
0.0
 10
5.7747185517
 20
12.3428927454
 30
0.0
 10
5.768845276
 20
12.341861043
 30
0.0
 10
5.7630810474
 20
12.3402720314
 30
0.0
 10
5.757480032
 20
12.3381409698
 30
0.0
 10
5.7520937384
 20
12.3354873085
 30
0.0
 10
5.7469720895
 20
12.3323357601
 30
0.0
 10
5.7421624456
 20
12.3287154685
 30
0.0
 10
5.7377092841
 20
12.3246599863
 30
0.0
 10
5.733653786
 20
12.3202068456
 30
0.0
 10
5.7300334777
 20
12.3153972244
 30
0.0
 10
5.7268818948
 20
12.310275594
 30
0.0
 10
5.7242281961
 20
12.3048892913
 30
0.0
 10
5.7220971006
 20
12.2992882404
 30
0.0
 10
5.7205080434
 20
12.2935239415
 30
0.0
 10
5.7194763237
 20
12.2876505846
 30
0.0
 10
5.7191656713
 20
12.2836910278
 30
0.0
 10
5.7191060131
 20
12.2817125568
 30
0.0
  0
SPLINE
  5
515
100
AcDbEntity
  8
0
100
AcDbSpline
 62
9
  6
CONTINUOUS
 70
0
 71
3
 72
15
 73
11
 74
0
 42
0.0000001
 43
0.0000001
 44
0.0000000001
 40
0.0
 40
0.0
 40
0.0
 40
0.0
 40
0.1243365488
 40
0.2490144888
 40
0.3739824865
 40
0.4991634999
 40
0.6244616206
 40
0.7497711473
 40
0.8749802389
 40
1.0
 40
1.0
 40
1.0
 40
1.0
 10
7.0127409352
 20
3.0244914197
 30
0.0
 10
7.0156660121
 20
3.0233849582
 30
0.0
 10
7.0213652166
 20
3.0207200921
 30
0.0
 10
7.0292203528
 20
3.0154842871
 30
0.0
 10
7.036224461
 20
3.0091205832
 30
0.0
 10
7.0422150953
 20
3.0017756062
 30
0.0
 10
7.04705633
 20
2.9936171791
 30
0.0
 10
7.0506374713
 20
2.9848310769
 30
0.0
 10
7.0528769532
 20
2.9756205547
 30
0.0
 10
7.0534416556
 20
2.969324299
 30
0.0
 10
7.0534876322
 20
2.9661800985
 30
0.0
  0
SPLINE
  5
516
100
AcDbEntity
  8
0
100
AcDbSpline
 62
9
  6
CONTINUOUS
 70
0
 71
3
 72
23
 73
19
 74
0
 42
0.0000001
 43
0.0000001
 44
0.0000000001
 40
0.0
 40
0.0
 40
0.0
 40
0.0
 40
0.0625005664
 40
0.1250639693
 40
0.1876463889
 40
0.2502639782
 40
0.3129107108
 40
0.3755716128
 40
0.5007910739
 40
0.5634023944
 40
0.625962831
 40
0.6884644835
 40
0.7509125629
 40
0.8132710649
 40
0.8755539031
 40
0.9067423516
 40
0.9379650249
 40
1.0
 40
1.0
 40
1.0
 40
1.0
 10
5.4936490443
 20
2.9661800971
 30
0.0
 10
5.4936708034
 20
2.9677537871
 30
0.0
 10
5.4938308698
 20
2.9709024283
 30
0.0
 10
5.494425177
 20
2.9755944175
 30
0.0
 10
5.4953738781
 20
2.9802310149
 30
0.0
 10
5.4966661953
 20
2.9847857048
 30
0.0
 10
5.498294229
 20
2.9892339827
 30
0.0
 10
5.5008976223
 20
2.9949850794
 30
0.0
 10
5.5041334974
 20
3.0004316884
 30
0.0
 10
5.5079379108
 20
3.0054651749
 30
0.0
 10
5.5110612062
 20
3.0090179383
 30
0.0
 10
5.5144366991
 20
3.0123258004
 30
0.0
 10
5.5180482727
 20
3.0153665021
 30
0.0
 10
5.5218713387
 20
3.0181265977
 30
0.0
 10
5.5252186614
 20
3.0201823739
 30
0.0
 10
5.5279883173
 20
3.0216633005
 30
0.0
 10
5.5308093122
 20
3.0230293568
 30
0.0
 10
5.5329762069
 20
3.0239400528
 30
0.0
 10
5.5344333483
 20
3.0245030327
 30
0.0
  0
SPLINE
  5
517
100
AcDbEntity
  8
0
100
AcDbSpline
 62
9
  6
CONTINUOUS
 70
0
 71
3
 72
23
 73
19
 74
0
 42
0.0000001
 43
0.0000001
 44
0.0000000001
 40
0.0
 40
0.0
 40
0.0
 40
0.0
 40
0.0623897212
 40
0.1248187348
 40
0.1872824302
 40
0.2497805533
 40
0.312307501
 40
0.3748580396
 40
0.4374247615
 40
0.5000000163
 40
0.5625752561
 40
0.6251419742
 40
0.687692517
 40
0.750219451
 40
0.812717545
 40
0.8751812494
 40
0.937610288
 40
1.0
 40
1.0
 40
1.0
 40
1.0
 10
14.5305008908
 20
11.104821734
 30
0.0
 10
14.5304730267
 20
11.1028793955
 30
0.0
 10
14.5306003992
 20
11.098988278
 30
0.0
 10
14.5313498109
 20
11.0931967165
 30
0.0
 10
14.5326612923
 20
11.0875017232
 30
0.0
 10
14.5345309418
 20
11.0819614375
 30
0.0
 10
14.5369488123
 20
11.0766342022
 30
0.0
 10
14.5398963861
 20
11.0715780558
 30
0.0
 10
14.5433475709
 20
11.0668492451
 30
0.0
 10
14.547268283
 20
11.0625006607
 30
0.0
 10
14.5516168646
 20
11.0585799441
 30
0.0
 10
14.5563456874
 20
11.0551287774
 30
0.0
 10
14.5614018228
 20
11.0521811873
 30
0.0
 10
14.5667290571
 20
11.0497633141
 30
0.0
 10
14.5722693479
 20
11.0478936847
 30
0.0
 10
14.5779643375
 20
11.0465821899
 30
0.0
 10
14.5837558997
 20
11.045832771
 30
0.0
 10
14.5876470179
 20
11.045705405
 30
0.0
 10
14.589589356
 20
11.0457332688
 30
0.0
  0
SPLINE
  5
518
100
AcDbEntity
  8
0
100
AcDbSpline
 62
9
  6
CONTINUOUS
 70
0
 71
3
 72
23
 73
19
 74
0
 42
0.0000001
 43
0.0000001
 44
0.0000000001
 40
0.0
 40
0.0
 40
0.0
 40
0.0
 40
0.0623897212
 40
0.1248187348
 40
0.1872824302
 40
0.2497805533
 40
0.312307501
 40
0.3748580396
 40
0.4374247615
 40
0.5000000163
 40
0.5625752561
 40
0.6251419742
 40
0.687692517
 40
0.750219451
 40
0.812717545
 40
0.8751812494
 40
0.937610288
 40
1.0
 40
1.0
 40
1.0
 40
1.0
 10
14.589589356
 20
12.5318681637
 30
0.0
 10
14.5876470176
 20
12.5318960278
 30
0.0
 10
14.5837559
 20
12.5317686553
 30
0.0
 10
14.5779643385
 20
12.5310192436
 30
0.0
 10
14.5722693452
 20
12.5297077622
 30
0.0
 10
14.5667290596
 20
12.5278381127
 30
0.0
 10
14.5614018242
 20
12.5254202422
 30
0.0
 10
14.5563456778
 20
12.5224726685
 30
0.0
 10
14.5516168672
 20
12.5190214836
 30
0.0
 10
14.5472682828
 20
12.5151007715
 30
0.0
 10
14.5433475661
 20
12.5107521899
 30
0.0
 10
14.5398963994
 20
12.5060233671
 30
0.0
 10
14.5369488093
 20
12.5009672318
 30
0.0
 10
14.5345309362
 20
12.4956399974
 30
0.0
 10
14.5326613068
 20
12.4900997066
 30
0.0
 10
14.531349812
 20
12.484404717
 30
0.0
 10
14.530600393
 20
12.4786131549
 30
0.0
 10
14.530473027
 20
12.4747220367
 30
0.0
 10
14.5305008908
 20
12.4727796985
 30
0.0
  0
SPLINE
  5
519
100
AcDbEntity
  8
0
100
AcDbSpline
 62
9
  6
CONTINUOUS
 70
0
 71
3
 72
23
 73
19
 74
0
 42
0.0000001
 43
0.0000001
 44
0.0000000001
 40
0.0
 40
0.0
 40
0.0
 40
0.0
 40
0.0623897212
 40
0.1248187348
 40
0.1872824302
 40
0.2497805533
 40
0.312307501
 40
0.3748580396
 40
0.4374247615
 40
0.5000000163
 40
0.5625752561
 40
0.6251419742
 40
0.687692517
 40
0.750219451
 40
0.812717545
 40
0.8751812494
 40
0.937610288
 40
1.0
 40
1.0
 40
1.0
 40
1.0
 10
16.0166357857
 20
12.4727796985
 30
0.0
 10
16.0166636498
 20
12.4747220369
 30
0.0
 10
16.0165362774
 20
12.4786131545
 30
0.0
 10
16.0157868657
 20
12.484404716
 30
0.0
 10
16.0144753843
 20
12.4900997093
 30
0.0
 10
16.0126057348
 20
12.4956399949
 30
0.0
 10
16.0101878642
 20
12.5009672303
 30
0.0
 10
16.0072402905
 20
12.5060233767
 30
0.0
 10
16.0037891057
 20
12.5107521873
 30
0.0
 10
15.9998683936
 20
12.5151007717
 30
0.0
 10
15.995519812
 20
12.5190214884
 30
0.0
 10
15.9907909892
 20
12.5224726551
 30
0.0
 10
15.9857348538
 20
12.5254202452
 30
0.0
 10
15.9804076195
 20
12.5278381183
 30
0.0
 10
15.9748673286
 20
12.5297077477
 30
0.0
 10
15.969172339
 20
12.5310192426
 30
0.0
 10
15.9633807769
 20
12.5317686615
 30
0.0
 10
15.9594896587
 20
12.5318960275
 30
0.0
 10
15.9575473206
 20
12.5318681637
 30
0.0
  0
SPLINE
  5
51A
100
AcDbEntity
  8
0
100
AcDbSpline
 62
9
  6
CONTINUOUS
 70
0
 71
3
 72
23
 73
19
 74
0
 42
0.0000001
 43
0.0000001
 44
0.0000000001
 40
0.0
 40
0.0
 40
0.0
 40
0.0
 40
0.0623897212
 40
0.1248187348
 40
0.1872824302
 40
0.2497805533
 40
0.312307501
 40
0.3748580396
 40
0.4374247615
 40
0.5000000163
 40
0.5625752561
 40
0.6251419742
 40
0.687692517
 40
0.750219451
 40
0.812717545
 40
0.8751812494
 40
0.937610288
 40
1.0
 40
1.0
 40
1.0
 40
1.0
 10
15.9575473206
 20
11.0457332688
 30
0.0
 10
15.959489659
 20
11.0457054047
 30
0.0
 10
15.9633807765
 20
11.0458327771
 30
0.0
 10
15.969172338
 20
11.0465821889
 30
0.0
 10
15.9748673313
 20
11.0478936702
 30
0.0
 10
15.980407617
 20
11.0497633197
 30
0.0
 10
15.9857348523
 20
11.0521811903
 30
0.0
 10
15.9907909987
 20
11.055128764
 30
0.0
 10
15.9955198094
 20
11.0585799488
 30
0.0
 10
15.9998683938
 20
11.0625006609
 30
0.0
 10
16.0037891105
 20
11.0668492425
 30
0.0
 10
16.0072402772
 20
11.0715780653
 30
0.0
 10
16.0101878672
 20
11.0766342007
 30
0.0
 10
16.0126057404
 20
11.081961435
 30
0.0
 10
16.0144753698
 20
11.0875017259
 30
0.0
 10
16.0157868646
 20
11.0931967155
 30
0.0
 10
16.0165362835
 20
11.0989882776
 30
0.0
 10
16.0166636496
 20
11.1028793958
 30
0.0
 10
16.0166357857
 20
11.104821734
 30
0.0
  0
SPLINE
  5
51B
100
AcDbEntity
  8
0
100
AcDbSpline
 62
9
  6
CONTINUOUS
 70
0
 71
3
 72
51
 73
47
 74
0
 42
0.0000001
 43
0.0000001
 44
0.0000000001
 40
0.0
 40
0.0
 40
0.0
 40
0.0
 40
0.0134439202
 40
0.0269617202
 40
0.0405698348
 40
0.0542838204
 40
0.068117957
 40
0.0820852122
 40
0.0961971545
 40
0.1104638367
 40
0.1248937724
 40
0.1394939153
 40
0.1542696184
 40
0.1692246664
 40
0.1996726319
 40
0.2308460419
 40
0.2627224695
 40
0.2952591217
 40
0.3283951915
 40
0.3620544028
 40
0.3961475693
 40
0.4305751883
 40
0.4652300538
 40
0.4999998252
 40
0.5347695992
 40
0.5694244721
 40
0.6038521035
 40
0.6379452869
 40
0.6716045194
 40
0.7047406138
 40
0.7372772938
 40
0.7691537515
 40
0.8003271929
 40
0.8307751904
 40
0.8457302542
 40
0.8605059729
 40
0.875106131
 40
0.8895360813
 40
0.9038027776
 40
0.917914733
 40
0.9318820004
 40
0.9457161481
 40
0.9594301436
 40
0.9730382668
 40
0.986556074
 40
1.0
 40
1.0
 40
1.0
 40
1.0
 10
19.7881495621
 20
11.5431856852
 30
0.0
 10
19.7891502593
 20
11.5487521411
 30
0.0
 10
19.7914808556
 20
11.559860141
 30
0.0
 10
19.7959371845
 20
11.5763443667
 30
0.0
 10
19.8013533614
 20
11.592658793
 30
0.0
 10
19.8077182584
 20
11.6087697781
 30
0.0
 10
19.8150188653
 20
11.624645154
 30
0.0
 10
19.8232402796
 20
11.6402529886
 30
0.0
 10
19.8323659054
 20
11.6555619192
 30
0.0
 10
19.8423771667
 20
11.6705412807
 30
0.0
 10
19.8532537908
 20
11.6851611206
 30
0.0
 10
19.864973807
 20
11.6993920354
 30
0.0
 10
19.877513837
 20
11.7132058766
 30
0.0
 10
19.8953974983
 20
11.7311359787
 30
0.0
 10
19.9197061012
 20
11.7523479038
 30
0.0
 10
19.951525085
 20
11.7755494896
 30
0.0
 10
19.9859171649
 20
11.7964736961
 30
0.0
 10
20.0226052054
 20
11.8149540365
 30
0.0
 10
20.0612963272
 20
11.8308454577
 30
0.0
 10
20.1016814348
 20
11.8440223887
 30
0.0
 10
20.1434382016
 20
11.8543807689
 30
0.0
 10
20.1862333622
 20
11.8618387894
 30
0.0
 10
20.2297254407
 20
11.8663373639
 30
0.0
 10
20.2735673757
 20
11.8678408717
 30
0.0
 10
20.3174093184
 20
11.8663374957
 30
0.0
 10
20.3609014198
 20
11.8618390519
 30
0.0
 10
20.4036966186
 20
11.8543811601
 30
0.0
 10
20.4454534383
 20
11.8440229054
 30
0.0
 10
20.4858386132
 20
11.8308460959
 30
0.0
 10
20.5245298162
 20
11.8149547911
 30
0.0
 10
20.5612179511
 20
11.7964745613
 30
0.0
 10
20.5956101379
 20
11.7755504584
 30
0.0
 10
20.6274292402
 20
11.7523489686
 30
0.0
 10
20.6517379514
 20
11.7311371171
 30
0.0
 10
20.6696217045
 20
11.713207069
 30
0.0
 10
20.6821618053
 20
11.6993932656
 30
0.0
 10
20.6938818945
 20
11.6851623862
 30
0.0
 10
20.7047585935
 20
11.6705425791
 30
0.0
 10
20.7147699317
 20
11.6555632479
 30
0.0
 10
20.723895636
 20
11.6402543448
 30
0.0
 10
20.7321171304
 20
11.6246465351
 30
0.0
 10
20.7394178187
 20
11.6087711813
 30
0.0
 10
20.7457827983
 20
11.5926602154
 30
0.0
 10
20.751199059
 20
11.5763458055
 30
0.0
 10
20.7556554725
 20
11.5598615933
 30
0.0
 10
20.7579861259
 20
11.5487535998
 30
0.0
 10
20.7589868518
 20
11.5431871466
 30
0.0
  0
SPLINE
  5
51C
100
AcDbEntity
  8
0
100
AcDbSpline
 62
7
  6
CONTINUOUS
 70
0
 71
3
 72
21
 73
17
 74
0
 42
0.0000001
 43
0.0000001
 44
0.0000000001
 40
0.0
 40
0.0
 40
0.0
 40
0.0
 40
0.1405210773
 40
0.2101413812
 40
0.2789542026
 40
0.413135689
 40
0.4782490603
 40
0.5418290436
 40
0.6038065506
 40
0.6641710645
 40
0.7229757182
 40
0.7803402822
 40
0.8364510768
 40
0.8915567837
 40
0.9459593748
 40
1.0
 40
1.0
 40
1.0
 40
1.0
 10
19.8900683383
 20
6.0748062786
 30
0.0
 10
19.8848511433
 20
6.0748062786
 30
0.0
 10
19.8770319297
 20
6.0742213195
 30
0.0
 10
19.8668521818
 20
6.0722715194
 30
0.0
 10
19.8570816883
 20
6.0695995246
 30
0.0
 10
19.8478079424
 20
6.0658352108
 30
0.0
 10
19.8393082634
 20
6.0610173054
 30
0.0
 10
19.8334799893
 20
6.0569807275
 30
0.0
 10
19.828194117
 20
6.0525246018
 30
0.0
 10
19.8235012042
 20
6.0476905446
 30
0.0
 10
19.8194472605
 20
6.0425242086
 30
0.0
 10
19.8160723525
 20
6.0370744886
 30
0.0
 10
19.8134104391
 20
6.0313935384
 30
0.0
 10
19.8114888202
 20
6.0255358645
 30
0.0
 10
19.8103276023
 20
6.0195600511
 30
0.0
 10
19.8100683383
 20
6.0155291159
 30
0.0
 10
19.8100683383
 20
6.0135227231
 30
0.0
  0
SPLINE
  5
51D
100
AcDbEntity
  8
0
100
AcDbSpline
 62
9
  6
CONTINUOUS
 70
0
 71
3
 72
23
 73
19
 74
0
 42
0.0000001
 43
0.0000001
 44
0.0000000001
 40
0.0
 40
0.0
 40
0.0
 40
0.0
 40
0.1248721376
 40
0.187380408
 40
0.2498884333
 40
0.3123959148
 40
0.3749038259
 40
0.4061670864
 40
0.4374303095
 40
0.4999378441
 40
0.5624452303
 40
0.6249523042
 40
0.6874602004
 40
0.7499676441
 40
0.8124756898
 40
0.8749839401
 40
0.9374916175
 40
1.0
 40
1.0
 40
1.0
 40
1.0
 10
14.5009566582
 20
11.104821734
 30
0.0
 10
14.5009570482
 20
11.0990219718
 30
0.0
 10
14.5017939592
 20
11.0902879708
 30
0.0
 10
14.5045677009
 20
11.0790050939
 30
0.0
 10
14.50746774
 20
11.0707762906
 30
0.0
 10
14.5111622062
 20
11.06287403
 30
0.0
 10
14.5148790011
 20
11.0566242881
 30
0.0
 10
14.518210353
 20
11.0518650144
 30
0.0
 10
14.5217755775
 20
11.0472782788
 30
0.0
 10
14.5266549172
 20
11.0418869654
 30
0.0
 10
14.5331227187
 20
11.0360327902
 30
0.0
 10
14.5401432317
 20
11.0308537836
 30
0.0
 10
14.5476413157
 20
11.0263946499
 30
0.0
 10
14.5555442835
 20
11.0227001607
 30
0.0
 10
14.563771782
 20
11.0198003451
 30
0.0
 10
14.5722433381
 20
11.0177180725
 30
0.0
 10
14.580875913
 20
11.0164685531
 30
0.0
 10
14.5866861163
 20
11.0161892451
 30
0.0
 10
14.589589356
 20
11.0161890362
 30
0.0
  0
SPLINE
  5
51E
100
AcDbEntity
  8
0
100
AcDbSpline
 62
9
  6
CONTINUOUS
 70
0
 71
3
 72
23
 73
19
 74
0
 42
0.0000001
 43
0.0000001
 44
0.0000000001
 40
0.0
 40
0.0
 40
0.0
 40
0.0
 40
0.1248721376
 40
0.187380408
 40
0.2498884333
 40
0.3123959148
 40
0.3749038259
 40
0.4061670864
 40
0.4374303095
 40
0.4999378441
 40
0.5624452303
 40
0.6249523042
 40
0.6874602004
 40
0.7499676441
 40
0.8124756898
 40
0.8749839401
 40
0.9374916175
 40
1.0
 40
1.0
 40
1.0
 40
1.0
 10
14.589589356
 20
12.5614123963
 30
0.0
 10
14.5837895939
 20
12.5614120063
 30
0.0
 10
14.5750555928
 20
12.5605750953
 30
0.0
 10
14.5637727159
 20
12.5578013536
 30
0.0
 10
14.5555439126
 20
12.5549013146
 30
0.0
 10
14.5476416521
 20
12.5512068483
 30
0.0
 10
14.5413919102
 20
12.5474900534
 30
0.0
 10
14.5366326364
 20
12.5441587015
 30
0.0
 10
14.5320459008
 20
12.540593477
 30
0.0
 10
14.5266545874
 20
12.5357141374
 30
0.0
 10
14.5208004123
 20
12.5292463358
 30
0.0
 10
14.5156214057
 20
12.5222258229
 30
0.0
 10
14.5111622719
 20
12.5147277388
 30
0.0
 10
14.5074677827
 20
12.506824771
 30
0.0
 10
14.5045679671
 20
12.4985972725
 30
0.0
 10
14.5024856945
 20
12.4901257164
 30
0.0
 10
14.5012361751
 20
12.4814931415
 30
0.0
 10
14.5009568671
 20
12.4756829382
 30
0.0
 10
14.5009566582
 20
12.4727796985
 30
0.0
  0
SPLINE
  5
51F
100
AcDbEntity
  8
0
100
AcDbSpline
 62
9
  6
CONTINUOUS
 70
0
 71
3
 72
23
 73
19
 74
0
 42
0.0000001
 43
0.0000001
 44
0.0000000001
 40
0.0
 40
0.0
 40
0.0
 40
0.0
 40
0.1248721376
 40
0.187380408
 40
0.2498884333
 40
0.3123959148
 40
0.3749038259
 40
0.4061670864
 40
0.4374303095
 40
0.4999378441
 40
0.5624452303
 40
0.6249523042
 40
0.6874602004
 40
0.7499676441
 40
0.8124756898
 40
0.8749839401
 40
0.9374916175
 40
1.0
 40
1.0
 40
1.0
 40
1.0
 10
16.0461800183
 20
12.4727796985
 30
0.0
 10
16.0461796284
 20
12.4785794607
 30
0.0
 10
16.0453427173
 20
12.4873134617
 30
0.0
 10
16.0425689756
 20
12.4985963386
 30
0.0
 10
16.0396689366
 20
12.5068251419
 30
0.0
 10
16.0359744703
 20
12.5147274024
 30
0.0
 10
16.0322576755
 20
12.5209771443
 30
0.0
 10
16.0289263236
 20
12.5257364181
 30
0.0
 10
16.0253610991
 20
12.5303231537
 30
0.0
 10
16.0204817594
 20
12.5357144671
 30
0.0
 10
16.0140139579
 20
12.5415686423
 30
0.0
 10
16.0069934449
 20
12.5467476489
 30
0.0
 10
15.9994953609
 20
12.5512067826
 30
0.0
 10
15.991592393
 20
12.5549012718
 30
0.0
 10
15.9833648945
 20
12.5578010874
 30
0.0
 10
15.9748933385
 20
12.55988336
 30
0.0
 10
15.9662607636
 20
12.5611328794
 30
0.0
 10
15.9604505603
 20
12.5614121874
 30
0.0
 10
15.9575473206
 20
12.5614123963
 30
0.0
  0
SPLINE
  5
520
100
AcDbEntity
  8
0
100
AcDbSpline
 62
9
  6
CONTINUOUS
 70
0
 71
3
 72
23
 73
19
 74
0
 42
0.0000001
 43
0.0000001
 44
0.0000000001
 40
0.0
 40
0.0
 40
0.0
 40
0.0
 40
0.1248721376
 40
0.187380408
 40
0.2498884333
 40
0.3123959148
 40
0.3749038259
 40
0.4061670864
 40
0.4374303095
 40
0.4999378441
 40
0.5624452303
 40
0.6249523042
 40
0.6874602004
 40
0.7499676441
 40
0.8124756898
 40
0.8749839401
 40
0.9374916175
 40
1.0
 40
1.0
 40
1.0
 40
1.0
 10
15.9575473206
 20
11.0161890362
 30
0.0
 10
15.9633470827
 20
11.0161894261
 30
0.0
 10
15.9720810837
 20
11.0170263372
 30
0.0
 10
15.9833639607
 20
11.0198000789
 30
0.0
 10
15.9915927639
 20
11.0227001179
 30
0.0
 10
15.9994950245
 20
11.0263945842
 30
0.0
 10
16.0057447664
 20
11.030111379
 30
0.0
 10
16.0105040401
 20
11.033442731
 30
0.0
 10
16.0150907758
 20
11.0370079555
 30
0.0
 10
16.0204820891
 20
11.0418872951
 30
0.0
 10
16.0263362643
 20
11.0483550966
 30
0.0
 10
16.0315152709
 20
11.0553756096
 30
0.0
 10
16.0359744046
 20
11.0628736936
 30
0.0
 10
16.0396688938
 20
11.0707766615
 30
0.0
 10
16.0425687094
 20
11.07900416
 30
0.0
 10
16.044650982
 20
11.0874757161
 30
0.0
 10
16.0459005015
 20
11.0961082909
 30
0.0
 10
16.0461798094
 20
11.1019184942
 30
0.0
 10
16.0461800183
 20
11.104821734
 30
0.0
  0
SPLINE
  5
521
100
AcDbEntity
  8
0
100
AcDbSpline
 62
9
  6
CONTINUOUS
 70
0
 71
3
 72
23
 73
19
 74
0
 42
0.0000001
 43
0.0000001
 44
0.0000000001
 40
0.0
 40
0.0
 40
0.0
 40
0.0
 40
0.0625001637
 40
0.1250005301
 40
0.1875008101
 40
0.2500010278
 40
0.3125010178
 40
0.3750007803
 40
0.4375004463
 40
0.5000000499
 40
0.5624996511
 40
0.6249993082
 40
0.6874990579
 40
0.7499990496
 40
0.8124992549
 40
0.8749995235
 40
0.9374998603
 40
1.0
 40
1.0
 40
1.0
 40
1.0
 10
10.9575473206
 20
11.0161890362
 30
0.0
 10
10.9604505403
 20
11.0161892314
 30
0.0
 10
10.9662607325
 20
11.0164686884
 30
0.0
 10
10.9748933447
 20
11.0177179371
 30
0.0
 10
10.9833648524
 20
11.0198004181
 30
0.0
 10
10.9915925176
 20
11.0226998197
 30
0.0
 10
10.9994951858
 20
11.0263949432
 30
0.0
 10
11.0069935179
 20
11.0308536603
 30
0.0
 10
11.0140141568
 20
11.0360324542
 30
0.0
 10
11.0204815441
 20
11.0418874992
 30
0.0
 10
11.0263367265
 20
11.0483548002
 30
0.0
 10
11.0315150927
 20
11.0553757304
 30
0.0
 10
11.035974351
 20
11.0628737382
 30
0.0
 10
11.0396690491
 20
11.0707766257
 30
0.0
 10
11.0425685204
 20
11.079004241
 30
0.0
 10
11.0446511846
 20
11.0874757076
 30
0.0
 10
11.0459004232
 20
11.0961083247
 30
0.0
 10
11.0461798094
 20
11.1019185154
 30
0.0
 10
11.0461800183
 20
11.104821734
 30
0.0
  0
SPLINE
  5
522
100
AcDbEntity
  8
0
100
AcDbSpline
 62
9
  6
CONTINUOUS
 70
0
 71
3
 72
23
 73
19
 74
0
 42
0.0000001
 43
0.0000001
 44
0.0000000001
 40
0.0
 40
0.0
 40
0.0
 40
0.0
 40
0.0625001637
 40
0.1250005301
 40
0.1875008101
 40
0.2500010278
 40
0.3125010178
 40
0.3750007803
 40
0.4375004463
 40
0.5000000499
 40
0.5624996511
 40
0.6249993082
 40
0.6874990579
 40
0.7499990496
 40
0.8124992549
 40
0.8749995235
 40
0.9374998603
 40
1.0
 40
1.0
 40
1.0
 40
1.0
 10
11.0461800183
 20
12.4727796985
 30
0.0
 10
11.0461798231
 20
12.4756829182
 30
0.0
 10
11.0459003661
 20
12.4814931105
 30
0.0
 10
11.0446511174
 20
12.4901257226
 30
0.0
 10
11.0425686365
 20
12.4985972304
 30
0.0
 10
11.0396692349
 20
12.5068248955
 30
0.0
 10
11.0359741114
 20
12.5147275637
 30
0.0
 10
11.0315153942
 20
12.5222258958
 30
0.0
 10
11.0263366003
 20
12.5292465347
 30
0.0
 10
11.0204815553
 20
12.5357139221
 30
0.0
 10
11.0140142543
 20
12.5415691044
 30
0.0
 10
11.0069933241
 20
12.5467474707
 30
0.0
 10
10.9994953164
 20
12.5512067289
 30
0.0
 10
10.9915924288
 20
12.554901427
 30
0.0
 10
10.9833648135
 20
12.5578008983
 30
0.0
 10
10.9748933469
 20
12.5598835626
 30
0.0
 10
10.9662607298
 20
12.5611328012
 30
0.0
 10
10.9604505392
 20
12.5614121874
 30
0.0
 10
10.9575473206
 20
12.5614123963
 30
0.0
  0
SPLINE
  5
523
100
AcDbEntity
  8
0
100
AcDbSpline
 62
9
  6
CONTINUOUS
 70
0
 71
3
 72
23
 73
19
 74
0
 42
0.0000001
 43
0.0000001
 44
0.0000000001
 40
0.0
 40
0.0
 40
0.0
 40
0.0
 40
0.0625001637
 40
0.1250005301
 40
0.1875008101
 40
0.2500010278
 40
0.3125010178
 40
0.3750007803
 40
0.4375004463
 40
0.5000000499
 40
0.5624996511
 40
0.6249993082
 40
0.6874990579
 40
0.7499990496
 40
0.8124992549
 40
0.8749995235
 40
0.9374998603
 40
1.0
 40
1.0
 40
1.0
 40
1.0
 10
9.589589356
 20
12.5614123963
 30
0.0
 10
9.5866861363
 20
12.5614122011
 30
0.0
 10
9.580875944
 20
12.5611327441
 30
0.0
 10
9.5722433319
 20
12.5598834953
 30
0.0
 10
9.5637718241
 20
12.5578010144
 30
0.0
 10
9.555544159
 20
12.5549016128
 30
0.0
 10
9.5476414908
 20
12.5512064893
 30
0.0
 10
9.5401431587
 20
12.5467477722
 30
0.0
 10
9.5331225198
 20
12.5415689782
 30
0.0
 10
9.5266551325
 20
12.5357139332
 30
0.0
 10
9.5207999501
 20
12.5292466323
 30
0.0
 10
9.5156215839
 20
12.522225702
 30
0.0
 10
9.5111623256
 20
12.5147276943
 30
0.0
 10
9.5074676275
 20
12.5068248068
 30
0.0
 10
9.5045681562
 20
12.4985971915
 30
0.0
 10
9.5024854919
 20
12.4901257248
 30
0.0
 10
9.5012362533
 20
12.4814931077
 30
0.0
 10
9.5009568671
 20
12.4756829171
 30
0.0
 10
9.5009566582
 20
12.4727796985
 30
0.0
  0
SPLINE
  5
524
100
AcDbEntity
  8
0
100
AcDbSpline
 62
9
  6
CONTINUOUS
 70
0
 71
3
 72
23
 73
19
 74
0
 42
0.0000001
 43
0.0000001
 44
0.0000000001
 40
0.0
 40
0.0
 40
0.0
 40
0.0
 40
0.0625001637
 40
0.1250005301
 40
0.1875008101
 40
0.2500010278
 40
0.3125010178
 40
0.3750007803
 40
0.4375004463
 40
0.5000000499
 40
0.5624996511
 40
0.6249993082
 40
0.6874990579
 40
0.7499990496
 40
0.8124992549
 40
0.8749995235
 40
0.9374998603
 40
1.0
 40
1.0
 40
1.0
 40
1.0
 10
9.5009566582
 20
11.104821734
 30
0.0
 10
9.5009568534
 20
11.1019185142
 30
0.0
 10
9.5012363104
 20
11.096108322
 30
0.0
 10
9.5024855592
 20
11.0874757098
 30
0.0
 10
9.5045680401
 20
11.0790042021
 30
0.0
 10
9.5074674417
 20
11.0707765369
 30
0.0
 10
9.5111625652
 20
11.0628738687
 30
0.0
 10
9.5156212823
 20
11.0553755367
 30
0.0
 10
9.5208000763
 20
11.0483548977
 30
0.0
 10
9.5266551213
 20
11.0418875104
 30
0.0
 10
9.5331224222
 20
11.0360323281
 30
0.0
 10
9.5401433525
 20
11.0308539618
 30
0.0
 10
9.5476413602
 20
11.0263947035
 30
0.0
 10
9.5555442477
 20
11.0227000054
 30
0.0
 10
9.563771863
 20
11.0198005342
 30
0.0
 10
9.5722433297
 20
11.0177178699
 30
0.0
 10
9.5808759468
 20
11.0164686313
 30
0.0
 10
9.5866861374
 20
11.0161892451
 30
0.0
 10
9.589589356
 20
11.0161890362
 30
0.0
  0
SPLINE
  5
525
100
AcDbEntity
  8
0
100
AcDbSpline
 62
7
  6
CONTINUOUS
 70
0
 71
3
 72
45
 73
41
 74
0
 42
0.0000001
 43
0.0000001
 44
0.0000000001
 40
0.0
 40
0.0
 40
0.0
 40
0.0
 40
0.0134496145
 40
0.026980535
 40
0.0406081807
 40
0.054346901
 40
0.0682098285
 40
0.0822087899
 40
0.1106462498
 40
0.139735035
 40
0.1695175667
 40
0.2000126719
 40
0.2312166093
 40
0.2631047025
 40
0.295633306
 40
0.328742039
 40
0.3623561639
 40
0.3963889187
 40
0.4307439943
 40
0.4653179032
 40
0.5000024071
 40
0.5346868771
 40
0.569260685
 40
0.6036155948
 40
0.6376481225
 40
0.6712619642
 40
0.7043703644
 40
0.7368985936
 40
0.7687862805
 40
0.7999897905
 40
0.8304844595
 40
0.8602665594
 40
0.8893549316
 40
0.9177920116
 40
0.9317908002
 40
0.9456535685
 40
0.9593921449
 40
0.9730196635
 40
0.9865504751
 40
1.0
 40
1.0
 40
1.0
 40
1.0
 10
20.7546694157
 20
11.5651416827
 30
0.0
 10
20.7535113444
 20
11.5705629216
 30
0.0
 10
20.750879913
 20
11.581374845
 30
0.0
 10
20.7460177796
 20
11.5973991405
 30
0.0
 10
20.7402395267
 20
11.6132436481
 30
0.0
 10
20.7335568032
 20
11.6288768511
 30
0.0
 10
20.72598225
 20
11.6442689481
 30
0.0
 10
20.7146570427
 20
11.6645327166
 30
0.0
 10
20.6982984766
 20
11.6891239652
 30
0.0
 10
20.6754904656
 20
11.7170284879
 30
0.0
 10
20.6495771102
 20
11.743278953
 30
0.0
 10
20.6207626171
 20
11.7676731694
 30
0.0
 10
20.5892708441
 20
11.7900264079
 30
0.0
 10
20.5553458406
 20
11.8101685459
 30
0.0
 10
20.5192497731
 20
11.8279465541
 30
0.0
 10
20.4812611236
 20
11.8432251503
 30
0.0
 10
20.4416726678
 20
11.85588785
 30
0.0
 10
20.4007894215
 20
11.8658381206
 30
0.0
 10
20.3589263067
 20
11.8730000479
 30
0.0
 10
20.3164057427
 20
11.8773188411
 30
0.0
 10
20.2735552382
 20
11.8787615077
 30
0.0
 10
20.2307048346
 20
11.8773170792
 30
0.0
 10
20.1881845725
 20
11.8729965375
 30
0.0
 10
20.1463219583
 20
11.8658328886
 30
0.0
 10
20.1054394074
 20
11.8558809365
 30
0.0
 10
20.0658518367
 20
11.8432166077
 30
0.0
 10
20.0278642549
 20
11.8279364478
 30
0.0
 10
19.9917694296
 20
11.8101569529
 30
0.0
 10
19.9578458338
 20
11.7900134162
 30
0.0
 10
19.9263556232
 20
11.7676588777
 30
0.0
 10
19.8975428355
 20
11.7432634701
 30
0.0
 10
19.8716313161
 20
11.7170119314
 30
0.0
 10
19.8488252582
 20
11.6891064613
 30
0.0
 10
19.8324684197
 20
11.6645145391
 30
0.0
 10
19.8211446383
 20
11.6442503095
 30
0.0
 10
19.813571165
 20
11.6288578994
 30
0.0
 10
19.8068895387
 20
11.61322442
 30
0.0
 10
19.8011123981
 20
11.5973796732
 30
0.0
 10
19.7962513894
 20
11.5813551765
 30
0.0
 10
19.7936207192
 20
11.5705431519
 30
0.0
 10
19.7924630291
 20
11.5651218694
 30
0.0
  0
SPLINE
  5
526
100
AcDbEntity
  8
0
100
AcDbSpline
 62
7
  6
CONTINUOUS
 70
0
 71
3
 72
21
 73
17
 74
0
 42
0.0000001
 43
0.0000001
 44
0.0000000001
 40
0.0
 40
0.0
 40
0.0
 40
0.0
 40
0.0540406252
 40
0.1084432163
 40
0.1635489232
 40
0.2196597178
 40
0.2770242818
 40
0.3358289355
 40
0.3961934494
 40
0.4581709564
 40
0.5217509397
 40
0.586864311
 40
0.7210457974
 40
0.7898586188
 40
0.8594789227
 40
1.0
 40
1.0
 40
1.0
 40
1.0
 10
20.7370683383
 20
6.0135227231
 30
0.0
 10
20.7370683383
 20
6.0155291159
 30
0.0
 10
20.7368090742
 20
6.0195600511
 30
0.0
 10
20.7356478564
 20
6.0255358645
 30
0.0
 10
20.7337262375
 20
6.0313935384
 30
0.0
 10
20.731064324
 20
6.0370744886
 30
0.0
 10
20.7276894161
 20
6.0425242086
 30
0.0
 10
20.7236354724
 20
6.0476905446
 30
0.0
 10
20.7189425595
 20
6.0525246018
 30
0.0
 10
20.7136566872
 20
6.0569807275
 30
0.0
 10
20.7078284131
 20
6.0610173054
 30
0.0
 10
20.6993287342
 20
6.0658352108
 30
0.0
 10
20.6900549883
 20
6.0695995246
 30
0.0
 10
20.6802844948
 20
6.0722715194
 30
0.0
 10
20.6701047469
 20
6.0742213195
 30
0.0
 10
20.6622855333
 20
6.0748062786
 30
0.0
 10
20.6570683383
 20
6.0748062786
 30
0.0
  0
SPLINE
  5
527
100
AcDbEntity
  8
0
100
AcDbSpline
 62
9
  6
CONTINUOUS
 70
0
 71
3
 72
51
 73
47
 74
0
 42
0.0000001
 43
0.0000001
 44
0.0000000001
 40
0.0
 40
0.0
 40
0.0
 40
0.0
 40
0.0135004066
 40
0.0270244065
 40
0.0405930932
 40
0.0542291538
 40
0.0679532377
 40
0.0817849759
 40
0.0957425635
 40
0.1098424689
 40
0.1240993331
 40
0.138525826
 40
0.1531325783
 40
0.1679281345
 40
0.1980993637
 40
0.2290767942
 40
0.2608551689
 40
0.2933999601
 40
0.3266505395
 40
0.3605237488
 40
0.3949175852
 40
0.4297150197
 40
0.46478775
 40
0.5
 40
0.53521225
 40
0.5702849803
 40
0.6050824148
 40
0.6394762512
 40
0.6733494605
 40
0.7066000399
 40
0.7391448311
 40
0.7709232058
 40
0.8019006363
 40
0.8320718655
 40
0.8468674217
 40
0.861474174
 40
0.8759006669
 40
0.8901575311
 40
0.9042574365
 40
0.9182150241
 40
0.9320467623
 40
0.9457708462
 40
0.9594069068
 40
0.9729755935
 40
0.9864995934
 40
1.0
 40
1.0
 40
1.0
 40
1.0
 10
20.7610683383
 20
11.6367296043
 30
0.0
 10
20.7610683383
 20
11.6428406534
 30
0.0
 10
20.7606758548
 20
11.6550770407
 30
0.0
 10
20.7589120906
 20
11.6733788715
 30
0.0
 10
20.7559770439
 20
11.6915925803
 30
0.0
 10
20.7518783569
 20
11.7096726754
 30
0.0
 10
20.7466258965
 20
11.7275758379
 30
0.0
 10
20.7402327265
 20
11.7452585946
 30
0.0
 10
20.7327145854
 20
11.7626782605
 30
0.0
 10
20.7240898391
 20
11.7797927757
 30
0.0
 10
20.7143795583
 20
11.7965609335
 30
0.0
 10
20.7036075881
 20
11.812942318
 30
0.0
 10
20.6917997065
 20
11.8288979795
 30
0.0
 10
20.6746044824
 20
11.8496849355
 30
0.0
 10
20.6506134736
 20
11.8743985273
 30
0.0
 10
20.6184033641
 20
11.901551684
 30
0.0
 10
20.5828893898
 20
11.9261489033
 30
0.0
 10
20.5444156182
 20
11.9479561456
 30
0.0
 10
20.5033506829
 20
11.9667689669
 30
0.0
 10
20.4600880222
 20
11.9824097335
 30
0.0
 10
20.415041597
 20
11.9947309878
 30
0.0
 10
20.3686422308
 20
12.0036160684
 30
0.0
 10
20.3213336805
 20
12.0089810877
 30
0.0
 10
20.2735683383
 20
12.0107750187
 30
0.0
 10
20.2258029961
 20
12.0089810877
 30
0.0
 10
20.1784944458
 20
12.0036160684
 30
0.0
 10
20.1320950795
 20
11.9947309878
 30
0.0
 10
20.0870486544
 20
11.9824097335
 30
0.0
 10
20.0437859936
 20
11.9667689669
 30
0.0
 10
20.0027210583
 20
11.9479561456
 30
0.0
 10
19.9642472868
 20
11.9261489033
 30
0.0
 10
19.9287333124
 20
11.901551684
 30
0.0
 10
19.896523203
 20
11.8743985273
 30
0.0
 10
19.8725321941
 20
11.8496849355
 30
0.0
 10
19.8553369701
 20
11.8288979795
 30
0.0
 10
19.8435290885
 20
11.812942318
 30
0.0
 10
19.8327571183
 20
11.7965609335
 30
0.0
 10
19.8230468375
 20
11.7797927757
 30
0.0
 10
19.8144220912
 20
11.7626782605
 30
0.0
 10
19.80690395
 20
11.7452585946
 30
0.0
 10
19.8005107801
 20
11.7275758379
 30
0.0
 10
19.7952583197
 20
11.7096726754
 30
0.0
 10
19.7911596326
 20
11.6915925803
 30
0.0
 10
19.788224586
 20
11.6733788715
 30
0.0
 10
19.7864608218
 20
11.6550770407
 30
0.0
 10
19.7860683383
 20
11.6428406534
 30
0.0
 10
19.7860683383
 20
11.6367296043
 30
0.0
  0
SPLINE
  5
528
100
AcDbEntity
  8
0
100
AcDbSpline
 62
9
  6
CONTINUOUS
 70
0
 71
3
 72
23
 73
19
 74
0
 42
0.0000001
 43
0.0000001
 44
0.0000000001
 40
0.0
 40
0.0
 40
0.0
 40
0.0
 40
0.0623897212
 40
0.1248187348
 40
0.1872824302
 40
0.2497805533
 40
0.312307501
 40
0.3748580396
 40
0.4374247615
 40
0.5000000163
 40
0.5625752561
 40
0.6251419742
 40
0.687692517
 40
0.750219451
 40
0.812717545
 40
0.8751812494
 40
0.937610288
 40
1.0
 40
1.0
 40
1.0
 40
1.0
 10
10.9575473206
 20
11.0457332688
 30
0.0
 10
10.959489659
 20
11.0457054047
 30
0.0
 10
10.9633807765
 20
11.0458327771
 30
0.0
 10
10.969172338
 20
11.0465821889
 30
0.0
 10
10.9748673313
 20
11.0478936702
 30
0.0
 10
10.980407617
 20
11.0497633197
 30
0.0
 10
10.9857348523
 20
11.0521811903
 30
0.0
 10
10.9907909987
 20
11.055128764
 30
0.0
 10
10.9955198094
 20
11.0585799488
 30
0.0
 10
10.9998683938
 20
11.0625006609
 30
0.0
 10
11.0037891105
 20
11.0668492425
 30
0.0
 10
11.0072402772
 20
11.0715780653
 30
0.0
 10
11.0101878672
 20
11.0766342007
 30
0.0
 10
11.0126057404
 20
11.081961435
 30
0.0
 10
11.0144753698
 20
11.0875017259
 30
0.0
 10
11.0157868646
 20
11.0931967155
 30
0.0
 10
11.0165362835
 20
11.0989882776
 30
0.0
 10
11.0166636496
 20
11.1028793958
 30
0.0
 10
11.0166357857
 20
11.104821734
 30
0.0
  0
SPLINE
  5
529
100
AcDbEntity
  8
0
100
AcDbSpline
 62
9
  6
CONTINUOUS
 70
0
 71
3
 72
23
 73
19
 74
0
 42
0.0000001
 43
0.0000001
 44
0.0000000001
 40
0.0
 40
0.0
 40
0.0
 40
0.0
 40
0.0623897212
 40
0.1248187348
 40
0.1872824302
 40
0.2497805533
 40
0.312307501
 40
0.3748580396
 40
0.4374247615
 40
0.5000000163
 40
0.5625752561
 40
0.6251419742
 40
0.687692517
 40
0.750219451
 40
0.812717545
 40
0.8751812494
 40
0.937610288
 40
1.0
 40
1.0
 40
1.0
 40
1.0
 10
11.0166357857
 20
12.4727796985
 30
0.0
 10
11.0166636498
 20
12.4747220369
 30
0.0
 10
11.0165362774
 20
12.4786131545
 30
0.0
 10
11.0157868657
 20
12.484404716
 30
0.0
 10
11.0144753843
 20
12.4900997093
 30
0.0
 10
11.0126057348
 20
12.4956399949
 30
0.0
 10
11.0101878642
 20
12.5009672303
 30
0.0
 10
11.0072402905
 20
12.5060233767
 30
0.0
 10
11.0037891057
 20
12.5107521873
 30
0.0
 10
10.9998683936
 20
12.5151007717
 30
0.0
 10
10.995519812
 20
12.5190214884
 30
0.0
 10
10.9907909892
 20
12.5224726551
 30
0.0
 10
10.9857348538
 20
12.5254202452
 30
0.0
 10
10.9804076195
 20
12.5278381183
 30
0.0
 10
10.9748673286
 20
12.5297077477
 30
0.0
 10
10.969172339
 20
12.5310192426
 30
0.0
 10
10.9633807769
 20
12.5317686615
 30
0.0
 10
10.9594896587
 20
12.5318960275
 30
0.0
 10
10.9575473206
 20
12.5318681637
 30
0.0
  0
SPLINE
  5
52A
100
AcDbEntity
  8
0
100
AcDbSpline
 62
9
  6
CONTINUOUS
 70
0
 71
3
 72
23
 73
19
 74
0
 42
0.0000001
 43
0.0000001
 44
0.0000000001
 40
0.0
 40
0.0
 40
0.0
 40
0.0
 40
0.0623897212
 40
0.1248187348
 40
0.1872824302
 40
0.2497805533
 40
0.312307501
 40
0.3748580396
 40
0.4374247615
 40
0.5000000163
 40
0.5625752561
 40
0.6251419742
 40
0.687692517
 40
0.750219451
 40
0.812717545
 40
0.8751812494
 40
0.937610288
 40
1.0
 40
1.0
 40
1.0
 40
1.0
 10
9.589589356
 20
12.5318681637
 30
0.0
 10
9.5876470176
 20
12.5318960278
 30
0.0
 10
9.5837559
 20
12.5317686553
 30
0.0
 10
9.5779643385
 20
12.5310192436
 30
0.0
 10
9.5722693452
 20
12.5297077622
 30
0.0
 10
9.5667290596
 20
12.5278381127
 30
0.0
 10
9.5614018242
 20
12.5254202422
 30
0.0
 10
9.5563456778
 20
12.5224726685
 30
0.0
 10
9.5516168672
 20
12.5190214836
 30
0.0
 10
9.5472682828
 20
12.5151007715
 30
0.0
 10
9.5433475661
 20
12.5107521899
 30
0.0
 10
9.5398963994
 20
12.5060233671
 30
0.0
 10
9.5369488093
 20
12.5009672318
 30
0.0
 10
9.5345309362
 20
12.4956399974
 30
0.0
 10
9.5326613068
 20
12.4900997066
 30
0.0
 10
9.531349812
 20
12.484404717
 30
0.0
 10
9.530600393
 20
12.4786131549
 30
0.0
 10
9.530473027
 20
12.4747220367
 30
0.0
 10
9.5305008908
 20
12.4727796985
 30
0.0
  0
SPLINE
  5
52B
100
AcDbEntity
  8
0
100
AcDbSpline
 62
9
  6
CONTINUOUS
 70
0
 71
3
 72
23
 73
19
 74
0
 42
0.0000001
 43
0.0000001
 44
0.0000000001
 40
0.0
 40
0.0
 40
0.0
 40
0.0
 40
0.0623897212
 40
0.1248187348
 40
0.1872824302
 40
0.2497805533
 40
0.312307501
 40
0.3748580396
 40
0.4374247615
 40
0.5000000163
 40
0.5625752561
 40
0.6251419742
 40
0.687692517
 40
0.750219451
 40
0.812717545
 40
0.8751812494
 40
0.937610288
 40
1.0
 40
1.0
 40
1.0
 40
1.0
 10
9.5305008908
 20
11.104821734
 30
0.0
 10
9.5304730267
 20
11.1028793955
 30
0.0
 10
9.5306003992
 20
11.098988278
 30
0.0
 10
9.5313498109
 20
11.0931967165
 30
0.0
 10
9.5326612923
 20
11.0875017232
 30
0.0
 10
9.5345309418
 20
11.0819614375
 30
0.0
 10
9.5369488123
 20
11.0766342022
 30
0.0
 10
9.5398963861
 20
11.0715780558
 30
0.0
 10
9.5433475709
 20
11.0668492451
 30
0.0
 10
9.547268283
 20
11.0625006607
 30
0.0
 10
9.5516168646
 20
11.0585799441
 30
0.0
 10
9.5563456874
 20
11.0551287774
 30
0.0
 10
9.5614018228
 20
11.0521811873
 30
0.0
 10
9.5667290571
 20
11.0497633141
 30
0.0
 10
9.5722693479
 20
11.0478936847
 30
0.0
 10
9.5779643375
 20
11.0465821899
 30
0.0
 10
9.5837558997
 20
11.045832771
 30
0.0
 10
9.5876470179
 20
11.045705405
 30
0.0
 10
9.589589356
 20
11.0457332688
 30
0.0
  0
SPLINE
  5
52C
100
AcDbEntity
  8
0
100
AcDbSpline
 62
9
  6
CONTINUOUS
 70
0
 71
3
 72
23
 73
19
 74
0
 42
0.0000001
 43
0.0000001
 44
0.0000000001
 40
0.0
 40
0.0
 40
0.0
 40
0.0
 40
0.0623897212
 40
0.1248187348
 40
0.1872824302
 40
0.2497805533
 40
0.312307501
 40
0.3748580396
 40
0.4374247615
 40
0.5000000163
 40
0.5625752561
 40
0.6251419742
 40
0.687692517
 40
0.750219451
 40
0.812717545
 40
0.8751812494
 40
0.937610288
 40
1.0
 40
1.0
 40
1.0
 40
1.0
 10
3.0166357857
 20
12.4727796985
 30
0.0
 10
3.0166636498
 20
12.4747220369
 30
0.0
 10
3.0165362774
 20
12.4786131545
 30
0.0
 10
3.0157868657
 20
12.484404716
 30
0.0
 10
3.0144753843
 20
12.4900997093
 30
0.0
 10
3.0126057348
 20
12.4956399949
 30
0.0
 10
3.0101878642
 20
12.5009672303
 30
0.0
 10
3.0072402905
 20
12.5060233767
 30
0.0
 10
3.0037891057
 20
12.5107521873
 30
0.0
 10
2.9998683936
 20
12.5151007717
 30
0.0
 10
2.995519812
 20
12.5190214884
 30
0.0
 10
2.9907909892
 20
12.5224726551
 30
0.0
 10
2.9857348538
 20
12.5254202452
 30
0.0
 10
2.9804076195
 20
12.5278381183
 30
0.0
 10
2.9748673286
 20
12.5297077477
 30
0.0
 10
2.969172339
 20
12.5310192426
 30
0.0
 10
2.9633807769
 20
12.5317686615
 30
0.0
 10
2.9594896587
 20
12.5318960275
 30
0.0
 10
2.9575473206
 20
12.5318681637
 30
0.0
  0
SPLINE
  5
52D
100
AcDbEntity
  8
0
100
AcDbSpline
 62
9
  6
CONTINUOUS
 70
0
 71
3
 72
23
 73
19
 74
0
 42
0.0000001
 43
0.0000001
 44
0.0000000001
 40
0.0
 40
0.0
 40
0.0
 40
0.0
 40
0.0623897212
 40
0.1248187348
 40
0.1872824302
 40
0.2497805533
 40
0.312307501
 40
0.3748580396
 40
0.4374247615
 40
0.5000000163
 40
0.5625752561
 40
0.6251419742
 40
0.687692517
 40
0.750219451
 40
0.812717545
 40
0.8751812494
 40
0.937610288
 40
1.0
 40
1.0
 40
1.0
 40
1.0
 10
2.9575473206
 20
11.0457332688
 30
0.0
 10
2.959489659
 20
11.0457054047
 30
0.0
 10
2.9633807765
 20
11.0458327771
 30
0.0
 10
2.969172338
 20
11.0465821889
 30
0.0
 10
2.9748673313
 20
11.0478936702
 30
0.0
 10
2.980407617
 20
11.0497633197
 30
0.0
 10
2.9857348523
 20
11.0521811903
 30
0.0
 10
2.9907909987
 20
11.055128764
 30
0.0
 10
2.9955198094
 20
11.0585799488
 30
0.0
 10
2.9998683938
 20
11.0625006609
 30
0.0
 10
3.0037891105
 20
11.0668492425
 30
0.0
 10
3.0072402772
 20
11.0715780653
 30
0.0
 10
3.0101878672
 20
11.0766342007
 30
0.0
 10
3.0126057404
 20
11.081961435
 30
0.0
 10
3.0144753698
 20
11.0875017259
 30
0.0
 10
3.0157868646
 20
11.0931967155
 30
0.0
 10
3.0165362835
 20
11.0989882776
 30
0.0
 10
3.0166636496
 20
11.1028793958
 30
0.0
 10
3.0166357857
 20
11.104821734
 30
0.0
  0
SPLINE
  5
52E
100
AcDbEntity
  8
0
100
AcDbSpline
 62
9
  6
CONTINUOUS
 70
0
 71
3
 72
23
 73
19
 74
0
 42
0.0000001
 43
0.0000001
 44
0.0000000001
 40
0.0
 40
0.0
 40
0.0
 40
0.0
 40
0.0623897212
 40
0.1248187348
 40
0.1872824302
 40
0.2497805533
 40
0.312307501
 40
0.3748580396
 40
0.4374247615
 40
0.5000000163
 40
0.5625752561
 40
0.6251419742
 40
0.687692517
 40
0.750219451
 40
0.812717545
 40
0.8751812494
 40
0.937610288
 40
1.0
 40
1.0
 40
1.0
 40
1.0
 10
1.5305008908
 20
11.104821734
 30
0.0
 10
1.5304730267
 20
11.1028793955
 30
0.0
 10
1.5306003992
 20
11.098988278
 30
0.0
 10
1.5313498109
 20
11.0931967165
 30
0.0
 10
1.5326612923
 20
11.0875017232
 30
0.0
 10
1.5345309418
 20
11.0819614375
 30
0.0
 10
1.5369488123
 20
11.0766342022
 30
0.0
 10
1.5398963861
 20
11.0715780558
 30
0.0
 10
1.5433475709
 20
11.0668492451
 30
0.0
 10
1.547268283
 20
11.0625006607
 30
0.0
 10
1.5516168646
 20
11.0585799441
 30
0.0
 10
1.5563456874
 20
11.0551287774
 30
0.0
 10
1.5614018228
 20
11.0521811873
 30
0.0
 10
1.5667290571
 20
11.0497633141
 30
0.0
 10
1.5722693479
 20
11.0478936847
 30
0.0
 10
1.5779643375
 20
11.0465821899
 30
0.0
 10
1.5837558997
 20
11.045832771
 30
0.0
 10
1.5876470179
 20
11.045705405
 30
0.0
 10
1.589589356
 20
11.0457332688
 30
0.0
  0
SPLINE
  5
52F
100
AcDbEntity
  8
0
100
AcDbSpline
 62
9
  6
CONTINUOUS
 70
0
 71
3
 72
23
 73
19
 74
0
 42
0.0000001
 43
0.0000001
 44
0.0000000001
 40
0.0
 40
0.0
 40
0.0
 40
0.0
 40
0.0623897212
 40
0.1248187348
 40
0.1872824302
 40
0.2497805533
 40
0.312307501
 40
0.3748580396
 40
0.4374247615
 40
0.5000000163
 40
0.5625752561
 40
0.6251419742
 40
0.687692517
 40
0.750219451
 40
0.812717545
 40
0.8751812494
 40
0.937610288
 40
1.0
 40
1.0
 40
1.0
 40
1.0
 10
1.589589356
 20
12.5318681637
 30
0.0
 10
1.5876470176
 20
12.5318960278
 30
0.0
 10
1.5837559
 20
12.5317686553
 30
0.0
 10
1.5779643385
 20
12.5310192436
 30
0.0
 10
1.5722693452
 20
12.5297077622
 30
0.0
 10
1.5667290596
 20
12.5278381127
 30
0.0
 10
1.5614018242
 20
12.5254202422
 30
0.0
 10
1.5563456778
 20
12.5224726685
 30
0.0
 10
1.5516168672
 20
12.5190214836
 30
0.0
 10
1.5472682828
 20
12.5151007715
 30
0.0
 10
1.5433475661
 20
12.5107521899
 30
0.0
 10
1.5398963994
 20
12.5060233671
 30
0.0
 10
1.5369488093
 20
12.5009672318
 30
0.0
 10
1.5345309362
 20
12.4956399974
 30
0.0
 10
1.5326613068
 20
12.4900997066
 30
0.0
 10
1.531349812
 20
12.484404717
 30
0.0
 10
1.530600393
 20
12.4786131549
 30
0.0
 10
1.530473027
 20
12.4747220367
 30
0.0
 10
1.5305008908
 20
12.4727796985
 30
0.0
  0
SPLINE
  5
530
100
AcDbEntity
  8
0
100
AcDbSpline
 62
9
  6
CONTINUOUS
 70
0
 71
3
 72
23
 73
19
 74
0
 42
0.0000001
 43
0.0000001
 44
0.0000000001
 40
0.0
 40
0.0
 40
0.0
 40
0.0
 40
0.1248721376
 40
0.187380408
 40
0.2498884333
 40
0.3123959148
 40
0.3749038259
 40
0.4061670864
 40
0.4374303095
 40
0.4999378441
 40
0.5624452303
 40
0.6249523042
 40
0.6874602004
 40
0.7499676441
 40
0.8124756898
 40
0.8749839401
 40
0.9374916175
 40
1.0
 40
1.0
 40
1.0
 40
1.0
 10
1.589589356
 20
12.5614123963
 30
0.0
 10
1.5837895939
 20
12.5614120063
 30
0.0
 10
1.5750555928
 20
12.5605750953
 30
0.0
 10
1.5637727159
 20
12.5578013536
 30
0.0
 10
1.5555439126
 20
12.5549013146
 30
0.0
 10
1.5476416521
 20
12.5512068483
 30
0.0
 10
1.5413919102
 20
12.5474900534
 30
0.0
 10
1.5366326364
 20
12.5441587015
 30
0.0
 10
1.5320459008
 20
12.540593477
 30
0.0
 10
1.5266545874
 20
12.5357141374
 30
0.0
 10
1.5208004123
 20
12.5292463358
 30
0.0
 10
1.5156214057
 20
12.5222258229
 30
0.0
 10
1.5111622719
 20
12.5147277388
 30
0.0
 10
1.5074677827
 20
12.506824771
 30
0.0
 10
1.5045679671
 20
12.4985972725
 30
0.0
 10
1.5024856945
 20
12.4901257164
 30
0.0
 10
1.5012361751
 20
12.4814931415
 30
0.0
 10
1.5009568671
 20
12.4756829382
 30
0.0
 10
1.5009566582
 20
12.4727796985
 30
0.0
  0
SPLINE
  5
531
100
AcDbEntity
  8
0
100
AcDbSpline
 62
9
  6
CONTINUOUS
 70
0
 71
3
 72
23
 73
19
 74
0
 42
0.0000001
 43
0.0000001
 44
0.0000000001
 40
0.0
 40
0.0
 40
0.0
 40
0.0
 40
0.1248721376
 40
0.187380408
 40
0.2498884333
 40
0.3123959148
 40
0.3749038259
 40
0.4061670864
 40
0.4374303095
 40
0.4999378441
 40
0.5624452303
 40
0.6249523042
 40
0.6874602004
 40
0.7499676441
 40
0.8124756898
 40
0.8749839401
 40
0.9374916175
 40
1.0
 40
1.0
 40
1.0
 40
1.0
 10
1.5009566582
 20
11.104821734
 30
0.0
 10
1.5009570482
 20
11.0990219718
 30
0.0
 10
1.5017939592
 20
11.0902879708
 30
0.0
 10
1.5045677009
 20
11.0790050939
 30
0.0
 10
1.50746774
 20
11.0707762906
 30
0.0
 10
1.5111622062
 20
11.06287403
 30
0.0
 10
1.5148790011
 20
11.0566242881
 30
0.0
 10
1.518210353
 20
11.0518650144
 30
0.0
 10
1.5217755775
 20
11.0472782788
 30
0.0
 10
1.5266549172
 20
11.0418869654
 30
0.0
 10
1.5331227187
 20
11.0360327902
 30
0.0
 10
1.5401432317
 20
11.0308537836
 30
0.0
 10
1.5476413157
 20
11.0263946499
 30
0.0
 10
1.5555442835
 20
11.0227001607
 30
0.0
 10
1.563771782
 20
11.0198003451
 30
0.0
 10
1.5722433381
 20
11.0177180725
 30
0.0
 10
1.580875913
 20
11.0164685531
 30
0.0
 10
1.5866861163
 20
11.0161892451
 30
0.0
 10
1.589589356
 20
11.0161890362
 30
0.0
  0
SPLINE
  5
532
100
AcDbEntity
  8
0
100
AcDbSpline
 62
9
  6
CONTINUOUS
 70
0
 71
3
 72
23
 73
19
 74
0
 42
0.0000001
 43
0.0000001
 44
0.0000000001
 40
0.0
 40
0.0
 40
0.0
 40
0.0
 40
0.1248721376
 40
0.187380408
 40
0.2498884333
 40
0.3123959148
 40
0.3749038259
 40
0.4061670864
 40
0.4374303095
 40
0.4999378441
 40
0.5624452303
 40
0.6249523042
 40
0.6874602004
 40
0.7499676441
 40
0.8124756898
 40
0.8749839401
 40
0.9374916175
 40
1.0
 40
1.0
 40
1.0
 40
1.0
 10
2.9575473206
 20
11.0161890362
 30
0.0
 10
2.9633470827
 20
11.0161894261
 30
0.0
 10
2.9720810837
 20
11.0170263372
 30
0.0
 10
2.9833639607
 20
11.0198000789
 30
0.0
 10
2.9915927639
 20
11.0227001179
 30
0.0
 10
2.9994950245
 20
11.0263945842
 30
0.0
 10
3.0057447664
 20
11.030111379
 30
0.0
 10
3.0105040401
 20
11.033442731
 30
0.0
 10
3.0150907758
 20
11.0370079555
 30
0.0
 10
3.0204820891
 20
11.0418872951
 30
0.0
 10
3.0263362643
 20
11.0483550966
 30
0.0
 10
3.0315152709
 20
11.0553756096
 30
0.0
 10
3.0359744046
 20
11.0628736936
 30
0.0
 10
3.0396688938
 20
11.0707766615
 30
0.0
 10
3.0425687094
 20
11.07900416
 30
0.0
 10
3.044650982
 20
11.0874757161
 30
0.0
 10
3.0459005015
 20
11.0961082909
 30
0.0
 10
3.0461798094
 20
11.1019184942
 30
0.0
 10
3.0461800183
 20
11.104821734
 30
0.0
  0
SPLINE
  5
533
100
AcDbEntity
  8
0
100
AcDbSpline
 62
9
  6
CONTINUOUS
 70
0
 71
3
 72
23
 73
19
 74
0
 42
0.0000001
 43
0.0000001
 44
0.0000000001
 40
0.0
 40
0.0
 40
0.0
 40
0.0
 40
0.1248721376
 40
0.187380408
 40
0.2498884333
 40
0.3123959148
 40
0.3749038259
 40
0.4061670864
 40
0.4374303095
 40
0.4999378441
 40
0.5624452303
 40
0.6249523042
 40
0.6874602004
 40
0.7499676441
 40
0.8124756898
 40
0.8749839401
 40
0.9374916175
 40
1.0
 40
1.0
 40
1.0
 40
1.0
 10
3.0461800183
 20
12.4727796985
 30
0.0
 10
3.0461796284
 20
12.4785794607
 30
0.0
 10
3.0453427173
 20
12.4873134617
 30
0.0
 10
3.0425689756
 20
12.4985963386
 30
0.0
 10
3.0396689366
 20
12.5068251419
 30
0.0
 10
3.0359744703
 20
12.5147274024
 30
0.0
 10
3.0322576755
 20
12.5209771443
 30
0.0
 10
3.0289263236
 20
12.5257364181
 30
0.0
 10
3.0253610991
 20
12.5303231537
 30
0.0
 10
3.0204817594
 20
12.5357144671
 30
0.0
 10
3.0140139579
 20
12.5415686423
 30
0.0
 10
3.0069934449
 20
12.5467476489
 30
0.0
 10
2.9994953609
 20
12.5512067826
 30
0.0
 10
2.991592393
 20
12.5549012718
 30
0.0
 10
2.9833648945
 20
12.5578010874
 30
0.0
 10
2.9748933385
 20
12.55988336
 30
0.0
 10
2.9662607636
 20
12.5611328794
 30
0.0
 10
2.9604505603
 20
12.5614121874
 30
0.0
 10
2.9575473206
 20
12.5614123963
 30
0.0
  0
ENDSEC
  0
SECTION
  2
OBJECTS
  0
DICTIONARY
  5
C
100
AcDbDictionary
280
0
281
1
  3
ACAD_GROUP
350
D
  3
ACAD_MLINESTYLE
350
17
  3
ACAD_LAYOUT
350
1A
  3
ACAD_PLOTSETTINGS
350
19
  3
ACAD_PLOTSTYLENAME
350
E
  0
DICTIONARY
  5
D
102
{ACAD_REACTORS
330
C
102
}
100
AcDbDictionary
280
0
281
1
  0
ACDBDICTIONARYWDFLT
  5
E
102
{ACAD_REACTORS
330
C
102
}
100
AcDbDictionary
281
1
  3
Normal
350
F
100
AcDbDictionaryWithDefault
340
F
  0
DICTIONARY
  5
17
102
{ACAD_REACTORS
330
C
102
}
100
AcDbDictionary
280
0
281
1
  3
Standard
350
18
  0
DICTIONARY
  5
19
102
{ACAD_REACTORS
330
C
102
}
100
AcDbDictionary
281
1
  0
DICTIONARY
  5
1A
102
{ACAD_REACTORS
330
C
102
}
100
AcDbDictionary
281
1
  3
Model
350
534
  3
Layout1
350
535
  0
ACDBPLACEHOLDER
  5
F
102
{ACAD_REACTORS
330
E
102
}
  0
MLINESTYLE
  5
18
102
{ACAD_REACTORS
330
17
102
}
100
AcDbMlineStyle
  2
STANDARD
 70
0
  3

 62
256
 51
90.0
 52
90.0
 71
2
 49
0.5
 62
256
  6
BYLAYER
 49
-0.5
 62
256
  6
BYLAYER
  0
LAYOUT
  5
534
102
{ACAD_REACTORS
330
1A
102
}
100
AcDbPlotSettings
  1

  2
none_device
  4
ANSI_C_(22.00_x_17.00_Inches)
  6

 40
0.0
 41
0.0
 42
0.0
 43
0.0
 44
558.8
 45
431.8
 46
0.0
 47
0.0
 48
0.0
 49
0.0
140
0.0
141
0.0
142
1.0
143
1.0
 70
1024
 72
0
 73
0
 74
0
  7

 75
0
147
1.0
148
0.0
149
0.0
100
AcDbLayout
  1
Model
 70
0
 71
0
 10
0.0
 20
0.0
 11
22.0
 21
17.0
 12
0.0
 22
0.0
 32
0.0
 14
0.0
 24
0.0
 34
0.0
 15
0.0
 25
0.0
 35
0.0
146
0.0
 13
0.0
 23
0.0
 33
0.0
 16
1.0
 26
0.0
 36
0.0
 17
0.0
 27
1.0
 37
0.0
 76
0
330
205
345
0
346
0
  0
LAYOUT
  5
535
102
{ACAD_REACTORS
330
1A
102
}
100
AcDbPlotSettings
  1

  2
none_device
  4
ANSI_C_(22.00_x_17.00_Inches)
  6

 40
0.0
 41
0.0
 42
0.0
 43
0.0
 44
558.8
 45
431.8
 46
0.0
 47
0.0
 48
0.0
 49
0.0
140
0.0
141
0.0
142
1.0
143
1.0
 70
0
 72
0
 73
0
 74
0
  7

 75
0
147
1.0
148
0.0
149
0.0
100
AcDbLayout
  1
Layout1
 70
0
 71
1
 10
0.0
 20
0.0
 11
22.0
 21
17.0
 12
0.0
 22
0.0
 32
0.0
 14
0.0
 24
0.0
 34
0.0
 15
0.0
 25
0.0
 35
0.0
146
0.0
 13
0.0
 23
0.0
 33
0.0
 16
1.0
 26
0.0
 36
0.0
 17
0.0
 27
1.0
 37
0.0
 76
0
330
206
345
0
346
0
  0
ENDSEC
  0
EOF
