999
DXF file: E:\BT Custom\CADOUTPUT\_FRONT.dxf
999
Pro/ENGINEER 2018400 by Parametric Technology Corporation
  0
SECTION
  2
HEADER
  9
$ACADVER
  1
AC1018
  9
$DWGCODEPAGE
  3
ANSI_1252
  9
$EXTMAX
 10
22.0
 20
17.0
 30
0.0
  9
$EXTMIN
 10
0.0
 20
0.0
 30
0.0
  9
$LIMMIN
 10
0.0
 20
0.0
  9
$LIMMAX
 10
22.0
 20
17.0
  9
$VIEWCTR
 10
11.0
 20
8.5
  9
$VIEWSIZE
 40
17.0
  9
$CLAYER
  8
0
  9
$LTSCALE
 40
1.21
  9
$CELTYPE
  6
BYLAYER
  9
$DIMSCALE
 40
1.0
  9
$DIMASZ
 40
0.1
  9
$DIMEXO
 40
0.0625
  9
$DIMDLI
 40
0.836
  9
$DIMEXE
 40
0.125
  9
$DIMCEN
 40
0.198
  9
$DIMLFAC
 40
1.0
  9
$DIMBLK
  1
_FILLED
  9
$DIMALT
 70
1
  9
$DIMALTD
 70
2
  9
$DIMALTTD
 70
2
  9
$DIMALTF
 40
25.4
  9
$DIMTXT
 40
0.08
  9
$DIMTOL
 70
1
  9
$DIMLIM
 70
0
  9
$DIMTFAC
 40
1.0
  9
$DIMTP
 40
0.001
  9
$DIMTM
 40
0.001
  9
$DIMGAP
 40
0.09
  9
$DIMDSEP
 70
46
  9
$AUNITS
 70
0
  9
$PDMODE
 70
3
  9
$PDSIZE
 40
0.06
  9
$HANDSEED
  5
36B
  9
$TILEMODE
 70
1
  9
$MEASUREMENT
 70
0
  9
$INSUNITS
 70
1
  0
ENDSEC
  0
SECTION
  2
CLASSES
  0
CLASS
  1
ACDBDICTIONARYWDFLT
  2
AcDbDictionaryWithDefault
  3
AutoCAD 2000
 90
0
 91
1
280
0
281
0
  0
CLASS
  1
ACDBPLACEHOLDER
  2
AcDbPlaceHolder
  3
AutoCAD 2000
 90
0
 91
1
280
0
281
0
  0
CLASS
  1
LAYOUT
  2
AcDbLayout
  3
AutoCAD 2000
 90
0
 91
0
280
0
281
0
  0
ENDSEC
  0
SECTION
  2
TABLES
  0
TABLE
  2
VPORT
  5
8
100
AcDbSymbolTable
 70
2
  0
VPORT
  5
1F4
100
AcDbSymbolTableRecord
100
AcDbViewportTableRecord
  2
*ACTIVE
 70
0
 10
0.0
 20
0.0
 11
1.0
 21
1.0
 12
11.0
 22
8.5
 13
0.0
 23
0.0
 14
1.0
 24
1.0
 15
0.0
 25
0.0
 16
0.0
 26
0.0
 36
1.0
 17
0.0
 27
0.0
 37
0.0
 40
17.0
 41
1.2941176471
 42
50.0
 43
0.0
 44
0.0
 50
0.0
 51
0.0
 71
0
 72
100
 73
1
 74
1
 75
0
 76
0
 77
0
 78
0
  0
ENDTAB
  0
TABLE
  2
LTYPE
  5
5
100
AcDbSymbolTable
 70
6
  0
LTYPE
  5
14
100
AcDbSymbolTableRecord
100
AcDbLinetypeTableRecord
  2
BYBLOCK
 70
0
  3

 72
65
 73
0
 40
0.0
  0
LTYPE
  5
15
100
AcDbSymbolTableRecord
100
AcDbLinetypeTableRecord
  2
BYLAYER
 70
0
  3

 72
65
 73
0
 40
0.0
  0
LTYPE
  5
16
100
AcDbSymbolTableRecord
100
AcDbLinetypeTableRecord
  2
CONTINUOUS
 70
64
  3
Solid line
 72
65
 73
0
 40
0.0
  0
LTYPE
  5
1F5
100
AcDbSymbolTableRecord
100
AcDbLinetypeTableRecord
  2
CENTER
 70
64
  3
____ _ ____ _ ____ _ ____ _ ____ _ ____ _ ____
 72
65
 73
4
 40
0.6
 49
0.375
 74
0
 49
-0.075
 74
0
 49
0.075
 74
0
 49
-0.075
 74
0
  0
LTYPE
  5
1F6
100
AcDbSymbolTableRecord
100
AcDbLinetypeTableRecord
  2
HIDDEN
 70
64
  3
- - - - - - - - - - - - - - - - - - - -
 72
65
 73
2
 40
0.2
 49
0.1
 74
0
 49
-0.1
 74
0
  0
LTYPE
  5
1F7
100
AcDbSymbolTableRecord
100
AcDbLinetypeTableRecord
  2
PHANTOM
 70
64
  3
_____ _ _ _____ _ _ _____ _ _ _____
 72
65
 73
6
 40
0.8
 49
0.45
 74
0
 49
-0.05
 74
0
 49
0.1
 74
0
 49
-0.05
 74
0
 49
0.1
 74
0
 49
-0.05
 74
0
  0
LTYPE
  5
1F8
100
AcDbSymbolTableRecord
100
AcDbLinetypeTableRecord
  2
DOT
 70
64
  3
. . . . . . . . . . . . . . . . . . . .
 72
65
 73
2
 40
0.2
 49
0.1
 74
0
 49
-0.1
 74
0
  0
LTYPE
  5
1F9
100
AcDbSymbolTableRecord
100
AcDbLinetypeTableRecord
  2
DASHED
 70
64
  3
- - - - - - - - - - - - - - - - - - - -
 72
65
 73
2
 40
0.2
 49
0.1
 74
0
 49
-0.1
 74
0
  0
ENDTAB
  0
TABLE
  2
LAYER
  5
2
100
AcDbSymbolTable
 70
36
  0
LAYER
  5
10
100
AcDbSymbolTableRecord
100
AcDbLayerTableRecord
  2
0
 70
0
 62
7
  6
CONTINUOUS
370
-3
390
F
  0
LAYER
  5
1FA
100
AcDbSymbolTableRecord
100
AcDbLayerTableRecord
  2
DEFAULT_1
 70
0
 62
7
  6
CENTER
370
-3
390
F
  0
LAYER
  5
1FB
100
AcDbSymbolTableRecord
100
AcDbLayerTableRecord
  2
DEFAULT_2
 70
0
 62
8
  6
HIDDEN
370
-3
390
F
  0
LAYER
  5
1FC
100
AcDbSymbolTableRecord
100
AcDbLayerTableRecord
  2
DEFAULT_3
 70
0
 62
7
  6
PHANTOM
370
-3
390
F
  0
LAYER
  5
1FD
100
AcDbSymbolTableRecord
100
AcDbLayerTableRecord
  2
ALL_FEATURES
 70
0
 62
7
  6
CONTINUOUS
370
-3
390
F
  0
LAYER
  5
1FE
100
AcDbSymbolTableRecord
100
AcDbLayerTableRecord
  2
AXES_FEATURES
 70
0
 62
7
  6
CONTINUOUS
370
-3
390
F
  0
LAYER
  5
1FF
100
AcDbSymbolTableRecord
100
AcDbLayerTableRecord
  2
DIMENSIONS
 70
0
 62
7
  6
CONTINUOUS
370
-3
390
F
  0
ENDTAB
  0
TABLE
  2
STYLE
  5
3
100
AcDbSymbolTable
 70
1
  0
STYLE
  5
11
100
AcDbSymbolTableRecord
100
AcDbTextStyleTableRecord
  2
STANDARD
 70
0
 40
0.0
 41
0.8
 50
0.0
 71
0
 42
0.2
  3
txt
  4

  0
STYLE
  5
200
100
AcDbSymbolTableRecord
100
AcDbTextStyleTableRecord
  2
TEXTSTYLE_1
 70
0
 40
0.0
 41
0.8
 50
0.0
 71
0
 42
0.2
  3
gdt
  4

  0
ENDTAB
  0
TABLE
  2
VIEW
  5
6
100
AcDbSymbolTable
 70
0
  0
ENDTAB
  0
TABLE
  2
UCS
  5
7
100
AcDbSymbolTable
 70
0
  0
ENDTAB
  0
TABLE
  2
APPID
  5
9
100
AcDbSymbolTable
 70
1
  0
APPID
  5
201
100
AcDbSymbolTableRecord
100
AcDbRegAppTableRecord
  2
ACAD
 70
0
  0
ENDTAB
  0
TABLE
  2
BLOCK_RECORD
  5
1
100
AcDbSymbolTable
 70
0
  0
BLOCK_RECORD
  5
202
100
AcDbSymbolTableRecord
100
AcDbBlockTableRecord
  2
*Model_Space
  0
BLOCK_RECORD
  5
203
100
AcDbSymbolTableRecord
100
AcDbBlockTableRecord
  2
*Paper_Space
  0
BLOCK_RECORD
  5
204
100
AcDbSymbolTableRecord
100
AcDbBlockTableRecord
  2
_FILLED
  0
ENDTAB
  0
TABLE
  2
DIMSTYLE
  5
A
100
AcDbSymbolTable
 70
1
100
AcDbDimStyleTable
 71
0
  0
DIMSTYLE
105
205
100
AcDbSymbolTableRecord
100
AcDbDimStyleTableRecord
  2
STANDARD
 70
0
  3

  4

 40
1.0
 41
0.1
 42
0.0625
 43
0.38
 44
0.125
 45
0.0
 46
0.0
 47
0.001
 48
0.001
140
0.08
141
0.09
142
0.0
143
25.4
144
1.0
145
0.0
146
1.0
147
0.09
 71
1.0
 72
0.0
 73
1
 74
1
 75
0
 76
0
 77
0
 78
4
 79
1
170
1
171
2
172
0
173
0
174
0
175
0
176
0
177
0
178
0
270
2
179
3
271
3
272
3
273
2
274
2
275
0
280
0
281
0
282
0
283
1
284
4
285
0
286
0
287
3
288
0
340
11
278
46
341
204
342
204
343
204
344
204
  0
ENDTAB
  0
ENDSEC
  0
SECTION
  2
BLOCKS
  0
BLOCK
  5
20
100
AcDbEntity
  8
0
100
AcDbBlockBegin
  2
*Model_Space
 70
0
 10
0.0
 20
0.0
 30
0.0
  3
*Model_Space
  1

  0
ENDBLK
  5
21
100
AcDbEntity
  8
0
100
AcDbBlockEnd
  0
BLOCK
  5
1C
100
AcDbEntity
  8
0
100
AcDbBlockBegin
  2
*Paper_Space
 70
0
 10
0.0
 20
0.0
 30
0.0
  3
*Paper_Space
  1

  0
ENDBLK
  5
1D
100
AcDbEntity
  8
0
100
AcDbBlockEnd
  0
BLOCK
  5
206
100
AcDbEntity
  8
0
100
AcDbBlockBegin
  2
_FILLED
 70
64
 10
0.0
 20
0.0
  3
_FILLED
  1

  0
SOLID
  5
207
100
AcDbEntity
  8
0
  6
BYBLOCK
 62
0
100
AcDbTrace
 10
0.0
 20
0.0
 11
-1.0
 21
0.2
 12
-1.0
 22
-0.2
 13
-1.0
 23
-0.2
  0
ENDBLK
  5
208
100
AcDbEntity
  8
0
  6
BYBLOCK
 62
0
100
AcDbBlockEnd
  0
ENDSEC
  0
SECTION
  2
ENTITIES
  0
LINE
  5
209
100
AcDbEntity
  8
0
100
AcDbLine
 62
7
  6
CONTINUOUS
 10
9.7552043373
 20
7.5626695021
 11
12.1201803481
 21
7.5626695021
  0
LINE
  5
20A
100
AcDbEntity
  8
0
100
AcDbLine
 62
9
  6
CONTINUOUS
 10
12.0890283301
 20
7.696793101
 11
9.7863563554
 21
7.696793101
  0
LINE
  5
20B
100
AcDbEntity
  8
0
100
AcDbLine
 62
9
  6
CONTINUOUS
 10
12.0468128615
 20
7.7404340935
 11
9.828571824
 21
7.7404340935
  0
LINE
  5
20C
100
AcDbEntity
  8
0
100
AcDbLine
 62
7
  6
CONTINUOUS
 10
9.9175151198
 20
10.2348822065
 11
9.8354258627
 21
10.17740269
  0
LINE
  5
20D
100
AcDbEntity
  8
0
100
AcDbLine
 62
9
  6
CONTINUOUS
 10
11.7665695311
 20
7.9454475647
 11
10.1088151544
 21
7.9454475647
  0
LINE
  5
20E
100
AcDbEntity
  8
0
100
AcDbLine
 62
7
  6
CONTINUOUS
 10
10.2727226208
 20
8.0376695021
 11
11.6026620647
 21
8.0376695021
  0
LINE
  5
20F
100
AcDbEntity
  8
0
100
AcDbLine
 62
9
  6
CONTINUOUS
 10
9.8354258627
 20
10.6279363143
 11
9.8354258627
 21
10.17740269
  0
LINE
  5
210
100
AcDbEntity
  8
0
100
AcDbLine
 62
7
  6
CONTINUOUS
 10
10.2711923427
 20
8.1976554384
 11
11.6041923427
 21
8.1976554384
  0
LINE
  5
211
100
AcDbEntity
  8
0
100
AcDbLine
 62
9
  6
CONTINUOUS
 10
9.9175151198
 20
10.2348822065
 11
9.9175151198
 21
10.5704567977
  0
LINE
  5
212
100
AcDbEntity
  8
0
100
AcDbLine
 62
7
  6
CONTINUOUS
 10
9.9426923427
 20
10.5917603918
 11
9.9426923427
 21
10.2135786124
  0
LINE
  5
213
100
AcDbEntity
  8
0
100
AcDbLine
 62
9
  6
CONTINUOUS
 10
9.9675555013
 20
10.5935867954
 11
9.9675555013
 21
10.2117522089
  0
LINE
  5
214
100
AcDbEntity
  8
0
100
AcDbLine
 62
7
  6
CONTINUOUS
 10
10.3454828036
 20
10.6076695021
 11
10.3599336466
 21
10.6541993814
  0
LINE
  5
215
100
AcDbEntity
  8
0
100
AcDbLine
 62
7
  6
CONTINUOUS
 10
9.7863563554
 20
7.696793101
 11
9.7551923427
 21
7.5626695021
  0
LINE
  5
216
100
AcDbEntity
  8
0
100
AcDbLine
 62
9
  6
CONTINUOUS
 10
10.3290263271
 20
10.2159915721
 11
10.3290263271
 21
10.5893474322
  0
LINE
  5
217
100
AcDbEntity
  8
0
100
AcDbLine
 62
9
  6
CONTINUOUS
 10
10.3511863641
 20
10.4026695021
 11
10.3511863641
 21
10.3120007309
  0
LINE
  5
218
100
AcDbEntity
  8
0
100
AcDbLine
 62
7
  6
CONTINUOUS
 10
11.9578695657
 20
10.5704567977
 11
12.0399588227
 21
10.6279363143
  0
LINE
  5
219
100
AcDbEntity
  8
0
100
AcDbLine
 62
7
  6
CONTINUOUS
 10
10.5801345109
 20
9.0769481426
 11
10.5801345109
 21
9.1663908617
  0
LINE
  5
21A
100
AcDbEntity
  8
0
100
AcDbLine
 62
7
  6
CONTINUOUS
 10
10.6166435963
 20
9.0769481426
 11
10.6166435963
 21
9.1663908617
  0
LINE
  5
21B
100
AcDbEntity
  8
0
100
AcDbLine
 62
7
  6
CONTINUOUS
 10
10.3581356836
 20
10.1564032214
 11
10.3454828036
 21
10.1976695021
  0
LINE
  5
21C
100
AcDbEntity
  8
0
100
AcDbLine
 62
7
  6
CONTINUOUS
 10
10.6557377208
 20
9.0769481426
 11
10.6557377208
 21
9.1663908617
  0
LINE
  5
21D
100
AcDbEntity
  8
0
100
AcDbLine
 62
7
  6
CONTINUOUS
 10
10.6876923427
 20
9.3776695021
 11
10.6876923427
 21
9.9846695021
  0
LINE
  5
21E
100
AcDbEntity
  8
0
100
AcDbLine
 62
7
  6
CONTINUOUS
 10
10.6971021043
 20
9.0769481426
 11
10.6971021043
 21
9.1663908617
  0
LINE
  5
21F
100
AcDbEntity
  8
0
100
AcDbLine
 62
7
  6
CONTINUOUS
 10
10.7404036864
 20
9.0769481426
 11
10.7404036864
 21
9.1663908617
  0
LINE
  5
220
100
AcDbEntity
  8
0
100
AcDbLine
 62
7
  6
CONTINUOUS
 10
10.785293809
 20
9.0769481426
 11
10.785293809
 21
9.1663908617
  0
LINE
  5
221
100
AcDbEntity
  8
0
100
AcDbLine
 62
7
  6
CONTINUOUS
 10
11.4676923438
 20
10.7026695039
 11
11.4758333589
 21
10.7167701557
  0
LINE
  5
222
100
AcDbEntity
  8
0
100
AcDbLine
 62
7
  6
CONTINUOUS
 10
11.4276923427
 20
9.0616695021
 11
10.4476923427
 21
9.0616695021
  0
LINE
  5
223
100
AcDbEntity
  8
0
100
AcDbLine
 62
7
  6
CONTINUOUS
 10
10.8314110231
 20
9.0769481426
 11
10.8314110231
 21
9.1663908617
  0
LINE
  5
224
100
AcDbEntity
  8
0
100
AcDbLine
 62
7
  6
CONTINUOUS
 10
10.8783839994
 20
9.0769481426
 11
10.8783839994
 21
9.1663908617
  0
LINE
  5
225
100
AcDbEntity
  8
0
100
AcDbLine
 62
7
  6
CONTINUOUS
 10
10.9258345181
 20
9.0769481426
 11
10.9258345181
 21
9.1663908617
  0
LINE
  5
226
100
AcDbEntity
  8
0
100
AcDbLine
 62
7
  6
CONTINUOUS
 10
11.4276923427
 20
9.1816695021
 11
10.4476923427
 21
9.1816695021
  0
LINE
  5
227
100
AcDbEntity
  8
0
100
AcDbLine
 62
7
  6
CONTINUOUS
 10
10.9733805143
 20
9.0769481426
 11
10.9733805143
 21
9.1663908617
  0
LINE
  5
228
100
AcDbEntity
  8
0
100
AcDbLine
 62
7
  6
CONTINUOUS
 10
11.0206391544
 20
9.0769481426
 11
11.0206391544
 21
9.1663908617
  0
LINE
  5
229
100
AcDbEntity
  8
0
100
AcDbLine
 62
7
  6
CONTINUOUS
 10
11.0672299185
 20
9.0769481426
 11
11.0672299185
 21
9.1663908617
  0
LINE
  5
22A
100
AcDbEntity
  8
0
100
AcDbLine
 62
7
  6
CONTINUOUS
 10
11.2277326659
 20
9.3776695021
 11
10.6476520196
 21
9.3776695021
  0
LINE
  5
22B
100
AcDbEntity
  8
0
100
AcDbLine
 62
7
  6
CONTINUOUS
 10
11.1127776643
 20
9.0769481426
 11
11.1127776643
 21
9.1663908617
  0
LINE
  5
22C
100
AcDbEntity
  8
0
100
AcDbLine
 62
7
  6
CONTINUOUS
 10
11.1569156478
 20
9.0769481426
 11
11.1569156478
 21
9.1663908617
  0
LINE
  5
22D
100
AcDbEntity
  8
0
100
AcDbLine
 62
7
  6
CONTINUOUS
 10
11.1876923427
 20
9.3776695021
 11
11.1876923427
 21
9.9846695021
  0
LINE
  5
22E
100
AcDbEntity
  8
0
100
AcDbLine
 62
7
  6
CONTINUOUS
 10
11.1992884761
 20
9.0769481426
 11
11.1992884761
 21
9.1663908617
  0
LINE
  5
22F
100
AcDbEntity
  8
0
100
AcDbLine
 62
7
  6
CONTINUOUS
 10
11.2395549692
 20
9.0769481426
 11
11.2395549692
 21
9.1663908617
  0
LINE
  5
230
100
AcDbEntity
  8
0
100
AcDbLine
 62
7
  6
CONTINUOUS
 10
11.5172490019
 20
10.1564032214
 11
11.5299018819
 21
10.1976695021
  0
LINE
  5
231
100
AcDbEntity
  8
0
100
AcDbLine
 62
7
  6
CONTINUOUS
 10
10.4076923417
 20
10.702669504
 11
10.3995513266
 21
10.7167701557
  0
LINE
  5
232
100
AcDbEntity
  8
0
100
AcDbLine
 62
7
  6
CONTINUOUS
 10
11.277390907
 20
9.0769481426
 11
11.277390907
 21
9.1663908617
  0
LINE
  5
233
100
AcDbEntity
  8
0
100
AcDbLine
 62
7
  6
CONTINUOUS
 10
11.3124916413
 20
9.1663908375
 11
11.3124916413
 21
9.0769481668
  0
LINE
  5
234
100
AcDbEntity
  8
0
100
AcDbLine
 62
9
  6
CONTINUOUS
 10
11.5241983213
 20
10.4026695021
 11
11.5241983213
 21
10.4933317279
  0
LINE
  5
235
100
AcDbEntity
  8
0
100
AcDbLine
 62
9
  6
CONTINUOUS
 10
11.5463583584
 20
10.5893365667
 11
11.5463583584
 21
10.2159915721
  0
LINE
  5
236
100
AcDbEntity
  8
0
100
AcDbLine
 62
7
  6
CONTINUOUS
 10
9.9175151198
 20
10.5704567977
 11
9.8354258627
 21
10.6279363143
  0
LINE
  5
237
100
AcDbEntity
  8
0
100
AcDbLine
 62
9
  6
CONTINUOUS
 10
11.1876923427
 20
9.9846695021
 11
10.6876923427
 21
9.9846695021
  0
LINE
  5
238
100
AcDbEntity
  8
0
100
AcDbLine
 62
7
  6
CONTINUOUS
 10
12.0890283301
 20
7.696793101
 11
12.1201923427
 21
7.5626695021
  0
LINE
  5
239
100
AcDbEntity
  8
0
100
AcDbLine
 62
7
  6
CONTINUOUS
 10
10.43299947
 20
10.1026695021
 11
11.4423852155
 21
10.1026695021
  0
LINE
  5
23A
100
AcDbEntity
  8
0
100
AcDbLine
 62
9
  6
CONTINUOUS
 10
11.5172490019
 20
10.1564032214
 11
11.0593978586
 21
10.1564032214
  0
LINE
  5
23B
100
AcDbEntity
  8
0
100
AcDbLine
 62
9
  6
CONTINUOUS
 10
10.8159868268
 20
10.1564032214
 11
10.3581356836
 21
10.1564032214
  0
LINE
  5
23C
100
AcDbEntity
  8
0
100
AcDbLine
 62
9
  6
CONTINUOUS
 10
11.9078291842
 20
10.2117522089
 11
11.9078291842
 21
10.5935867954
  0
LINE
  5
23D
100
AcDbEntity
  8
0
100
AcDbLine
 62
7
  6
CONTINUOUS
 10
11.9326923427
 20
10.2135786124
 11
11.9326923427
 21
10.5917603918
  0
LINE
  5
23E
100
AcDbEntity
  8
0
100
AcDbLine
 62
9
  6
CONTINUOUS
 10
11.9578695657
 20
10.5704567977
 11
11.9578695657
 21
10.2348822065
  0
LINE
  5
23F
100
AcDbEntity
  8
0
100
AcDbLine
 62
7
  6
CONTINUOUS
 10
11.5299018819
 20
10.6076695021
 11
11.5154510389
 21
10.6541993814
  0
LINE
  5
240
100
AcDbEntity
  8
0
100
AcDbLine
 62
9
  6
CONTINUOUS
 10
12.0399588227
 20
10.17740269
 11
12.0399588227
 21
10.6279363143
  0
LINE
  5
241
100
AcDbEntity
  8
0
100
AcDbLine
 62
9
  6
CONTINUOUS
 10
10.3599336466
 20
10.6541993814
 11
10.8291296099
 21
10.6541993814
  0
LINE
  5
242
100
AcDbEntity
  8
0
100
AcDbLine
 62
9
  6
CONTINUOUS
 10
11.0462550757
 20
10.6541993814
 11
11.5154510389
 21
10.6541993814
  0
LINE
  5
243
100
AcDbEntity
  8
0
100
AcDbLine
 62
7
  6
CONTINUOUS
 10
11.9578695657
 20
10.2348822065
 11
12.0399588227
 21
10.17740269
  0
LINE
  5
244
100
AcDbEntity
  8
0
100
AcDbLine
 62
7
  6
CONTINUOUS
 10
10.4076923417
 20
10.702669504
 11
11.4676923438
 21
10.7026695039
  0
LINE
  5
245
100
AcDbEntity
  8
0
100
AcDbLine
 62
9
  6
CONTINUOUS
 10
11.4758333589
 20
10.7167701557
 11
10.3995513266
 21
10.7167701557
  0
LINE
  5
246
100
AcDbEntity
  8
0
100
AcDbLine
 62
9
  6
CONTINUOUS
 10
10.4152026199
 20
10.771975133
 11
11.4601820656
 21
10.771975133
  0
LINE
  5
247
100
AcDbEntity
  8
0
100
AcDbLine
 62
9
  6
CONTINUOUS
 10
11.4083176369
 20
10.8485064798
 11
10.4670670486
 21
10.8485064798
  0
LINE
  5
248
100
AcDbEntity
  8
0
100
AcDbLine
 62
7
  6
CONTINUOUS
 10
11.3924222504
 20
10.8626695021
 11
10.4829624351
 21
10.8626695021
  0
LINE
  5
249
100
AcDbEntity
  8
0
100
AcDbLine
 62
9
  6
CONTINUOUS
 10
10.5511744856
 20
10.906981028
 11
11.3242101999
 21
10.906981028
  0
ARC
  5
24A
100
AcDbEntity
  8
0
100
AcDbCircle
 62
7
  6
CONTINUOUS
 10
9.7044747014
 20
8.2041149149
 40
0.48
100
AcDbArc
 50
284.9831919527
 51
327.3918704587
  0
ARC
  5
24B
100
AcDbEntity
  8
0
100
AcDbCircle
 62
7
  6
CONTINUOUS
 10
9.8438254297
 20
7.6834399928
 40
0.059
100
AcDbArc
 50
104.9831928821
 51
166.919261208
  0
ARC
  5
24C
100
AcDbEntity
  8
0
100
AcDbCircle
 62
7
  6
CONTINUOUS
 10
9.4506804043
 20
8.815303525
 40
1.027
100
AcDbArc
 50
323.0290504961
 51
13.8799876593
  0
ARC
  5
24D
100
AcDbEntity
  8
0
100
AcDbCircle
 62
7
  6
CONTINUOUS
 10
10.2772903432
 20
7.8376695021
 40
0.2
100
AcDbArc
 50
90.0
 51
147.3918704587
  0
ARC
  5
24E
100
AcDbEntity
  8
0
100
AcDbCircle
 62
7
  6
CONTINUOUS
 10
10.2726923427
 20
8.1176695021
 40
0.08
100
AcDbArc
 50
234.239055815
 51
270.0
  0
ARC
  5
24F
100
AcDbEntity
  8
0
100
AcDbCircle
 62
7
  6
CONTINUOUS
 10
10.2726923427
 20
8.1176695021
 40
0.08
100
AcDbArc
 50
91.0743588229
 51
125.760944185
  0
ARC
  5
250
100
AcDbEntity
  8
0
100
AcDbCircle
 62
7
  6
CONTINUOUS
 10
10.5463071153
 20
9.1216671453
 40
0.1114297735
100
AcDbArc
 50
175.9854008659
 51
184.0131184337
  0
ARC
  5
251
100
AcDbEntity
  8
0
100
AcDbCircle
 62
7
  6
CONTINUOUS
 10
10.5094071794
 20
9.1216664617
 40
0.0924852202
100
AcDbArc
 50
175.1608377333
 51
184.8373784195
  0
ARC
  5
252
100
AcDbEntity
  8
0
100
AcDbCircle
 62
7
  6
CONTINUOUS
 10
10.4827777599
 20
9.1216656917
 40
0.0796180136
100
AcDbArc
 50
174.3758714933
 51
185.6220565752
  0
ARC
  5
253
100
AcDbEntity
  8
0
100
AcDbCircle
 62
7
  6
CONTINUOUS
 10
10.4641113978
 20
9.1216741372
 40
0.0704098834
100
AcDbArc
 50
173.6368137281
 51
186.3608436278
  0
ARC
  5
254
100
AcDbEntity
  8
0
100
AcDbCircle
 62
7
  6
CONTINUOUS
 10
10.4522067825
 20
9.1216750027
 40
0.0635833625
100
AcDbArc
 50
172.9495613288
 51
187.0478448052
  0
ARC
  5
255
100
AcDbEntity
  8
0
100
AcDbCircle
 62
7
  6
CONTINUOUS
 10
10.4485583866
 20
9.1216635649
 40
0.0608176147
100
AcDbArc
 50
172.6294629903
 51
187.37321984
  0
ARC
  5
256
100
AcDbEntity
  8
0
100
AcDbCircle
 62
7
  6
CONTINUOUS
 10
10.4476923427
 20
9.1216695021
 40
0.06
100
AcDbArc
 50
209.3129235281
 51
216.0
  0
ARC
  5
257
100
AcDbEntity
  8
0
100
AcDbCircle
 62
7
  6
CONTINUOUS
 10
10.4476923427
 20
9.1216695021
 40
0.06
100
AcDbArc
 50
234.0
 51
270.0
  0
ARC
  5
258
100
AcDbEntity
  8
0
100
AcDbCircle
 62
7
  6
CONTINUOUS
 10
10.4476923427
 20
9.1216695021
 40
0.06
100
AcDbArc
 50
90.0
 51
126.0
  0
ARC
  5
259
100
AcDbEntity
  8
0
100
AcDbCircle
 62
7
  6
CONTINUOUS
 10
10.4476923427
 20
9.1216695021
 40
0.06
100
AcDbArc
 50
144.0
 51
150.6870764719
  0
ARC
  5
25A
100
AcDbEntity
  8
0
100
AcDbCircle
 62
7
  6
CONTINUOUS
 10
10.447508443
 20
9.1218466688
 40
0.0597528753
100
AcDbArc
 50
150.7488934297
 51
172.6744327125
  0
ARC
  5
25B
100
AcDbEntity
  8
0
100
AcDbCircle
 62
7
  6
CONTINUOUS
 10
10.4475083528
 20
9.1214922978
 40
0.0597527784
100
AcDbArc
 50
187.3282740843
 51
209.2511173929
  0
ARC
  5
25C
100
AcDbEntity
  8
0
100
AcDbCircle
 62
7
  6
CONTINUOUS
 10
10.4463318864
 20
9.120896502
 40
0.0584352247
100
AcDbArc
 50
209.3050868811
 51
219.5533076249
  0
ARC
  5
25D
100
AcDbEntity
  8
0
100
AcDbCircle
 62
7
  6
CONTINUOUS
 10
10.4463318225
 20
9.1224425479
 40
0.0584351464
100
AcDbArc
 50
140.4472989212
 51
150.6949216531
  0
ARC
  5
25E
100
AcDbEntity
  8
0
100
AcDbCircle
 62
7
  6
CONTINUOUS
 10
10.4461657852
 20
9.1225655844
 40
0.0582287781
100
AcDbArc
 50
131.1804618754
 51
140.4366084113
  0
ARC
  5
25F
100
AcDbEntity
  8
0
100
AcDbCircle
 62
7
  6
CONTINUOUS
 10
10.4461657663
 20
9.1207734016
 40
0.0582287518
100
AcDbArc
 50
219.5640036818
 51
228.8195402972
  0
ARC
  5
260
100
AcDbEntity
  8
0
100
AcDbCircle
 62
7
  6
CONTINUOUS
 10
10.4464789199
 20
9.1191528319
 40
0.0572300666
100
AcDbArc
 50
218.2963765357
 51
227.5152037305
  0
ARC
  5
261
100
AcDbEntity
  8
0
100
AcDbCircle
 62
7
  6
CONTINUOUS
 10
10.446478866
 20
9.1241862231
 40
0.0572299928
100
AcDbArc
 50
132.4847908012
 51
141.703011718
  0
ARC
  5
262
100
AcDbEntity
  8
0
100
AcDbCircle
 62
7
  6
CONTINUOUS
 10
10.4480434599
 20
9.1216618688
 40
0.0527674946
100
AcDbArc
 50
171.4953995996
 51
188.5076918409
  0
ARC
  5
263
100
AcDbEntity
  8
0
100
AcDbCircle
 62
7
  6
CONTINUOUS
 10
10.4556695859
 20
9.1216610997
 40
0.0500507773
100
AcDbArc
 50
171.0291772177
 51
188.974081974
  0
ARC
  5
264
100
AcDbEntity
  8
0
100
AcDbCircle
 62
7
  6
CONTINUOUS
 10
10.4682993539
 20
9.1216532881
 40
0.0480535226
100
AcDbArc
 50
170.643607647
 51
189.3597824301
  0
ARC
  5
265
100
AcDbEntity
  8
0
100
AcDbCircle
 62
7
  6
CONTINUOUS
 10
10.4855482271
 20
9.1216510417
 40
0.0465089612
100
AcDbArc
 50
170.3272946947
 51
189.6764019442
  0
ARC
  5
266
100
AcDbEntity
  8
0
100
AcDbCircle
 62
7
  6
CONTINUOUS
 10
10.5072546355
 20
9.1216492618
 40
0.0454068598
100
AcDbArc
 50
170.0877428113
 51
189.9158430799
  0
ARC
  5
267
100
AcDbEntity
  8
0
100
AcDbCircle
 62
7
  6
CONTINUOUS
 10
10.5332183923
 20
9.121645129
 40
0.0447306701
100
AcDbArc
 50
169.9309753603
 51
190.0726604322
  0
ARC
  5
268
100
AcDbEntity
  8
0
100
AcDbCircle
 62
7
  6
CONTINUOUS
 10
10.6793699341
 20
9.1216681689
 40
0.1966132135
100
AcDbArc
 50
177.7263044417
 51
182.2728562658
  0
ARC
  5
269
100
AcDbEntity
  8
0
100
AcDbCircle
 62
7
  6
CONTINUOUS
 10
10.5985210354
 20
9.1216677195
 40
0.1416397157
100
AcDbArc
 50
176.8429422304
 51
183.1557756041
  0
ARC
  5
26A
100
AcDbEntity
  8
0
100
AcDbCircle
 62
7
  6
CONTINUOUS
 10
10.6476523387
 20
9.1776695021
 40
0.2
100
AcDbArc
 50
90.0
 51
178.8540080016
  0
ARC
  5
26B
100
AcDbEntity
  8
0
100
AcDbCircle
 62
7
  6
CONTINUOUS
 10
7.3985330614
 20
10.4019174739
 40
2.9540312506
100
AcDbArc
 50
356.4253011592
 51
0.0145861851
  0
ARC
  5
26C
100
AcDbEntity
  8
0
100
AcDbCircle
 62
7
  6
CONTINUOUS
 10
7.4144835027
 20
10.4038933487
 40
2.9380788668
100
AcDbArc
 50
359.976133658
 51
3.5913067663
  0
ARC
  5
26D
100
AcDbEntity
  8
0
100
AcDbCircle
 62
7
  6
CONTINUOUS
 10
7.502250043
 20
10.4083469212
 40
2.8502077769
100
AcDbArc
 50
3.6124702783
 51
3.9110706324
  0
ARC
  5
26E
100
AcDbEntity
  8
0
100
AcDbCircle
 62
7
  6
CONTINUOUS
 10
7.5222837458
 20
10.3957347779
 40
2.8301344233
100
AcDbArc
 50
356.1564116408
 51
356.394019487
  0
ARC
  5
26F
100
AcDbEntity
  8
0
100
AcDbCircle
 62
7
  6
CONTINUOUS
 10
10.9376923427
 20
9.8026695022
 40
1.17
100
AcDbArc
 50
70.7095459639
 51
109.2904540361
  0
CIRCLE
  5
270
100
AcDbEntity
  8
0
100
AcDbCircle
 62
7
  6
CONTINUOUS
 10
10.9376923427
 20
10.4026695021
 40
0.275
  0
ARC
  5
271
100
AcDbEntity
  8
0
100
AcDbCircle
 62
7
  6
CONTINUOUS
 10
9.6776923427
 20
10.4026695021
 40
0.275
100
AcDbArc
 50
54.9999999999
 51
305.0000000001
  0
ARC
  5
272
100
AcDbEntity
  8
0
100
AcDbCircle
 62
7
  6
CONTINUOUS
 10
10.1503163838
 20
10.7641695021
 40
0.25
100
AcDbArc
 50
223.0260516848
 51
315.6300695472
  0
ARC
  5
273
100
AcDbEntity
  8
0
100
AcDbCircle
 62
7
  6
CONTINUOUS
 10
10.1503163838
 20
10.0411695021
 40
0.25
100
AcDbArc
 50
44.3699304528
 51
136.9739483152
  0
ARC
  5
274
100
AcDbEntity
  8
0
100
AcDbCircle
 62
7
  6
CONTINUOUS
 10
10.5696923427
 20
9.9846695021
 40
0.118
100
AcDbArc
 50
0.0
 51
89.9999870546
  0
ARC
  5
275
100
AcDbEntity
  8
0
100
AcDbCircle
 62
7
  6
CONTINUOUS
 10
10.3677283128
 20
10.8599875763
 40
0.1
100
AcDbArc
 50
298.3426227077
 51
353.4072769728
  0
ARC
  5
276
100
AcDbEntity
  8
0
100
AcDbCircle
 62
7
  6
CONTINUOUS
 10
10.4345997985
 20
10.6283930692
 40
0.079
100
AcDbArc
 50
109.9134773666
 51
160.933691832
  0
ARC
  5
277
100
AcDbEntity
  8
0
100
AcDbCircle
 62
7
  6
CONTINUOUS
 10
10.4329863018
 20
10.1816695021
 40
0.079
100
AcDbArc
 50
198.6524229103
 51
269.9999993655
  0
ARC
  5
278
100
AcDbEntity
  8
0
100
AcDbCircle
 62
7
  6
CONTINUOUS
 10
10.5676923427
 20
10.8597882277
 40
0.05
100
AcDbArc
 50
109.2904540363
 51
176.6453337496
  0
ARC
  5
279
100
AcDbEntity
  8
0
100
AcDbCircle
 62
7
  6
CONTINUOUS
 10
10.4341923427
 20
10.7367701557
 40
0.04
100
AcDbArc
 50
118.3426227079
 51
210.0
  0
ARC
  5
27A
100
AcDbEntity
  8
0
100
AcDbCircle
 62
7
  6
CONTINUOUS
 10
10.3511863666
 20
10.5676695021
 40
0.031
100
AcDbArc
 50
99.4506001651
 51
135.6300867531
  0
ARC
  5
27B
100
AcDbEntity
  8
0
100
AcDbCircle
 62
7
  6
CONTINUOUS
 10
10.3511863666
 20
10.2376695021
 40
0.031
100
AcDbArc
 50
224.3699132469
 51
260.5496013347
  0
ARC
  5
27C
100
AcDbEntity
  8
0
100
AcDbCircle
 62
7
  6
CONTINUOUS
 10
10.4829612461
 20
10.8466695021
 40
0.016
100
AcDbArc
 50
90.0
 51
173.4072701279
  0
ARC
  5
27D
100
AcDbEntity
  8
0
100
AcDbCircle
 62
7
  6
CONTINUOUS
 10
9.9266923427
 20
10.5835632305
 40
0.016
100
AcDbArc
 50
234.999999999
 51
360.0
  0
ARC
  5
27E
100
AcDbEntity
  8
0
100
AcDbCircle
 62
7
  6
CONTINUOUS
 10
9.9266923427
 20
10.2217757738
 40
0.016
100
AcDbArc
 50
0.0
 51
125.000000001
  0
ARC
  5
27F
100
AcDbEntity
  8
0
100
AcDbCircle
 62
7
  6
CONTINUOUS
 10
9.9558588048
 20
10.2226695021
 40
0.016
100
AcDbArc
 50
214.6234510998
 51
316.9739483152
  0
ARC
  5
280
100
AcDbEntity
  8
0
100
AcDbCircle
 62
7
  6
CONTINUOUS
 10
9.9558588048
 20
10.5826695021
 40
0.016
100
AcDbArc
 50
43.0260516848
 51
145.3765489002
  0
ARC
  5
281
100
AcDbEntity
  8
0
100
AcDbCircle
 62
7
  6
CONTINUOUS
 10
11.5980943423
 20
7.8376695021
 40
0.2
100
AcDbArc
 50
32.6081295413
 51
90.0
  0
ARC
  5
282
100
AcDbEntity
  8
0
100
AcDbCircle
 62
7
  6
CONTINUOUS
 10
11.6017848812
 20
8.1942831373
 40
0.1533854798
100
AcDbArc
 50
268.8133426972
 51
272.68371734
  0
ARC
  5
283
100
AcDbEntity
  8
0
100
AcDbCircle
 62
7
  6
CONTINUOUS
 10
11.6026923427
 20
8.1176695021
 40
0.08
100
AcDbArc
 50
270.0
 51
305.760944185
  0
ARC
  5
284
100
AcDbEntity
  8
0
100
AcDbCircle
 62
7
  6
CONTINUOUS
 10
11.6026923427
 20
8.1176695021
 40
0.08
100
AcDbArc
 50
54.239055815
 51
88.9256411771
  0
ARC
  5
285
100
AcDbEntity
  8
0
100
AcDbCircle
 62
7
  6
CONTINUOUS
 10
11.133531913
 20
9.1216706628
 40
0.2448135888
100
AcDbArc
 50
358.1741739438
 51
1.8251591621
  0
ARC
  5
286
100
AcDbEntity
  8
0
100
AcDbCircle
 62
7
  6
CONTINUOUS
 10
11.2416686633
 20
9.1216710423
 40
0.1644063627
100
AcDbArc
 50
357.2805129042
 51
2.7184940885
  0
ARC
  5
287
100
AcDbEntity
  8
0
100
AcDbCircle
 62
7
  6
CONTINUOUS
 10
11.2277323467
 20
9.1776695021
 40
0.2
100
AcDbArc
 50
1.1459919984
 51
90.0
  0
ARC
  5
288
100
AcDbEntity
  8
0
100
AcDbCircle
 62
7
  6
CONTINUOUS
 10
11.3054769703
 20
9.1216715564
 40
0.1245562286
100
AcDbArc
 50
356.4092096589
 51
3.5894797214
  0
ARC
  5
289
100
AcDbEntity
  8
0
100
AcDbCircle
 62
7
  6
CONTINUOUS
 10
11.3490834335
 20
9.1216721885
 40
0.1009436791
100
AcDbArc
 50
355.5673795963
 51
4.4310032125
  0
ARC
  5
28A
100
AcDbEntity
  8
0
100
AcDbCircle
 62
7
  6
CONTINUOUS
 10
11.3804333826
 20
9.1216729184
 40
0.0854623964
100
AcDbArc
 50
354.7618604388
 51
5.2362297497
  0
ARC
  5
28B
100
AcDbEntity
  8
0
100
AcDbCircle
 62
7
  6
CONTINUOUS
 10
11.4028707545
 20
9.1216737146
 40
0.0746406685
100
AcDbArc
 50
353.9991625791
 51
5.9985301895
  0
ARC
  5
28C
100
AcDbEntity
  8
0
100
AcDbCircle
 62
7
  6
CONTINUOUS
 10
11.4180367125
 20
9.1216644366
 40
0.066743813
100
AcDbArc
 50
353.2853633776
 51
6.7121915549
  0
ARC
  5
28D
100
AcDbEntity
  8
0
100
AcDbCircle
 62
7
  6
CONTINUOUS
 10
11.4276923427
 20
9.1216695021
 40
0.06
100
AcDbArc
 50
270.0
 51
330.7837879234
  0
ARC
  5
28E
100
AcDbEntity
  8
0
100
AcDbCircle
 62
7
  6
CONTINUOUS
 10
11.4276923427
 20
9.1216695021
 40
0.06
100
AcDbArc
 50
29.2162120766
 51
90.0
  0
ARC
  5
28F
100
AcDbEntity
  8
0
100
AcDbCircle
 62
7
  6
CONTINUOUS
 10
11.4283736396
 20
9.1209577606
 40
0.0593081279
100
AcDbArc
 50
40.7271674696
 51
50.0006602097
  0
ARC
  5
290
100
AcDbEntity
  8
0
100
AcDbCircle
 62
7
  6
CONTINUOUS
 10
11.4283736522
 20
9.1223812301
 40
0.0593081094
100
AcDbArc
 50
309.9993389464
 51
319.2734521916
  0
ARC
  5
291
100
AcDbEntity
  8
0
100
AcDbCircle
 62
7
  6
CONTINUOUS
 10
11.4292563851
 20
9.1216517472
 40
0.0581631999
100
AcDbArc
 50
319.2506837317
 51
40.7499436829
  0
ARC
  5
292
100
AcDbEntity
  8
0
100
AcDbCircle
 62
7
  6
CONTINUOUS
 10
11.4289040095
 20
9.119149686
 40
0.0572282298
100
AcDbArc
 50
312.48745159
 51
321.7061844392
  0
ARC
  5
293
100
AcDbEntity
  8
0
100
AcDbCircle
 62
7
  6
CONTINUOUS
 10
11.4289040634
 20
9.124189369
 40
0.0572281559
100
AcDbArc
 50
38.2944272964
 51
47.512553885
  0
ARC
  5
294
100
AcDbEntity
  8
0
100
AcDbCircle
 62
7
  6
CONTINUOUS
 10
11.4274126133
 20
9.125793983
 40
0.0563523735
100
AcDbArc
 50
36.9308287905
 51
46.0884369783
  0
ARC
  5
295
100
AcDbEntity
  8
0
100
AcDbCircle
 62
7
  6
CONTINUOUS
 10
11.4274127046
 20
9.1175449392
 40
0.056352251
100
AcDbArc
 50
313.9115541359
 51
323.0685701093
  0
ARC
  5
296
100
AcDbEntity
  8
0
100
AcDbCircle
 62
7
  6
CONTINUOUS
 10
11.4292392739
 20
9.1216767257
 40
0.0544156209
100
AcDbArc
 50
351.7557374074
 51
8.2475959646
  0
ARC
  5
297
100
AcDbEntity
  8
0
100
AcDbCircle
 62
7
  6
CONTINUOUS
 10
11.4241685441
 20
9.1216775292
 40
0.0513253837
100
AcDbArc
 50
351.2541850152
 51
8.749027286
  0
ARC
  5
298
100
AcDbEntity
  8
0
100
AcDbCircle
 62
7
  6
CONTINUOUS
 10
11.4139855522
 20
9.1216844166
 40
0.0490171081
100
AcDbArc
 50
350.8307150753
 51
9.1726446238
  0
ARC
  5
299
100
AcDbEntity
  8
0
100
AcDbCircle
 62
7
  6
CONTINUOUS
 10
11.3990576071
 20
9.1216869049
 40
0.0472240603
100
AcDbArc
 50
350.4763268437
 51
9.5271593437
  0
ARC
  5
29A
100
AcDbEntity
  8
0
100
AcDbCircle
 62
7
  6
CONTINUOUS
 10
11.3795578522
 20
9.1216889268
 40
0.0459077328
100
AcDbArc
 50
350.1980352795
 51
9.8055499731
  0
ARC
  5
29B
100
AcDbEntity
  8
0
100
AcDbCircle
 62
7
  6
CONTINUOUS
 10
11.3556825759
 20
9.1216933127
 40
0.0450394468
100
AcDbArc
 50
350.0014835332
 51
10.0021664082
  0
ARC
  5
29C
100
AcDbEntity
  8
0
100
AcDbCircle
 62
7
  6
CONTINUOUS
 10
12.1709099841
 20
8.2041149149
 40
0.48
100
AcDbArc
 50
212.6081295413
 51
255.0168080473
  0
ARC
  5
29D
100
AcDbEntity
  8
0
100
AcDbCircle
 62
7
  6
CONTINUOUS
 10
12.0315592558
 20
7.6834399928
 40
0.059
100
AcDbArc
 50
13.080738792
 51
75.0168071179
  0
ARC
  5
29E
100
AcDbEntity
  8
0
100
AcDbCircle
 62
7
  6
CONTINUOUS
 10
12.4247042811
 20
8.815303525
 40
1.027
100
AcDbArc
 50
166.1200123407
 51
216.9709495039
  0
ARC
  5
29F
100
AcDbEntity
  8
0
100
AcDbCircle
 62
7
  6
CONTINUOUS
 10
14.4769901043
 20
10.4034177449
 40
2.9541697296
100
AcDbArc
 50
176.4255348851
 51
180.0145120815
  0
ARC
  5
2A0
100
AcDbEntity
  8
0
100
AcDbCircle
 62
7
  6
CONTINUOUS
 10
14.4607905625
 20
10.4014419816
 40
2.9379682067
100
AcDbArc
 50
179.9760611102
 51
183.5913000839
  0
ARC
  5
2A1
100
AcDbEntity
  8
0
100
AcDbCircle
 62
7
  6
CONTINUOUS
 10
14.372776087
 20
10.3969664382
 40
2.8498483109
100
AcDbArc
 50
183.6123374408
 51
183.9110115213
  0
ARC
  5
2A2
100
AcDbEntity
  8
0
100
AcDbCircle
 62
7
  6
CONTINUOUS
 10
14.3511041944
 20
10.409734066
 40
2.828133467
100
AcDbArc
 50
176.1563349446
 51
176.3942462425
  0
ARC
  5
2A3
100
AcDbEntity
  8
0
100
AcDbCircle
 62
7
  6
CONTINUOUS
 10
12.1976923427
 20
10.4026695021
 40
0.275
100
AcDbArc
 50
234.9999999999
 51
125.0000000001
  0
ARC
  5
2A4
100
AcDbEntity
  8
0
100
AcDbCircle
 62
7
  6
CONTINUOUS
 10
11.7250683017
 20
10.0411695021
 40
0.25
100
AcDbArc
 50
43.0260516848
 51
135.6300695472
  0
ARC
  5
2A5
100
AcDbEntity
  8
0
100
AcDbCircle
 62
7
  6
CONTINUOUS
 10
11.7250683017
 20
10.7641695021
 40
0.25
100
AcDbArc
 50
224.3699304528
 51
316.9739483152
  0
ARC
  5
2A6
100
AcDbEntity
  8
0
100
AcDbCircle
 62
7
  6
CONTINUOUS
 10
11.3056923427
 20
9.9846695021
 40
0.118
100
AcDbArc
 50
90.0000129454
 51
180.0
  0
ARC
  5
2A7
100
AcDbEntity
  8
0
100
AcDbCircle
 62
7
  6
CONTINUOUS
 10
11.5076563726
 20
10.8599875763
 40
0.1
100
AcDbArc
 50
186.5927230272
 51
241.6573772923
  0
ARC
  5
2A8
100
AcDbEntity
  8
0
100
AcDbCircle
 62
7
  6
CONTINUOUS
 10
11.440784887
 20
10.6283930691
 40
0.079
100
AcDbArc
 50
19.0663081653
 51
70.0865226518
  0
ARC
  5
2A9
100
AcDbEntity
  8
0
100
AcDbCircle
 62
7
  6
CONTINUOUS
 10
11.4423983836
 20
10.1816695021
 40
0.079
100
AcDbArc
 50
270.0000006345
 51
341.3475770898
  0
ARC
  5
2AA
100
AcDbEntity
  8
0
100
AcDbCircle
 62
7
  6
CONTINUOUS
 10
11.3076923427
 20
10.8597882277
 40
0.05
100
AcDbArc
 50
3.3546662504
 51
70.7095459637
  0
ARC
  5
2AB
100
AcDbEntity
  8
0
100
AcDbCircle
 62
7
  6
CONTINUOUS
 10
11.4411923427
 20
10.7367701557
 40
0.04
100
AcDbArc
 50
330.0
 51
61.6573772921
  0
ARC
  5
2AC
100
AcDbEntity
  8
0
100
AcDbCircle
 62
7
  6
CONTINUOUS
 10
11.5241983189
 20
10.2376695021
 40
0.031
100
AcDbArc
 50
279.4505994861
 51
315.630086753
  0
ARC
  5
2AD
100
AcDbEntity
  8
0
100
AcDbCircle
 62
7
  6
CONTINUOUS
 10
11.5241983189
 20
10.5676695021
 40
0.031
100
AcDbArc
 50
44.3699132469
 51
80.5495990182
  0
ARC
  5
2AE
100
AcDbEntity
  8
0
100
AcDbCircle
 62
7
  6
CONTINUOUS
 10
11.3924234394
 20
10.8466695021
 40
0.016
100
AcDbArc
 50
6.5927298721
 51
90.0
  0
ARC
  5
2AF
100
AcDbEntity
  8
0
100
AcDbCircle
 62
7
  6
CONTINUOUS
 10
11.9486923427
 20
10.2217757738
 40
0.016
100
AcDbArc
 50
54.999999999
 51
180.0
  0
ARC
  5
2B0
100
AcDbEntity
  8
0
100
AcDbCircle
 62
7
  6
CONTINUOUS
 10
11.9486923427
 20
10.5835632305
 40
0.016
100
AcDbArc
 50
180.0
 51
305.000000001
  0
ARC
  5
2B1
100
AcDbEntity
  8
0
100
AcDbCircle
 62
7
  6
CONTINUOUS
 10
11.9195258806
 20
10.5826695021
 40
0.016
100
AcDbArc
 50
34.6234510998
 51
136.9739483152
  0
ARC
  5
2B2
100
AcDbEntity
  8
0
100
AcDbCircle
 62
7
  6
CONTINUOUS
 10
11.9195258806
 20
10.2226695021
 40
0.016
100
AcDbArc
 50
223.0260516848
 51
325.3765489002
  0
LINE
  5
2B3
100
AcDbEntity
  8
0
100
AcDbLine
 62
7
  6
CONTINUOUS
 10
10.3458201505
 20
10.2025867442
 11
10.3454853624
 21
10.1976695046
  0
LINE
  5
2B4
100
AcDbEntity
  8
0
100
AcDbLine
 62
7
  6
CONTINUOUS
 10
10.3458200234
 20
10.6027540669
 11
10.3454853642
 21
10.6076694996
  0
LINE
  5
2B5
100
AcDbEntity
  8
0
100
AcDbLine
 62
7
  6
CONTINUOUS
 10
11.5295645349
 20
10.2025867442
 11
11.529899323
 21
10.1976695046
  0
LINE
  5
2B6
100
AcDbEntity
  8
0
100
AcDbLine
 62
7
  6
CONTINUOUS
 10
11.5295646621
 20
10.6027540669
 11
11.5298993213
 21
10.6076694996
  0
SPLINE
  5
2B7
100
AcDbEntity
  8
0
100
AcDbSpline
 62
7
  6
CONTINUOUS
 70
0
 71
3
 72
11
 73
7
 74
0
 42
0.0000001
 43
0.0000001
 44
0.0000000001
 40
0.0
 40
0.0
 40
0.0
 40
0.0
 40
0.2655230197
 40
0.5219147902
 40
0.7668828593
 40
1.0
 40
1.0
 40
1.0
 40
1.0
 10
10.389104207
 20
9.1294684166
 30
0.0
 10
10.3894635211
 20
9.1323703412
 30
0.0
 10
10.3905679647
 20
9.1380334513
 30
0.0
 10
10.3933236766
 20
9.1460438155
 30
0.0
 10
10.3969822447
 20
9.1532844248
 30
0.0
 10
10.3999729925
 20
9.1576392478
 30
0.0
 10
10.4015642556
 20
9.1596538118
 30
0.0
  0
SPLINE
  5
2B8
100
AcDbEntity
  8
0
100
AcDbSpline
 62
7
  6
CONTINUOUS
 70
0
 71
3
 72
11
 73
7
 74
0
 42
0.0000001
 43
0.0000001
 44
0.0000000001
 40
0.0
 40
0.0
 40
0.0
 40
0.0
 40
0.2765826936
 40
0.5369131761
 40
0.7777485616
 40
1.0
 40
1.0
 40
1.0
 40
1.0
 10
10.3941352862
 20
9.1294684166
 30
0.0
 10
10.3945581194
 20
9.1332534744
 30
0.0
 10
10.3959837787
 20
9.1405495061
 30
0.0
 10
10.3997644281
 20
9.1506209466
 30
0.0
 10
10.4047845616
 20
9.1592768318
 30
0.0
 10
10.408877824
 20
9.1642113707
 30
0.0
 10
10.4110263512
 20
9.1663908617
 30
0.0
  0
SPLINE
  5
2B9
100
AcDbEntity
  8
0
100
AcDbSpline
 62
7
  6
CONTINUOUS
 70
0
 71
3
 72
11
 73
7
 74
0
 42
0.0000001
 43
0.0000001
 44
0.0000000001
 40
0.0
 40
0.0
 40
0.0
 40
0.0
 40
0.2815682277
 40
0.5440143748
 40
0.7832522505
 40
1.0
 40
1.0
 40
1.0
 40
1.0
 10
10.40354301
 20
9.1294684166
 30
0.0
 10
10.4039155827
 20
9.1332430768
 30
0.0
 10
10.4051641189
 20
9.1404965936
 30
0.0
 10
10.4084884434
 20
9.1505513907
 30
0.0
 10
10.4129077417
 20
9.1592036107
 30
0.0
 10
10.4165495737
 20
9.1641891335
 30
0.0
 10
10.4184672976
 20
9.1663908617
 30
0.0
  0
SPLINE
  5
2BA
100
AcDbEntity
  8
0
100
AcDbSpline
 62
7
  6
CONTINUOUS
 70
0
 71
3
 72
10
 73
6
 74
0
 42
0.0000001
 43
0.0000001
 44
0.0000000001
 40
0.0
 40
0.0
 40
0.0
 40
0.0
 40
0.2869348231
 40
0.5518890128
 40
1.0
 40
1.0
 40
1.0
 40
1.0
 10
10.4172516291
 20
9.1294684166
 30
0.0
 10
10.417571279
 20
9.1332333735
 30
0.0
 10
10.4186380532
 20
9.1404506804
 30
0.0
 10
10.4222307265
 20
9.1531335099
 30
0.0
 10
10.4265507871
 20
9.1616683121
 30
0.0
 10
10.4300889707
 20
9.1663908617
 30
0.0
  0
SPLINE
  5
2BB
100
AcDbEntity
  8
0
100
AcDbSpline
 62
7
  6
CONTINUOUS
 70
0
 71
3
 72
11
 73
7
 74
0
 42
0.0000001
 43
0.0000001
 44
0.0000000001
 40
0.0
 40
0.0
 40
0.0
 40
0.0
 40
0.2914218997
 40
0.5582170192
 40
0.7944382339
 40
1.0
 40
1.0
 40
1.0
 40
1.0
 10
10.4351507633
 20
9.1294684166
 30
0.0
 10
10.4354152635
 20
9.1332246965
 30
0.0
 10
10.4362917404
 20
9.1404004983
 30
0.0
 10
10.438639974
 20
9.150415442
 30
0.0
 10
10.4417637631
 20
9.1590447473
 30
0.0
 10
10.4443959172
 20
9.1641347905
 30
0.0
 10
10.4457977947
 20
9.1663908617
 30
0.0
  0
SPLINE
  5
2BC
100
AcDbEntity
  8
0
100
AcDbSpline
 62
7
  6
CONTINUOUS
 70
0
 71
3
 72
11
 73
7
 74
0
 42
0.0000001
 43
0.0000001
 44
0.0000000001
 40
0.0
 40
0.0
 40
0.0
 40
0.0
 40
0.2958066645
 40
0.5646083094
 40
0.7995535646
 40
1.0
 40
1.0
 40
1.0
 40
1.0
 10
10.4570962833
 20
9.1294682683
 30
0.0
 10
10.4573038309
 20
9.1332172158
 30
0.0
 10
10.45798842
 20
9.1403610729
 30
0.0
 10
10.4598263502
 20
9.1503558608
 30
0.0
 10
10.4622703157
 20
9.1589679351
 30
0.0
 10
10.4643504445
 20
9.1641048148
 30
0.0
 10
10.4654672843
 20
9.1663908617
 30
0.0
  0
SPLINE
  5
2BD
100
AcDbEntity
  8
0
100
AcDbSpline
 62
7
  6
CONTINUOUS
 70
0
 71
3
 72
11
 73
7
 74
0
 42
0.0000001
 43
0.0000001
 44
0.0000000001
 40
0.0
 40
0.0
 40
0.0
 40
0.0
 40
0.2994530827
 40
0.5699566172
 40
0.8038748769
 40
1.0
 40
1.0
 40
1.0
 40
1.0
 10
10.4829115114
 20
9.1294684166
 30
0.0
 10
10.4830607292
 20
9.1332115919
 30
0.0
 10
10.4835511207
 20
9.140330018
 30
0.0
 10
10.4848694959
 20
9.1503069915
 30
0.0
 10
10.4866215
 20
9.1589013412
 30
0.0
 10
10.4881248756
 20
9.164076374
 30
0.0
 10
10.4889390634
 20
9.1663908617
 30
0.0
  0
SPLINE
  5
2BE
100
AcDbEntity
  8
0
100
AcDbSpline
 62
7
  6
CONTINUOUS
 70
0
 71
3
 72
11
 73
7
 74
0
 42
0.0000001
 43
0.0000001
 44
0.0000000001
 40
0.0
 40
0.0
 40
0.0
 40
0.0
 40
0.3011099684
 40
0.5764354204
 40
0.8107800654
 40
1.0
 40
1.0
 40
1.0
 40
1.0
 10
10.5122951988
 20
9.1216695021
 30
0.0
 10
10.5122951988
 20
9.1261804747
 30
0.0
 10
10.5124714212
 20
9.134817261
 30
0.0
 10
10.5132326709
 20
9.1469438778
 30
0.0
 10
10.514381988
 20
9.1573546756
 30
0.0
 10
10.5154357688
 20
9.163617863
 30
0.0
 10
10.5160241406
 20
9.1663908617
 30
0.0
  0
SPLINE
  5
2BF
100
AcDbEntity
  8
0
100
AcDbSpline
 62
7
  6
CONTINUOUS
 70
0
 71
3
 72
11
 73
7
 74
0
 42
0.0000001
 43
0.0000001
 44
0.0000000001
 40
0.0
 40
0.0
 40
0.0
 40
0.0
 40
0.3023778358
 40
0.5784062473
 40
0.8124462253
 40
1.0
 40
1.0
 40
1.0
 40
1.0
 10
10.5452589148
 20
9.1216695021
 30
0.0
 10
10.5452589148
 20
9.1261795939
 30
0.0
 10
10.5453176776
 20
9.1348068891
 30
0.0
 10
10.5455714685
 20
9.1469226656
 30
0.0
 10
10.5459545409
 20
9.1573213662
 30
0.0
 10
10.5463066704
 20
9.1636004177
 30
0.0
 10
10.5465044308
 20
9.1663908617
 30
0.0
  0
SPLINE
  5
2C0
100
AcDbEntity
  8
0
100
AcDbSpline
 62
7
  6
CONTINUOUS
 70
0
 71
3
 72
11
 73
7
 74
0
 42
0.0000001
 43
0.0000001
 44
0.0000000001
 40
0.0
 40
0.0
 40
0.0
 40
0.0
 40
0.3018962229
 40
0.5776571855
 40
0.8118122881
 40
1.0
 40
1.0
 40
1.0
 40
1.0
 10
11.3470679004
 20
9.1216695021
 30
0.0
 10
11.3470679004
 20
9.1171590777
 30
0.0
 10
11.3469501917
 20
9.1085281983
 30
0.0
 10
11.3464417725
 20
9.096408294
 30
0.0
 10
11.3456742932
 20
9.0860049532
 30
0.0
 10
11.3449694761
 20
9.0797318503
 30
0.0
 10
11.3445745417
 20
9.0769481426
 30
0.0
  0
SPLINE
  5
2C1
100
AcDbEntity
  8
0
100
AcDbSpline
 62
7
  6
CONTINUOUS
 70
0
 71
3
 72
11
 73
7
 74
0
 42
0.0000001
 43
0.0000001
 44
0.0000000001
 40
0.0
 40
0.0
 40
0.0
 40
0.0
 40
0.3009060701
 40
0.5720962048
 40
0.8056142927
 40
1.0
 40
1.0
 40
1.0
 40
1.0
 10
11.37822121
 20
9.1138705877
 30
0.0
 10
11.3781014638
 20
9.1101296213
 30
0.0
 10
11.3777084801
 20
9.1030210186
 30
0.0
 10
11.3766514916
 20
9.0930513591
 30
0.0
 10
11.3752472733
 20
9.0844648758
 30
0.0
 10
11.3740385462
 20
9.0792750035
 30
0.0
 10
11.3733812853
 20
9.0769481426
 30
0.0
  0
SPLINE
  5
2C2
100
AcDbEntity
  8
0
100
AcDbSpline
 62
7
  6
CONTINUOUS
 70
0
 71
3
 72
11
 73
7
 74
0
 42
0.0000001
 43
0.0000001
 44
0.0000000001
 40
0.0
 40
0.0
 40
0.0
 40
0.0
 40
0.2977350822
 40
0.5674329831
 40
0.8018311236
 40
1.0
 40
1.0
 40
1.0
 40
1.0
 10
11.4058898708
 20
9.1138705877
 30
0.0
 10
11.4057112542
 20
9.1101247387
 30
0.0
 10
11.405123248
 20
9.1029944785
 30
0.0
 10
11.4035434105
 20
9.093009026
 30
0.0
 10
11.4014432741
 20
9.0844059706
 30
0.0
 10
11.3996480011
 20
9.079248787
 30
0.0
 10
11.3986799231
 20
9.0769481426
 30
0.0
  0
SPLINE
  5
2C3
100
AcDbEntity
  8
0
100
AcDbSpline
 62
7
  6
CONTINUOUS
 70
0
 71
3
 72
11
 73
7
 74
0
 42
0.0000001
 43
0.0000001
 44
0.0000000001
 40
0.0
 40
0.0
 40
0.0
 40
0.0
 40
0.2936817806
 40
0.5615055561
 40
0.797063716
 40
1.0
 40
1.0
 40
1.0
 40
1.0
 10
11.4297886711
 20
9.1138705877
 30
0.0
 10
11.429552364
 20
9.1101181545
 30
0.0
 10
11.4287711958
 20
9.1029590287
 30
0.0
 10
11.4266759734
 20
9.0929543269
 30
0.0
 10
11.4238891954
 20
9.0843333689
 30
0.0
 10
11.4215287795
 20
9.0792191317
 30
0.0
 10
11.4202667538
 20
9.0769481426
 30
0.0
  0
SPLINE
  5
2C4
100
AcDbEntity
  8
0
100
AcDbSpline
 62
7
  6
CONTINUOUS
 70
0
 71
3
 72
11
 73
7
 74
0
 42
0.0000001
 43
0.0000001
 44
0.0000000001
 40
0.0
 40
0.0
 40
0.0
 40
0.0
 40
0.2890366759
 40
0.5547587158
 40
0.7916918667
 40
1.0
 40
1.0
 40
1.0
 40
1.0
 10
11.4497251812
 20
9.1138705876
 30
0.0
 10
11.4494327743
 20
9.1101101046
 30
0.0
 10
11.4484612885
 20
9.1029162435
 30
0.0
 10
11.4458618944
 20
9.0928909027
 30
0.0
 10
11.442403849
 20
9.084254057
 30
0.0
 10
11.4395059677
 20
9.0791895678
 30
0.0
 10
11.4379679634
 20
9.0769481426
 30
0.0
  0
SPLINE
  5
2C5
100
AcDbEntity
  8
0
100
AcDbSpline
 62
7
  6
CONTINUOUS
 70
0
 71
3
 72
10
 73
6
 74
0
 42
0.0000001
 43
0.0000001
 44
0.0000000001
 40
0.0
 40
0.0
 40
0.0
 40
0.0
 40
0.2844561272
 40
0.5483391326
 40
1.0
 40
1.0
 40
1.0
 40
1.0
 10
11.465538875
 20
9.1138705877
 30
0.0
 10
11.4651923812
 20
9.110100873
 30
0.0
 10
11.464032296
 20
9.1028636268
 30
0.0
 10
11.4601214716
 20
9.0901235984
 30
0.0
 10
11.4554274647
 20
9.0816163994
 30
0.0
 10
11.4516410242
 20
9.0769481426
 30
0.0
  0
SPLINE
  5
2C6
100
AcDbEntity
  8
0
100
AcDbSpline
 62
7
  6
CONTINUOUS
 70
0
 71
3
 72
11
 73
7
 74
0
 42
0.0000001
 43
0.0000001
 44
0.0000000001
 40
0.0
 40
0.0
 40
0.0
 40
0.0
 40
0.279052038
 40
0.5404232696
 40
0.7804618106
 40
1.0
 40
1.0
 40
1.0
 40
1.0
 10
11.4771024196
 20
9.1138705553
 30
0.0
 10
11.4767042831
 20
9.1100907495
 30
0.0
 10
11.4753659995
 20
9.1028160562
 30
0.0
 10
11.4718096908
 20
9.0927525378
 30
0.0
 10
11.4670844457
 20
9.0840978442
 30
0.0
 10
11.4632115778
 20
9.079138273
 30
0.0
 10
11.4611758427
 20
9.0769481426
 30
0.0
  0
SPLINE
  5
2C7
100
AcDbEntity
  8
0
100
AcDbSpline
 62
7
  6
CONTINUOUS
 70
0
 71
3
 72
9
 73
5
 74
0
 42
0.0000001
 43
0.0000001
 44
0.0000000001
 40
0.0
 40
0.0
 40
0.0
 40
0.0
 40
0.5241414238
 40
1.0
 40
1.0
 40
1.0
 40
1.0
 10
11.484322717
 20
9.1138705876
 30
0.0
 10
11.4836534397
 20
9.1081940078
 30
0.0
 10
11.4809627423
 20
9.0974743396
 30
0.0
 10
11.4755774331
 20
9.0878324394
 30
0.0
 10
11.472458168
 20
9.0836851929
 30
0.0
  0
SPLINE
  5
2C8
100
AcDbEntity
  8
0
100
AcDbSpline
 62
7
  6
CONTINUOUS
 70
0
 71
3
 72
15
 73
11
 74
0
 42
0.0000001
 43
0.0000001
 44
0.0000000001
 40
0.0
 40
0.0
 40
0.0
 40
0.0
 40
0.0725549697
 40
0.1516651939
 40
0.239934941
 40
0.3410223867
 40
0.460196443
 40
0.605092095
 40
0.7851516154
 40
1.0
 40
1.0
 40
1.0
 40
1.0
 10
11.6494447254
 20
8.0527523339
 30
0.0
 10
11.6508714529
 20
8.053779973
 30
0.0
 10
11.6537422878
 20
8.0560878342
 30
0.0
 10
11.6578561239
 20
8.0602135666
 30
0.0
 10
11.6619036147
 20
8.0653259524
 30
0.0
 10
11.6658381666
 20
8.0717040049
 30
0.0
 10
11.6695726598
 20
8.0797491881
 30
0.0
 10
11.6729169905
 20
8.0900070374
 30
0.0
 10
11.6754248482
 20
8.1028787972
 30
0.0
 10
11.6760475724
 20
8.1124628791
 30
0.0
 10
11.6760475724
 20
8.117669502
 30
0.0
  0
SPLINE
  5
2C9
100
AcDbEntity
  8
0
100
AcDbSpline
 62
7
  6
CONTINUOUS
 70
0
 71
3
 72
15
 73
11
 74
0
 42
0.0000001
 43
0.0000001
 44
0.0000000001
 40
0.0
 40
0.0
 40
0.0
 40
0.0
 40
0.0725549697
 40
0.1516651939
 40
0.239934941
 40
0.3410223867
 40
0.460196443
 40
0.605092095
 40
0.7851516154
 40
1.0
 40
1.0
 40
1.0
 40
1.0
 10
10.2259399601
 20
8.0527523339
 30
0.0
 10
10.2245132326
 20
8.053779973
 30
0.0
 10
10.2216423977
 20
8.0560878342
 30
0.0
 10
10.2175285615
 20
8.0602135666
 30
0.0
 10
10.2134810707
 20
8.0653259524
 30
0.0
 10
10.2095465189
 20
8.0717040049
 30
0.0
 10
10.2058120256
 20
8.0797491881
 30
0.0
 10
10.2024676949
 20
8.0900070374
 30
0.0
 10
10.1999598372
 20
8.1028787972
 30
0.0
 10
10.1993371131
 20
8.1124628791
 30
0.0
 10
10.1993371131
 20
8.117669502
 30
0.0
  0
SPLINE
  5
2CA
100
AcDbEntity
  8
0
100
AcDbSpline
 62
7
  6
CONTINUOUS
 70
0
 71
3
 72
15
 73
11
 74
0
 42
0.0000001
 43
0.0000001
 44
0.0000000001
 40
0.0
 40
0.0
 40
0.0
 40
0.0
 40
0.2148406849
 40
0.3948998647
 40
0.539797863
 40
0.6589733752
 40
0.7600618153
 40
0.8483325428
 40
0.9274438127
 40
1.0
 40
1.0
 40
1.0
 40
1.0
 10
10.1993371131
 20
8.117669502
 30
0.0
 10
10.1993371131
 20
8.1228759385
 30
0.0
 10
10.1999598011
 20
8.1324598264
 30
0.0
 10
10.2024675963
 20
8.1453314537
 30
0.0
 10
10.2058118201
 20
8.1555894264
 30
0.0
 10
10.209546351
 20
8.1636347274
 30
0.0
 10
10.213480974
 20
8.1700128292
 30
0.0
 10
10.217528484
 20
8.1751253018
 30
0.0
 10
10.2216424094
 20
8.179251036
 30
0.0
 10
10.2245131473
 20
8.1815591202
 30
0.0
 10
10.225939959
 20
8.182586693
 30
0.0
  0
SPLINE
  5
2CB
100
AcDbEntity
  8
0
100
AcDbSpline
 62
7
  6
CONTINUOUS
 70
0
 71
3
 72
15
 73
11
 74
0
 42
0.0000001
 43
0.0000001
 44
0.0000000001
 40
0.0
 40
0.0
 40
0.0
 40
0.0
 40
0.2148406849
 40
0.3948998647
 40
0.539797863
 40
0.6589733752
 40
0.7600618153
 40
0.8483325428
 40
0.9274438127
 40
1.0
 40
1.0
 40
1.0
 40
1.0
 10
11.6760475724
 20
8.117669502
 30
0.0
 10
11.6760475724
 20
8.1228759385
 30
0.0
 10
11.6754248844
 20
8.1324598264
 30
0.0
 10
11.6729170892
 20
8.1453314537
 30
0.0
 10
11.6695728654
 20
8.1555894264
 30
0.0
 10
11.6658383345
 20
8.1636347274
 30
0.0
 10
11.6619037115
 20
8.1700128292
 30
0.0
 10
11.6578562015
 20
8.1751253018
 30
0.0
 10
11.6537422761
 20
8.179251036
 30
0.0
 10
11.6508715382
 20
8.1815591202
 30
0.0
 10
11.6494447265
 20
8.182586693
 30
0.0
  0
SPLINE
  5
2CC
100
AcDbEntity
  8
0
100
AcDbSpline
 62
7
  6
CONTINUOUS
 70
0
 71
3
 72
11
 73
7
 74
0
 42
0.0000001
 43
0.0000001
 44
0.0000000001
 40
0.0
 40
0.0
 40
0.0
 40
0.0
 40
0.3018960217
 40
0.5776570048
 40
0.8118122673
 40
1.0
 40
1.0
 40
1.0
 40
1.0
 10
11.3470679004
 20
9.1216695021
 30
0.0
 10
11.3470679004
 20
9.1261799236
 30
0.0
 10
11.3469501918
 20
9.1348108003
 30
0.0
 10
11.3464417727
 20
9.1469307043
 30
0.0
 10
11.3456742936
 20
9.1573340481
 30
0.0
 10
11.3449694762
 20
9.1636071536
 30
0.0
 10
11.3445745417
 20
9.1663908617
 30
0.0
  0
SPLINE
  5
2CD
100
AcDbEntity
  8
0
100
AcDbSpline
 62
7
  6
CONTINUOUS
 70
0
 71
3
 72
11
 73
7
 74
0
 42
0.0000001
 43
0.0000001
 44
0.0000000001
 40
0.0
 40
0.0
 40
0.0
 40
0.0
 40
0.3009063139
 40
0.5720977721
 40
0.8056160106
 40
1.0
 40
1.0
 40
1.0
 40
1.0
 10
11.3782213005
 20
9.1294655913
 30
0.0
 10
11.3781015891
 20
9.1332068455
 30
0.0
 10
11.3777086495
 20
9.1403160104
 30
0.0
 10
11.3766516616
 20
9.1502864553
 30
0.0
 10
11.3752473892
 20
9.1588735946
 30
0.0
 10
11.3740385902
 20
9.1640638451
 30
0.0
 10
11.3733812853
 20
9.1663908617
 30
0.0
  0
SPLINE
  5
2CE
100
AcDbEntity
  8
0
100
AcDbSpline
 62
7
  6
CONTINUOUS
 70
0
 71
3
 72
11
 73
7
 74
0
 42
0.0000001
 43
0.0000001
 44
0.0000000001
 40
0.0
 40
0.0
 40
0.0
 40
0.0
 40
0.2977353837
 40
0.5674345638
 40
0.8018328136
 40
1.0
 40
1.0
 40
1.0
 40
1.0
 10
11.4058900056
 20
9.1294655913
 30
0.0
 10
11.405711441
 20
9.1332117275
 30
0.0
 10
11.4051235008
 20
9.1403425508
 30
0.0
 10
11.4035436637
 20
9.1503287915
 30
0.0
 10
11.4014434456
 20
9.1589325058
 30
0.0
 10
11.3996480652
 20
9.1640900649
 30
0.0
 10
11.3986799231
 20
9.1663908617
 30
0.0
  0
SPLINE
  5
2CF
100
AcDbEntity
  8
0
100
AcDbSpline
 62
7
  6
CONTINUOUS
 70
0
 71
3
 72
11
 73
7
 74
0
 42
0.0000001
 43
0.0000001
 44
0.0000000001
 40
0.0
 40
0.0
 40
0.0
 40
0.0
 40
0.2936821409
 40
0.5615071309
 40
0.7970653529
 40
1.0
 40
1.0
 40
1.0
 40
1.0
 10
11.4297888491
 20
9.1294655913
 30
0.0
 10
11.429552611
 20
9.1332183109
 30
0.0
 10
11.4287715304
 20
9.1403780012
 30
0.0
 10
11.4266763075
 20
9.1503834949
 30
0.0
 10
11.42388942
 20
9.1590051152
 30
0.0
 10
11.4215288622
 20
9.1641197237
 30
0.0
 10
11.4202667538
 20
9.1663908617
 30
0.0
  0
SPLINE
  5
2D0
100
AcDbEntity
  8
0
100
AcDbSpline
 62
7
  6
CONTINUOUS
 70
0
 71
3
 72
11
 73
7
 74
0
 42
0.0000001
 43
0.0000001
 44
0.0000000001
 40
0.0
 40
0.0
 40
0.0
 40
0.0
 40
0.2890370829
 40
0.5547602527
 40
0.7916934198
 40
1.0
 40
1.0
 40
1.0
 40
1.0
 10
11.4497254009
 20
9.1294655912
 30
0.0
 10
11.4494330795
 20
9.1332263597
 30
0.0
 10
11.4484617026
 20
9.1404207871
 30
0.0
 10
11.4458623065
 20
9.1504469243
 30
0.0
 10
11.4424041231
 20
9.159084436
 30
0.0
 10
11.4395060674
 20
9.1641492912
 30
0.0
 10
11.4379679634
 20
9.1663908617
 30
0.0
  0
SPLINE
  5
2D1
100
AcDbEntity
  8
0
100
AcDbSpline
 62
7
  6
CONTINUOUS
 70
0
 71
3
 72
10
 73
6
 74
0
 42
0.0000001
 43
0.0000001
 44
0.0000000001
 40
0.0
 40
0.0
 40
0.0
 40
0.0
 40
0.2844566022
 40
0.5483406757
 40
1.0
 40
1.0
 40
1.0
 40
1.0
 10
11.4655391348
 20
9.1294655913
 30
0.0
 10
11.4651927423
 20
9.1332355903
 30
0.0
 10
11.4640327862
 20
9.1404734063
 30
0.0
 10
11.4601219665
 20
9.1532144226
 30
0.0
 10
11.4554277192
 20
9.161722291
 30
0.0
 10
11.4516410242
 20
9.1663908617
 30
0.0
  0
SPLINE
  5
2D2
100
AcDbEntity
  8
0
100
AcDbSpline
 62
7
  6
CONTINUOUS
 70
0
 71
3
 72
11
 73
7
 74
0
 42
0.0000001
 43
0.0000001
 44
0.0000000001
 40
0.0
 40
0.0
 40
0.0
 40
0.0
 40
0.2790525062
 40
0.5404246978
 40
0.7804631762
 40
1.0
 40
1.0
 40
1.0
 40
1.0
 10
11.4771027337
 20
9.1294654678
 30
0.0
 10
11.4767047203
 20
9.1332455725
 30
0.0
 10
11.4753665942
 20
9.1405208694
 30
0.0
 10
11.4718102776
 20
9.1505852387
 30
0.0
 10
11.4670848274
 20
9.1592406406
 30
0.0
 10
11.463211714
 20
9.1642005847
 30
0.0
 10
11.4611758427
 20
9.1663908617
 30
0.0
  0
SPLINE
  5
2D3
100
AcDbEntity
  8
0
100
AcDbSpline
 62
7
  6
CONTINUOUS
 70
0
 71
3
 72
9
 73
5
 74
0
 42
0.0000001
 43
0.0000001
 44
0.0000000001
 40
0.0
 40
0.0
 40
0.0
 40
0.0
 40
0.524141696
 40
1.0
 40
1.0
 40
1.0
 40
1.0
 10
11.4843230502
 20
9.1294655913
 30
0.0
 10
11.48365397
 20
9.1351425887
 30
0.0
 10
11.4809634608
 20
9.1458630973
 30
0.0
 10
11.475577962
 20
9.1555057715
 30
0.0
 10
11.4724585299
 20
9.1596533302
 30
0.0
  0
LINE
  5
2D4
100
AcDbEntity
  8
0
100
AcDbLine
 62
7
  6
CONTINUOUS
 10
11.5298993213
 20
10.6076694996
 11
11.5293321292
 21
10.5993160262
  0
LINE
  5
2D5
100
AcDbEntity
  8
0
100
AcDbLine
 62
7
  6
CONTINUOUS
 10
10.3454853624
 20
10.1976695046
 11
10.3460525204
 21
10.2060224649
  0
SPLINE
  5
2D6
100
AcDbEntity
  8
0
100
AcDbSpline
 62
7
  6
CONTINUOUS
 70
0
 71
3
 72
11
 73
7
 74
0
 42
0.0000001
 43
0.0000001
 44
0.0000000001
 40
0.0
 40
0.0
 40
0.0
 40
0.0
 40
0.2655229235
 40
0.5219150621
 40
0.7668834067
 40
1.0
 40
1.0
 40
1.0
 40
1.0
 10
10.3891038534
 20
9.1138734433
 30
0.0
 10
10.3894630601
 20
9.1109713053
 30
0.0
 10
10.3905673469
 20
9.1053077575
 30
0.0
 10
10.3933229917
 20
9.0972967489
 30
0.0
 10
10.39698164
 20
9.0900555552
 30
0.0
 10
10.3999725264
 20
9.0857003908
 30
0.0
 10
10.4015638729
 20
9.0836856771
 30
0.0
  0
SPLINE
  5
2D7
100
AcDbEntity
  8
0
100
AcDbSpline
 62
7
  6
CONTINUOUS
 70
0
 71
3
 72
11
 73
7
 74
0
 42
0.0000001
 43
0.0000001
 44
0.0000000001
 40
0.0
 40
0.0
 40
0.0
 40
0.0
 40
0.2765831194
 40
0.536914462
 40
0.7777497878
 40
1.0
 40
1.0
 40
1.0
 40
1.0
 10
10.3941349671
 20
9.1138734433
 30
0.0
 10
10.3945576749
 20
9.1100880999
 30
0.0
 10
10.3959831737
 20
9.1027914885
 30
0.0
 10
10.3997638326
 20
9.0927192305
 30
0.0
 10
10.4047841763
 20
9.0840626656
 30
0.0
 10
10.4088776869
 20
9.0791277726
 30
0.0
 10
10.4110263512
 20
9.0769481426
 30
0.0
  0
SPLINE
  5
2D8
100
AcDbEntity
  8
0
100
AcDbSpline
 62
7
  6
CONTINUOUS
 70
0
 71
3
 72
11
 73
7
 74
0
 42
0.0000001
 43
0.0000001
 44
0.0000000001
 40
0.0
 40
0.0
 40
0.0
 40
0.0
 40
0.2815686679
 40
0.5440157965
 40
0.7832536339
 40
1.0
 40
1.0
 40
1.0
 40
1.0
 10
10.4035427281
 20
9.1138734433
 30
0.0
 10
10.4039151905
 20
9.1100984963
 30
0.0
 10
10.4051635857
 20
9.1028444031
 30
0.0
 10
10.408487916
 20
9.0927887936
 30
0.0
 10
10.4129073967
 20
9.084135896
 30
0.0
 10
10.4165494502
 20
9.0791500127
 30
0.0
 10
10.4184672976
 20
9.0769481426
 30
0.0
  0
SPLINE
  5
2D9
100
AcDbEntity
  8
0
100
AcDbSpline
 62
7
  6
CONTINUOUS
 70
0
 71
3
 72
10
 73
6
 74
0
 42
0.0000001
 43
0.0000001
 44
0.0000000001
 40
0.0
 40
0.0
 40
0.0
 40
0.0
 40
0.2869352898
 40
0.5518906087
 40
1.0
 40
1.0
 40
1.0
 40
1.0
 10
10.4172513866
 20
9.1138734433
 30
0.0
 10
10.417570942
 20
9.1101081985
 30
0.0
 10
10.418637596
 20
9.102890317
 30
0.0
 10
10.422230264
 20
9.0902064963
 30
0.0
 10
10.4265505443
 20
9.0816710162
 30
0.0
 10
10.4300889707
 20
9.0769481426
 30
0.0
  0
SPLINE
  5
2DA
100
AcDbEntity
  8
0
100
AcDbSpline
 62
7
  6
CONTINUOUS
 70
0
 71
3
 72
11
 73
7
 74
0
 42
0.0000001
 43
0.0000001
 44
0.0000000001
 40
0.0
 40
0.0
 40
0.0
 40
0.0
 40
0.2914222903
 40
0.5582185971
 40
0.7944398503
 40
1.0
 40
1.0
 40
1.0
 40
1.0
 10
10.4351505622
 20
9.1138734433
 30
0.0
 10
10.4354149843
 20
9.1101168745
 30
0.0
 10
10.4362913619
 20
9.1029405012
 30
0.0
 10
10.4386395966
 20
9.092924755
 30
0.0
 10
10.4417635108
 20
9.0842947783
 30
0.0
 10
10.4443958248
 20
9.0792043624
 30
0.0
 10
10.4457977947
 20
9.0769481426
 30
0.0
  0
SPLINE
  5
2DB
100
AcDbEntity
  8
0
100
AcDbSpline
 62
7
  6
CONTINUOUS
 70
0
 71
3
 72
11
 73
7
 74
0
 42
0.0000001
 43
0.0000001
 44
0.0000000001
 40
0.0
 40
0.0
 40
0.0
 40
0.0
 40
0.2958070548
 40
0.5646100861
 40
0.7995554208
 40
1.0
 40
1.0
 40
1.0
 40
1.0
 10
10.4570961093
 20
9.1138738788
 30
0.0
 10
10.4573035896
 20
9.1101246121
 30
0.0
 10
10.4579880933
 20
9.1029801277
 30
0.0
 10
10.4598260234
 20
9.092984461
 30
0.0
 10
10.4622700952
 20
9.0843716521
 30
0.0
 10
10.4643503627
 20
9.0792343571
 30
0.0
 10
10.4654672843
 20
9.0769481426
 30
0.0
  0
SPLINE
  5
2DC
100
AcDbEntity
  8
0
100
AcDbSpline
 62
7
  6
CONTINUOUS
 70
0
 71
3
 72
11
 73
7
 74
0
 42
0.0000001
 43
0.0000001
 44
0.0000000001
 40
0.0
 40
0.0
 40
0.0
 40
0.0
 40
0.2994533577
 40
0.5699582102
 40
0.803876602
 40
1.0
 40
1.0
 40
1.0
 40
1.0
 10
10.4829113975
 20
9.1138734433
 30
0.0
 10
10.4830605714
 20
9.1101299774
 30
0.0
 10
10.4835509073
 20
9.1030109826
 30
0.0
 10
10.484869282
 20
9.093033214
 30
0.0
 10
10.4866213545
 20
9.0844381999
 30
0.0
 10
10.4881248208
 20
9.0792627861
 30
0.0
 10
10.4889390634
 20
9.0769481426
 30
0.0
  0
SPLINE
  5
2DD
100
AcDbEntity
  8
0
100
AcDbSpline
 62
7
  6
CONTINUOUS
 70
0
 71
3
 72
11
 73
7
 74
0
 42
0.0000001
 43
0.0000001
 44
0.0000000001
 40
0.0
 40
0.0
 40
0.0
 40
0.0
 40
0.3011097657
 40
0.5764352388
 40
0.8107800443
 40
1.0
 40
1.0
 40
1.0
 40
1.0
 10
10.5122951988
 20
9.1216695021
 30
0.0
 10
10.5122951988
 20
9.1171585326
 30
0.0
 10
10.512471421
 20
9.108521749
 30
0.0
 10
10.5132326705
 20
9.0963951325
 30
0.0
 10
10.5143819874
 20
9.0859843316
 30
0.0
 10
10.5154357687
 20
9.0797211416
 30
0.0
 10
10.5160241406
 20
9.0769481426
 30
0.0
  0
SPLINE
  5
2DE
100
AcDbEntity
  8
0
100
AcDbSpline
 62
7
  6
CONTINUOUS
 70
0
 71
3
 72
11
 73
7
 74
0
 42
0.0000001
 43
0.0000001
 44
0.0000000001
 40
0.0
 40
0.0
 40
0.0
 40
0.0
 40
0.3023776324
 40
0.5784060653
 40
0.8124462045
 40
1.0
 40
1.0
 40
1.0
 40
1.0
 10
10.5452589148
 20
9.1216695021
 30
0.0
 10
10.5452589148
 20
9.1171594134
 30
0.0
 10
10.5453176775
 20
9.108532121
 30
0.0
 10
10.5455714683
 20
9.0964163448
 30
0.0
 10
10.5459545407
 20
9.0860176411
 30
0.0
 10
10.5463066704
 20
9.0797385869
 30
0.0
 10
10.5465044308
 20
9.0769481426
 30
0.0
  0
SPLINE
  5
2DF
100
AcDbEntity
  8
0
100
AcDbSpline
 62
7
  6
CONTINUOUS
 70
0
 71
3
 72
11
 73
7
 74
0
 42
0.0000001
 43
0.0000001
 44
0.0000000001
 40
0.0
 40
0.0
 40
0.0
 40
0.0
 40
0.250544048
 40
0.5007501553
 40
0.7505900803
 40
1.0
 40
1.0
 40
1.0
 40
1.0
 10
11.4000379747
 20
9.1138734433
 30
0.0
 10
11.3996664435
 20
9.1117652068
 30
0.0
 10
11.3986231421
 20
9.1075988558
 30
0.0
 10
11.3962290386
 20
9.1016299844
 30
0.0
 10
11.3930989452
 20
9.0960252595
 30
0.0
 10
11.3905850989
 20
9.0925656122
 30
0.0
 10
11.3892400769
 20
9.0909126701
 30
0.0
  0
SPLINE
  5
2E0
100
AcDbEntity
  8
0
100
AcDbSpline
 62
7
  6
CONTINUOUS
 70
0
 71
3
 72
9
 73
5
 74
0
 42
0.0000001
 43
0.0000001
 44
0.0000000001
 40
0.0
 40
0.0
 40
0.0
 40
0.0
 40
0.5005800936
 40
1.0
 40
1.0
 40
1.0
 40
1.0
 10
11.3892400769
 20
9.0909126701
 30
0.0
 10
11.3870077278
 20
9.0881692625
 30
0.0
 10
11.3820414893
 20
9.0830877454
 30
0.0
 10
11.3763496371
 20
9.0788561876
 30
0.0
 10
11.3733812853
 20
9.0769481426
 30
0.0
  0
SPLINE
  5
2E1
100
AcDbEntity
  8
0
100
AcDbSpline
 62
7
  6
CONTINUOUS
 70
0
 71
3
 72
11
 73
7
 74
0
 42
0.0000001
 43
0.0000001
 44
0.0000000001
 40
0.0
 40
0.0
 40
0.0
 40
0.0
 40
0.2533686681
 40
0.5047581538
 40
0.7537204766
 40
1.0
 40
1.0
 40
1.0
 40
1.0
 10
11.4623758503
 20
9.1294684166
 30
0.0
 10
11.4620363368
 20
9.1315716493
 30
0.0
 10
11.4610858594
 20
9.1357223896
 30
0.0
 10
11.4588981597
 20
9.1416870189
 30
0.0
 10
11.4560360633
 20
9.1472906265
 30
0.0
 10
11.4537255499
 20
9.1507670199
 30
0.0
 10
11.4524882281
 20
9.1524275785
 30
0.0
  0
SPLINE
  5
2E2
100
AcDbEntity
  8
0
100
AcDbSpline
 62
7
  6
CONTINUOUS
 70
0
 71
3
 72
9
 73
5
 74
0
 42
0.0000001
 43
0.0000001
 44
0.0000000001
 40
0.0
 40
0.0
 40
0.0
 40
0.0
 40
0.5040456052
 40
1.0
 40
1.0
 40
1.0
 40
1.0
 10
11.4524882281
 20
9.1524275785
 30
0.0
 10
11.4504595192
 20
9.1551502251
 30
0.0
 10
11.445948877
 20
9.1602032252
 30
0.0
 10
11.4407023186
 20
9.1644713268
 30
0.0
 10
11.4379679634
 20
9.1663908617
 30
0.0
  0
SPLINE
  5
2E3
100
AcDbEntity
  8
0
100
AcDbSpline
 62
7
  6
CONTINUOUS
 70
0
 71
3
 72
11
 73
7
 74
0
 42
0.0000001
 43
0.0000001
 44
0.0000000001
 40
0.0
 40
0.0
 40
0.0
 40
0.0
 40
0.2512309803
 40
0.5017231224
 40
0.7513484036
 40
1.0
 40
1.0
 40
1.0
 40
1.0
 10
11.4247954268
 20
9.1138734433
 30
0.0
 10
11.4244316468
 20
9.1117664138
 30
0.0
 10
11.4234108453
 20
9.1076038293
 30
0.0
 10
11.4210665371
 20
9.1016358286
 30
0.0
 10
11.418000995
 20
9.0960311948
 30
0.0
 10
11.4155359257
 20
9.092567446
 30
0.0
 10
11.4142167485
 20
9.0909126701
 30
0.0
  0
SPLINE
  5
2E4
100
AcDbEntity
  8
0
100
AcDbSpline
 62
7
  6
CONTINUOUS
 70
0
 71
3
 72
9
 73
5
 74
0
 42
0.0000001
 43
0.0000001
 44
0.0000000001
 40
0.0
 40
0.0
 40
0.0
 40
0.0
 40
0.5013819678
 40
1.0
 40
1.0
 40
1.0
 40
1.0
 10
11.4142167485
 20
9.0909126701
 30
0.0
 10
11.4120335743
 20
9.0881740965
 30
0.0
 10
11.4071771125
 20
9.0830989454
 30
0.0
 10
11.4015920419
 20
9.0788588322
 30
0.0
 10
11.3986799231
 20
9.0769481426
 30
0.0
  0
SPLINE
  5
2E5
100
AcDbEntity
  8
0
100
AcDbSpline
 62
7
  6
CONTINUOUS
 70
0
 71
3
 72
9
 73
5
 74
0
 42
0.0000001
 43
0.0000001
 44
0.0000000001
 40
0.0
 40
0.0
 40
0.0
 40
0.0
 40
0.5066994353
 40
1.0
 40
1.0
 40
1.0
 40
1.0
 10
11.4748967086
 20
9.1294684166
 30
0.0
 10
11.4742551798
 20
9.133639487
 30
0.0
 10
11.4719601323
 20
9.141744023
 30
0.0
 10
11.4678542441
 20
9.149077479
 30
0.0
 10
11.465475843
 20
9.1524275785
 30
0.0
  0
SPLINE
  5
2E6
100
AcDbEntity
  8
0
100
AcDbSpline
 62
7
  6
CONTINUOUS
 70
0
 71
3
 72
9
 73
5
 74
0
 42
0.0000001
 43
0.0000001
 44
0.0000000001
 40
0.0
 40
0.0
 40
0.0
 40
0.0
 40
0.50596105
 40
1.0
 40
1.0
 40
1.0
 40
1.0
 10
11.465475843
 20
9.1524275785
 30
0.0
 10
11.4635506372
 20
9.1551393293
 30
0.0
 10
11.4592724269
 20
9.1601762746
 30
0.0
 10
11.4542553471
 20
9.1644646618
 30
0.0
 10
11.4516410242
 20
9.1663908617
 30
0.0
  0
SPLINE
  5
2E7
100
AcDbEntity
  8
0
100
AcDbSpline
 62
7
  6
CONTINUOUS
 70
0
 71
3
 72
11
 73
7
 74
0
 42
0.0000001
 43
0.0000001
 44
0.0000000001
 40
0.0
 40
0.0
 40
0.0
 40
0.0
 40
0.2521777453
 40
0.503065986
 40
0.7523967055
 40
1.0
 40
1.0
 40
1.0
 40
1.0
 10
11.4456307935
 20
9.1138734433
 30
0.0
 10
11.4452777563
 20
9.1117680544
 30
0.0
 10
11.4442880763
 20
9.1076106233
 30
0.0
 10
11.4420128351
 20
9.1016438855
 30
0.0
 10
11.439036898
 20
9.0960394619
 30
0.0
 10
11.4366397271
 20
9.0925700239
 30
0.0
 10
11.4353565128
 20
9.0909126701
 30
0.0
  0
SPLINE
  5
2E8
100
AcDbEntity
  8
0
100
AcDbSpline
 62
7
  6
CONTINUOUS
 70
0
 71
3
 72
9
 73
5
 74
0
 42
0.0000001
 43
0.0000001
 44
0.0000000001
 40
0.0
 40
0.0
 40
0.0
 40
0.0
 40
0.5025292332
 40
1.0
 40
1.0
 40
1.0
 40
1.0
 10
11.4353565128
 20
9.0909126701
 30
0.0
 10
11.4332414382
 20
9.0881809153
 30
0.0
 10
11.4285372368
 20
9.0831150016
 30
0.0
 10
11.4231007512
 20
9.0788626651
 30
0.0
 10
11.4202667538
 20
9.0769481426
 30
0.0
  0
SPLINE
  5
2E9
100
AcDbEntity
  8
0
100
AcDbSpline
 62
7
  6
CONTINUOUS
 70
0
 71
3
 72
9
 73
5
 74
0
 42
0.0000001
 43
0.0000001
 44
0.0000000001
 40
0.0
 40
0.0
 40
0.0
 40
0.0
 40
0.5090125392
 40
1.0
 40
1.0
 40
1.0
 40
1.0
 10
11.4830920948
 20
9.1294682674
 30
0.0
 10
11.4824892338
 20
9.1336275656
 30
0.0
 10
11.4803452081
 20
9.1416882433
 30
0.0
 10
11.4764681011
 20
9.1490582481
 30
0.0
 10
11.4742138055
 20
9.1524275997
 30
0.0
  0
SPLINE
  5
2EA
100
AcDbEntity
  8
0
100
AcDbSpline
 62
7
  6
CONTINUOUS
 70
0
 71
3
 72
9
 73
5
 74
0
 42
0.0000001
 43
0.0000001
 44
0.0000000001
 40
0.0
 40
0.0
 40
0.0
 40
0.0
 40
0.5083078529
 40
1.0
 40
1.0
 40
1.0
 40
1.0
 10
11.4742138055
 20
9.1524275997
 30
0.0
 10
11.4724081532
 20
9.1551263926
 30
0.0
 10
11.4683991166
 20
9.1601431614
 30
0.0
 10
11.4636503367
 20
9.1644562589
 30
0.0
 10
11.4611758427
 20
9.1663908617
 30
0.0
  0
SPLINE
  5
2EB
100
AcDbEntity
  8
0
100
AcDbSpline
 62
7
  6
CONTINUOUS
 70
0
 71
3
 72
11
 73
7
 74
0
 42
0.0000001
 43
0.0000001
 44
0.0000000001
 40
0.0
 40
0.0
 40
0.0
 40
0.0
 40
0.2533684475
 40
0.5047579175
 40
0.7537203033
 40
1.0
 40
1.0
 40
1.0
 40
1.0
 10
11.4623763114
 20
9.1138734433
 30
0.0
 10
11.4620369033
 20
9.111770081
 30
0.0
 10
11.4610866032
 20
9.1076190688
 30
0.0
 10
11.4588990659
 20
9.1016540202
 30
0.0
 10
11.4560370298
 20
9.0960500029
 30
0.0
 10
11.4537264987
 20
9.0925733515
 30
0.0
 10
11.4524891553
 20
9.0909126701
 30
0.0
  0
SPLINE
  5
2EC
100
AcDbEntity
  8
0
100
AcDbSpline
 62
7
  6
CONTINUOUS
 70
0
 71
3
 72
9
 73
5
 74
0
 42
0.0000001
 43
0.0000001
 44
0.0000000001
 40
0.0
 40
0.0
 40
0.0
 40
0.0
 40
0.5040459607
 40
1.0
 40
1.0
 40
1.0
 40
1.0
 10
11.4524891553
 20
9.0909126701
 30
0.0
 10
11.4504603634
 20
9.0881897584
 30
0.0
 10
11.445949466
 20
9.0831362821
 30
0.0
 10
11.4407025259
 20
9.078867823
 30
0.0
 10
11.4379679634
 20
9.0769481426
 30
0.0
  0
SPLINE
  5
2ED
100
AcDbEntity
  8
0
100
AcDbSpline
 62
7
  6
CONTINUOUS
 70
0
 71
3
 72
9
 73
5
 74
0
 42
0.0000001
 43
0.0000001
 44
0.0000000001
 40
0.0
 40
0.0
 40
0.0
 40
0.0
 40
0.506699155
 40
1.0
 40
1.0
 40
1.0
 40
1.0
 10
11.4748971479
 20
9.1138734433
 30
0.0
 10
11.4742558179
 20
9.1097021135
 30
0.0
 10
11.4719610401
 20
9.1015970149
 30
0.0
 10
11.4678551685
 20
9.0942630163
 30
0.0
 10
11.4654767265
 20
9.0909126701
 30
0.0
  0
SPLINE
  5
2EE
100
AcDbEntity
  8
0
100
AcDbSpline
 62
7
  6
CONTINUOUS
 70
0
 71
3
 72
9
 73
5
 74
0
 42
0.0000001
 43
0.0000001
 44
0.0000000001
 40
0.0
 40
0.0
 40
0.0
 40
0.0
 40
0.5059615655
 40
1.0
 40
1.0
 40
1.0
 40
1.0
 10
11.4654767265
 20
9.0909126701
 30
0.0
 10
11.4635514425
 20
9.0882006562
 30
0.0
 10
11.4592729924
 20
9.0831632374
 30
0.0
 10
11.454255546
 20
9.078874489
 30
0.0
 10
11.4516410242
 20
9.0769481426
 30
0.0
  0
SPLINE
  5
2EF
100
AcDbEntity
  8
0
100
AcDbSpline
 62
7
  6
CONTINUOUS
 70
0
 71
3
 72
9
 73
5
 74
0
 42
0.0000001
 43
0.0000001
 44
0.0000000001
 40
0.0
 40
0.0
 40
0.0
 40
0.0
 40
0.5090122956
 40
1.0
 40
1.0
 40
1.0
 40
1.0
 10
11.4830925502
 20
9.1138738782
 30
0.0
 10
11.4824898896
 20
9.1097142604
 30
0.0
 10
11.4803461181
 20
9.1016529076
 30
0.0
 10
11.4764689819
 20
9.0942822574
 30
0.0
 10
11.4742146152
 20
9.0909126148
 30
0.0
  0
SPLINE
  5
2F0
100
AcDbEntity
  8
0
100
AcDbSpline
 62
7
  6
CONTINUOUS
 70
0
 71
3
 72
9
 73
5
 74
0
 42
0.0000001
 43
0.0000001
 44
0.0000000001
 40
0.0
 40
0.0
 40
0.0
 40
0.0
 40
0.5083085351
 40
1.0
 40
1.0
 40
1.0
 40
1.0
 10
11.4742146152
 20
9.0909126148
 30
0.0
 10
11.4724088923
 20
9.088213568
 30
0.0
 10
11.4683996394
 20
9.0831963423
 30
0.0
 10
11.4636505207
 20
9.0788828892
 30
0.0
 10
11.4611758427
 20
9.0769481426
 30
0.0
  0
SPLINE
  5
2F1
100
AcDbEntity
  8
0
100
AcDbSpline
 62
7
  6
CONTINUOUS
 70
0
 71
3
 72
11
 73
7
 74
0
 42
0.0000001
 43
0.0000001
 44
0.0000000001
 40
0.0
 40
0.0
 40
0.0
 40
0.0
 40
0.2574161075
 40
0.5113977012
 40
0.7593859003
 40
1.0
 40
1.0
 40
1.0
 40
1.0
 10
10.3893005824
 20
9.1216695021
 30
0.0
 10
10.3893005824
 20
9.1188807503
 30
0.0
 10
10.3897147381
 20
9.113331602
 30
0.0
 10
10.3915368931
 20
9.1052798769
 30
0.0
 10
10.3944326302
 20
9.0977459064
 30
0.0
 10
10.3970098231
 20
9.0931003764
 30
0.0
 10
10.3984252806
 20
9.0909114279
 30
0.0
  0
SPLINE
  5
2F2
100
AcDbEntity
  8
0
100
AcDbSpline
 62
7
  6
CONTINUOUS
 70
0
 71
3
 72
9
 73
5
 74
0
 42
0.0000001
 43
0.0000001
 44
0.0000000001
 40
0.0
 40
0.0
 40
0.0
 40
0.0
 40
0.5096489875
 40
1.0
 40
1.0
 40
1.0
 40
1.0
 10
10.3984252806
 20
9.0909114279
 30
0.0
 10
10.4001657615
 20
9.0882198436
 30
0.0
 10
10.4040277846
 20
9.0832148228
 30
0.0
 10
10.4086286855
 20
9.0788876741
 30
0.0
 10
10.4110263512
 20
9.0769481426
 30
0.0
  0
SPLINE
  5
2F3
100
AcDbEntity
  8
0
100
AcDbSpline
 62
7
  6
CONTINUOUS
 70
0
 71
3
 72
9
 73
5
 74
0
 42
0.0000001
 43
0.0000001
 44
0.0000000001
 40
0.0
 40
0.0
 40
0.0
 40
0.0
 40
0.5078203193
 40
1.0
 40
1.0
 40
1.0
 40
1.0
 10
10.3958566196
 20
9.1138705877
 30
0.0
 10
10.3964794938
 20
9.1097052773
 30
0.0
 10
10.3987014414
 20
9.1016220204
 30
0.0
 10
10.4026973844
 20
9.0942707597
 30
0.0
 10
10.4050161919
 20
9.0909114279
 30
0.0
  0
SPLINE
  5
2F4
100
AcDbEntity
  8
0
100
AcDbSpline
 62
7
  6
CONTINUOUS
 70
0
 71
3
 72
9
 73
5
 74
0
 42
0.0000001
 43
0.0000001
 44
0.0000000001
 40
0.0
 40
0.0
 40
0.0
 40
0.0
 40
0.5070750604
 40
1.0
 40
1.0
 40
1.0
 40
1.0
 10
10.4050161919
 20
9.0909114279
 30
0.0
 10
10.4068837204
 20
9.0882058789
 30
0.0
 10
10.4110321598
 20
9.0831784405
 30
0.0
 10
10.4159202628
 20
9.0788782992
 30
0.0
 10
10.4184672976
 20
9.0769481426
 30
0.0
  0
SPLINE
  5
2F5
100
AcDbEntity
  8
0
100
AcDbSpline
 62
7
  6
CONTINUOUS
 70
0
 71
3
 72
11
 73
7
 74
0
 42
0.0000001
 43
0.0000001
 44
0.0000000001
 40
0.0
 40
0.0
 40
0.0
 40
0.0
 40
0.2540468807
 40
0.5057233696
 40
0.7544769578
 40
1.0
 40
1.0
 40
1.0
 40
1.0
 10
10.4062314819
 20
9.1138705876
 30
0.0
 10
10.40656316
 20
9.1117684915
 30
0.0
 10
10.4074910532
 20
9.1076213766
 30
0.0
 10
10.4096283081
 20
9.101657759
 30
0.0
 10
10.4124248377
 20
9.0960544549
 30
0.0
 10
10.4146853044
 20
9.0925739255
 30
0.0
 10
10.4158961366
 20
9.0909114279
 30
0.0
  0
SPLINE
  5
2F6
100
AcDbEntity
  8
0
100
AcDbSpline
 62
7
  6
CONTINUOUS
 70
0
 71
3
 72
9
 73
5
 74
0
 42
0.0000001
 43
0.0000001
 44
0.0000000001
 40
0.0
 40
0.0
 40
0.0
 40
0.0
 40
0.5049486846
 40
1.0
 40
1.0
 40
1.0
 40
1.0
 10
10.4158961366
 20
9.0909114279
 30
0.0
 10
10.4178753298
 20
9.088193955
 30
0.0
 10
10.4222748503
 20
9.0831484762
 30
0.0
 10
10.4274119294
 20
9.0788707987
 30
0.0
 10
10.4300889707
 20
9.0769481426
 30
0.0
  0
SPLINE
  5
2F7
100
AcDbEntity
  8
0
100
AcDbSpline
 62
7
  6
CONTINUOUS
 70
0
 71
3
 72
11
 73
7
 74
0
 42
0.0000001
 43
0.0000001
 44
0.0000000001
 40
0.0
 40
0.0
 40
0.0
 40
0.0
 40
0.2527422801
 40
0.5038676797
 40
0.7530234792
 40
1.0
 40
1.0
 40
1.0
 40
1.0
 10
10.4208855921
 20
9.1138705877
 30
0.0
 10
10.4212322954
 20
9.111766294
 30
0.0
 10
10.42220353
 20
9.1076121863
 30
0.0
 10
10.4244374956
 20
9.1016466555
 30
0.0
 10
10.4273596902
 20
9.0960428151
 30
0.0
 10
10.4297159639
 20
9.0925702241
 30
0.0
 10
10.4309775107
 20
9.0909114279
 30
0.0
  0
SPLINE
  5
2F8
100
AcDbEntity
  8
0
100
AcDbSpline
 62
7
  6
CONTINUOUS
 70
0
 71
3
 72
9
 73
5
 74
0
 42
0.0000001
 43
0.0000001
 44
0.0000000001
 40
0.0
 40
0.0
 40
0.0
 40
0.0
 40
0.5032371863
 40
1.0
 40
1.0
 40
1.0
 40
1.0
 10
10.4309775107
 20
9.0909114279
 30
0.0
 10
10.4330517029
 20
9.088184092
 30
0.0
 10
10.4376642957
 20
9.0831244311
 30
0.0
 10
10.4430109575
 20
9.0788649158
 30
0.0
 10
10.4457977947
 20
9.0769481426
 30
0.0
  0
SPLINE
  5
2F9
100
AcDbEntity
  8
0
100
AcDbSpline
 62
7
  6
CONTINUOUS
 70
0
 71
3
 72
11
 73
7
 74
0
 42
0.0000001
 43
0.0000001
 44
0.0000000001
 40
0.0
 40
0.0
 40
0.0
 40
0.0
 40
0.2516715224
 40
0.5023476831
 40
0.7518357339
 40
1.0
 40
1.0
 40
1.0
 40
1.0
 10
10.4397009632
 20
9.1138705543
 30
0.0
 10
10.4400598666
 20
9.1117644249
 30
0.0
 10
10.441066399
 20
9.1076045248
 30
0.0
 10
10.4433788157
 20
9.1016375367
 30
0.0
 10
10.4464028315
 20
9.0960334105
 30
0.0
 10
10.448836395
 20
9.0925672844
 30
0.0
 10
10.4501388703
 20
9.0909114419
 30
0.0
  0
SPLINE
  5
2FA
100
AcDbEntity
  8
0
100
AcDbSpline
 62
7
  6
CONTINUOUS
 70
0
 71
3
 72
9
 73
5
 74
0
 42
0.0000001
 43
0.0000001
 44
0.0000000001
 40
0.0
 40
0.0
 40
0.0
 40
0.0
 40
0.5019092244
 40
1.0
 40
1.0
 40
1.0
 40
1.0
 10
10.4501388703
 20
9.0909114419
 30
0.0
 10
10.4522903305
 20
9.0881762811
 30
0.0
 10
10.4570758453
 20
9.0831058309
 30
0.0
 10
10.462591623
 20
9.0788604445
 30
0.0
 10
10.4654672843
 20
9.0769481426
 30
0.0
  0
SPLINE
  5
2FB
100
AcDbEntity
  8
0
100
AcDbSpline
 62
7
  6
CONTINUOUS
 70
0
 71
3
 72
11
 73
7
 74
0
 42
0.0000001
 43
0.0000001
 44
0.0000000001
 40
0.0
 40
0.0
 40
0.0
 40
0.0
 40
0.2508533849
 40
0.5011881613
 40
0.7509313657
 40
1.0
 40
1.0
 40
1.0
 40
1.0
 10
10.4625260792
 20
9.1138705877
 30
0.0
 10
10.4628942398
 20
9.1117630254
 30
0.0
 10
10.4639276136
 20
9.1075986454
 30
0.0
 10
10.4662995084
 20
9.1016305828
 30
0.0
 10
10.4694006546
 20
9.0960263037
 30
0.0
 10
10.4718925737
 20
9.0925650698
 30
0.0
 10
10.4732259636
 20
9.0909114279
 30
0.0
  0
SPLINE
  5
2FC
100
AcDbEntity
  8
0
100
AcDbSpline
 62
7
  6
CONTINUOUS
 70
0
 71
3
 72
9
 73
5
 74
0
 42
0.0000001
 43
0.0000001
 44
0.0000000001
 40
0.0
 40
0.0
 40
0.0
 40
0.0
 40
0.5009378634
 40
1.0
 40
1.0
 40
1.0
 40
1.0
 10
10.4732259636
 20
9.0909114279
 30
0.0
 10
10.4754361088
 20
9.0881704526
 30
0.0
 10
10.480352721
 20
9.0830922468
 30
0.0
 10
10.4859962012
 20
9.0788572207
 30
0.0
 10
10.4889390634
 20
9.0769481426
 30
0.0
  0
SPLINE
  5
2FD
100
AcDbEntity
  8
0
100
AcDbSpline
 62
7
  6
CONTINUOUS
 70
0
 71
3
 72
13
 73
9
 74
0
 42
0.0000001
 43
0.0000001
 44
0.0000000001
 40
0.0
 40
0.0
 40
0.0
 40
0.0
 40
0.1254055825
 40
0.2507172819
 40
0.3759493436
 40
0.5010660157
 40
0.750685916
 40
1.0
 40
1.0
 40
1.0
 40
1.0
 10
10.4891771727
 20
9.1138705877
 30
0.0
 10
10.4895202277
 20
9.1119384898
 30
0.0
 10
10.4904603315
 20
9.1081163556
 30
0.0
 10
10.4925763951
 20
9.102612474
 30
0.0
 10
10.4953288541
 20
9.097403137
 30
0.0
 10
10.4997384986
 20
9.0909244597
 30
0.0
 10
10.5064553927
 20
9.0837477714
 30
0.0
 10
10.5127356214
 20
9.0790469684
 30
0.0
 10
10.5160241406
 20
9.0769481426
 30
0.0
  0
SPLINE
  5
2FE
100
AcDbEntity
  8
0
100
AcDbSpline
 62
7
  6
CONTINUOUS
 70
0
 71
3
 72
13
 73
9
 74
0
 42
0.0000001
 43
0.0000001
 44
0.0000000001
 40
0.0
 40
0.0
 40
0.0
 40
0.0
 40
0.1250983371
 40
0.2502117895
 40
0.375302628
 40
0.5004014446
 40
0.7501418399
 40
1.0
 40
1.0
 40
1.0
 40
1.0
 10
10.5187446096
 20
9.1216695021
 30
0.0
 10
10.5187446096
 20
9.119380588
 30
0.0
 10
10.5191047863
 20
9.1147945647
 30
0.0
 10
10.5206947364
 20
9.10808861
 30
0.0
 10
10.5232550918
 20
9.1016907039
 30
0.0
 10
10.5278021518
 20
9.0937254623
 30
0.0
 10
10.5353204475
 20
9.084967122
 30
0.0
 10
10.5426418052
 20
9.0793935392
 30
0.0
 10
10.5465044308
 20
9.0769481426
 30
0.0
  0
SPLINE
  5
2FF
100
AcDbEntity
  8
0
100
AcDbSpline
 62
7
  6
CONTINUOUS
 70
0
 71
3
 72
13
 73
9
 74
0
 42
0.0000001
 43
0.0000001
 44
0.0000000001
 40
0.0
 40
0.0
 40
0.0
 40
0.0
 40
0.125098489
 40
0.2502120705
 40
0.3753029966
 40
0.5004018484
 40
0.7501421444
 40
1.0
 40
1.0
 40
1.0
 40
1.0
 10
10.5523747985
 20
9.1216695021
 30
0.0
 10
10.5523747985
 20
9.1193805881
 30
0.0
 10
10.5527349737
 20
9.1147945653
 30
0.0
 10
10.5543249173
 20
9.1080886111
 30
0.0
 10
10.5568852624
 20
9.1016907052
 30
0.0
 10
10.5614323032
 20
9.0937254654
 30
0.0
 10
10.5689505672
 20
9.0849671259
 30
0.0
 10
10.5762718991
 20
9.0793935401
 30
0.0
 10
10.5801345109
 20
9.0769481426
 30
0.0
  0
SPLINE
  5
300
100
AcDbEntity
  8
0
100
AcDbSpline
 62
7
  6
CONTINUOUS
 70
0
 71
3
 72
11
 73
7
 74
0
 42
0.0000001
 43
0.0000001
 44
0.0000000001
 40
0.0
 40
0.0
 40
0.0
 40
0.0
 40
0.3023772101
 40
0.5784052737
 40
0.8124454009
 40
1.0
 40
1.0
 40
1.0
 40
1.0
 10
10.5813824494
 20
9.1216695021
 30
0.0
 10
10.5813824494
 20
9.1261795944
 30
0.0
 10
10.5813235723
 20
9.1348068941
 30
0.0
 10
10.5810692876
 20
9.146922676
 30
0.0
 10
10.5806854697
 20
9.1573213827
 30
0.0
 10
10.5803326553
 20
9.1636004265
 30
0.0
 10
10.5801345109
 20
9.1663908617
 30
0.0
  0
SPLINE
  5
301
100
AcDbEntity
  8
0
100
AcDbSpline
 62
7
  6
CONTINUOUS
 70
0
 71
3
 72
13
 73
9
 74
0
 42
0.0000001
 43
0.0000001
 44
0.0000000001
 40
0.0
 40
0.0
 40
0.0
 40
0.0
 40
0.1254108318
 40
0.2507898347
 40
0.3760613627
 40
0.5012326002
 40
0.7507690699
 40
1.0
 40
1.0
 40
1.0
 40
1.0
 10
10.5891075099
 20
9.1216695021
 30
0.0
 10
10.5891075099
 20
9.1193806996
 30
0.0
 10
10.5894646234
 20
9.1147958795
 30
0.0
 10
10.5910412348
 20
9.1080908614
 30
0.0
 10
10.5935803586
 20
9.1016934108
 30
0.0
 10
10.5980880197
 20
9.0937318184
 30
0.0
 10
10.605541031
 20
9.0849751571
 30
0.0
 10
10.6128093947
 20
9.0793952672
 30
0.0
 10
10.6166435963
 20
9.0769481426
 30
0.0
  0
SPLINE
  5
302
100
AcDbEntity
  8
0
100
AcDbSpline
 62
7
  6
CONTINUOUS
 70
0
 71
3
 72
11
 73
7
 74
0
 42
0.0000001
 43
0.0000001
 44
0.0000000001
 40
0.0
 40
0.0
 40
0.0
 40
0.0
 40
0.3011081456
 40
0.5764325896
 40
0.8107776763
 40
1.0
 40
1.0
 40
1.0
 40
1.0
 10
10.6203749411
 20
9.1216695021
 30
0.0
 10
10.6203749411
 20
9.126180476
 30
0.0
 10
10.6201986047
 20
9.1348172761
 30
0.0
 10
10.6194368624
 20
9.1469439084
 30
0.0
 10
10.6182868011
 20
9.1573547233
 30
0.0
 10
10.6172323421
 20
9.1636178875
 30
0.0
 10
10.6166435963
 20
9.1663908617
 30
0.0
  0
SPLINE
  5
303
100
AcDbEntity
  8
0
100
AcDbSpline
 62
7
  6
CONTINUOUS
 70
0
 71
3
 72
13
 73
9
 74
0
 42
0.0000001
 43
0.0000001
 44
0.0000000001
 40
0.0
 40
0.0
 40
0.0
 40
0.0
 40
0.1260336753
 40
0.2519424406
 40
0.3775752048
 40
0.502892173
 40
0.7520235404
 40
1.0
 40
1.0
 40
1.0
 40
1.0
 10
10.6286469773
 20
9.1216695021
 30
0.0
 10
10.6286469773
 20
9.119380919
 30
0.0
 10
10.628998005
 20
9.1147984665
 30
0.0
 10
10.6305480994
 20
9.1080953067
 30
0.0
 10
10.633044988
 20
9.1016987812
 30
0.0
 10
10.6374743356
 20
9.0937445074
 30
0.0
 10
10.6447974181
 20
9.0849913856
 30
0.0
 10
10.6519601137
 20
9.079398781
 30
0.0
 10
10.6557377208
 20
9.0769481426
 30
0.0
  0
SPLINE
  5
304
100
AcDbEntity
  8
0
100
AcDbSpline
 62
7
  6
CONTINUOUS
 70
0
 71
3
 72
11
 73
7
 74
0
 42
0.0000001
 43
0.0000001
 44
0.0000000001
 40
0.0
 40
0.0
 40
0.0
 40
0.0
 40
0.2986785939
 40
0.5726659879
 40
0.8076090837
 40
1.0
 40
1.0
 40
1.0
 40
1.0
 10
10.6619224277
 20
9.1216695021
 30
0.0
 10
10.6619224277
 20
9.1261822099
 30
0.0
 10
10.661629167
 20
9.1348376957
 30
0.0
 10
10.6603620821
 20
9.1469848796
 30
0.0
 10
10.6584481036
 20
9.157417723
 30
0.0
 10
10.6567026615
 20
9.1636488781
 30
0.0
 10
10.6557377208
 20
9.1663908617
 30
0.0
  0
SPLINE
  5
305
100
AcDbEntity
  8
0
100
AcDbSpline
 62
7
  6
CONTINUOUS
 70
0
 71
3
 72
13
 73
9
 74
0
 42
0.0000001
 43
0.0000001
 44
0.0000000001
 40
0.0
 40
0.0
 40
0.0
 40
0.0
 40
0.1269632977
 40
0.2536639432
 40
0.3798385736
 40
0.5053764894
 40
0.7539066499
 40
1.0
 40
1.0
 40
1.0
 40
1.0
 10
10.6706748389
 20
9.1216695021
 30
0.0
 10
10.6706748389
 20
9.1193812393
 30
0.0
 10
10.6710168231
 20
9.1148022459
 30
0.0
 10
10.6725274948
 20
9.1081018377
 30
0.0
 10
10.674961528
 20
9.1017067344
 30
0.0
 10
10.6792744816
 20
9.0937634933
 30
0.0
 10
10.6864040638
 20
9.0850161435
 30
0.0
 10
10.6934088586
 20
9.0794042042
 30
0.0
 10
10.6971021043
 20
9.0769481426
 30
0.0
  0
SPLINE
  5
306
100
AcDbEntity
  8
0
100
AcDbSpline
 62
7
  6
CONTINUOUS
 70
0
 71
3
 72
11
 73
7
 74
0
 42
0.0000001
 43
0.0000001
 44
0.0000000001
 40
0.0
 40
0.0
 40
0.0
 40
0.0
 40
0.2952814089
 40
0.5674212861
 40
0.8032307554
 40
1.0
 40
1.0
 40
1.0
 40
1.0
 10
10.7056903751
 20
9.1216695021
 30
0.0
 10
10.7056903751
 20
9.1261847393
 30
0.0
 10
10.7052810936
 20
9.1348674461
 30
0.0
 10
10.7035128945
 20
9.1470429268
 30
0.0
 10
10.7008402761
 20
9.1575037036
 30
0.0
 10
10.6984231639
 20
9.1636875254
 30
0.0
 10
10.6971021043
 20
9.1663908617
 30
0.0
  0
SPLINE
  5
307
100
AcDbEntity
  8
0
100
AcDbSpline
 62
7
  6
CONTINUOUS
 70
0
 71
3
 72
13
 73
9
 74
0
 42
0.0000001
 43
0.0000001
 44
0.0000000001
 40
0.0
 40
0.0
 40
0.0
 40
0.0
 40
0.1281932241
 40
0.2559437266
 40
0.3828402159
 40
0.508676815
 40
0.7564180704
 40
1.0
 40
1.0
 40
1.0
 40
1.0
 10
10.7148526788
 20
9.1216695021
 30
0.0
 10
10.7148526788
 20
9.1193816502
 30
0.0
 10
10.715182782
 20
9.1148071015
 30
0.0
 10
10.7166415353
 20
9.1081102923
 30
0.0
 10
10.7189926772
 20
9.1017171407
 30
0.0
 10
10.72315244
 20
9.0937886907
 30
0.0
 10
10.7300266444
 20
9.0850499082
 30
0.0
 10
10.7368219621
 20
9.0794117272
 30
0.0
 10
10.7404036864
 20
9.0769481426
 30
0.0
  0
SPLINE
  5
308
100
AcDbEntity
  8
0
100
AcDbSpline
 62
7
  6
CONTINUOUS
 70
0
 71
3
 72
11
 73
7
 74
0
 42
0.0000001
 43
0.0000001
 44
0.0000000001
 40
0.0
 40
0.0
 40
0.0
 40
0.0
 40
0.2911582707
 40
0.5610903708
 40
0.7979964695
 40
1.0
 40
1.0
 40
1.0
 40
1.0
 10
10.7513263691
 20
9.1216695021
 30
0.0
 10
10.7513263691
 20
9.126187982
 30
0.0
 10
10.7508024211
 20
9.1349054596
 30
0.0
 10
10.748540145
 20
9.1471145949
 30
0.0
 10
10.7451191661
 20
9.1576043225
 30
0.0
 10
10.742058481
 20
9.1637283094
 30
0.0
 10
10.7404036864
 20
9.1663908617
 30
0.0
  0
SPLINE
  5
309
100
AcDbEntity
  8
0
100
AcDbSpline
 62
7
  6
CONTINUOUS
 70
0
 71
3
 72
13
 73
9
 74
0
 42
0.0000001
 43
0.0000001
 44
0.0000000001
 40
0.0
 40
0.0
 40
0.0
 40
0.0
 40
0.1297131458
 40
0.2587643742
 40
0.3865606318
 40
0.5127763682
 40
0.7595534653
 40
1.0
 40
1.0
 40
1.0
 40
1.0
 10
10.7608247967
 20
9.1216695021
 30
0.0
 10
10.7608247967
 20
9.1193821386
 30
0.0
 10
10.7611402993
 20
9.1148128806
 30
0.0
 10
10.7625351765
 20
9.1081204501
 30
0.0
 10
10.7647841688
 20
9.1017298146
 30
0.0
 10
10.7687556505
 20
9.0938199309
 30
0.0
 10
10.7753149361
 20
9.0850932677
 30
0.0
 10
10.7818499938
 20
9.0794216133
 30
0.0
 10
10.785293809
 20
9.0769481426
 30
0.0
  0
SPLINE
  5
30A
100
AcDbEntity
  8
0
100
AcDbSpline
 62
7
  6
CONTINUOUS
 70
0
 71
3
 72
11
 73
7
 74
0
 42
0.0000001
 43
0.0000001
 44
0.0000000001
 40
0.0
 40
0.0
 40
0.0
 40
0.0
 40
0.2865632178
 40
0.5540796945
 40
0.792262881
 40
1.0
 40
1.0
 40
1.0
 40
1.0
 10
10.7984629559
 20
9.1216695021
 30
0.0
 10
10.7984629559
 20
9.1261918321
 30
0.0
 10
10.7978262828
 20
9.1349503661
 30
0.0
 10
10.7950804423
 20
9.1471959777
 30
0.0
 10
10.7909285091
 20
9.1577112381
 30
0.0
 10
10.7872596999
 20
9.1637673372
 30
0.0
 10
10.785293809
 20
9.1663908617
 30
0.0
  0
SPLINE
  5
30B
100
AcDbEntity
  8
0
100
AcDbSpline
 62
7
  6
CONTINUOUS
 70
0
 71
3
 72
13
 73
9
 74
0
 42
0.0000001
 43
0.0000001
 44
0.0000000001
 40
0.0
 40
0.0
 40
0.0
 40
0.0
 40
0.1315073491
 40
0.262098671
 40
0.3909679113
 40
0.5176455459
 40
0.7633006619
 40
1.0
 40
1.0
 40
1.0
 40
1.0
 10
10.8082210273
 20
9.1216695021
 30
0.0
 10
10.8082210273
 20
9.1193826887
 30
0.0
 10
10.8085193747
 20
9.1148194023
 30
0.0
 10
10.8098390674
 20
9.1081320385
 30
0.0
 10
10.8119676091
 20
9.1017445058
 30
0.0
 10
10.8157178465
 20
9.0938569178
 30
0.0
 10
10.8219057206
 20
9.0851468569
 30
0.0
 10
10.8281306053
 20
9.079434204
 30
0.0
 10
10.8314110231
 20
9.0769481426
 30
0.0
  0
SPLINE
  5
30C
100
AcDbEntity
  8
0
100
AcDbSpline
 62
7
  6
CONTINUOUS
 70
0
 71
3
 72
11
 73
7
 74
0
 42
0.0000001
 43
0.0000001
 44
0.0000000001
 40
0.0
 40
0.0
 40
0.0
 40
0.0
 40
0.2817350439
 40
0.5467644848
 40
0.7863479596
 40
1.0
 40
1.0
 40
1.0
 40
1.0
 10
10.8467205981
 20
9.1216695021
 30
0.0
 10
10.8467205981
 20
9.1261961645
 30
0.0
 10
10.8459738874
 20
9.1350005752
 30
0.0
 10
10.8427590992
 20
9.1472830358
 30
0.0
 10
10.8379021374
 20
9.1578174298
 30
0.0
 10
10.8336658274
 20
9.1638024754
 30
0.0
 10
10.8314110231
 20
9.1663908617
 30
0.0
  0
SPLINE
  5
30D
100
AcDbEntity
  8
0
100
AcDbSpline
 62
7
  6
CONTINUOUS
 70
0
 71
3
 72
11
 73
7
 74
0
 42
0.0000001
 43
0.0000001
 44
0.0000000001
 40
0.0
 40
0.0
 40
0.0
 40
0.0
 40
0.2656615676
 40
0.5227932199
 40
0.7674187611
 40
1.0
 40
1.0
 40
1.0
 40
1.0
 10
10.8566597425
 20
9.1216695021
 30
0.0
 10
10.8566597425
 20
9.117125995
 30
0.0
 10
10.8577560838
 20
9.1081466731
 30
0.0
 10
10.8624270033
 20
9.0957581436
 30
0.0
 10
10.869425163
 20
9.0852128995
 30
0.0
 10
10.8752914955
 20
9.0794499201
 30
0.0
 10
10.8783839994
 20
9.0769481426
 30
0.0
  0
SPLINE
  5
30E
100
AcDbEntity
  8
0
100
AcDbSpline
 62
7
  6
CONTINUOUS
 70
0
 71
3
 72
11
 73
7
 74
0
 42
0.0000001
 43
0.0000001
 44
0.0000000001
 40
0.0
 40
0.0
 40
0.0
 40
0.0
 40
0.2768810609
 40
0.539463299
 40
0.7805107618
 40
1.0
 40
1.0
 40
1.0
 40
1.0
 10
10.8957107319
 20
9.1216695021
 30
0.0
 10
10.8957107319
 20
9.1262008388
 30
0.0
 10
10.8948575699
 20
9.1350543487
 30
0.0
 10
10.8911930952
 20
9.1473719066
 30
0.0
 10
10.8856658799
 20
9.1579178093
 30
0.0
 10
10.880905889
 20
9.1638329075
 30
0.0
 10
10.8783839994
 20
9.1663908617
 30
0.0
  0
SPLINE
  5
30F
100
AcDbEntity
  8
0
100
AcDbSpline
 62
7
  6
CONTINUOUS
 70
0
 71
3
 72
11
 73
7
 74
0
 42
0.0000001
 43
0.0000001
 44
0.0000000001
 40
0.0
 40
0.0
 40
0.0
 40
0.0
 40
0.2699188925
 40
0.5290847691
 40
0.7723225611
 40
1.0
 40
1.0
 40
1.0
 40
1.0
 10
10.9057509209
 20
9.1216695021
 30
0.0
 10
10.9057509209
 20
9.1171308523
 30
0.0
 10
10.9067545844
 20
9.108201381
 30
0.0
 10
10.9110459291
 20
9.0958378565
 30
0.0
 10
10.9174946185
 20
9.085288146
 30
0.0
 10
10.9229534767
 20
9.07946925
 30
0.0
 10
10.9258345181
 20
9.0769481426
 30
0.0
  0
SPLINE
  5
310
100
AcDbEntity
  8
0
100
AcDbSpline
 62
7
  6
CONTINUOUS
 70
0
 71
3
 72
11
 73
7
 74
0
 42
0.0000001
 43
0.0000001
 44
0.0000000001
 40
0.0
 40
0.0
 40
0.0
 40
0.0
 40
0.2721708678
 40
0.5324296564
 40
0.774947859
 40
1.0
 40
1.0
 40
1.0
 40
1.0
 10
10.9450388958
 20
9.1216695021
 30
0.0
 10
10.9450388958
 20
9.1262057039
 30
0.0
 10
10.9440839089
 20
9.1351098662
 30
0.0
 10
10.939994007
 20
9.1474591605
 30
0.0
 10
10.9338396075
 20
9.1580092036
 30
0.0
 10
10.9286016154
 20
9.163858606
 30
0.0
 10
10.9258345181
 20
9.1663908617
 30
0.0
  0
SPLINE
  5
311
100
AcDbEntity
  8
0
100
AcDbSpline
 62
7
  6
CONTINUOUS
 70
0
 71
3
 72
12
 73
8
 74
0
 42
0.0000001
 43
0.0000001
 44
0.0000000001
 40
0.0
 40
0.0
 40
0.0
 40
0.0
 40
0.2744224625
 40
0.5357473548
 40
0.659327033
 40
0.7777606252
 40
1.0
 40
1.0
 40
1.0
 40
1.0
 10
10.9550992871
 20
9.1216695021
 30
0.0
 10
10.9550992871
 20
9.1171357542
 30
0.0
 10
10.9560031431
 20
9.1082584889
 30
0.0
 10
10.9592960967
 20
9.0977936399
 30
0.0
 10
10.962985407
 20
9.0903262103
 30
0.0
 10
10.9670567618
 20
9.0838156221
 30
0.0
 10
10.9707336237
 20
9.0794927103
 30
0.0
 10
10.9733805143
 20
9.0769481426
 30
0.0
  0
SPLINE
  5
312
100
AcDbEntity
  8
0
100
AcDbSpline
 62
7
  6
CONTINUOUS
 70
0
 71
3
 72
11
 73
7
 74
0
 42
0.0000001
 43
0.0000001
 44
0.0000000001
 40
0.0
 40
0.0
 40
0.0
 40
0.0
 40
0.267736867
 40
0.5258549071
 40
0.7697995976
 40
1.0
 40
1.0
 40
1.0
 40
1.0
 10
10.9943079063
 20
9.1216695021
 30
0.0
 10
10.9943079063
 20
9.1262106031
 30
0.0
 10
10.9932568867
 20
9.1351652921
 30
0.0
 10
10.9887709129
 20
9.1475419576
 30
0.0
 10
10.9820396371
 20
9.1580899893
 30
0.0
 10
10.9763704813
 20
9.1638799314
 30
0.0
 10
10.9733805143
 20
9.1663908617
 30
0.0
  0
SPLINE
  5
313
100
AcDbEntity
  8
0
100
AcDbSpline
 62
7
  6
CONTINUOUS
 70
0
 71
3
 72
11
 73
7
 74
0
 42
0.0000001
 43
0.0000001
 44
0.0000000001
 40
0.0
 40
0.0
 40
0.0
 40
0.0
 40
0.2793068692
 40
0.5431054247
 40
0.7834144617
 40
1.0
 40
1.0
 40
1.0
 40
1.0
 10
11.0043074977
 20
9.1216695021
 30
0.0
 10
11.0043074977
 20
9.1171405429
 30
0.0
 10
11.0051077841
 20
9.1083119533
 30
0.0
 10
11.0085494762
 20
9.0960116625
 30
0.0
 10
11.0137454724
 20
9.0854705648
 30
0.0
 10
11.0182484759
 20
9.0795207543
 30
0.0
 10
11.0206391544
 20
9.0769481426
 30
0.0
  0
SPLINE
  5
314
100
AcDbEntity
  8
0
100
AcDbSpline
 62
7
  6
CONTINUOUS
 70
0
 71
3
 72
13
 73
9
 74
0
 42
0.0000001
 43
0.0000001
 44
0.0000000001
 40
0.0
 40
0.0
 40
0.0
 40
0.0
 40
0.1324974433
 40
0.2639407464
 40
0.3934070756
 40
0.5203462851
 40
0.7653901375
 40
1.0
 40
1.0
 40
1.0
 40
1.0
 10
11.0431210568
 20
9.1216695021
 30
0.0
 10
11.0431210568
 20
9.1239560235
 30
0.0
 10
11.0428321592
 20
9.1285161361
 30
0.0
 10
11.0415539433
 20
9.1352007532
 30
0.0
 10
11.0394919425
 20
9.1415865182
 30
0.0
 10
11.0358635468
 20
9.1494616419
 30
0.0
 10
11.0298807741
 20
9.1581614249
 30
0.0
 10
11.0238288923
 20
9.163897385
 30
0.0
 10
11.0206391544
 20
9.1663908617
 30
0.0
  0
SPLINE
  5
315
100
AcDbEntity
  8
0
100
AcDbSpline
 62
7
  6
CONTINUOUS
 70
0
 71
3
 72
11
 73
7
 74
0
 42
0.0000001
 43
0.0000001
 44
0.0000000001
 40
0.0
 40
0.0
 40
0.0
 40
0.0
 40
0.2695114844
 40
0.5208183355
 40
0.7627274117
 40
1.0
 40
1.0
 40
1.0
 40
1.0
 10
11.6494447265
 20
8.182586693
 30
0.0
 10
11.6471350519
 20
8.1842500932
 30
0.0
 10
11.6423838842
 20
8.1870827833
 30
0.0
 10
11.634891918
 20
8.1901046981
 30
0.0
 10
11.6274267768
 20
8.1921070981
 30
0.0
 10
11.6224328669
 20
8.1929626271
 30
0.0
 10
11.6199497043
 20
8.1932989685
 30
0.0
  0
SPLINE
  5
316
100
AcDbEntity
  8
0
100
AcDbSpline
 62
7
  6
CONTINUOUS
 70
0
 71
3
 72
12
 73
8
 74
0
 42
0.0000001
 43
0.0000001
 44
0.0000000001
 40
0.0
 40
0.0
 40
0.0
 40
0.0
 40
0.2841074363
 40
0.4203907345
 40
0.550550809
 40
0.789366558
 40
1.0
 40
1.0
 40
1.0
 40
1.0
 10
11.0529793271
 20
9.1216695021
 30
0.0
 10
11.0529793271
 20
9.1171450641
 30
0.0
 10
11.0535083018
 20
9.1104328006
 30
0.0
 10
11.0552597344
 20
9.1018344943
 30
0.0
 10
11.0575088721
 20
9.0941007255
 30
0.0
 10
11.0611605094
 20
9.0855738348
 30
0.0
 10
11.0651172495
 20
9.0795535878
 30
0.0
 10
11.0672299185
 20
9.0769481426
 30
0.0
  0
SPLINE
  5
317
100
AcDbEntity
  8
0
100
AcDbSpline
 62
7
  6
CONTINUOUS
 70
0
 71
3
 72
13
 73
9
 74
0
 42
0.0000001
 43
0.0000001
 44
0.0000000001
 40
0.0
 40
0.0
 40
0.0
 40
0.0
 40
0.130574589
 40
0.2603646364
 40
0.388674604
 40
0.5151101672
 40
0.7613463242
 40
1.0
 40
1.0
 40
1.0
 40
1.0
 10
11.091085309
 20
9.1216695021
 30
0.0
 10
11.091085309
 20
9.1239565981
 30
0.0
 10
11.0907780498
 20
9.1285229528
 30
0.0
 10
11.0894192865
 20
9.1352129365
 30
0.0
 10
11.0872281229
 20
9.1416020993
 30
0.0
 10
11.083362969
 20
9.1495013271
 30
0.0
 10
11.0769820067
 20
9.1582203377
 30
0.0
 10
11.0705953996
 20
9.1639114766
 30
0.0
 10
11.0672299185
 20
9.1663908617
 30
0.0
  0
SPLINE
  5
318
100
AcDbEntity
  8
0
100
AcDbSpline
 62
7
  6
CONTINUOUS
 70
0
 71
3
 72
11
 73
7
 74
0
 42
0.0000001
 43
0.0000001
 44
0.0000000001
 40
0.0
 40
0.0
 40
0.0
 40
0.0
 40
0.2889109208
 40
0.557655671
 40
0.795179354
 40
1.0
 40
1.0
 40
1.0
 40
1.0
 10
11.1007228847
 20
9.1216695021
 30
0.0
 10
11.1007228847
 20
9.1171491714
 30
0.0
 10
11.101303316
 20
9.1084119235
 30
0.0
 10
11.1038082255
 20
9.0961847981
 30
0.0
 10
11.1075963029
 20
9.0856816868
 30
0.0
 10
11.1109649697
 20
9.0795908478
 30
0.0
 10
11.1127776643
 20
9.0769481426
 30
0.0
  0
SPLINE
  5
319
100
AcDbEntity
  8
0
100
AcDbSpline
 62
7
  6
CONTINUOUS
 70
0
 71
3
 72
13
 73
9
 74
0
 42
0.0000001
 43
0.0000001
 44
0.0000000001
 40
0.0
 40
0.0
 40
0.0
 40
0.0
 40
0.1289155527
 40
0.2572837581
 40
0.3846067965
 40
0.5106221915
 40
0.7579037214
 40
1.0
 40
1.0
 40
1.0
 40
1.0
 10
11.1378144632
 20
9.1216695021
 30
0.0
 10
11.1378144632
 20
9.1239571194
 30
0.0
 10
11.1374913085
 20
9.1285291265
 30
0.0
 10
11.1360629435
 20
9.135223845
 30
0.0
 10
11.1337603757
 20
9.1416158146
 30
0.0
 10
11.1296902158
 20
9.1495354795
 30
0.0
 10
11.1229657416
 20
9.1582687184
 30
0.0
 10
11.11629388
 20
9.1639226633
 30
0.0
 10
11.1127776643
 20
9.1663908617
 30
0.0
  0
SPLINE
  5
31A
100
AcDbEntity
  8
0
100
AcDbSpline
 62
7
  6
CONTINUOUS
 70
0
 71
3
 72
11
 73
7
 74
0
 42
0.0000001
 43
0.0000001
 44
0.0000000001
 40
0.0
 40
0.0
 40
0.0
 40
0.0
 40
0.2933006509
 40
0.5643751611
 40
0.8007054432
 40
1.0
 40
1.0
 40
1.0
 40
1.0
 10
11.1471537433
 20
9.1216695021
 30
0.0
 10
11.1471537433
 20
9.1171527313
 30
0.0
 10
11.1476203925
 20
9.1084535602
 30
0.0
 10
11.1496359913
 20
9.0962618134
 30
0.0
 10
11.1526833841
 20
9.0857864283
 30
0.0
 10
11.1554253631
 20
9.0796311263
 30
0.0
 10
11.1569156478
 20
9.0769481426
 30
0.0
  0
SPLINE
  5
31B
100
AcDbEntity
  8
0
100
AcDbSpline
 62
7
  6
CONTINUOUS
 70
0
 71
3
 72
13
 73
9
 74
0
 42
0.0000001
 43
0.0000001
 44
0.0000000001
 40
0.0
 40
0.0
 40
0.0
 40
0.0
 40
0.1275394656
 40
0.254731623
 40
0.3812437157
 40
0.506920652
 40
0.7550802981
 40
1.0
 40
1.0
 40
1.0
 40
1.0
 10
11.1829322624
 20
9.1216695021
 30
0.0
 10
11.1829322624
 20
9.1239575707
 30
0.0
 10
11.1825958496
 20
9.1285344632
 30
0.0
 10
11.1811095306
 20
9.1352331792
 30
0.0
 10
11.1787143624
 20
9.1416273783
 30
0.0
 10
11.1744732775
 20
9.1495637172
 30
0.0
 10
11.1674634074
 20
9.1583071882
 30
0.0
 10
11.1605566457
 20
9.1639313266
 30
0.0
 10
11.1569156478
 20
9.1663908617
 30
0.0
  0
SPLINE
  5
31C
100
AcDbEntity
  8
0
100
AcDbSpline
 62
7
  6
CONTINUOUS
 70
0
 71
3
 72
11
 73
7
 74
0
 42
0.0000001
 43
0.0000001
 44
0.0000000001
 40
0.0
 40
0.0
 40
0.0
 40
0.0
 40
0.2970915144
 40
0.5702125855
 40
0.8055561344
 40
1.0
 40
1.0
 40
1.0
 40
1.0
 10
11.1918980483
 20
9.1216695021
 30
0.0
 10
11.1918980483
 20
9.1171556282
 30
0.0
 10
11.192249288
 20
9.1084875844
 30
0.0
 10
11.1937668874
 20
9.0963271188
 30
0.0
 10
11.1960599979
 20
9.0858807875
 30
0.0
 10
11.1981432756
 20
9.0796714415
 30
0.0
 10
11.1992884761
 20
9.0769481426
 30
0.0
  0
SPLINE
  5
31D
100
AcDbEntity
  8
0
100
AcDbSpline
 62
7
  6
CONTINUOUS
 70
0
 71
3
 72
13
 73
9
 74
0
 42
0.0000001
 43
0.0000001
 44
0.0000000001
 40
0.0
 40
0.0
 40
0.0
 40
0.0
 40
0.1264591114
 40
0.2527301022
 40
0.3786104478
 40
0.5040280214
 40
0.7528837319
 40
1.0
 40
1.0
 40
1.0
 40
1.0
 10
11.2260754242
 20
9.1216695021
 30
0.0
 10
11.2260754242
 20
9.1239579376
 30
0.0
 10
11.2257285384
 20
9.128538796
 30
0.0
 10
11.2241965077
 20
9.1352406931
 30
0.0
 10
11.22172841
 20
9.1416365741
 30
0.0
 10
11.2173523995
 20
9.1495858147
 30
0.0
 10
11.2101179302
 20
9.1583363688
 30
0.0
 10
11.2030274627
 20
9.1639377685
 30
0.0
 10
11.1992884761
 20
9.1663908617
 30
0.0
  0
SPLINE
  5
31E
100
AcDbEntity
  8
0
100
AcDbSpline
 62
7
  6
CONTINUOUS
 70
0
 71
3
 72
11
 73
7
 74
0
 42
0.0000001
 43
0.0000001
 44
0.0000000001
 40
0.0
 40
0.0
 40
0.0
 40
0.0
 40
0.3000315296
 40
0.5747618607
 40
0.8093696726
 40
1.0
 40
1.0
 40
1.0
 40
1.0
 10
11.2345955247
 20
9.1216695021
 30
0.0
 10
11.2345955247
 20
9.1171577675
 30
0.0
 10
11.2348302415
 20
9.1085127676
 30
0.0
 10
11.2358442981
 20
9.096376994
 30
0.0
 10
11.237375638
 20
9.0859562212
 30
0.0
 10
11.2387764309
 20
9.0797070069
 30
0.0
 10
11.2395549692
 20
9.0769481426
 30
0.0
  0
SPLINE
  5
31F
100
AcDbEntity
  8
0
100
AcDbSpline
 62
7
  6
CONTINUOUS
 70
0
 71
3
 72
30
 73
26
 74
0
 42
0.0000001
 43
0.0000001
 44
0.0000000001
 40
0.0
 40
0.0
 40
0.0
 40
0.0
 40
0.0616505807
 40
0.1224871047
 40
0.182962957
 40
0.2131375268
 40
0.2432858041
 40
0.3035380934
 40
0.3637642801
 40
0.4239838405
 40
0.4842099581
 40
0.5444618278
 40
0.6047802373
 40
0.6652567052
 40
0.7260945201
 40
0.7567868803
 40
0.7877815383
 40
0.8192390816
 40
0.8514190641
 40
0.884755504
 40
0.9199859916
 40
0.9386878966
 40
0.9582964728
 40
0.9788289833
 40
1.0
 40
1.0
 40
1.0
 40
1.0
 10
10.3006260003
 20
8.0594541931
 30
0.0
 10
10.3080517366
 20
8.056519198
 30
0.0
 10
10.3232606733
 20
8.0518225402
 30
0.0
 10
10.3465219437
 20
8.0471896179
 30
0.0
 10
10.3659971103
 20
8.0447094597
 30
0.0
 10
10.3815795657
 20
8.0433019292
 30
0.0
 10
10.397158678
 20
8.0422092099
 30
0.0
 10
10.4166510857
 20
8.0413444145
 30
0.0
 10
10.4400512719
 20
8.0408767428
 30
0.0
 10
10.463452632
 20
8.040880338
 30
0.0
 10
10.4868528111
 20
8.0413558826
 30
0.0
 10
10.5102480848
 20
8.0424089378
 30
0.0
 10
10.5336301965
 20
8.0442572555
 30
0.0
 10
10.5569745967
 20
8.0472506048
 30
0.0
 10
10.5763049955
 20
8.0511277216
 30
0.0
 10
10.5915826938
 20
8.0554493369
 30
0.0
 10
10.6029666669
 20
8.0594721334
 30
0.0
 10
10.6141778671
 20
8.0644629813
 30
0.0
 10
10.625109422
 20
8.0707020889
 30
0.0
 10
10.635552695
 20
8.0785958436
 30
0.0
 10
10.6433304517
 20
8.0869156263
 30
0.0
 10
10.6485480059
 20
8.0949126469
 30
0.0
 10
10.6517996321
 20
8.101838123
 30
0.0
 10
10.6539795736
 20
8.1095128569
 30
0.0
 10
10.6544969016
 20
8.1149275226
 30
0.0
 10
10.6544969016
 20
8.1176695023
 30
0.0
  0
SPLINE
  5
320
100
AcDbEntity
  8
0
100
AcDbSpline
 62
7
  6
CONTINUOUS
 70
0
 71
3
 72
30
 73
26
 74
0
 42
0.0000001
 43
0.0000001
 44
0.0000000001
 40
0.0
 40
0.0
 40
0.0
 40
0.0
 40
0.0211693756
 40
0.0416919575
 40
0.0612824989
 40
0.0799620639
 40
0.1151469304
 40
0.1484444422
 40
0.1805935954
 40
0.2120273434
 40
0.243003867
 40
0.2736825494
 40
0.3345027761
 40
0.3949701335
 40
0.4552842252
 40
0.5155344221
 40
0.5757602713
 40
0.6359804561
 40
0.6962085935
 40
0.7263321536
 40
0.756467135
 40
0.8167972477
 40
0.8772993991
 40
0.9381973839
 40
1.0
 40
1.0
 40
1.0
 40
1.0
 10
10.6544969016
 20
8.1176695023
 30
0.0
 10
10.6544969016
 20
8.1204325472
 30
0.0
 10
10.6539716478
 20
8.125887926
 30
0.0
 10
10.6517599385
 20
8.1336144547
 30
0.0
 10
10.6484652408
 20
8.1405782904
 30
0.0
 10
10.6431850655
 20
8.1486096328
 30
0.0
 10
10.6353232557
 20
8.1569528655
 30
0.0
 10
10.6247789243
 20
8.1648560746
 30
0.0
 10
10.613748382
 20
8.1710938047
 30
0.0
 10
10.602439913
 20
8.1760765514
 30
0.0
 10
10.5909600221
 20
8.1800869143
 30
0.0
 10
10.5755554531
 20
8.1843884255
 30
0.0
 10
10.5560688916
 20
8.1882361024
 30
0.0
 10
10.5325400356
 20
8.1911929458
 30
0.0
 10
10.5089748139
 20
8.1930073395
 30
0.0
 10
10.4853971432
 20
8.1940292856
 30
0.0
 10
10.4618148497
 20
8.1944749232
 30
0.0
 10
10.4382317425
 20
8.1944437314
 30
0.0
 10
10.4185816699
 20
8.1940196325
 30
0.0
 10
10.4028683037
 20
8.1933763324
 30
0.0
 10
10.387152815
 20
8.192502063
 30
0.0
 10
10.3675096072
 20
8.1908819065
 30
0.0
 10
10.34398302
 20
8.1877419255
 30
0.0
 10
10.3205542797
 20
8.1828401751
 30
0.0
 10
10.3052686473
 20
8.1778623175
 30
0.0
 10
10.2978281785
 20
8.1747464983
 30
0.0
  0
SPLINE
  5
321
100
AcDbEntity
  8
0
100
AcDbSpline
 62
7
  6
CONTINUOUS
 70
0
 71
3
 72
13
 73
9
 74
0
 42
0.0000001
 43
0.0000001
 44
0.0000000001
 40
0.0
 40
0.0
 40
0.0
 40
0.0
 40
0.223492757
 40
0.4571093688
 40
0.5809190428
 40
0.7119033882
 40
0.852026431
 40
1.0
 40
1.0
 40
1.0
 40
1.0
 10
10.2978281785
 20
8.1747464983
 30
0.0
 10
10.2923461815
 20
8.1724508215
 30
0.0
 10
10.2814022497
 20
8.1670711954
 30
0.0
 10
10.2687896708
 20
8.1579337612
 30
0.0
 10
10.2598538507
 20
8.1484509218
 30
0.0
 10
10.2539425728
 20
8.139699402
 30
0.0
 10
10.2496794928
 20
8.1293033502
 30
0.0
 10
10.2486145972
 20
8.1216045133
 30
0.0
 10
10.2486145972
 20
8.1176695024
 30
0.0
  0
SPLINE
  5
322
100
AcDbEntity
  8
0
100
AcDbSpline
 62
7
  6
CONTINUOUS
 70
0
 71
3
 72
16
 73
12
 74
0
 42
0.0000001
 43
0.0000001
 44
0.0000000001
 40
0.0
 40
0.0
 40
0.0
 40
0.0
 40
0.0750802834
 40
0.14877649
 40
0.2202054571
 40
0.2890870697
 40
0.4197247249
 40
0.543158671
 40
0.6615975841
 40
0.776601615
 40
1.0
 40
1.0
 40
1.0
 40
1.0
 10
10.2486145972
 20
8.1176695024
 30
0.0
 10
10.2486145972
 20
8.1155956687
 30
0.0
 10
10.2489134495
 20
8.1114805087
 30
0.0
 10
10.2501913649
 20
8.1055159717
 30
0.0
 10
10.2521768791
 20
8.0999313765
 30
0.0
 10
10.2554994241
 20
8.0932099603
 30
0.0
 10
10.2606679242
 20
8.0858690147
 30
0.0
 10
10.2679065147
 20
8.0785100482
 30
0.0
 10
10.2756813038
 20
8.0724136185
 30
0.0
 10
10.2863759294
 20
8.0656870986
 30
0.0
 10
10.2948873748
 20
8.0617223639
 30
0.0
 10
10.3006260003
 20
8.0594541931
 30
0.0
  0
SPLINE
  5
323
100
AcDbEntity
  8
0
100
AcDbSpline
 62
7
  6
CONTINUOUS
 70
0
 71
3
 72
35
 73
31
 74
0
 42
0.0000001
 43
0.0000001
 44
0.0000000001
 40
0.0
 40
0.0
 40
0.0
 40
0.0
 40
0.0624177732
 40
0.0936076977
 40
0.1247847753
 40
0.1871160066
 40
0.2182789901
 40
0.2494384387
 40
0.3117528558
 40
0.3740646507
 40
0.4363757764
 40
0.4986872693
 40
0.5610005364
 40
0.6233182853
 40
0.6856465179
 40
0.7168215565
 40
0.7480066448
 40
0.7792066518
 40
0.8104292781
 40
0.8416866217
 40
0.8729981403
 40
0.888690267
 40
0.9044127623
 40
0.9201752151
 40
0.9359892513
 40
0.9518692447
 40
0.9678293574
 40
0.9838697535
 40
0.9919326857
 40
1.0
 40
1.0
 40
1.0
 40
1.0
 10
10.9094556342
 20
8.0594541931
 30
0.0
 10
10.9197075101
 20
8.0564879111
 30
0.0
 10
10.9353552841
 20
8.0529655125
 30
0.0
 10
10.956405585
 20
8.0494841579
 30
0.0
 10
10.9775463198
 20
8.0466862314
 30
0.0
 10
10.9987786864
 20
8.0447077143
 30
0.0
 10
11.0200462852
 20
8.0433015924
 30
0.0
 10
11.0413298011
 20
8.0422088414
 30
0.0
 10
11.0679547141
 20
8.041344328
 30
0.0
 10
11.0999156014
 20
8.0408767298
 30
0.0
 10
11.1318793513
 20
8.0408803323
 30
0.0
 10
11.1638399679
 20
8.0413557816
 30
0.0
 10
11.1957890842
 20
8.0424082352
 30
0.0
 10
11.2277065206
 20
8.0442550018
 30
0.0
 10
11.2542426859
 20
8.0467425455
 30
0.0
 10
11.2753775953
 20
8.049564036
 30
0.0
 10
11.2911613947
 20
8.0521889045
 30
0.0
 10
11.3068394279
 20
8.0554335656
 30
0.0
 10
11.3223558261
 20
8.0594423428
 30
0.0
 10
11.3376170572
 20
8.0644067004
 30
0.0
 10
11.349991203
 20
8.0695582656
 30
0.0
 10
11.3595283456
 20
8.0744773197
 30
0.0
 10
11.366447378
 20
8.0786373673
 30
0.0
 10
11.3730372276
 20
8.0833430244
 30
0.0
 10
11.3791630889
 20
8.088688155
 30
0.0
 10
11.3846189349
 20
8.0947750464
 30
0.0
 10
11.3890887051
 20
8.1016821825
 30
0.0
 10
11.3916151277
 20
8.1081177912
 30
0.0
 10
11.3926698834
 20
8.1135287443
 30
0.0
 10
11.3928512552
 20
8.1162901278
 30
0.0
 10
11.3928512552
 20
8.1176695022
 30
0.0
  0
SPLINE
  5
324
100
AcDbEntity
  8
0
100
AcDbSpline
 62
7
  6
CONTINUOUS
 70
0
 71
3
 72
28
 73
24
 74
0
 42
0.0000001
 43
0.0000001
 44
0.0000000001
 40
0.0
 40
0.0
 40
0.0
 40
0.0
 40
0.0161082921
 40
0.0321820023
 40
0.0481977617
 40
0.0641487328
 40
0.0958369437
 40
0.1273609174
 40
0.1587701765
 40
0.1901004132
 40
0.2213756496
 40
0.2526117804
 40
0.3149954303
 40
0.3773234987
 40
0.4396207046
 40
0.5019005789
 40
0.5641708319
 40
0.6264358297
 40
0.6886979944
 40
0.7509587104
 40
0.8132187332
 40
0.8754789665
 40
1.0
 40
1.0
 40
1.0
 40
1.0
 10
11.3928512552
 20
8.1176695022
 30
0.0
 10
11.3928512552
 20
8.1196718725
 30
0.0
 10
11.3924690744
 20
8.1236820008
 30
0.0
 10
11.3908222213
 20
8.1294721664
 30
0.0
 10
11.3882690822
 20
8.1348964497
 30
0.0
 10
11.3839272003
 20
8.1415356173
 30
0.0
 10
11.3771480741
 20
8.1487677068
 30
0.0
 10
11.3677952292
 20
8.1559532186
 30
0.0
 10
11.3577081139
 20
8.1619572097
 30
0.0
 10
11.3471589441
 20
8.1670137755
 30
0.0
 10
11.3363028611
 20
8.1713038106
 30
0.0
 10
11.3215555677
 20
8.1761774292
 30
0.0
 10
11.3027454425
 20
8.1809601696
 30
0.0
 10
11.279875119
 20
8.1851853631
 30
0.0
 10
11.2568414809
 20
8.1882814412
 30
0.0
 10
11.2337198827
 20
8.1905251547
 30
0.0
 10
11.2105500149
 20
8.1921200205
 30
0.0
 10
11.1873544609
 20
8.1932180207
 30
0.0
 10
11.1641455555
 20
8.1939305519
 30
0.0
 10
11.1409301812
 20
8.1943360616
 30
0.0
 10
11.1177119527
 20
8.1944807479
 30
0.0
 10
11.0867545787
 20
8.1943452082
 30
0.0
 10
11.0635378035
 20
8.1938680226
 30
0.0
 10
11.04806906
 20
8.1933098193
 30
0.0
  0
SPLINE
  5
325
100
AcDbEntity
  8
0
100
AcDbSpline
 62
7
  6
CONTINUOUS
 70
0
 71
3
 72
23
 73
19
 74
0
 42
0.0000001
 43
0.0000001
 44
0.0000000001
 40
0.0
 40
0.0
 40
0.0
 40
0.0
 40
0.1242566576
 40
0.248526823
 40
0.3728259509
 40
0.4350021804
 40
0.4972029883
 40
0.5594396515
 40
0.6217288127
 40
0.68409657
 40
0.746584288
 40
0.8092597828
 40
0.8407299733
 40
0.8723071822
 40
0.9040152347
 40
0.93587766
 40
0.9678865566
 40
1.0
 40
1.0
 40
1.0
 40
1.0
 10
11.04806906
 20
8.1933098193
 30
0.0
 10
11.0382272856
 20
8.1929546702
 30
0.0
 10
11.0185486201
 20
8.192046326
 30
0.0
 10
10.9890760007
 20
8.1898623485
 30
0.0
 10
10.9645941736
 20
8.1870814048
 30
0.0
 10
10.9451190523
 20
8.1840332408
 30
0.0
 10
10.9305894491
 20
8.1812496602
 30
0.0
 10
10.9161768709
 20
8.177865776
 30
0.0
 10
10.9019401433
 20
8.173747953
 30
0.0
 10
10.8879718643
 20
8.168719276
 30
0.0
 10
10.8744335661
 20
8.1625383796
 30
0.0
 10
10.863745357
 20
8.156140826
 30
0.0
 10
10.8558541068
 20
8.1500368911
 30
0.0
 10
10.8503812906
 20
8.1448722129
 30
0.0
 10
10.8455530442
 20
8.1390497917
 30
0.0
 10
10.8416437751
 20
8.1325166394
 30
0.0
 10
10.8390346507
 20
8.1253148889
 30
0.0
 10
10.8384048589
 20
8.1202147098
 30
0.0
 10
10.8384048589
 20
8.1176695023
 30
0.0
  0
SPLINE
  5
326
100
AcDbEntity
  8
0
100
AcDbSpline
 62
7
  6
CONTINUOUS
 70
0
 71
3
 72
17
 73
13
 74
0
 42
0.0000001
 43
0.0000001
 44
0.0000000001
 40
0.0
 40
0.0
 40
0.0
 40
0.0
 40
0.0637888217
 40
0.127430533
 40
0.1908334135
 40
0.2539702603
 40
0.379385013
 40
0.5041559394
 40
0.6284843225
 40
0.7525097225
 40
0.8763300057
 40
1.0
 40
1.0
 40
1.0
 40
1.0
 10
10.8384048589
 20
8.1176695023
 30
0.0
 10
10.8384048589
 20
8.1155910677
 30
0.0
 10
10.8388240634
 20
8.1114289169
 30
0.0
 10
10.8405912197
 20
8.1054351258
 30
0.0
 10
10.8433231408
 20
8.0998446304
 30
0.0
 10
10.847944798
 20
8.0930338607
 30
0.0
 10
10.8551167488
 20
8.0856626933
 30
0.0
 10
10.8649542464
 20
8.0783870074
 30
0.0
 10
10.8755263313
 20
8.0723404392
 30
0.0
 10
10.8865565715
 20
8.0672730843
 30
0.0
 10
10.8978887036
 20
8.0629951458
 30
0.0
 10
10.9055848586
 20
8.0605741649
 30
0.0
 10
10.9094556342
 20
8.0594541931
 30
0.0
  0
SPLINE
  5
327
100
AcDbEntity
  8
0
100
AcDbSpline
 62
7
  6
CONTINUOUS
 70
0
 71
3
 72
13
 73
9
 74
0
 42
0.0000001
 43
0.0000001
 44
0.0000000001
 40
0.0
 40
0.0
 40
0.0
 40
0.0
 40
0.1508411403
 40
0.2878956938
 40
0.4158503291
 40
0.5378888579
 40
0.7719369974
 40
1.0
 40
1.0
 40
1.0
 40
1.0
 10
11.5465219766
 20
8.0594541931
 30
0.0
 10
11.5480634478
 20
8.0577896615
 30
0.0
 10
11.5512142426
 20
8.0547969205
 30
0.0
 10
11.556288717
 20
8.0511145027
 30
0.0
 10
11.5613804686
 20
8.0482677606
 30
0.0
 10
11.5680824605
 20
8.0453972221
 30
0.0
 10
11.5765808348
 20
8.0430267495
 30
0.0
 10
11.5834673762
 20
8.0420037441
 30
0.0
 10
11.5868785318
 20
8.0416439766
 30
0.0
  0
SPLINE
  5
328
100
AcDbEntity
  8
0
100
AcDbSpline
 62
7
  6
CONTINUOUS
 70
0
 71
3
 72
9
 73
5
 74
0
 42
0.0000001
 43
0.0000001
 44
0.0000000001
 40
0.0
 40
0.0
 40
0.0
 40
0.0
 40
0.2505481671
 40
1.0
 40
1.0
 40
1.0
 40
1.0
 10
11.5868785318
 20
8.0416439766
 30
0.0
 10
11.5878547279
 20
8.0415410192
 30
0.0
 10
11.5917558647
 20
8.0411768542
 30
0.0
 10
11.5956726843
 20
8.0409896846
 30
0.0
 10
11.5986083298
 20
8.0409305536
 30
0.0
  0
SPLINE
  5
329
100
AcDbEntity
  8
0
100
AcDbSpline
 62
7
  6
CONTINUOUS
 70
0
 71
3
 72
12
 73
8
 74
0
 42
0.0000001
 43
0.0000001
 44
0.0000000001
 40
0.0
 40
0.0
 40
0.0
 40
0.0
 40
0.238672867
 40
0.4801849279
 40
0.7296891479
 40
0.8610213937
 40
1.0
 40
1.0
 40
1.0
 40
1.0
 10
11.6089667848
 20
8.0410658874
 30
0.0
 10
11.6123608011
 20
8.0412255951
 30
0.0
 10
11.6191823799
 20
8.0417801537
 30
0.0
 10
11.629433121
 20
8.0435728322
 30
0.0
 10
11.6379142707
 20
8.0462884249
 30
0.0
 10
11.6445786069
 20
8.0495321256
 30
0.0
 10
11.6478393043
 20
8.0515959859
 30
0.0
 10
11.6494447254
 20
8.0527523339
 30
0.0
  0
SPLINE
  5
32A
100
AcDbEntity
  8
0
100
AcDbSpline
 62
7
  6
CONTINUOUS
 70
0
 71
3
 72
13
 73
9
 74
0
 42
0.0000001
 43
0.0000001
 44
0.0000000001
 40
0.0
 40
0.0
 40
0.0
 40
0.0
 40
0.1256827113
 40
0.2512928838
 40
0.3767219167
 40
0.5019565407
 40
0.7513159547
 40
1.0
 40
1.0
 40
1.0
 40
1.0
 10
11.2668965662
 20
9.1216695021
 30
0.0
 10
11.2668965662
 20
9.1239582084
 30
0.0
 10
11.2665421117
 20
9.1285419901
 30
0.0
 10
11.2649770864
 20
9.1352461955
 30
0.0
 10
11.2624564119
 20
9.1416432452
 30
0.0
 10
11.2579829699
 20
9.1496016502
 30
0.0
 10
11.2505867046
 20
9.1583567983
 30
0.0
 10
11.2433644577
 20
9.1639422148
 30
0.0
 10
11.2395549692
 20
9.1663908617
 30
0.0
  0
SPLINE
  5
32B
100
AcDbEntity
  8
0
100
AcDbSpline
 62
7
  6
CONTINUOUS
 70
0
 71
3
 72
24
 73
20
 74
0
 42
0.0000001
 43
0.0000001
 44
0.0000000001
 40
0.0
 40
0.0
 40
0.0
 40
0.0
 40
0.0887008969
 40
0.1329152566
 40
0.1771346888
 40
0.2214328028
 40
0.2659186432
 40
0.3107825178
 40
0.3563615243
 40
0.4032416857
 40
0.452412688
 40
0.5054994479
 40
0.5651177519
 40
0.6354842739
 40
0.723631611
 40
0.7779368871
 40
0.8416674621
 40
0.9163955404
 40
1.0
 40
1.0
 40
1.0
 40
1.0
 10
11.6199497043
 20
8.1932989685
 30
0.0
 10
11.6158231886
 20
8.1938579001
 30
0.0
 10
11.6095890671
 20
8.1943418044
 30
0.0
 10
11.6012737787
 20
8.1944810078
 30
0.0
 10
11.5950421268
 20
8.1943385685
 30
0.0
 10
11.5888091918
 20
8.1939344669
 30
0.0
 10
11.5825724002
 20
8.1932218473
 30
0.0
 10
11.5763295947
 20
8.1921199961
 30
0.0
 10
11.5700782266
 20
8.1905123426
 30
0.0
 10
11.5638172805
 20
8.1882363129
 30
0.0
 10
11.5575511935
 20
8.1850685574
 30
0.0
 10
11.5512977145
 20
8.180699772
 30
0.0
 10
11.5450990858
 20
8.1746891357
 30
0.0
 10
11.5390431497
 20
8.1663686966
 30
0.0
 10
11.5346455526
 20
8.1573365039
 30
0.0
 10
11.5315140311
 20
8.1481679248
 30
0.0
 10
11.5293680798
 20
8.139362276
 30
0.0
 10
11.5278517969
 20
8.12903333
 30
0.0
 10
11.5274839276
 20
8.1215944405
 30
0.0
 10
11.5274839276
 20
8.1176695034
 30
0.0
  0
SPLINE
  5
32C
100
AcDbEntity
  8
0
100
AcDbSpline
 62
7
  6
CONTINUOUS
 70
0
 71
3
 72
13
 73
9
 74
0
 42
0.0000001
 43
0.0000001
 44
0.0000000001
 40
0.0
 40
0.0
 40
0.0
 40
0.0
 40
0.1948661333
 40
0.3678742145
 40
0.5144130813
 40
0.6387016571
 40
0.8397174662
 40
1.0
 40
1.0
 40
1.0
 40
1.0
 10
11.5274839276
 20
8.1176695034
 30
0.0
 10
11.5274839276
 20
8.1136048465
 30
0.0
 10
11.5278768598
 20
8.1059250726
 30
0.0
 10
11.5294917993
 20
8.0953010617
 30
0.0
 10
11.5317615483
 20
8.0863103551
 30
0.0
 10
11.535051817
 20
8.0770237218
 30
0.0
 10
11.5396527705
 20
8.0679362521
 30
0.0
 10
11.5442503312
 20
8.061907191
 30
0.0
 10
11.5465219766
 20
8.0594541931
 30
0.0
  0
SPLINE
  5
32D
100
AcDbEntity
  8
0
100
AcDbSpline
 62
7
  6
CONTINUOUS
 70
0
 71
3
 72
11
 73
7
 74
0
 42
0.0000001
 43
0.0000001
 44
0.0000000001
 40
0.0
 40
0.0
 40
0.0
 40
0.0
 40
0.3018986982
 40
0.5776610342
 40
0.8118155431
 40
1.0
 40
1.0
 40
1.0
 40
1.0
 10
11.2749023786
 20
9.1216695021
 30
0.0
 10
11.2749023786
 20
9.1171590794
 30
0.0
 10
11.2750198589
 20
9.1085282185
 30
0.0
 10
11.2755272913
 20
9.0964083353
 30
0.0
 10
11.2762932806
 20
9.0860050183
 30
0.0
 10
11.2769967328
 20
9.0797318846
 30
0.0
 10
11.277390907
 20
9.0769481426
 30
0.0
  0
SPLINE
  5
32E
100
AcDbEntity
  8
0
100
AcDbSpline
 62
7
  6
CONTINUOUS
 70
0
 71
3
 72
13
 73
9
 74
0
 42
0.0000001
 43
0.0000001
 44
0.0000000001
 40
0.0
 40
0.0
 40
0.0
 40
0.0
 40
0.1252152448
 40
0.250428024
 40
0.3755864172
 40
0.5007122733
 40
0.7503763249
 40
1.0
 40
1.0
 40
1.0
 40
1.0
 10
11.3050670022
 20
9.1216695021
 30
0.0
 10
11.3050670022
 20
9.1239583744
 30
0.0
 10
11.3047079716
 20
9.1285439464
 30
0.0
 10
11.3031230145
 20
9.1352495502
 30
0.0
 10
11.3005706056
 20
9.1416472868
 30
0.0
 10
11.2960382937
 20
9.1496111649
 30
0.0
 10
11.2885444295
 20
9.1583688846
 30
0.0
 10
11.2812428963
 20
9.1639448213
 30
0.0
 10
11.277390907
 20
9.1663908617
 30
0.0
  0
SPLINE
  5
32F
100
AcDbEntity
  8
0
100
AcDbSpline
 62
7
  6
CONTINUOUS
 70
0
 71
3
 72
14
 73
10
 74
0
 42
0.0000001
 43
0.0000001
 44
0.0000000001
 40
0.0
 40
0.0
 40
0.0
 40
0.0
 40
0.1250065926
 40
0.2500339776
 40
0.3750502839
 40
0.5000857616
 40
0.6251297698
 40
0.7501721235
 40
1.0
 40
1.0
 40
1.0
 40
1.0
 10
11.3402793891
 20
9.1216695021
 30
0.0
 10
11.3402793891
 20
9.1193800287
 30
0.0
 10
11.3399186954
 20
9.1147927724
 30
0.0
 10
11.3383261655
 20
9.1080851188
 30
0.0
 10
11.3357625171
 20
9.1016860638
 30
0.0
 10
11.332342651
 20
9.0957048877
 30
0.0
 10
11.3281919119
 20
9.0902082499
 30
0.0
 10
11.3218589651
 20
9.0835746851
 30
0.0
 10
11.3163424088
 20
9.0793937895
 30
0.0
 10
11.312475289
 20
9.0769481668
 30
0.0
  0
SPLINE
  5
330
100
AcDbEntity
  8
0
100
AcDbSpline
 62
7
  6
CONTINUOUS
 70
0
 71
3
 72
14
 73
10
 74
0
 42
0.0000001
 43
0.0000001
 44
0.0000000001
 40
0.0
 40
0.0
 40
0.0
 40
0.0
 40
0.1250067486
 40
0.2500343149
 40
0.375050542
 40
0.5000864861
 40
0.6251300334
 40
0.7501716716
 40
1.0
 40
1.0
 40
1.0
 40
1.0
 10
11.3402793891
 20
9.1216695021
 30
0.0
 10
11.3402793891
 20
9.1239589772
 30
0.0
 10
11.3399186902
 20
9.128546236
 30
0.0
 10
11.3383261744
 20
9.1352538945
 30
0.0
 10
11.3357624857
 20
9.1416529438
 30
0.0
 10
11.3323426811
 20
9.1476341268
 30
0.0
 10
11.3281919744
 20
9.1531308427
 30
0.0
 10
11.3218584414
 20
9.1597635875
 30
0.0
 10
11.3163436956
 20
9.1639472401
 30
0.0
 10
11.312475289
 20
9.1663908375
 30
0.0
  0
SPLINE
  5
331
100
AcDbEntity
  8
0
100
AcDbSpline
 62
7
  6
CONTINUOUS
 70
0
 71
3
 72
11
 73
7
 74
0
 42
0.0000001
 43
0.0000001
 44
0.0000000001
 40
0.0
 40
0.0
 40
0.0
 40
0.0
 40
0.2574153148
 40
0.5113965855
 40
0.7593849994
 40
1.0
 40
1.0
 40
1.0
 40
1.0
 10
10.3893005824
 20
9.1216695021
 30
0.0
 10
10.3893005824
 20
9.1244581192
 30
0.0
 10
10.3897146983
 20
9.1300070036
 30
0.0
 10
10.3915366826
 20
9.1380583717
 30
0.0
 10
10.3944321621
 20
9.1455920569
 30
0.0
 10
10.3970091375
 20
9.1502374448
 30
0.0
 10
10.3984244802
 20
9.1524263387
 30
0.0
  0
SPLINE
  5
332
100
AcDbEntity
  8
0
100
AcDbSpline
 62
7
  6
CONTINUOUS
 70
0
 71
3
 72
9
 73
5
 74
0
 42
0.0000001
 43
0.0000001
 44
0.0000000001
 40
0.0
 40
0.0
 40
0.0
 40
0.0
 40
0.5096497939
 40
1.0
 40
1.0
 40
1.0
 40
1.0
 10
10.3984244802
 20
9.1524263387
 30
0.0
 10
10.4001650305
 20
9.1551181815
 30
0.0
 10
10.4040272653
 20
9.1601236676
 30
0.0
 10
10.4086285027
 20
9.1644511823
 30
0.0
 10
10.4110263512
 20
9.1663908617
 30
0.0
  0
SPLINE
  5
333
100
AcDbEntity
  8
0
100
AcDbSpline
 62
7
  6
CONTINUOUS
 70
0
 71
3
 72
9
 73
5
 74
0
 42
0.0000001
 43
0.0000001
 44
0.0000000001
 40
0.0
 40
0.0
 40
0.0
 40
0.0
 40
0.5078200143
 40
1.0
 40
1.0
 40
1.0
 40
1.0
 10
10.395856197
 20
9.1294655913
 30
0.0
 10
10.3964788802
 20
9.1336311577
 30
0.0
 10
10.3987005677
 20
9.1417149666
 30
0.0
 10
10.4026964916
 20
9.1490667627
 30
0.0
 10
10.4050153376
 20
9.1524263388
 30
0.0
  0
SPLINE
  5
334
100
AcDbEntity
  8
0
100
AcDbSpline
 62
7
  6
CONTINUOUS
 70
0
 71
3
 72
9
 73
5
 74
0
 42
0.0000001
 43
0.0000001
 44
0.0000000001
 40
0.0
 40
0.0
 40
0.0
 40
0.0
 40
0.5070756636
 40
1.0
 40
1.0
 40
1.0
 40
1.0
 10
10.4050153376
 20
9.1524263388
 30
0.0
 10
10.4068829412
 20
9.1551321485
 30
0.0
 10
10.4110316107
 20
9.1601600561
 30
0.0
 10
10.4159200696
 20
9.1644605587
 30
0.0
 10
10.4184672976
 20
9.1663908617
 30
0.0
  0
SPLINE
  5
335
100
AcDbEntity
  8
0
100
AcDbSpline
 62
7
  6
CONTINUOUS
 70
0
 71
3
 72
11
 73
7
 74
0
 42
0.0000001
 43
0.0000001
 44
0.0000000001
 40
0.0
 40
0.0
 40
0.0
 40
0.0
 40
0.2540466342
 40
0.5057231162
 40
0.7544767827
 40
1.0
 40
1.0
 40
1.0
 40
1.0
 10
10.406231036
 20
9.1294655912
 30
0.0
 10
10.4065626121
 20
9.1315678151
 30
0.0
 10
10.4074903336
 20
9.1357151976
 30
0.0
 10
10.4096274302
 20
9.1416792278
 30
0.0
 10
10.4124239
 20
9.1472829355
 30
0.0
 10
10.4146843826
 20
9.1507637199
 30
0.0
 10
10.4158952352
 20
9.1524263387
 30
0.0
  0
SPLINE
  5
336
100
AcDbEntity
  8
0
100
AcDbSpline
 62
7
  6
CONTINUOUS
 70
0
 71
3
 72
9
 73
5
 74
0
 42
0.0000001
 43
0.0000001
 44
0.0000000001
 40
0.0
 40
0.0
 40
0.0
 40
0.0
 40
0.5049491139
 40
1.0
 40
1.0
 40
1.0
 40
1.0
 10
10.4158952352
 20
9.1524263387
 30
0.0
 10
10.4178745086
 20
9.1551440744
 30
0.0
 10
10.4222742756
 20
9.1601900255
 30
0.0
 10
10.4274117272
 20
9.1644680604
 30
0.0
 10
10.4300889707
 20
9.1663908617
 30
0.0
  0
SPLINE
  5
337
100
AcDbEntity
  8
0
100
AcDbSpline
 62
7
  6
CONTINUOUS
 70
0
 71
3
 72
13
 73
9
 74
0
 42
0.0000001
 43
0.0000001
 44
0.0000000001
 40
0.0
 40
0.0
 40
0.0
 40
0.0
 40
0.125215852
 40
0.2504291471
 40
0.3755878912
 40
0.500713888
 40
0.7503775432
 40
1.0
 40
1.0
 40
1.0
 40
1.0
 10
11.3722502021
 20
9.1216695021
 30
0.0
 10
11.3722502021
 20
9.1239583742
 30
0.0
 10
11.3718911774
 20
9.1285439438
 30
0.0
 10
11.3703062463
 20
9.1352495459
 30
0.0
 10
11.3677538786
 20
9.1416472815
 30
0.0
 10
11.3632216433
 20
9.1496111525
 30
0.0
 10
11.355727906
 20
9.158368869
 30
0.0
 10
11.3484264758
 20
9.1639448179
 30
0.0
 10
11.3445745417
 20
9.1663908617
 30
0.0
  0
SPLINE
  5
338
100
AcDbEntity
  8
0
100
AcDbSpline
 62
7
  6
CONTINUOUS
 70
0
 71
3
 72
11
 73
7
 74
0
 42
0.0000001
 43
0.0000001
 44
0.0000000001
 40
0.0
 40
0.0
 40
0.0
 40
0.0
 40
0.2527420837
 40
0.5038674566
 40
0.7530233046
 40
1.0
 40
1.0
 40
1.0
 40
1.0
 10
10.4208851265
 20
9.1294655913
 30
0.0
 10
10.4212317231
 20
9.1315700124
 30
0.0
 10
10.4222027781
 20
9.1357243879
 30
0.0
 10
10.4244365787
 20
9.1416903321
 30
0.0
 10
10.4273587112
 20
9.1472945767
 30
0.0
 10
10.4297150016
 20
9.1507674217
 30
0.0
 10
10.4309765695
 20
9.1524263388
 30
0.0
  0
SPLINE
  5
339
100
AcDbEntity
  8
0
100
AcDbSpline
 62
7
  6
CONTINUOUS
 70
0
 71
3
 72
9
 73
5
 74
0
 42
0.0000001
 43
0.0000001
 44
0.0000000001
 40
0.0
 40
0.0
 40
0.0
 40
0.0
 40
0.5032374715
 40
1.0
 40
1.0
 40
1.0
 40
1.0
 10
10.4309765695
 20
9.1524263388
 30
0.0
 10
10.4330508464
 20
9.1551539393
 30
0.0
 10
10.4376636996
 20
9.1602140748
 30
0.0
 10
10.4430107477
 20
9.1644739442
 30
0.0
 10
10.4457977947
 20
9.1663908617
 30
0.0
  0
SPLINE
  5
33A
100
AcDbEntity
  8
0
100
AcDbSpline
 62
7
  6
CONTINUOUS
 70
0
 71
3
 72
11
 73
7
 74
0
 42
0.0000001
 43
0.0000001
 44
0.0000000001
 40
0.0
 40
0.0
 40
0.0
 40
0.0
 40
0.2516713685
 40
0.5023475031
 40
0.7518355844
 40
1.0
 40
1.0
 40
1.0
 40
1.0
 10
10.4397004548
 20
9.1294654675
 30
0.0
 10
10.4400592435
 20
9.1315717422
 30
0.0
 10
10.4410655861
 20
9.1357319469
 30
0.0
 10
10.4433778416
 20
9.1416994012
 30
0.0
 10
10.4464018146
 20
9.1473039789
 30
0.0
 10
10.4488354161
 20
9.1507703852
 30
0.0
 10
10.4501379247
 20
9.1524263603
 30
0.0
  0
SPLINE
  5
33B
100
AcDbEntity
  8
0
100
AcDbSpline
 62
7
  6
CONTINUOUS
 70
0
 71
3
 72
9
 73
5
 74
0
 42
0.0000001
 43
0.0000001
 44
0.0000000001
 40
0.0
 40
0.0
 40
0.0
 40
0.0
 40
0.5019093879
 40
1.0
 40
1.0
 40
1.0
 40
1.0
 10
10.4501379247
 20
9.1524263603
 30
0.0
 10
10.4522894708
 20
9.1551617794
 30
0.0
 10
10.4570752495
 20
9.1602326925
 30
0.0
 10
10.4625914132
 20
9.1644784202
 30
0.0
 10
10.4654672843
 20
9.1663908617
 30
0.0
  0
SPLINE
  5
33C
100
AcDbEntity
  8
0
100
AcDbSpline
 62
7
  6
CONTINUOUS
 70
0
 71
3
 72
11
 73
7
 74
0
 42
0.0000001
 43
0.0000001
 44
0.0000000001
 40
0.0
 40
0.0
 40
0.0
 40
0.0
 40
0.2508532504
 40
0.5011879663
 40
0.7509311796
 40
1.0
 40
1.0
 40
1.0
 40
1.0
 10
10.4625255856
 20
9.1294655913
 30
0.0
 10
10.4628936328
 20
9.1315732806
 30
0.0
 10
10.4639268154
 20
9.1357379286
 30
0.0
 10
10.4662985358
 20
9.1417064059
 30
0.0
 10
10.4693996169
 20
9.1473110898
 30
0.0
 10
10.4718915537
 20
9.1507725767
 30
0.0
 10
10.4732249656
 20
9.1524263388
 30
0.0
  0
SPLINE
  5
33D
100
AcDbEntity
  8
0
100
AcDbSpline
 62
7
  6
CONTINUOUS
 70
0
 71
3
 72
9
 73
5
 74
0
 42
0.0000001
 43
0.0000001
 44
0.0000000001
 40
0.0
 40
0.0
 40
0.0
 40
0.0
 40
0.5009379491
 40
1.0
 40
1.0
 40
1.0
 40
1.0
 10
10.4732249656
 20
9.1524263388
 30
0.0
 10
10.4754352021
 20
9.1551675811
 30
0.0
 10
10.4803520948
 20
9.1602462648
 30
0.0
 10
10.4859959806
 20
9.1644816405
 30
0.0
 10
10.4889390634
 20
9.1663908617
 30
0.0
  0
SPLINE
  5
33E
100
AcDbEntity
  8
0
100
AcDbSpline
 62
7
  6
CONTINUOUS
 70
0
 71
3
 72
13
 73
9
 74
0
 42
0.0000001
 43
0.0000001
 44
0.0000000001
 40
0.0
 40
0.0
 40
0.0
 40
0.0
 40
0.1254055382
 40
0.2507172192
 40
0.3759492752
 40
0.5010660487
 40
0.7506859621
 40
1.0
 40
1.0
 40
1.0
 40
1.0
 10
10.489176671
 20
9.1294655913
 30
0.0
 10
10.4895196243
 20
9.131397828
 30
0.0
 10
10.4904595611
 20
9.1352202512
 30
0.0
 10
10.4925754863
 20
9.1407245723
 30
0.0
 10
10.4953279141
 20
9.1459343357
 30
0.0
 10
10.4997376392
 20
9.1524135406
 30
0.0
 10
10.5064548278
 20
9.1595907885
 30
0.0
 10
10.5127354217
 20
9.1642919084
 30
0.0
 10
10.5160241406
 20
9.1663908617
 30
0.0
  0
SPLINE
  5
33F
100
AcDbEntity
  8
0
100
AcDbSpline
 62
7
  6
CONTINUOUS
 70
0
 71
3
 72
13
 73
9
 74
0
 42
0.0000001
 43
0.0000001
 44
0.0000000001
 40
0.0
 40
0.0
 40
0.0
 40
0.0
 40
0.1250982403
 40
0.2502116196
 40
0.3753024458
 40
0.5004012777
 40
0.7501418126
 40
1.0
 40
1.0
 40
1.0
 40
1.0
 10
10.5187446096
 20
9.1216695021
 30
0.0
 10
10.5187446096
 20
9.1239584145
 30
0.0
 10
10.5191047845
 20
9.1285444349
 30
0.0
 10
10.5206947345
 20
9.1352503861
 30
0.0
 10
10.5232550867
 20
9.1416482921
 30
0.0
 10
10.5278021488
 20
9.1496135356
 30
0.0
 10
10.5353204441
 20
9.1583718806
 30
0.0
 10
10.5426418048
 20
9.1639454648
 30
0.0
 10
10.5465044308
 20
9.1663908617
 30
0.0
  0
SPLINE
  5
340
100
AcDbEntity
  8
0
100
AcDbSpline
 62
7
  6
CONTINUOUS
 70
0
 71
3
 72
13
 73
9
 74
0
 42
0.0000001
 43
0.0000001
 44
0.0000000001
 40
0.0
 40
0.0
 40
0.0
 40
0.0
 40
0.1250983922
 40
0.2502119005
 40
0.3753028144
 40
0.5004016815
 40
0.7501421171
 40
1.0
 40
1.0
 40
1.0
 40
1.0
 10
10.5523747985
 20
9.1216695021
 30
0.0
 10
10.5523747985
 20
9.1239584144
 30
0.0
 10
10.5527349719
 20
9.1285444342
 30
0.0
 10
10.5543249154
 20
9.135250385
 30
0.0
 10
10.5568852573
 20
9.1416482908
 30
0.0
 10
10.5614323002
 20
9.1496135325
 30
0.0
 10
10.5689505637
 20
9.1583718767
 30
0.0
 10
10.5762718987
 20
9.1639454639
 30
0.0
 10
10.5801345109
 20
9.1663908617
 30
0.0
  0
SPLINE
  5
341
100
AcDbEntity
  8
0
100
AcDbSpline
 62
7
  6
CONTINUOUS
 70
0
 71
3
 72
11
 73
7
 74
0
 42
0.0000001
 43
0.0000001
 44
0.0000000001
 40
0.0
 40
0.0
 40
0.0
 40
0.0
 40
0.3023770066
 40
0.5784050917
 40
0.81244538
 40
1.0
 40
1.0
 40
1.0
 40
1.0
 10
10.5813824494
 20
9.1216695021
 30
0.0
 10
10.5813824494
 20
9.117159413
 30
0.0
 10
10.5813235724
 20
9.1085321159
 30
0.0
 10
10.5810692877
 20
9.0964163343
 30
0.0
 10
10.5806854699
 20
9.0860176246
 30
0.0
 10
10.5803326553
 20
9.0797385781
 30
0.0
 10
10.5801345109
 20
9.0769481426
 30
0.0
  0
SPLINE
  5
342
100
AcDbEntity
  8
0
100
AcDbSpline
 62
7
  6
CONTINUOUS
 70
0
 71
3
 72
13
 73
9
 74
0
 42
0.0000001
 43
0.0000001
 44
0.0000000001
 40
0.0
 40
0.0
 40
0.0
 40
0.0
 40
0.1254107348
 40
0.2507896644
 40
0.3760611803
 40
0.5012324331
 40
0.7507690426
 40
1.0
 40
1.0
 40
1.0
 40
1.0
 10
10.5891075099
 20
9.1216695021
 30
0.0
 10
10.5891075099
 20
9.1239583029
 30
0.0
 10
10.5894646216
 20
9.1285431201
 30
0.0
 10
10.5910412329
 20
9.1352481347
 30
0.0
 10
10.5935803536
 20
9.1416455852
 30
0.0
 10
10.5980880167
 20
9.1496071795
 30
0.0
 10
10.6055410276
 20
9.1583638455
 30
0.0
 10
10.6128093942
 20
9.1639437368
 30
0.0
 10
10.6166435963
 20
9.1663908617
 30
0.0
  0
SPLINE
  5
343
100
AcDbEntity
  8
0
100
AcDbSpline
 62
7
  6
CONTINUOUS
 70
0
 71
3
 72
11
 73
7
 74
0
 42
0.0000001
 43
0.0000001
 44
0.0000000001
 40
0.0
 40
0.0
 40
0.0
 40
0.0
 40
0.301107943
 40
0.576432408
 40
0.8107776552
 40
1.0
 40
1.0
 40
1.0
 40
1.0
 10
10.6203749411
 20
9.1216695021
 30
0.0
 10
10.6203749411
 20
9.1171585314
 30
0.0
 10
10.6201986049
 20
9.1085217339
 30
0.0
 10
10.6194368628
 20
9.0963951019
 30
0.0
 10
10.6182868017
 20
9.0859842839
 30
0.0
 10
10.6172323422
 20
9.0797211171
 30
0.0
 10
10.6166435963
 20
9.0769481426
 30
0.0
  0
SPLINE
  5
344
100
AcDbEntity
  8
0
100
AcDbSpline
 62
7
  6
CONTINUOUS
 70
0
 71
3
 72
13
 73
9
 74
0
 42
0.0000001
 43
0.0000001
 44
0.0000000001
 40
0.0
 40
0.0
 40
0.0
 40
0.0
 40
0.1260335779
 40
0.2519422697
 40
0.3775750221
 40
0.5028920058
 40
0.7520235133
 40
1.0
 40
1.0
 40
1.0
 40
1.0
 10
10.6286469773
 20
9.1216695021
 30
0.0
 10
10.6286469773
 20
9.1239580835
 30
0.0
 10
10.6289980033
 20
9.1285405331
 30
0.0
 10
10.6305480975
 20
9.1352436894
 30
0.0
 10
10.6330449831
 20
9.1416402148
 30
0.0
 10
10.6374743326
 20
9.1495944905
 30
0.0
 10
10.6447974147
 20
9.158347617
 30
0.0
 10
10.6519601133
 20
9.1639402231
 30
0.0
 10
10.6557377208
 20
9.1663908617
 30
0.0
  0
SPLINE
  5
345
100
AcDbEntity
  8
0
100
AcDbSpline
 62
7
  6
CONTINUOUS
 70
0
 71
3
 72
11
 73
7
 74
0
 42
0.0000001
 43
0.0000001
 44
0.0000000001
 40
0.0
 40
0.0
 40
0.0
 40
0.0
 40
0.2986783928
 40
0.572665807
 40
0.8076090623
 40
1.0
 40
1.0
 40
1.0
 40
1.0
 10
10.6619224277
 20
9.1216695021
 30
0.0
 10
10.6619224277
 20
9.1171567975
 30
0.0
 10
10.6616291674
 20
9.1085013144
 30
0.0
 10
10.6603620827
 20
9.0963541308
 30
0.0
 10
10.6584481045
 20
9.0859212842
 30
0.0
 10
10.6567026616
 20
9.0796901264
 30
0.0
 10
10.6557377208
 20
9.0769481426
 30
0.0
  0
SPLINE
  5
346
100
AcDbEntity
  8
0
100
AcDbSpline
 62
7
  6
CONTINUOUS
 70
0
 71
3
 72
13
 73
9
 74
0
 42
0.0000001
 43
0.0000001
 44
0.0000000001
 40
0.0
 40
0.0
 40
0.0
 40
0.0
 40
0.1269631941
 40
0.2536637645
 40
0.3798383927
 40
0.5053763296
 40
0.7539066227
 40
1.0
 40
1.0
 40
1.0
 40
1.0
 10
10.6706748389
 20
9.1216695021
 30
0.0
 10
10.6706748389
 20
9.1239577631
 30
0.0
 10
10.6710168213
 20
9.1285367534
 30
0.0
 10
10.672527493
 20
9.1352371583
 30
0.0
 10
10.6749615232
 20
9.1416322616
 30
0.0
 10
10.6792744787
 20
9.1495755048
 30
0.0
 10
10.6864040606
 20
9.1583228591
 30
0.0
 10
10.6934088582
 20
9.1639347998
 30
0.0
 10
10.6971021043
 20
9.1663908617
 30
0.0
  0
SPLINE
  5
347
100
AcDbEntity
  8
0
100
AcDbSpline
 62
7
  6
CONTINUOUS
 70
0
 71
3
 72
11
 73
7
 74
0
 42
0.0000001
 43
0.0000001
 44
0.0000000001
 40
0.0
 40
0.0
 40
0.0
 40
0.0
 40
0.2952811949
 40
0.5674211152
 40
0.8032307326
 40
1.0
 40
1.0
 40
1.0
 40
1.0
 10
10.7056903751
 20
9.1216695021
 30
0.0
 10
10.7056903751
 20
9.1171542683
 30
0.0
 10
10.7052810941
 20
9.108471564
 30
0.0
 10
10.7035128955
 20
9.0962960837
 30
0.0
 10
10.7008402774
 20
9.0858353034
 30
0.0
 10
10.6984231641
 20
9.0796514792
 30
0.0
 10
10.6971021043
 20
9.0769481426
 30
0.0
  0
SPLINE
  5
348
100
AcDbEntity
  8
0
100
AcDbSpline
 62
7
  6
CONTINUOUS
 70
0
 71
3
 72
13
 73
9
 74
0
 42
0.0000001
 43
0.0000001
 44
0.0000000001
 40
0.0
 40
0.0
 40
0.0
 40
0.0
 40
0.1281931252
 40
0.2559435533
 40
0.382840032
 40
0.5086766469
 40
0.7564180437
 40
1.0
 40
1.0
 40
1.0
 40
1.0
 10
10.7148526788
 20
9.1216695021
 30
0.0
 10
10.7148526788
 20
9.1239573523
 30
0.0
 10
10.7151827803
 20
9.1285318981
 30
0.0
 10
10.7166415336
 20
9.1352287039
 30
0.0
 10
10.7189926725
 20
9.1416218552
 30
0.0
 10
10.7231524372
 20
9.1495503073
 30
0.0
 10
10.7300266411
 20
9.1582890943
 30
0.0
 10
10.7368219617
 20
9.1639272768
 30
0.0
 10
10.7404036864
 20
9.1663908617
 30
0.0
  0
SPLINE
  5
349
100
AcDbEntity
  8
0
100
AcDbSpline
 62
7
  6
CONTINUOUS
 70
0
 71
3
 72
11
 73
7
 74
0
 42
0.0000001
 43
0.0000001
 44
0.0000000001
 40
0.0
 40
0.0
 40
0.0
 40
0.0
 40
0.2911580743
 40
0.5610901921
 40
0.7979964469
 40
1.0
 40
1.0
 40
1.0
 40
1.0
 10
10.7513263691
 20
9.1216695021
 30
0.0
 10
10.7513263691
 20
9.1171510253
 30
0.0
 10
10.7508024218
 20
9.1084335505
 30
0.0
 10
10.7485401461
 20
9.0962244155
 30
0.0
 10
10.7451191677
 20
9.0857346845
 30
0.0
 10
10.7420584812
 20
9.0796106951
 30
0.0
 10
10.7404036864
 20
9.0769481426
 30
0.0
  0
SPLINE
  5
34A
100
AcDbEntity
  8
0
100
AcDbSpline
 62
7
  6
CONTINUOUS
 70
0
 71
3
 72
13
 73
9
 74
0
 42
0.0000001
 43
0.0000001
 44
0.0000000001
 40
0.0
 40
0.0
 40
0.0
 40
0.0
 40
0.1297130459
 40
0.2587641992
 40
0.3865604469
 40
0.5127761993
 40
0.7595534389
 40
1.0
 40
1.0
 40
1.0
 40
1.0
 10
10.7608247967
 20
9.1216695021
 30
0.0
 10
10.7608247967
 20
9.1239568639
 30
0.0
 10
10.7611402977
 20
9.128526119
 30
0.0
 10
10.7625351748
 20
9.1352185461
 30
0.0
 10
10.7647841644
 20
9.1416091814
 30
0.0
 10
10.7687556479
 20
9.149519067
 30
0.0
 10
10.7753149329
 20
9.1582457347
 30
0.0
 10
10.7818499934
 20
9.1639173907
 30
0.0
 10
10.785293809
 20
9.1663908617
 30
0.0
  0
SPLINE
  5
34B
100
AcDbEntity
  8
0
100
AcDbSpline
 62
7
  6
CONTINUOUS
 70
0
 71
3
 72
11
 73
7
 74
0
 42
0.0000001
 43
0.0000001
 44
0.0000000001
 40
0.0
 40
0.0
 40
0.0
 40
0.0
 40
0.2865630242
 40
0.554079517
 40
0.7922628577
 40
1.0
 40
1.0
 40
1.0
 40
1.0
 10
10.7984629559
 20
9.1216695021
 30
0.0
 10
10.7984629559
 20
9.1171471753
 30
0.0
 10
10.7978262836
 20
9.108388644
 30
0.0
 10
10.7950804436
 20
9.0961430327
 30
0.0
 10
10.7909285109
 20
9.0856277688
 30
0.0
 10
10.7872597001
 20
9.0795716674
 30
0.0
 10
10.785293809
 20
9.0769481426
 30
0.0
  0
SPLINE
  5
34C
100
AcDbEntity
  8
0
100
AcDbSpline
 62
7
  6
CONTINUOUS
 70
0
 71
3
 72
13
 73
9
 74
0
 42
0.0000001
 43
0.0000001
 44
0.0000000001
 40
0.0
 40
0.0
 40
0.0
 40
0.0
 40
0.1315072479
 40
0.2620984941
 40
0.3909677254
 40
0.5176453764
 40
0.7633006359
 40
1.0
 40
1.0
 40
1.0
 40
1.0
 10
10.8082210273
 20
9.1216695021
 30
0.0
 10
10.8082210273
 20
9.1239563138
 30
0.0
 10
10.8085193732
 20
9.1285195972
 30
0.0
 10
10.8098390659
 20
9.1352069577
 30
0.0
 10
10.8119676049
 20
9.1415944901
 30
0.0
 10
10.815717844
 20
9.1494820802
 30
0.0
 10
10.8219057175
 20
9.1581921455
 30
0.0
 10
10.8281306049
 20
9.1639048
 30
0.0
 10
10.8314110231
 20
9.1663908617
 30
0.0
  0
SPLINE
  5
34D
100
AcDbEntity
  8
0
100
AcDbSpline
 62
7
  6
CONTINUOUS
 70
0
 71
3
 72
11
 73
7
 74
0
 42
0.0000001
 43
0.0000001
 44
0.0000000001
 40
0.0
 40
0.0
 40
0.0
 40
0.0
 40
0.2817348532
 40
0.5467643086
 40
0.7863479357
 40
1.0
 40
1.0
 40
1.0
 40
1.0
 10
10.8467205981
 20
9.1216695021
 30
0.0
 10
10.8467205981
 20
9.1171428429
 30
0.0
 10
10.8459738884
 20
9.1083384349
 30
0.0
 10
10.8427591008
 20
9.0960559746
 30
0.0
 10
10.8379021395
 20
9.085521577
 30
0.0
 10
10.8336658277
 20
9.0795365292
 30
0.0
 10
10.8314110231
 20
9.0769481426
 30
0.0
  0
SPLINE
  5
34E
100
AcDbEntity
  8
0
100
AcDbSpline
 62
7
  6
CONTINUOUS
 70
0
 71
3
 72
11
 73
7
 74
0
 42
0.0000001
 43
0.0000001
 44
0.0000000001
 40
0.0
 40
0.0
 40
0.0
 40
0.0
 40
0.2656613884
 40
0.5227930485
 40
0.7674187352
 40
1.0
 40
1.0
 40
1.0
 40
1.0
 10
10.8566597425
 20
9.1216695021
 30
0.0
 10
10.8566597425
 20
9.1262130062
 30
0.0
 10
10.8577560824
 20
9.1351923252
 30
0.0
 10
10.8624270009
 20
9.1475808545
 30
0.0
 10
10.8694251603
 20
9.1581261026
 30
0.0
 10
10.8752914951
 20
9.1638890839
 30
0.0
 10
10.8783839994
 20
9.1663908617
 30
0.0
  0
SPLINE
  5
34F
100
AcDbEntity
  8
0
100
AcDbSpline
 62
7
  6
CONTINUOUS
 70
0
 71
3
 72
11
 73
7
 74
0
 42
0.0000001
 43
0.0000001
 44
0.0000000001
 40
0.0
 40
0.0
 40
0.0
 40
0.0
 40
0.2768808732
 40
0.539463124
 40
0.7805107372
 40
1.0
 40
1.0
 40
1.0
 40
1.0
 10
10.8957107319
 20
9.1216695021
 30
0.0
 10
10.8957107319
 20
9.1171381686
 30
0.0
 10
10.894857571
 20
9.1082846615
 30
0.0
 10
10.8911930971
 20
9.0959671039
 30
0.0
 10
10.8856658822
 20
9.0854211973
 30
0.0
 10
10.8809058893
 20
9.0795060971
 30
0.0
 10
10.8783839994
 20
9.0769481426
 30
0.0
  0
SPLINE
  5
350
100
AcDbEntity
  8
0
100
AcDbSpline
 62
7
  6
CONTINUOUS
 70
0
 71
3
 72
11
 73
7
 74
0
 42
0.0000001
 43
0.0000001
 44
0.0000000001
 40
0.0
 40
0.0
 40
0.0
 40
0.0
 40
0.2699187108
 40
0.5290845967
 40
0.7723225357
 40
1.0
 40
1.0
 40
1.0
 40
1.0
 10
10.9057509209
 20
9.1216695021
 30
0.0
 10
10.9057509209
 20
9.1262081489
 30
0.0
 10
10.9067545832
 20
9.1351376173
 30
0.0
 10
10.9110459268
 20
9.1475011417
 30
0.0
 10
10.9174946158
 20
9.1580508561
 30
0.0
 10
10.9229534764
 20
9.163869754
 30
0.0
 10
10.9258345181
 20
9.1663908617
 30
0.0
  0
SPLINE
  5
351
100
AcDbEntity
  8
0
100
AcDbSpline
 62
7
  6
CONTINUOUS
 70
0
 71
3
 72
11
 73
7
 74
0
 42
0.0000001
 43
0.0000001
 44
0.0000000001
 40
0.0
 40
0.0
 40
0.0
 40
0.0
 40
0.272170683
 40
0.5324294825
 40
0.7749478338
 40
1.0
 40
1.0
 40
1.0
 40
1.0
 10
10.9450388958
 20
9.1216695021
 30
0.0
 10
10.9450388958
 20
9.1171333035
 30
0.0
 10
10.9440839101
 20
9.108229144
 30
0.0
 10
10.9399940091
 20
9.09587985
 30
0.0
 10
10.9338396101
 20
9.085329803
 30
0.0
 10
10.9286016157
 20
9.0794803986
 30
0.0
 10
10.9258345181
 20
9.0769481426
 30
0.0
  0
SPLINE
  5
352
100
AcDbEntity
  8
0
100
AcDbSpline
 62
7
  6
CONTINUOUS
 70
0
 71
3
 72
12
 73
8
 74
0
 42
0.0000001
 43
0.0000001
 44
0.0000000001
 40
0.0
 40
0.0
 40
0.0
 40
0.0
 40
0.2744222778
 40
0.5357471809
 40
0.6593269765
 40
0.7777606007
 40
1.0
 40
1.0
 40
1.0
 40
1.0
 10
10.9550992871
 20
9.1216695021
 30
0.0
 10
10.9550992871
 20
9.126203247
 30
0.0
 10
10.9560031419
 20
9.1350805095
 30
0.0
 10
10.959296095
 20
9.1455453576
 30
0.0
 10
10.9629854046
 20
9.1530127905
 30
0.0
 10
10.9670567609
 20
9.1595233812
 30
0.0
 10
10.9707336234
 20
9.1638462937
 30
0.0
 10
10.9733805143
 20
9.1663908617
 30
0.0
  0
SPLINE
  5
353
100
AcDbEntity
  8
0
100
AcDbSpline
 62
7
  6
CONTINUOUS
 70
0
 71
3
 72
11
 73
7
 74
0
 42
0.0000001
 43
0.0000001
 44
0.0000000001
 40
0.0
 40
0.0
 40
0.0
 40
0.0
 40
0.2677366848
 40
0.5258547342
 40
0.7697995718
 40
1.0
 40
1.0
 40
1.0
 40
1.0
 10
10.9943079063
 20
9.1216695021
 30
0.0
 10
10.9943079063
 20
9.1171284043
 30
0.0
 10
10.993256888
 20
9.1081737182
 30
0.0
 10
10.9887709152
 20
9.0957970529
 30
0.0
 10
10.9820396397
 20
9.0852490172
 30
0.0
 10
10.9763704816
 20
9.0794590731
 30
0.0
 10
10.9733805143
 20
9.0769481426
 30
0.0
  0
SPLINE
  5
354
100
AcDbEntity
  8
0
100
AcDbSpline
 62
7
  6
CONTINUOUS
 70
0
 71
3
 72
11
 73
7
 74
0
 42
0.0000001
 43
0.0000001
 44
0.0000000001
 40
0.0
 40
0.0
 40
0.0
 40
0.0
 40
0.2793066744
 40
0.5431052585
 40
0.7834144372
 40
1.0
 40
1.0
 40
1.0
 40
1.0
 10
11.0043074977
 20
9.1216695021
 30
0.0
 10
11.0043074977
 20
9.1261984582
 30
0.0
 10
11.0051077831
 20
9.1350270451
 30
0.0
 10
11.0085494743
 20
9.1473273357
 30
0.0
 10
11.0137454702
 20
9.1578684371
 30
0.0
 10
11.0182484756
 20
9.1638182497
 30
0.0
 10
11.0206391544
 20
9.1663908617
 30
0.0
  0
SPLINE
  5
355
100
AcDbEntity
  8
0
100
AcDbSpline
 62
7
  6
CONTINUOUS
 70
0
 71
3
 72
13
 73
9
 74
0
 42
0.0000001
 43
0.0000001
 44
0.0000000001
 40
0.0
 40
0.0
 40
0.0
 40
0.0
 40
0.1324973298
 40
0.2639405529
 40
0.3934068874
 40
0.5203461225
 40
0.7653901108
 40
1.0
 40
1.0
 40
1.0
 40
1.0
 10
11.0431210568
 20
9.1216695021
 30
0.0
 10
11.0431210568
 20
9.1193829827
 30
0.0
 10
11.0428321608
 20
9.1148228733
 30
0.0
 10
11.041553945
 20
9.1081382596
 30
0.0
 10
11.0394919466
 20
9.1017524947
 30
0.0
 10
11.0358635493
 20
9.0938773686
 30
0.0
 10
11.0298807769
 20
9.0851775813
 30
0.0
 10
11.0238288926
 20
9.0794416196
 30
0.0
 10
11.0206391544
 20
9.0769481426
 30
0.0
  0
SPLINE
  5
356
100
AcDbEntity
  8
0
100
AcDbSpline
 62
7
  6
CONTINUOUS
 70
0
 71
3
 72
12
 73
8
 74
0
 42
0.0000001
 43
0.0000001
 44
0.0000000001
 40
0.0
 40
0.0
 40
0.0
 40
0.0
 40
0.2841072459
 40
0.4203905408
 40
0.5505506335
 40
0.7893665347
 40
1.0
 40
1.0
 40
1.0
 40
1.0
 10
11.0529793271
 20
9.1216695021
 30
0.0
 10
11.0529793271
 20
9.1261939371
 30
0.0
 10
11.0535083015
 20
9.1329061975
 30
0.0
 10
11.0552597318
 20
9.1415045014
 30
0.0
 10
11.0575088706
 20
9.1492382727
 30
0.0
 10
11.0611605072
 20
9.157765167
 30
0.0
 10
11.0651172492
 20
9.1637854162
 30
0.0
 10
11.0672299185
 20
9.1663908617
 30
0.0
  0
SPLINE
  5
357
100
AcDbEntity
  8
0
100
AcDbSpline
 62
7
  6
CONTINUOUS
 70
0
 71
3
 72
13
 73
9
 74
0
 42
0.0000001
 43
0.0000001
 44
0.0000000001
 40
0.0
 40
0.0
 40
0.0
 40
0.0
 40
0.1305744874
 40
0.2603644588
 40
0.3886744172
 40
0.515109997
 40
0.7613462979
 40
1.0
 40
1.0
 40
1.0
 40
1.0
 10
11.091085309
 20
9.1216695021
 30
0.0
 10
11.091085309
 20
9.119382408
 30
0.0
 10
11.0907780514
 20
9.1148160563
 30
0.0
 10
11.0894192881
 20
9.108126076
 30
0.0
 10
11.0872281273
 20
9.1017369134
 30
0.0
 10
11.0833629716
 20
9.0938376836
 30
0.0
 10
11.0769820098
 20
9.0851186685
 30
0.0
 10
11.0705953999
 20
9.079427528
 30
0.0
 10
11.0672299185
 20
9.0769481426
 30
0.0
  0
SPLINE
  5
358
100
AcDbEntity
  8
0
100
AcDbSpline
 62
7
  6
CONTINUOUS
 70
0
 71
3
 72
11
 73
7
 74
0
 42
0.0000001
 43
0.0000001
 44
0.0000000001
 40
0.0
 40
0.0
 40
0.0
 40
0.0
 40
0.2889107277
 40
0.5576554939
 40
0.7951793312
 40
1.0
 40
1.0
 40
1.0
 40
1.0
 10
11.1007228847
 20
9.1216695021
 30
0.0
 10
11.1007228847
 20
9.1261898299
 30
0.0
 10
11.1013033153
 20
9.134927075
 30
0.0
 10
11.1038082242
 20
9.1471542
 30
0.0
 10
11.1075963012
 20
9.1576573148
 30
0.0
 10
11.1109649695
 20
9.1637481562
 30
0.0
 10
11.1127776643
 20
9.1663908617
 30
0.0
  0
SPLINE
  5
359
100
AcDbEntity
  8
0
100
AcDbSpline
 62
7
  6
CONTINUOUS
 70
0
 71
3
 72
13
 73
9
 74
0
 42
0.0000001
 43
0.0000001
 44
0.0000000001
 40
0.0
 40
0.0
 40
0.0
 40
0.0
 40
0.1289154522
 40
0.2572835823
 40
0.3846066107
 40
0.510622022
 40
0.7579036946
 40
1.0
 40
1.0
 40
1.0
 40
1.0
 10
11.1378144632
 20
9.1216695021
 30
0.0
 10
11.1378144632
 20
9.1193818867
 30
0.0
 10
11.1374913101
 20
9.1148098826
 30
0.0
 10
11.1360629452
 20
9.1081151675
 30
0.0
 10
11.1337603804
 20
9.1017231981
 30
0.0
 10
11.1296902185
 20
9.0938035311
 30
0.0
 10
11.1229657449
 20
9.0850702877
 30
0.0
 10
11.1162938803
 20
9.0794163413
 30
0.0
 10
11.1127776643
 20
9.0769481426
 30
0.0
  0
SPLINE
  5
35A
100
AcDbEntity
  8
0
100
AcDbSpline
 62
7
  6
CONTINUOUS
 70
0
 71
3
 72
11
 73
7
 74
0
 42
0.0000001
 43
0.0000001
 44
0.0000000001
 40
0.0
 40
0.0
 40
0.0
 40
0.0
 40
0.293300455
 40
0.5643749829
 40
0.8007054211
 40
1.0
 40
1.0
 40
1.0
 40
1.0
 10
11.1471537433
 20
9.1216695021
 30
0.0
 10
11.1471537433
 20
9.1261862699
 30
0.0
 10
11.1476203919
 20
9.1348854383
 30
0.0
 10
11.1496359903
 20
9.1470771848
 30
0.0
 10
11.1526833826
 20
9.1575525732
 30
0.0
 10
11.155425363
 20
9.1637078777
 30
0.0
 10
11.1569156478
 20
9.1663908617
 30
0.0
  0
SPLINE
  5
35B
100
AcDbEntity
  8
0
100
AcDbSpline
 62
7
  6
CONTINUOUS
 70
0
 71
3
 72
13
 73
9
 74
0
 42
0.0000001
 43
0.0000001
 44
0.0000000001
 40
0.0
 40
0.0
 40
0.0
 40
0.0
 40
0.1275393661
 40
0.2547314487
 40
0.3812435307
 40
0.506920483
 40
0.7550802711
 40
1.0
 40
1.0
 40
1.0
 40
1.0
 10
11.1829322624
 20
9.1216695021
 30
0.0
 10
11.1829322624
 20
9.1193814354
 30
0.0
 10
11.1825958513
 20
9.1148045459
 30
0.0
 10
11.1811095324
 20
9.1081058332
 30
0.0
 10
11.1787143672
 20
9.1017116344
 30
0.0
 10
11.1744732803
 20
9.0937752935
 30
0.0
 10
11.1674634108
 20
9.0850318178
 30
0.0
 10
11.1605566461
 20
9.0794076779
 30
0.0
 10
11.1569156478
 20
9.0769481426
 30
0.0
  0
SPLINE
  5
35C
100
AcDbEntity
  8
0
100
AcDbSpline
 62
7
  6
CONTINUOUS
 70
0
 71
3
 72
11
 73
7
 74
0
 42
0.0000001
 43
0.0000001
 44
0.0000000001
 40
0.0
 40
0.0
 40
0.0
 40
0.0
 40
0.2970913162
 40
0.5702124061
 40
0.8055561129
 40
1.0
 40
1.0
 40
1.0
 40
1.0
 10
11.1918980483
 20
9.1216695021
 30
0.0
 10
11.1918980483
 20
9.1261833731
 30
0.0
 10
11.1922492875
 20
9.1348514142
 30
0.0
 10
11.1937668866
 20
9.1470118795
 30
0.0
 10
11.1960599968
 20
9.157458214
 30
0.0
 10
11.1981432754
 20
9.1636675624
 30
0.0
 10
11.1992884761
 20
9.1663908617
 30
0.0
  0
SPLINE
  5
35D
100
AcDbEntity
  8
0
100
AcDbSpline
 62
7
  6
CONTINUOUS
 70
0
 71
3
 72
13
 73
9
 74
0
 42
0.0000001
 43
0.0000001
 44
0.0000000001
 40
0.0
 40
0.0
 40
0.0
 40
0.0
 40
0.1264590126
 40
0.2527299291
 40
0.3786102634
 40
0.5040278529
 40
0.7528837047
 40
1.0
 40
1.0
 40
1.0
 40
1.0
 10
11.2260754242
 20
9.1216695021
 30
0.0
 10
11.2260754242
 20
9.1193810684
 30
0.0
 10
11.2257285401
 20
9.1148002131
 30
0.0
 10
11.2241965095
 20
9.1080983194
 30
0.0
 10
11.221728415
 20
9.1017024386
 30
0.0
 10
11.2173524024
 20
9.093753196
 30
0.0
 10
11.2101179336
 20
9.0850026372
 30
0.0
 10
11.2030274631
 20
9.079401236
 30
0.0
 10
11.1992884761
 20
9.0769481426
 30
0.0
  0
SPLINE
  5
35E
100
AcDbEntity
  8
0
100
AcDbSpline
 62
7
  6
CONTINUOUS
 70
0
 71
3
 72
11
 73
7
 74
0
 42
0.0000001
 43
0.0000001
 44
0.0000000001
 40
0.0
 40
0.0
 40
0.0
 40
0.0
 40
0.3000313297
 40
0.5747616805
 40
0.8093696515
 40
1.0
 40
1.0
 40
1.0
 40
1.0
 10
11.2345955247
 20
9.1216695021
 30
0.0
 10
11.2345955247
 20
9.1261812337
 30
0.0
 10
11.2348302412
 20
9.134826231
 30
0.0
 10
11.2358442976
 20
9.1469620042
 30
0.0
 10
11.2373756372
 20
9.1573827801
 30
0.0
 10
11.2387764308
 20
9.1636319971
 30
0.0
 10
11.2395549692
 20
9.1663908617
 30
0.0
  0
SPLINE
  5
35F
100
AcDbEntity
  8
0
100
AcDbSpline
 62
7
  6
CONTINUOUS
 70
0
 71
3
 72
13
 73
9
 74
0
 42
0.0000001
 43
0.0000001
 44
0.0000000001
 40
0.0
 40
0.0
 40
0.0
 40
0.0
 40
0.1256826131
 40
0.2512927115
 40
0.3767217327
 40
0.5019563725
 40
0.7513159273
 40
1.0
 40
1.0
 40
1.0
 40
1.0
 10
11.2668965662
 20
9.1216695021
 30
0.0
 10
11.2668965662
 20
9.1193807977
 30
0.0
 10
11.2665421135
 20
9.114797019
 30
0.0
 10
11.2649770882
 20
9.108092817
 30
0.0
 10
11.2624564169
 20
9.1016957675
 30
0.0
 10
11.2579829728
 20
9.0937373605
 30
0.0
 10
11.2505867081
 20
9.0849822077
 30
0.0
 10
11.2433644581
 20
9.0793967897
 30
0.0
 10
11.2395549692
 20
9.0769481426
 30
0.0
  0
SPLINE
  5
360
100
AcDbEntity
  8
0
100
AcDbSpline
 62
7
  6
CONTINUOUS
 70
0
 71
3
 72
11
 73
7
 74
0
 42
0.0000001
 43
0.0000001
 44
0.0000000001
 40
0.0
 40
0.0
 40
0.0
 40
0.0
 40
0.3018984971
 40
0.5776608534
 40
0.8118155223
 40
1.0
 40
1.0
 40
1.0
 40
1.0
 10
11.2749023786
 20
9.1216695021
 30
0.0
 10
11.2749023786
 20
9.1261799219
 30
0.0
 10
11.2750198588
 20
9.1348107801
 30
0.0
 10
11.2755272911
 20
9.1469306629
 30
0.0
 10
11.2762932803
 20
9.157333983
 30
0.0
 10
11.2769967327
 20
9.1636071194
 30
0.0
 10
11.277390907
 20
9.1663908617
 30
0.0
  0
SPLINE
  5
361
100
AcDbEntity
  8
0
100
AcDbSpline
 62
7
  6
CONTINUOUS
 70
0
 71
3
 72
13
 73
9
 74
0
 42
0.0000001
 43
0.0000001
 44
0.0000000001
 40
0.0
 40
0.0
 40
0.0
 40
0.0
 40
0.1252151469
 40
0.2504278523
 40
0.3755862336
 40
0.5007121054
 40
0.7503762974
 40
1.0
 40
1.0
 40
1.0
 40
1.0
 10
11.3050670022
 20
9.1216695021
 30
0.0
 10
11.3050670022
 20
9.1193806317
 30
0.0
 10
11.3047079734
 20
9.1147950627
 30
0.0
 10
11.3031230164
 20
9.1080894623
 30
0.0
 10
11.3005706106
 20
9.1016917259
 30
0.0
 10
11.2960382967
 20
9.0937278458
 30
0.0
 10
11.288544433
 20
9.0849701214
 30
0.0
 10
11.2812428968
 20
9.0793941833
 30
0.0
 10
11.277390907
 20
9.0769481426
 30
0.0
  0
SPLINE
  5
362
100
AcDbEntity
  8
0
100
AcDbSpline
 62
7
  6
CONTINUOUS
 70
0
 71
3
 72
11
 73
7
 74
0
 42
0.0000001
 43
0.0000001
 44
0.0000000001
 40
0.0
 40
0.0
 40
0.0
 40
0.0
 40
0.2505441745
 40
0.5007503484
 40
0.7505902704
 40
1.0
 40
1.0
 40
1.0
 40
1.0
 10
11.4000374712
 20
9.1294684166
 30
0.0
 10
11.3996658244
 20
9.1315765242
 30
0.0
 10
11.3986223284
 20
9.1357426029
 30
0.0
 10
11.3962280483
 20
9.141711053
 30
0.0
 10
11.3930978901
 20
9.1473153672
 30
0.0
 10
11.3905840631
 20
9.1507747581
 30
0.0
 10
11.3892390642
 20
9.1524275785
 30
0.0
  0
SPLINE
  5
363
100
AcDbEntity
  8
0
100
AcDbSpline
 62
7
  6
CONTINUOUS
 70
0
 71
3
 72
9
 73
5
 74
0
 42
0.0000001
 43
0.0000001
 44
0.0000000001
 40
0.0
 40
0.0
 40
0.0
 40
0.0
 40
0.5005800393
 40
1.0
 40
1.0
 40
1.0
 40
1.0
 10
11.3892390642
 20
9.1524275785
 30
0.0
 10
11.387006808
 20
9.1551707172
 30
0.0
 10
11.3820408547
 20
9.1602517533
 30
0.0
 10
11.3763494135
 20
9.1644829604
 30
0.0
 10
11.3733812853
 20
9.1663908617
 30
0.0
  0
SPLINE
  5
364
100
AcDbEntity
  8
0
100
AcDbSpline
 62
7
  6
CONTINUOUS
 70
0
 71
3
 72
11
 73
7
 74
0
 42
0.0000001
 43
0.0000001
 44
0.0000000001
 40
0.0
 40
0.0
 40
0.0
 40
0.0
 40
0.251231127
 40
0.5017233222
 40
0.7513485866
 40
1.0
 40
1.0
 40
1.0
 40
1.0
 10
11.4247949335
 20
9.1294684166
 30
0.0
 10
11.4244310404
 20
9.1315753171
 30
0.0
 10
11.4234100484
 20
9.1357376294
 30
0.0
 10
11.421065567
 20
9.1417052092
 30
0.0
 10
11.4179999612
 20
9.1473094325
 30
0.0
 10
11.4155349108
 20
9.1507729246
 30
0.0
 10
11.4142157564
 20
9.1524275785
 30
0.0
  0
SPLINE
  5
365
100
AcDbEntity
  8
0
100
AcDbSpline
 62
7
  6
CONTINUOUS
 70
0
 71
3
 72
9
 73
5
 74
0
 42
0.0000001
 43
0.0000001
 44
0.0000000001
 40
0.0
 40
0.0
 40
0.0
 40
0.0
 40
0.5013818425
 40
1.0
 40
1.0
 40
1.0
 40
1.0
 10
11.4142157564
 20
9.1524275785
 30
0.0
 10
11.4120326727
 20
9.1551658841
 30
0.0
 10
11.4071764888
 20
9.1602405554
 30
0.0
 10
11.4015918223
 20
9.1644803162
 30
0.0
 10
11.3986799231
 20
9.1663908617
 30
0.0
  0
SPLINE
  5
366
100
AcDbEntity
  8
0
100
AcDbSpline
 62
7
  6
CONTINUOUS
 70
0
 71
3
 72
13
 73
9
 74
0
 42
0.0000001
 43
0.0000001
 44
0.0000000001
 40
0.0
 40
0.0
 40
0.0
 40
0.0
 40
0.1252157541
 40
0.2504289754
 40
0.3755877076
 40
0.50071372
 40
0.7503775157
 40
1.0
 40
1.0
 40
1.0
 40
1.0
 10
11.3722502021
 20
9.1216695021
 30
0.0
 10
11.3722502021
 20
9.1193806319
 30
0.0
 10
11.3718911793
 20
9.1147950653
 30
0.0
 10
11.3703062482
 20
9.1080894667
 30
0.0
 10
11.3677538837
 20
9.1016917311
 30
0.0
 10
11.3632216463
 20
9.0937278582
 30
0.0
 10
11.3557279095
 20
9.084970137
 30
0.0
 10
11.3484264762
 20
9.0793941866
 30
0.0
 10
11.3445745417
 20
9.0769481426
 30
0.0
  0
SPLINE
  5
367
100
AcDbEntity
  8
0
100
AcDbSpline
 62
7
  6
CONTINUOUS
 70
0
 71
3
 72
11
 73
7
 74
0
 42
0.0000001
 43
0.0000001
 44
0.0000000001
 40
0.0
 40
0.0
 40
0.0
 40
0.0
 40
0.2521779227
 40
0.503066199
 40
0.7523968819
 40
1.0
 40
1.0
 40
1.0
 40
1.0
 10
11.4456303144
 20
9.1294684166
 30
0.0
 10
11.4452771674
 20
9.1315736762
 30
0.0
 10
11.4442873028
 20
9.1357308352
 30
0.0
 10
11.4420118931
 20
9.141697153
 30
0.0
 10
11.4390358938
 20
9.1473011664
 30
0.0
 10
11.4366387413
 20
9.150770347
 30
0.0
 10
11.4353555492
 20
9.1524275785
 30
0.0
  0
SPLINE
  5
368
100
AcDbEntity
  8
0
100
AcDbSpline
 62
7
  6
CONTINUOUS
 70
0
 71
3
 72
9
 73
5
 74
0
 42
0.0000001
 43
0.0000001
 44
0.0000000001
 40
0.0
 40
0.0
 40
0.0
 40
0.0
 40
0.5025290077
 40
1.0
 40
1.0
 40
1.0
 40
1.0
 10
11.4353555492
 20
9.1524275785
 30
0.0
 10
11.4332405618
 20
9.1551590666
 30
0.0
 10
11.4285366283
 20
9.160224502
 30
0.0
 10
11.423100537
 20
9.1644764839
 30
0.0
 10
11.4202667538
 20
9.1663908617
 30
0.0
  0
ENDSEC
  0
SECTION
  2
OBJECTS
  0
DICTIONARY
  5
C
100
AcDbDictionary
280
0
281
1
  3
ACAD_GROUP
350
D
  3
ACAD_MLINESTYLE
350
17
  3
ACAD_LAYOUT
350
1A
  3
ACAD_PLOTSETTINGS
350
19
  3
ACAD_PLOTSTYLENAME
350
E
  0
DICTIONARY
  5
D
102
{ACAD_REACTORS
330
C
102
}
100
AcDbDictionary
280
0
281
1
  0
ACDBDICTIONARYWDFLT
  5
E
102
{ACAD_REACTORS
330
C
102
}
100
AcDbDictionary
281
1
  3
Normal
350
F
100
AcDbDictionaryWithDefault
340
F
  0
DICTIONARY
  5
17
102
{ACAD_REACTORS
330
C
102
}
100
AcDbDictionary
280
0
281
1
  3
Standard
350
18
  0
DICTIONARY
  5
19
102
{ACAD_REACTORS
330
C
102
}
100
AcDbDictionary
281
1
  0
DICTIONARY
  5
1A
102
{ACAD_REACTORS
330
C
102
}
100
AcDbDictionary
281
1
  3
Model
350
369
  3
Layout1
350
36A
  0
ACDBPLACEHOLDER
  5
F
102
{ACAD_REACTORS
330
E
102
}
  0
MLINESTYLE
  5
18
102
{ACAD_REACTORS
330
17
102
}
100
AcDbMlineStyle
  2
STANDARD
 70
0
  3

 62
256
 51
90.0
 52
90.0
 71
2
 49
0.5
 62
256
  6
BYLAYER
 49
-0.5
 62
256
  6
BYLAYER
  0
LAYOUT
  5
369
102
{ACAD_REACTORS
330
1A
102
}
100
AcDbPlotSettings
  1

  2
none_device
  4
ANSI_C_(22.00_x_17.00_Inches)
  6

 40
0.0
 41
0.0
 42
0.0
 43
0.0
 44
558.8
 45
431.8
 46
0.0
 47
0.0
 48
0.0
 49
0.0
140
0.0
141
0.0
142
1.0
143
1.0
 70
1024
 72
0
 73
0
 74
0
  7

 75
0
147
1.0
148
0.0
149
0.0
100
AcDbLayout
  1
Model
 70
0
 71
0
 10
0.0
 20
0.0
 11
22.0
 21
17.0
 12
0.0
 22
0.0
 32
0.0
 14
0.0
 24
0.0
 34
0.0
 15
0.0
 25
0.0
 35
0.0
146
0.0
 13
0.0
 23
0.0
 33
0.0
 16
1.0
 26
0.0
 36
0.0
 17
0.0
 27
1.0
 37
0.0
 76
0
330
202
345
0
346
0
  0
LAYOUT
  5
36A
102
{ACAD_REACTORS
330
1A
102
}
100
AcDbPlotSettings
  1

  2
none_device
  4
ANSI_C_(22.00_x_17.00_Inches)
  6

 40
0.0
 41
0.0
 42
0.0
 43
0.0
 44
558.8
 45
431.8
 46
0.0
 47
0.0
 48
0.0
 49
0.0
140
0.0
141
0.0
142
1.0
143
1.0
 70
0
 72
0
 73
0
 74
0
  7

 75
0
147
1.0
148
0.0
149
0.0
100
AcDbLayout
  1
Layout1
 70
0
 71
1
 10
0.0
 20
0.0
 11
22.0
 21
17.0
 12
0.0
 22
0.0
 32
0.0
 14
0.0
 24
0.0
 34
0.0
 15
0.0
 25
0.0
 35
0.0
146
0.0
 13
0.0
 23
0.0
 33
0.0
 16
1.0
 26
0.0
 36
0.0
 17
0.0
 27
1.0
 37
0.0
 76
0
330
203
345
0
346
0
  0
ENDSEC
  0
EOF
