999
DXF file: 3-3235_FRONT.dxf
999
Pro/ENGINEER 2018400 by Parametric Technology Corporation
  0
SECTION
  2
HEADER
  9
$ACADVER
  1
AC1027
  9
$DWGCODEPAGE
  3
ANSI_1252
  9
$EXTMAX
 10
11.0
 20
8.5
 30
0.0
  9
$EXTMIN
 10
0.0
 20
0.0
 30
0.0
  9
$LIMMIN
 10
0.0
 20
0.0
  9
$LIMMAX
 10
11.0
 20
8.5
  9
$VIEWCTR
 10
5.5
 20
4.25
  9
$VIEWSIZE
 40
8.5
  9
$CLAYER
  8
0
  9
$LTSCALE
 40
0.605
  9
$CELTYPE
  6
BYLAYER
  9
$DIMSCALE
 40
1.0
  9
$DIMASZ
 40
0.1
  9
$DIMEXO
 40
0.0625
  9
$DIMDLI
 40
0.418
  9
$DIMEXE
 40
0.125
  9
$DIMCEN
 40
0.099
  9
$DIMLFAC
 40
1.0
  9
$DIMBLK
  1
_FILLED
  9
$DIMALT
 70
1
  9
$DIMALTD
 70
2
  9
$DIMALTTD
 70
2
  9
$DIMALTF
 40
25.4
  9
$DIMTXT
 40
0.08
  9
$DIMTOL
 70
1
  9
$DIMLIM
 70
0
  9
$DIMTFAC
 40
1.0
  9
$DIMTP
 40
0.001
  9
$DIMTM
 40
0.001
  9
$DIMGAP
 40
0.09
  9
$DIMDSEP
 70
46
  9
$AUNITS
 70
0
  9
$PDMODE
 70
3
  9
$PDSIZE
 40
0.3125
  9
$HANDSEED
  5
577
  9
$TILEMODE
 70
1
  9
$MEASUREMENT
 70
0
  9
$INSUNITS
 70
1
  0
ENDSEC
  0
SECTION
  2
CLASSES
  0
CLASS
  1
ACDBDICTIONARYWDFLT
  2
AcDbDictionaryWithDefault
  3
AutoCAD 2000
 90
0
 91
1
280
0
281
0
  0
CLASS
  1
ACDBPLACEHOLDER
  2
AcDbPlaceHolder
  3
AutoCAD 2000
 90
0
 91
1
280
0
281
0
  0
CLASS
  1
LAYOUT
  2
AcDbLayout
  3
AutoCAD 2000
 90
0
 91
0
280
0
281
0
  0
ENDSEC
  0
SECTION
  2
TABLES
  0
TABLE
  2
VPORT
  5
8
100
AcDbSymbolTable
 70
2
  0
VPORT
  5
1F4
100
AcDbSymbolTableRecord
100
AcDbViewportTableRecord
  2
*ACTIVE
 70
0
 10
0.0
 20
0.0
 11
1.0
 21
1.0
 12
5.5
 22
4.25
 13
0.0
 23
0.0
 14
1.0
 24
1.0
 15
0.0
 25
0.0
 16
0.0
 26
0.0
 36
1.0
 17
0.0
 27
0.0
 37
0.0
 40
8.5
 41
1.2941176471
 42
50.0
 43
0.0
 44
0.0
 50
0.0
 51
0.0
 71
0
 72
100
 73
1
 74
1
 75
0
 76
0
 77
0
 78
0
  0
ENDTAB
  0
TABLE
  2
LTYPE
  5
5
100
AcDbSymbolTable
 70
6
  0
LTYPE
  5
14
100
AcDbSymbolTableRecord
100
AcDbLinetypeTableRecord
  2
BYBLOCK
 70
0
  3

 72
65
 73
0
 40
0.0
  0
LTYPE
  5
15
100
AcDbSymbolTableRecord
100
AcDbLinetypeTableRecord
  2
BYLAYER
 70
0
  3

 72
65
 73
0
 40
0.0
  0
LTYPE
  5
16
100
AcDbSymbolTableRecord
100
AcDbLinetypeTableRecord
  2
CONTINUOUS
 70
64
  3
Solid line
 72
65
 73
0
 40
0.0
  0
LTYPE
  5
1F5
100
AcDbSymbolTableRecord
100
AcDbLinetypeTableRecord
  2
CENTER
 70
64
  3
____ _ ____ _ ____ _ ____ _ ____ _ ____ _ ____
 72
65
 73
4
 40
0.6
 49
0.375
 74
0
 49
-0.075
 74
0
 49
0.075
 74
0
 49
-0.075
 74
0
  0
LTYPE
  5
1F6
100
AcDbSymbolTableRecord
100
AcDbLinetypeTableRecord
  2
HIDDEN
 70
64
  3
- - - - - - - - - - - - - - - - - - - -
 72
65
 73
2
 40
0.2
 49
0.1
 74
0
 49
-0.1
 74
0
  0
LTYPE
  5
1F7
100
AcDbSymbolTableRecord
100
AcDbLinetypeTableRecord
  2
PHANTOM
 70
64
  3
_____ _ _ _____ _ _ _____ _ _ _____
 72
65
 73
6
 40
0.8
 49
0.45
 74
0
 49
-0.05
 74
0
 49
0.1
 74
0
 49
-0.05
 74
0
 49
0.1
 74
0
 49
-0.05
 74
0
  0
LTYPE
  5
1F8
100
AcDbSymbolTableRecord
100
AcDbLinetypeTableRecord
  2
DOT
 70
64
  3
. . . . . . . . . . . . . . . . . . . .
 72
65
 73
2
 40
0.2
 49
0.1
 74
0
 49
-0.1
 74
0
  0
LTYPE
  5
1F9
100
AcDbSymbolTableRecord
100
AcDbLinetypeTableRecord
  2
DASHED
 70
64
  3
- - - - - - - - - - - - - - - - - - - -
 72
65
 73
2
 40
0.2
 49
0.1
 74
0
 49
-0.1
 74
0
  0
ENDTAB
  0
TABLE
  2
LAYER
  5
2
100
AcDbSymbolTable
 70
36
  0
LAYER
  5
10
100
AcDbSymbolTableRecord
100
AcDbLayerTableRecord
  2
0
 70
0
 62
7
  6
CONTINUOUS
370
-3
390
F
  0
LAYER
  5
1FA
100
AcDbSymbolTableRecord
100
AcDbLayerTableRecord
  2
DEFAULT_1
 70
0
 62
7
  6
CENTER
370
-3
390
F
  0
LAYER
  5
1FB
100
AcDbSymbolTableRecord
100
AcDbLayerTableRecord
  2
DEFAULT_2
 70
0
 62
8
  6
HIDDEN
370
-3
390
F
  0
LAYER
  5
1FC
100
AcDbSymbolTableRecord
100
AcDbLayerTableRecord
  2
DEFAULT_3
 70
0
 62
7
  6
PHANTOM
370
-3
390
F
  0
LAYER
  5
1FD
100
AcDbSymbolTableRecord
100
AcDbLayerTableRecord
  2
3-985_ASSY_PLANES
 70
0
 62
7
  6
CONTINUOUS
370
-3
390
F
  0
LAYER
  5
1FE
100
AcDbSymbolTableRecord
100
AcDbLayerTableRecord
  2
ALL_ASSEMBLY_MEMBERS
 70
0
 62
7
  6
CONTINUOUS
370
-3
390
F
  0
LAYER
  5
1FF
100
AcDbSymbolTableRecord
100
AcDbLayerTableRecord
  2
ALL_FEATURES
 70
0
 62
7
  6
CONTINUOUS
370
-3
390
F
  0
LAYER
  5
200
100
AcDbSymbolTableRecord
100
AcDbLayerTableRecord
  2
AXES_FEATURES
 70
0
 62
7
  6
CONTINUOUS
370
-3
390
F
  0
LAYER
  5
201
100
AcDbSymbolTableRecord
100
AcDbLayerTableRecord
  2
CHAMFER_FEATURES
 70
0
 62
7
  6
CONTINUOUS
370
-3
390
F
  0
LAYER
  5
202
100
AcDbSymbolTableRecord
100
AcDbLayerTableRecord
  2
CURVE
 70
0
 62
7
  6
CONTINUOUS
370
-3
390
F
  0
LAYER
  5
203
100
AcDbSymbolTableRecord
100
AcDbLayerTableRecord
  2
CUT_FEATURES
 70
0
 62
7
  6
CONTINUOUS
370
-3
390
F
  0
LAYER
  5
204
100
AcDbSymbolTableRecord
100
AcDbLayerTableRecord
  2
DATUM_CURVES
 70
0
 62
7
  6
CONTINUOUS
370
-3
390
F
  0
LAYER
  5
205
100
AcDbSymbolTableRecord
100
AcDbLayerTableRecord
  2
DATUM_PLANES
 70
0
 62
7
  6
CONTINUOUS
370
-3
390
F
  0
LAYER
  5
206
100
AcDbSymbolTableRecord
100
AcDbLayerTableRecord
  2
DEFAULT_COORDINATE_SYSTEM
 70
0
 62
7
  6
CONTINUOUS
370
-3
390
F
  0
LAYER
  5
207
100
AcDbSymbolTableRecord
100
AcDbLayerTableRecord
  2
DEFAULT_DATUM_AXES
 70
0
 62
7
  6
CONTINUOUS
370
-3
390
F
  0
LAYER
  5
208
100
AcDbSymbolTableRecord
100
AcDbLayerTableRecord
  2
DEFAULT_DATUM_CURVES
 70
0
 62
7
  6
CONTINUOUS
370
-3
390
F
  0
LAYER
  5
209
100
AcDbSymbolTableRecord
100
AcDbLayerTableRecord
  2
DEFAULT_DATUM_PLANES
 70
0
 62
7
  6
CONTINUOUS
370
-3
390
F
  0
LAYER
  5
20A
100
AcDbSymbolTableRecord
100
AcDbLayerTableRecord
  2
DEFAULT_SURFACES
 70
0
 62
7
  6
CONTINUOUS
370
-3
390
F
  0
LAYER
  5
20B
100
AcDbSymbolTableRecord
100
AcDbLayerTableRecord
  2
DIMENSIONS
 70
0
 62
7
  6
CONTINUOUS
370
-3
390
F
  0
LAYER
  5
20C
100
AcDbSymbolTableRecord
100
AcDbLayerTableRecord
  2
HOLE_FEATURES
 70
0
 62
7
  6
CONTINUOUS
370
-3
390
F
  0
LAYER
  5
20D
100
AcDbSymbolTableRecord
100
AcDbLayerTableRecord
  2
NONE
 70
0
 62
7
  6
CONTINUOUS
370
-3
390
F
  0
LAYER
  5
20E
100
AcDbSymbolTableRecord
100
AcDbLayerTableRecord
  2
PART_REFERENCE_DIMENSIONS
 70
0
 62
7
  6
CONTINUOUS
370
-3
390
F
  0
LAYER
  5
20F
100
AcDbSymbolTableRecord
100
AcDbLayerTableRecord
  2
PROTRUSION_FEATURES
 70
0
 62
7
  6
CONTINUOUS
370
-3
390
F
  0
LAYER
  5
210
100
AcDbSymbolTableRecord
100
AcDbLayerTableRecord
  2
QUILTS
 70
0
 62
7
  6
CONTINUOUS
370
-3
390
F
  0
LAYER
  5
211
100
AcDbSymbolTableRecord
100
AcDbLayerTableRecord
  2
REFERENCE_DIMENSIONS
 70
0
 62
7
  6
CONTINUOUS
370
-3
390
F
  0
LAYER
  5
212
100
AcDbSymbolTableRecord
100
AcDbLayerTableRecord
  2
ROUND_FEATURES
 70
0
 62
7
  6
CONTINUOUS
370
-3
390
F
  0
LAYER
  5
213
100
AcDbSymbolTableRecord
100
AcDbLayerTableRecord
  2
SIZE_REF
 70
0
 62
7
  6
CONTINUOUS
370
-3
390
F
  0
LAYER
  5
214
100
AcDbSymbolTableRecord
100
AcDbLayerTableRecord
  2
WETTED_SURFACES
 70
0
 62
7
  6
CONTINUOUS
370
-3
390
F
  0
LAYER
  5
215
100
AcDbSymbolTableRecord
100
AcDbLayerTableRecord
  2
WETTED_SURFACE_AREA
 70
0
 62
7
  6
CONTINUOUS
370
-3
390
F
  0
LAYER
  5
216
100
AcDbSymbolTableRecord
100
AcDbLayerTableRecord
  2
XSEC_DATUMS
 70
0
 62
7
  6
CONTINUOUS
370
-3
390
F
  0
ENDTAB
  0
TABLE
  2
STYLE
  5
3
100
AcDbSymbolTable
 70
1
  0
STYLE
  5
11
100
AcDbSymbolTableRecord
100
AcDbTextStyleTableRecord
  2
STANDARD
 70
0
 40
0.0
 41
0.8
 50
0.0
 71
0
 42
0.2
  3
txt
  4

  0
STYLE
  5
217
100
AcDbSymbolTableRecord
100
AcDbTextStyleTableRecord
  2
TEXTSTYLE_1
 70
0
 40
0.0
 41
0.8
 50
0.0
 71
0
 42
0.2
  3
gdt
  4

  0
ENDTAB
  0
TABLE
  2
VIEW
  5
6
100
AcDbSymbolTable
 70
0
  0
ENDTAB
  0
TABLE
  2
UCS
  5
7
100
AcDbSymbolTable
 70
0
  0
ENDTAB
  0
TABLE
  2
APPID
  5
9
100
AcDbSymbolTable
 70
1
  0
APPID
  5
218
100
AcDbSymbolTableRecord
100
AcDbRegAppTableRecord
  2
ACAD
 70
0
  0
ENDTAB
  0
TABLE
  2
BLOCK_RECORD
  5
1
100
AcDbSymbolTable
 70
0
  0
BLOCK_RECORD
  5
219
100
AcDbSymbolTableRecord
100
AcDbBlockTableRecord
  2
*Model_Space
  0
BLOCK_RECORD
  5
21A
100
AcDbSymbolTableRecord
100
AcDbBlockTableRecord
  2
*Paper_Space
  0
BLOCK_RECORD
  5
21B
100
AcDbSymbolTableRecord
100
AcDbBlockTableRecord
  2
_FILLED
  0
ENDTAB
  0
TABLE
  2
DIMSTYLE
  5
A
100
AcDbSymbolTable
 70
1
100
AcDbDimStyleTable
 71
0
  0
DIMSTYLE
105
21C
100
AcDbSymbolTableRecord
100
AcDbDimStyleTableRecord
  2
STANDARD
 70
0
  3

  4

 40
1.0
 41
0.1
 42
0.0625
 43
0.38
 44
0.125
 45
0.0
 46
0.0
 47
0.001
 48
0.001
140
0.08
141
0.09
142
0.0
143
25.4
144
1.0
145
0.0
146
1.0
147
0.09
 71
1.0
 72
0.0
 73
1
 74
1
 75
0
 76
0
 77
0
 78
4
 79
1
170
1
171
2
172
0
173
0
174
0
175
0
176
0
177
0
178
0
270
2
179
3
271
3
272
3
273
2
274
2
275
0
280
0
281
0
282
0
283
1
284
4
285
0
286
0
287
3
288
0
340
11
278
46
341
21B
342
21B
343
21B
344
21B
  0
ENDTAB
  0
ENDSEC
  0
SECTION
  2
BLOCKS
  0
BLOCK
  5
20
100
AcDbEntity
  8
0
100
AcDbBlockBegin
  2
*Model_Space
 70
0
 10
0.0
 20
0.0
 30
0.0
  3
*Model_Space
  1

  0
ENDBLK
  5
21
100
AcDbEntity
  8
0
100
AcDbBlockEnd
  0
BLOCK
  5
1C
100
AcDbEntity
  8
0
100
AcDbBlockBegin
  2
*Paper_Space
 70
0
 10
0.0
 20
0.0
 30
0.0
  3
*Paper_Space
  1

  0
ENDBLK
  5
1D
100
AcDbEntity
  8
0
100
AcDbBlockEnd
  0
BLOCK
  5
21D
100
AcDbEntity
  8
0
100
AcDbBlockBegin
  2
_FILLED
 70
64
 10
0.0
 20
0.0
  3
_FILLED
  1

  0
SOLID
  5
21E
100
AcDbEntity
  8
0
  6
BYBLOCK
 62
0
100
AcDbTrace
 10
0.0
 20
0.0
 11
-1.0
 21
0.2
 12
-1.0
 22
-0.2
 13
-1.0
 23
-0.2
  0
ENDBLK
  5
21F
100
AcDbEntity
  8
0
  6
BYBLOCK
 62
0
100
AcDbBlockEnd
  0
ENDSEC
  0
SECTION
  2
ENTITIES
  0
MTEXT
  5
220
100
AcDbEntity
  8
0
100
AcDbMText
 62
2
  6
CONTINUOUS
  7
STANDARD
 71
3
 72
1
 10
2.6579774845
 20
1.4726397091
 30
0.0
 11
1.0
 21
0.0
 31
0.0
 73
2
 44
0.9
  1
SCALE  .500
 40
0.08
 41
0.704
  0
LINE
  5
221
100
AcDbEntity
  8
0
100
AcDbLine
 62
7
  6
CONTINUOUS
 10
0.0
 20
0.0
 11
0.0
 21
8.5
  0
LINE
  5
222
100
AcDbEntity
  8
0
100
AcDbLine
 62
7
  6
CONTINUOUS
 10
0.0
 20
0.0
 11
11.0
 21
0.0
  0
LINE
  5
223
100
AcDbEntity
  8
0
100
AcDbLine
 62
7
  6
CONTINUOUS
 10
0.0
 20
8.5
 11
11.0
 21
8.5
  0
LINE
  5
224
100
AcDbEntity
  8
0
100
AcDbLine
 62
7
  6
CONTINUOUS
 10
11.0
 20
0.0
 11
11.0
 21
8.5
  0
LINE
  5
225
100
AcDbEntity
  8
ALL_ASSEMBLY_MEMBERS
100
AcDbLine
 62
7
  6
CONTINUOUS
 10
1.9410131988
 20
6.6075543053
 11
1.9410131988
 21
6.5025543053
  0
LINE
  5
226
100
AcDbEntity
  8
ALL_ASSEMBLY_MEMBERS
100
AcDbLine
 62
7
  6
CONTINUOUS
 10
1.9510131988
 20
6.4925543053
 11
1.9510131986
 21
6.6175543053
  0
LINE
  5
227
100
AcDbEntity
  8
ALL_ASSEMBLY_MEMBERS
100
AcDbLine
 62
7
  6
CONTINUOUS
 10
3.1169969847
 20
6.4622637513
 11
3.1125072765
 21
6.453639102
  0
LINE
  5
228
100
AcDbEntity
  8
ALL_ASSEMBLY_MEMBERS
100
AcDbLine
 62
7
  6
CONTINUOUS
 10
3.2983857701
 20
6.8013933041
 11
3.2937089845
 21
6.7928686497
  0
LINE
  5
229
100
AcDbEntity
  8
ALL_ASSEMBLY_MEMBERS
100
AcDbLine
 62
7
  6
CONTINUOUS
 10
3.1089806192
 20
6.4846679919
 11
3.1036671667
 21
6.476524941
  0
LINE
  5
22A
100
AcDbEntity
  8
ALL_ASSEMBLY_MEMBERS
100
AcDbLine
 62
7
  6
CONTINUOUS
 10
3.322736477
 20
6.8043853332
 11
3.3172466492
 21
6.7963601325
  0
LINE
  5
22B
100
AcDbEntity
  8
ALL_ASSEMBLY_MEMBERS
100
AcDbLine
 62
7
  6
CONTINUOUS
 10
3.1031988544
 20
6.5077500911
 11
3.097112829
 21
6.5001670606
  0
LINE
  5
22C
100
AcDbEntity
  8
ALL_ASSEMBLY_MEMBERS
100
AcDbLine
 62
7
  6
CONTINUOUS
 10
3.3472631988
 20
6.8049761681
 11
3.3410131988
 21
6.7975277082
  0
LINE
  5
22D
100
AcDbEntity
  8
ALL_ASSEMBLY_MEMBERS
100
AcDbLine
 62
7
  6
CONTINUOUS
 10
3.0997073716
 20
6.5312877558
 11
3.0929073852
 21
6.5243377745
  0
LINE
  5
22E
100
AcDbEntity
  8
ALL_ASSEMBLY_MEMBERS
100
AcDbLine
 62
7
  6
CONTINUOUS
 10
3.3717297296
 20
6.8031601189
 11
3.3647797483
 21
6.7963601325
  0
LINE
  5
22F
100
AcDbEntity
  8
ALL_ASSEMBLY_MEMBERS
100
AcDbLine
 62
7
  6
CONTINUOUS
 10
3.0985397959
 20
6.5550543053
 11
3.091091336
 21
6.5488043053
  0
LINE
  5
230
100
AcDbEntity
  8
ALL_ASSEMBLY_MEMBERS
100
AcDbLine
 62
7
  6
CONTINUOUS
 10
3.3959004435
 20
6.7989546751
 11
3.388317413
 21
6.7928686497
  0
LINE
  5
231
100
AcDbEntity
  8
ALL_ASSEMBLY_MEMBERS
100
AcDbLine
 62
7
  6
CONTINUOUS
 10
3.0997073716
 20
6.5788208549
 11
3.0916821709
 21
6.5733310271
  0
LINE
  5
232
100
AcDbEntity
  8
ALL_ASSEMBLY_MEMBERS
100
AcDbLine
 62
7
  6
CONTINUOUS
 10
3.4195425631
 20
6.7924003374
 11
3.4113995122
 21
6.7870868849
  0
LINE
  5
233
100
AcDbEntity
  8
ALL_ASSEMBLY_MEMBERS
100
AcDbLine
 62
7
  6
CONTINUOUS
 10
3.1031988544
 20
6.6023585196
 11
3.0946742
 21
6.597681734
  0
LINE
  5
234
100
AcDbEntity
  8
ALL_ASSEMBLY_MEMBERS
100
AcDbLine
 62
7
  6
CONTINUOUS
 10
3.4424284021
 20
6.7835602276
 11
3.4338037528
 21
6.7790705194
  0
LINE
  5
235
100
AcDbEntity
  8
ALL_ASSEMBLY_MEMBERS
100
AcDbLine
 62
7
  6
CONTINUOUS
 10
3.1000034271
 20
6.6216068913
 11
3.1089806192
 21
6.6254406188
  0
LINE
  5
236
100
AcDbEntity
  8
ALL_ASSEMBLY_MEMBERS
100
AcDbLine
 62
7
  6
CONTINUOUS
 10
3.1394039325
 20
6.4203433004
 11
3.1366830784
 21
6.4110084727
  0
LINE
  5
237
100
AcDbEntity
  8
ALL_ASSEMBLY_MEMBERS
100
AcDbLine
 62
7
  6
CONTINUOUS
 10
3.2511464896
 20
6.7883437705
 11
3.2482226447
 21
6.7790705194
  0
LINE
  5
238
100
AcDbEntity
  8
ALL_ASSEMBLY_MEMBERS
100
AcDbLine
 62
7
  6
CONTINUOUS
 10
3.1271707488
 20
6.4407531345
 11
3.1235480231
 21
6.4317299469
  0
LINE
  5
239
100
AcDbEntity
  8
ALL_ASSEMBLY_MEMBERS
100
AcDbLine
 62
7
  6
CONTINUOUS
 10
3.2744455886
 20
6.7960288959
 11
3.2706268853
 21
6.7870868849
  0
LINE
  5
23A
100
AcDbEntity
  8
ALL_ASSEMBLY_MEMBERS
100
AcDbLine
 62
7
  6
CONTINUOUS
 10
3.5650294128
 20
6.6478448594
 11
3.5695191211
 21
6.6564695087
  0
LINE
  5
23B
100
AcDbEntity
  8
ALL_ASSEMBLY_MEMBERS
100
AcDbLine
 62
7
  6
CONTINUOUS
 10
3.3836406274
 20
6.3087153066
 11
3.388317413
 21
6.3172399609
  0
LINE
  5
23C
100
AcDbEntity
  8
ALL_ASSEMBLY_MEMBERS
100
AcDbLine
 62
7
  6
CONTINUOUS
 10
3.5730457783
 20
6.6254406188
 11
3.5783592308
 21
6.6335836697
  0
LINE
  5
23D
100
AcDbEntity
  8
ALL_ASSEMBLY_MEMBERS
100
AcDbLine
 62
7
  6
CONTINUOUS
 10
3.3592899205
 20
6.3057232775
 11
3.3647797483
 21
6.3137484782
  0
LINE
  5
23E
100
AcDbEntity
  8
ALL_ASSEMBLY_MEMBERS
100
AcDbLine
 62
7
  6
CONTINUOUS
 10
3.5788275431
 20
6.6023585196
 11
3.5849135685
 21
6.60994155
  0
LINE
  5
23F
100
AcDbEntity
  8
ALL_ASSEMBLY_MEMBERS
100
AcDbLine
 62
7
  6
CONTINUOUS
 10
3.3347631988
 20
6.3051324426
 11
3.3410131988
 21
6.3125809025
  0
LINE
  5
240
100
AcDbEntity
  8
ALL_ASSEMBLY_MEMBERS
100
AcDbLine
 62
7
  6
CONTINUOUS
 10
3.5823190259
 20
6.5788208549
 11
3.5891190123
 21
6.5857708362
  0
LINE
  5
241
100
AcDbEntity
  8
ALL_ASSEMBLY_MEMBERS
100
AcDbLine
 62
7
  6
CONTINUOUS
 10
3.3102966679
 20
6.3069484918
 11
3.3172466492
 21
6.3137484782
  0
LINE
  5
242
100
AcDbEntity
  8
ALL_ASSEMBLY_MEMBERS
100
AcDbLine
 62
7
  6
CONTINUOUS
 10
3.5834866016
 20
6.5550543053
 11
3.5909350615
 21
6.5613043053
  0
LINE
  5
243
100
AcDbEntity
  8
ALL_ASSEMBLY_MEMBERS
100
AcDbLine
 62
7
  6
CONTINUOUS
 10
3.2861259541
 20
6.3111539356
 11
3.2937089845
 21
6.3172399609
  0
LINE
  5
244
100
AcDbEntity
  8
ALL_ASSEMBLY_MEMBERS
100
AcDbLine
 62
7
  6
CONTINUOUS
 10
3.5823190259
 20
6.5312877558
 11
3.5903442266
 21
6.5367775836
  0
LINE
  5
245
100
AcDbEntity
  8
ALL_ASSEMBLY_MEMBERS
100
AcDbLine
 62
7
  6
CONTINUOUS
 10
3.2624838344
 20
6.3177082733
 11
3.2706268853
 21
6.3230217258
  0
LINE
  5
246
100
AcDbEntity
  8
ALL_ASSEMBLY_MEMBERS
100
AcDbLine
 62
7
  6
CONTINUOUS
 10
3.5788275431
 20
6.5077500911
 11
3.5873521975
 21
6.5124268767
  0
LINE
  5
247
100
AcDbEntity
  8
ALL_ASSEMBLY_MEMBERS
100
AcDbLine
 62
7
  6
CONTINUOUS
 10
3.2395979954
 20
6.326548383
 11
3.2482226447
 21
6.3310380913
  0
LINE
  5
248
100
AcDbEntity
  8
ALL_ASSEMBLY_MEMBERS
100
AcDbLine
 62
7
  6
CONTINUOUS
 10
3.4643375572
 20
6.772519481
 11
3.4553143696
 21
6.7688967553
  0
LINE
  5
249
100
AcDbEntity
  8
ALL_ASSEMBLY_MEMBERS
100
AcDbLine
 62
7
  6
CONTINUOUS
 10
3.1169969847
 20
6.6478448594
 11
3.1077237335
 21
6.6449210145
  0
LINE
  5
24A
100
AcDbEntity
  8
ALL_ASSEMBLY_MEMBERS
100
AcDbLine
 62
7
  6
CONTINUOUS
 10
3.4850590314
 20
6.7593844257
 11
3.4757242037
 21
6.7566635716
  0
LINE
  5
24B
100
AcDbEntity
  8
ALL_ASSEMBLY_MEMBERS
100
AcDbLine
 62
7
  6
CONTINUOUS
 10
5.0735131988
 20
1.9250543053
 11
5.5435131988
 21
1.9250543053
  0
LINE
  5
24C
100
AcDbEntity
  8
ALL_ASSEMBLY_MEMBERS
100
AcDbLine
 62
7
  6
CONTINUOUS
 10
5.058591336
 20
1.9400543053
 11
5.0591821709
 21
1.9400543053
  0
LINE
  5
24D
100
AcDbEntity
  8
ALL_ASSEMBLY_MEMBERS
100
AcDbLine
 62
7
  6
CONTINUOUS
 10
5.0604073852
 20
1.9400543053
 11
5.0621742
 21
1.9400543053
  0
LINE
  5
24E
100
AcDbEntity
  8
ALL_ASSEMBLY_MEMBERS
100
AcDbLine
 62
7
  6
CONTINUOUS
 10
5.064612829
 20
1.9400543053
 11
5.0675386082
 21
1.9400543053
  0
LINE
  5
24F
100
AcDbEntity
  8
ALL_ASSEMBLY_MEMBERS
100
AcDbLine
 62
7
  6
CONTINUOUS
 10
5.0711671667
 20
1.9400543053
 11
5.0752237335
 21
1.9400543053
  0
LINE
  5
250
100
AcDbEntity
  8
ALL_ASSEMBLY_MEMBERS
100
AcDbLine
 62
7
  6
CONTINUOUS
 10
5.0800072765
 20
1.9400543053
 11
5.0851555639
 21
1.9400543053
  0
LINE
  5
251
100
AcDbEntity
  8
ALL_ASSEMBLY_MEMBERS
100
AcDbLine
 62
7
  6
CONTINUOUS
 10
5.0910480231
 20
1.9400543053
 11
5.0972384504
 21
1.9400543053
  0
LINE
  5
252
100
AcDbEntity
  8
ALL_ASSEMBLY_MEMBERS
100
AcDbLine
 62
7
  6
CONTINUOUS
 10
5.1041830784
 20
1.9400543053
 11
5.1113560283
 21
1.9400543053
  0
LINE
  5
253
100
AcDbEntity
  8
ALL_ASSEMBLY_MEMBERS
100
AcDbLine
 62
7
  6
CONTINUOUS
 10
5.1192859443
 20
1.9400543053
 11
5.1273723374
 21
1.9400543053
  0
LINE
  5
254
100
AcDbEntity
  8
ALL_ASSEMBLY_MEMBERS
100
AcDbLine
 62
7
  6
CONTINUOUS
 10
5.1362111722
 20
1.9400543053
 11
5.1451331321
 21
1.9400543053
  0
LINE
  5
255
100
AcDbEntity
  8
ALL_ASSEMBLY_MEMBERS
100
AcDbLine
 62
7
  6
CONTINUOUS
 10
5.1547957628
 20
1.9400543053
 11
5.1644673661
 21
1.9400543053
  0
LINE
  5
256
100
AcDbEntity
  8
ALL_ASSEMBLY_MEMBERS
100
AcDbLine
 62
7
  6
CONTINUOUS
 10
5.1748607363
 20
1.9400543053
 11
5.1851888403
 21
1.9400543053
  0
LINE
  5
257
100
AcDbEntity
  8
ALL_ASSEMBLY_MEMBERS
100
AcDbLine
 62
7
  6
CONTINUOUS
 10
5.1962128561
 20
1.9400543053
 11
5.2070979954
 21
1.9400543053
  0
LINE
  5
258
100
AcDbEntity
  8
ALL_ASSEMBLY_MEMBERS
100
AcDbLine
 62
7
  6
CONTINUOUS
 10
5.2186464896
 20
1.9400543053
 11
5.2299838344
 21
1.9400543053
  0
LINE
  5
259
100
AcDbEntity
  8
ALL_ASSEMBLY_MEMBERS
100
AcDbLine
 62
7
  6
CONTINUOUS
 10
5.2419455886
 20
1.9400543053
 11
5.2536259541
 21
1.9400543053
  0
LINE
  5
25A
100
AcDbEntity
  8
ALL_ASSEMBLY_MEMBERS
100
AcDbLine
 62
7
  6
CONTINUOUS
 10
5.2658857701
 20
1.9400543053
 11
5.2777966679
 21
1.9400543053
  0
LINE
  5
25B
100
AcDbEntity
  8
ALL_ASSEMBLY_MEMBERS
100
AcDbLine
 62
7
  6
CONTINUOUS
 10
5.290236477
 20
1.9400543053
 11
5.3022631988
 21
1.9400543053
  0
LINE
  5
25C
100
AcDbEntity
  8
ALL_ASSEMBLY_MEMBERS
100
AcDbLine
 62
7
  6
CONTINUOUS
 10
5.3147631988
 20
1.9400543053
 11
5.3267899205
 21
1.9400543053
  0
LINE
  5
25D
100
AcDbEntity
  8
ALL_ASSEMBLY_MEMBERS
100
AcDbLine
 62
7
  6
CONTINUOUS
 10
5.3392297296
 20
1.9400543053
 11
5.3511406274
 21
1.9400543053
  0
LINE
  5
25E
100
AcDbEntity
  8
ALL_ASSEMBLY_MEMBERS
100
AcDbLine
 62
7
  6
CONTINUOUS
 10
5.3634004435
 20
1.9400543053
 11
5.3750808089
 21
1.9400543053
  0
LINE
  5
25F
100
AcDbEntity
  8
ALL_ASSEMBLY_MEMBERS
100
AcDbLine
 62
7
  6
CONTINUOUS
 10
5.3870425631
 20
1.9400543053
 11
5.398379908
 21
1.9400543053
  0
LINE
  5
260
100
AcDbEntity
  8
ALL_ASSEMBLY_MEMBERS
100
AcDbLine
 62
7
  6
CONTINUOUS
 10
5.4099284021
 20
1.9400543053
 11
5.4208135414
 21
1.9400543053
  0
LINE
  5
261
100
AcDbEntity
  8
ALL_ASSEMBLY_MEMBERS
100
AcDbLine
 62
7
  6
CONTINUOUS
 10
5.4318375572
 20
1.9400543053
 11
5.4421656612
 21
1.9400543053
  0
LINE
  5
262
100
AcDbEntity
  8
ALL_ASSEMBLY_MEMBERS
100
AcDbLine
 62
7
  6
CONTINUOUS
 10
5.4525590314
 20
1.9400543053
 11
5.4622306347
 21
1.9400543053
  0
LINE
  5
263
100
AcDbEntity
  8
ALL_ASSEMBLY_MEMBERS
100
AcDbLine
 62
7
  6
CONTINUOUS
 10
5.4718932654
 20
1.9400543053
 11
5.4808152253
 21
1.9400543053
  0
LINE
  5
264
100
AcDbEntity
  8
ALL_ASSEMBLY_MEMBERS
100
AcDbLine
 62
7
  6
CONTINUOUS
 10
5.4896540601
 20
1.9400543053
 11
5.4977404532
 21
1.9400543053
  0
LINE
  5
265
100
AcDbEntity
  8
ALL_ASSEMBLY_MEMBERS
100
AcDbLine
 62
7
  6
CONTINUOUS
 10
5.5056703692
 20
1.9400543053
 11
5.5128433192
 21
1.9400543053
  0
LINE
  5
266
100
AcDbEntity
  8
ALL_ASSEMBLY_MEMBERS
100
AcDbLine
 62
7
  6
CONTINUOUS
 10
5.5197879471
 20
1.9400543053
 11
5.5259783744
 21
1.9400543053
  0
LINE
  5
267
100
AcDbEntity
  8
ALL_ASSEMBLY_MEMBERS
100
AcDbLine
 62
7
  6
CONTINUOUS
 10
5.5318708336
 20
1.9400543053
 11
5.5370191211
 21
1.9400543053
  0
LINE
  5
268
100
AcDbEntity
  8
ALL_ASSEMBLY_MEMBERS
100
AcDbLine
 62
7
  6
CONTINUOUS
 10
5.541802664
 20
1.9400543053
 11
5.5458592308
 21
1.9400543053
  0
LINE
  5
269
100
AcDbEntity
  8
ALL_ASSEMBLY_MEMBERS
100
AcDbLine
 62
7
  6
CONTINUOUS
 10
5.5494877893
 20
1.9400543053
 11
5.5524135685
 21
1.9400543053
  0
LINE
  5
26A
100
AcDbEntity
  8
ALL_ASSEMBLY_MEMBERS
100
AcDbLine
 62
7
  6
CONTINUOUS
 10
5.5548521975
 20
1.9400543053
 11
5.5566190123
 21
1.9400543053
  0
LINE
  5
26B
100
AcDbEntity
  8
ALL_ASSEMBLY_MEMBERS
100
AcDbLine
 62
7
  6
CONTINUOUS
 10
5.5578442266
 20
1.9400543053
 11
5.5584350615
 21
1.9400543053
  0
LINE
  5
26C
100
AcDbEntity
  8
ALL_ASSEMBLY_MEMBERS
100
AcDbLine
 62
7
  6
CONTINUOUS
 10
3.1695586114
 20
6.3835997179
 11
3.1687111722
 21
6.373913444
  0
LINE
  5
26D
100
AcDbEntity
  8
ALL_ASSEMBLY_MEMBERS
100
AcDbLine
 62
7
  6
CONTINUOUS
 10
3.2073607363
 20
6.7663290537
 11
3.2063021938
 21
6.7566635716
  0
LINE
  5
26E
100
AcDbEntity
  8
ALL_ASSEMBLY_MEMBERS
100
AcDbLine
 62
7
  6
CONTINUOUS
 10
3.1535787237
 20
6.401230807
 11
3.1517859443
 21
6.3916742387
  0
LINE
  5
26F
100
AcDbEntity
  8
ALL_ASSEMBLY_MEMBERS
100
AcDbLine
 62
7
  6
CONTINUOUS
 10
3.2287128561
 20
6.7784119402
 11
3.2267120279
 21
6.7688967553
  0
LINE
  5
270
100
AcDbEntity
  8
ALL_ASSEMBLY_MEMBERS
100
AcDbLine
 62
7
  6
CONTINUOUS
 10
3.542622465
 20
6.6897653103
 11
3.5453433192
 21
6.699100138
  0
LINE
  5
271
100
AcDbEntity
  8
ALL_ASSEMBLY_MEMBERS
100
AcDbLine
 62
7
  6
CONTINUOUS
 10
3.430879908
 20
6.3217648401
 11
3.4338037528
 21
6.3310380913
  0
LINE
  5
272
100
AcDbEntity
  8
ALL_ASSEMBLY_MEMBERS
100
AcDbLine
 62
7
  6
CONTINUOUS
 10
3.5548556488
 20
6.6693554762
 11
3.5584783744
 21
6.6783786638
  0
LINE
  5
273
100
AcDbEntity
  8
ALL_ASSEMBLY_MEMBERS
100
AcDbLine
 62
7
  6
CONTINUOUS
 10
3.4075808089
 20
6.3140797148
 11
3.4113995122
 21
6.3230217258
  0
LINE
  5
274
100
AcDbEntity
  8
ALL_ASSEMBLY_MEMBERS
100
AcDbLine
 62
7
  6
CONTINUOUS
 10
3.5730457783
 20
6.4846679919
 11
3.5819877893
 21
6.4884866952
  0
LINE
  5
275
100
AcDbEntity
  8
ALL_ASSEMBLY_MEMBERS
100
AcDbLine
 62
7
  6
CONTINUOUS
 10
3.2176888403
 20
6.3375891297
 11
3.2267120279
 21
6.3412118553
  0
LINE
  5
276
100
AcDbEntity
  8
ALL_ASSEMBLY_MEMBERS
100
AcDbLine
 62
7
  6
CONTINUOUS
 10
3.5650294128
 20
6.4622637513
 11
3.574302664
 21
6.4651875961
  0
LINE
  5
277
100
AcDbEntity
  8
ALL_ASSEMBLY_MEMBERS
100
AcDbLine
 62
7
  6
CONTINUOUS
 10
3.1969673661
 20
6.3507241849
 11
3.2063021938
 21
6.3534450391
  0
LINE
  5
278
100
AcDbEntity
  8
ALL_ASSEMBLY_MEMBERS
100
AcDbLine
 62
7
  6
CONTINUOUS
 10
3.1871897004
 20
6.3676198303
 11
3.1872957628
 21
6.3578971349
  0
LINE
  5
279
100
AcDbEntity
  8
ALL_ASSEMBLY_MEMBERS
100
AcDbLine
 62
7
  6
CONTINUOUS
 10
3.1872957628
 20
6.7522114758
 11
3.1871897004
 21
6.7424887804
  0
LINE
  5
27A
100
AcDbEntity
  8
ALL_ASSEMBLY_MEMBERS
100
AcDbLine
 62
7
  6
CONTINUOUS
 10
3.5124677862
 20
6.7265088927
 11
3.5133152253
 21
6.7361951667
  0
LINE
  5
27B
100
AcDbEntity
  8
ALL_ASSEMBLY_MEMBERS
100
AcDbLine
 62
7
  6
CONTINUOUS
 10
3.4746656612
 20
6.343779557
 11
3.4757242037
 21
6.3534450391
  0
LINE
  5
27C
100
AcDbEntity
  8
ALL_ASSEMBLY_MEMBERS
100
AcDbLine
 62
7
  6
CONTINUOUS
 10
3.5284476738
 20
6.7088778037
 11
3.5302404532
 21
6.718434372
  0
LINE
  5
27D
100
AcDbEntity
  8
ALL_ASSEMBLY_MEMBERS
100
AcDbLine
 62
7
  6
CONTINUOUS
 10
3.4533135414
 20
6.3316966705
 11
3.4553143696
 21
6.3412118553
  0
LINE
  5
27E
100
AcDbEntity
  8
ALL_ASSEMBLY_MEMBERS
100
AcDbLine
 62
7
  6
CONTINUOUS
 10
5.058591336
 20
2.3150543053
 11
5.0591821709
 21
2.3150543053
  0
LINE
  5
27F
100
AcDbEntity
  8
ALL_ASSEMBLY_MEMBERS
100
AcDbLine
 62
7
  6
CONTINUOUS
 10
5.0604073852
 20
2.3150543053
 11
5.0621742
 21
2.3150543053
  0
LINE
  5
280
100
AcDbEntity
  8
ALL_ASSEMBLY_MEMBERS
100
AcDbLine
 62
7
  6
CONTINUOUS
 10
5.064612829
 20
2.3150543053
 11
5.0675386082
 21
2.3150543053
  0
LINE
  5
281
100
AcDbEntity
  8
ALL_ASSEMBLY_MEMBERS
100
AcDbLine
 62
7
  6
CONTINUOUS
 10
5.0711671667
 20
2.3150543053
 11
5.0752237335
 21
2.3150543053
  0
LINE
  5
282
100
AcDbEntity
  8
ALL_ASSEMBLY_MEMBERS
100
AcDbLine
 62
7
  6
CONTINUOUS
 10
5.0800072765
 20
2.3150543053
 11
5.0851555639
 21
2.3150543053
  0
LINE
  5
283
100
AcDbEntity
  8
ALL_ASSEMBLY_MEMBERS
100
AcDbLine
 62
7
  6
CONTINUOUS
 10
5.0910480231
 20
2.3150543053
 11
5.0972384504
 21
2.3150543053
  0
LINE
  5
284
100
AcDbEntity
  8
ALL_ASSEMBLY_MEMBERS
100
AcDbLine
 62
7
  6
CONTINUOUS
 10
5.1041830784
 20
2.3150543053
 11
5.1113560283
 21
2.3150543053
  0
LINE
  5
285
100
AcDbEntity
  8
ALL_ASSEMBLY_MEMBERS
100
AcDbLine
 62
7
  6
CONTINUOUS
 10
5.1192859443
 20
2.3150543053
 11
5.1273723374
 21
2.3150543053
  0
LINE
  5
286
100
AcDbEntity
  8
ALL_ASSEMBLY_MEMBERS
100
AcDbLine
 62
7
  6
CONTINUOUS
 10
5.1362111722
 20
2.3150543053
 11
5.1451331321
 21
2.3150543053
  0
LINE
  5
287
100
AcDbEntity
  8
ALL_ASSEMBLY_MEMBERS
100
AcDbLine
 62
7
  6
CONTINUOUS
 10
5.1547957628
 20
2.3150543053
 11
5.1644673661
 21
2.3150543053
  0
LINE
  5
288
100
AcDbEntity
  8
ALL_ASSEMBLY_MEMBERS
100
AcDbLine
 62
7
  6
CONTINUOUS
 10
5.1748607363
 20
2.3150543053
 11
5.1851888403
 21
2.3150543053
  0
LINE
  5
289
100
AcDbEntity
  8
ALL_ASSEMBLY_MEMBERS
100
AcDbLine
 62
7
  6
CONTINUOUS
 10
5.1962128561
 20
2.3150543053
 11
5.2070979954
 21
2.3150543053
  0
LINE
  5
28A
100
AcDbEntity
  8
ALL_ASSEMBLY_MEMBERS
100
AcDbLine
 62
7
  6
CONTINUOUS
 10
5.2186464896
 20
2.3150543053
 11
5.2299838344
 21
2.3150543053
  0
LINE
  5
28B
100
AcDbEntity
  8
ALL_ASSEMBLY_MEMBERS
100
AcDbLine
 62
7
  6
CONTINUOUS
 10
5.2419455886
 20
2.3150543053
 11
5.2536259541
 21
2.3150543053
  0
LINE
  5
28C
100
AcDbEntity
  8
ALL_ASSEMBLY_MEMBERS
100
AcDbLine
 62
7
  6
CONTINUOUS
 10
5.2658857701
 20
2.3150543053
 11
5.2777966679
 21
2.3150543053
  0
LINE
  5
28D
100
AcDbEntity
  8
ALL_ASSEMBLY_MEMBERS
100
AcDbLine
 62
7
  6
CONTINUOUS
 10
5.290236477
 20
2.3150543053
 11
5.3022631988
 21
2.3150543053
  0
LINE
  5
28E
100
AcDbEntity
  8
ALL_ASSEMBLY_MEMBERS
100
AcDbLine
 62
7
  6
CONTINUOUS
 10
5.3147631988
 20
2.3150543053
 11
5.3267899205
 21
2.3150543053
  0
LINE
  5
28F
100
AcDbEntity
  8
ALL_ASSEMBLY_MEMBERS
100
AcDbLine
 62
7
  6
CONTINUOUS
 10
5.3392297296
 20
2.3150543053
 11
5.3511406274
 21
2.3150543053
  0
LINE
  5
290
100
AcDbEntity
  8
ALL_ASSEMBLY_MEMBERS
100
AcDbLine
 62
7
  6
CONTINUOUS
 10
5.3634004435
 20
2.3150543053
 11
5.3750808089
 21
2.3150543053
  0
LINE
  5
291
100
AcDbEntity
  8
ALL_ASSEMBLY_MEMBERS
100
AcDbLine
 62
7
  6
CONTINUOUS
 10
5.3870425631
 20
2.3150543053
 11
5.398379908
 21
2.3150543053
  0
LINE
  5
292
100
AcDbEntity
  8
ALL_ASSEMBLY_MEMBERS
100
AcDbLine
 62
7
  6
CONTINUOUS
 10
5.4099284021
 20
2.3150543053
 11
5.4208135414
 21
2.3150543053
  0
LINE
  5
293
100
AcDbEntity
  8
ALL_ASSEMBLY_MEMBERS
100
AcDbLine
 62
7
  6
CONTINUOUS
 10
5.4318375572
 20
2.3150543053
 11
5.4421656612
 21
2.3150543053
  0
LINE
  5
294
100
AcDbEntity
  8
ALL_ASSEMBLY_MEMBERS
100
AcDbLine
 62
7
  6
CONTINUOUS
 10
5.4525590314
 20
2.3150543053
 11
5.4622306347
 21
2.3150543053
  0
LINE
  5
295
100
AcDbEntity
  8
ALL_ASSEMBLY_MEMBERS
100
AcDbLine
 62
7
  6
CONTINUOUS
 10
5.4718932654
 20
2.3150543053
 11
5.4808152253
 21
2.3150543053
  0
LINE
  5
296
100
AcDbEntity
  8
ALL_ASSEMBLY_MEMBERS
100
AcDbLine
 62
7
  6
CONTINUOUS
 10
5.4896540601
 20
2.3150543053
 11
5.4977404532
 21
2.3150543053
  0
LINE
  5
297
100
AcDbEntity
  8
ALL_ASSEMBLY_MEMBERS
100
AcDbLine
 62
7
  6
CONTINUOUS
 10
5.5056703692
 20
2.3150543053
 11
5.5128433192
 21
2.3150543053
  0
LINE
  5
298
100
AcDbEntity
  8
ALL_ASSEMBLY_MEMBERS
100
AcDbLine
 62
7
  6
CONTINUOUS
 10
5.5197879471
 20
2.3150543053
 11
5.5259783744
 21
2.3150543053
  0
LINE
  5
299
100
AcDbEntity
  8
ALL_ASSEMBLY_MEMBERS
100
AcDbLine
 62
7
  6
CONTINUOUS
 10
5.5318708336
 20
2.3150543053
 11
5.5370191211
 21
2.3150543053
  0
LINE
  5
29A
100
AcDbEntity
  8
ALL_ASSEMBLY_MEMBERS
100
AcDbLine
 62
7
  6
CONTINUOUS
 10
5.541802664
 20
2.3150543053
 11
5.5458592308
 21
2.3150543053
  0
LINE
  5
29B
100
AcDbEntity
  8
ALL_ASSEMBLY_MEMBERS
100
AcDbLine
 62
7
  6
CONTINUOUS
 10
5.5494877893
 20
2.3150543053
 11
5.5524135685
 21
2.3150543053
  0
LINE
  5
29C
100
AcDbEntity
  8
ALL_ASSEMBLY_MEMBERS
100
AcDbLine
 62
7
  6
CONTINUOUS
 10
5.5548521975
 20
2.3150543053
 11
5.5566190123
 21
2.3150543053
  0
LINE
  5
29D
100
AcDbEntity
  8
ALL_ASSEMBLY_MEMBERS
100
AcDbLine
 62
7
  6
CONTINUOUS
 10
5.5578442266
 20
2.3150543053
 11
5.5584350615
 21
2.3150543053
  0
LINE
  5
29E
100
AcDbEntity
  8
ALL_ASSEMBLY_MEMBERS
100
AcDbLine
 62
7
  6
CONTINUOUS
 10
5.0735131988
 20
2.3300543053
 11
5.5435131988
 21
2.3300543053
  0
LINE
  5
29F
100
AcDbEntity
  8
ALL_ASSEMBLY_MEMBERS
100
AcDbLine
 62
7
  6
CONTINUOUS
 10
5.5272631988
 20
2.5550543053
 11
5.0897631988
 21
2.5550543053
  0
LINE
  5
2A0
100
AcDbEntity
  8
ALL_ASSEMBLY_MEMBERS
100
AcDbLine
 62
7
  6
CONTINUOUS
 10
3.2063021938
 20
6.3534450391
 11
3.2073607363
 21
6.343779557
  0
LINE
  5
2A1
100
AcDbEntity
  8
ALL_ASSEMBLY_MEMBERS
100
AcDbLine
 62
7
  6
CONTINUOUS
 10
3.1687111722
 20
6.7361951667
 11
3.1695586114
 21
6.7265088927
  0
LINE
  5
2A2
100
AcDbEntity
  8
ALL_ASSEMBLY_MEMBERS
100
AcDbLine
 62
7
  6
CONTINUOUS
 10
3.4948366971
 20
6.7424887804
 11
3.4947306347
 21
6.7522114758
  0
LINE
  5
2A3
100
AcDbEntity
  8
ALL_ASSEMBLY_MEMBERS
100
AcDbLine
 62
7
  6
CONTINUOUS
 10
3.4947306347
 20
6.3578971349
 11
3.4948366971
 21
6.3676198303
  0
LINE
  5
2A4
100
AcDbEntity
  8
ALL_ASSEMBLY_MEMBERS
100
AcDbLine
 62
7
  6
CONTINUOUS
 10
3.2267120279
 20
6.3412118553
 11
3.2287128561
 21
6.3316966705
  0
LINE
  5
2A5
100
AcDbEntity
  8
ALL_ASSEMBLY_MEMBERS
100
AcDbLine
 62
7
  6
CONTINUOUS
 10
3.1517859443
 20
6.718434372
 11
3.1535787237
 21
6.7088778037
  0
LINE
  5
2A6
100
AcDbEntity
  8
ALL_ASSEMBLY_MEMBERS
100
AcDbLine
 62
7
  6
CONTINUOUS
 10
3.4757242037
 20
6.7566635716
 11
3.4746656612
 21
6.7663290537
  0
LINE
  5
2A7
100
AcDbEntity
  8
ALL_ASSEMBLY_MEMBERS
100
AcDbLine
 62
7
  6
CONTINUOUS
 10
3.5133152253
 20
6.373913444
 11
3.5124677862
 21
6.3835997179
  0
LINE
  5
2A8
100
AcDbEntity
  8
ALL_ASSEMBLY_MEMBERS
100
AcDbLine
 62
7
  6
CONTINUOUS
 10
7.0544969847
 20
6.6478448594
 11
7.0452237335
 21
6.6449210145
  0
LINE
  5
2A9
100
AcDbEntity
  8
ALL_ASSEMBLY_MEMBERS
100
AcDbLine
 62
7
  6
CONTINUOUS
 10
7.4225590314
 20
6.7593844257
 11
7.4132242037
 21
6.7566635716
  0
LINE
  5
2AA
100
AcDbEntity
  8
ALL_ASSEMBLY_MEMBERS
100
AcDbLine
 62
7
  6
CONTINUOUS
 10
3.2482226447
 20
6.3310380913
 11
3.2511464896
 21
6.3217648401
  0
LINE
  5
2AB
100
AcDbEntity
  8
ALL_ASSEMBLY_MEMBERS
100
AcDbLine
 62
7
  6
CONTINUOUS
 10
3.1366830784
 20
6.699100138
 11
3.1394039325
 21
6.6897653103
  0
LINE
  5
2AC
100
AcDbEntity
  8
ALL_ASSEMBLY_MEMBERS
100
AcDbLine
 62
7
  6
CONTINUOUS
 10
3.5302404532
 20
6.3916742387
 11
3.5284476738
 21
6.401230807
  0
LINE
  5
2AD
100
AcDbEntity
  8
ALL_ASSEMBLY_MEMBERS
100
AcDbLine
 62
7
  6
CONTINUOUS
 10
7.0464806192
 20
6.6254406188
 11
7.0375386082
 21
6.6216219155
  0
LINE
  5
2AE
100
AcDbEntity
  8
ALL_ASSEMBLY_MEMBERS
100
AcDbLine
 62
7
  6
CONTINUOUS
 10
7.4018375572
 20
6.772519481
 11
7.3928143696
 21
6.7688967553
  0
LINE
  5
2AF
100
AcDbEntity
  8
ALL_ASSEMBLY_MEMBERS
100
AcDbLine
 62
7
  6
CONTINUOUS
 10
7.5025294128
 20
6.4622637513
 11
7.511802664
 21
6.4651875961
  0
LINE
  5
2B0
100
AcDbEntity
  8
ALL_ASSEMBLY_MEMBERS
100
AcDbLine
 62
7
  6
CONTINUOUS
 10
7.1344673661
 20
6.3507241849
 11
7.1438021938
 21
6.3534450391
  0
LINE
  5
2B1
100
AcDbEntity
  8
ALL_ASSEMBLY_MEMBERS
100
AcDbLine
 62
7
  6
CONTINUOUS
 10
5.6058272173
 20
3.4118754202
 11
5.6152498212
 21
3.41427471
  0
LINE
  5
2B2
100
AcDbEntity
  8
ALL_ASSEMBLY_MEMBERS
100
AcDbLine
 62
7
  6
CONTINUOUS
 10
5.5942960955
 20
3.390057473
 11
5.603871651
 21
3.3917459018
  0
LINE
  5
2B3
100
AcDbEntity
  8
ALL_ASSEMBLY_MEMBERS
100
AcDbLine
 62
7
  6
CONTINUOUS
 10
5.0744126908
 20
3.3119428038
 11
5.0840605044
 21
3.3131518317
  0
LINE
  5
2B4
100
AcDbEntity
  8
ALL_ASSEMBLY_MEMBERS
100
AcDbLine
 62
7
  6
CONTINUOUS
 10
5.5811667598
 20
3.369162255
 11
5.5908417166
 21
3.3701303804
  0
LINE
  5
2B5
100
AcDbEntity
  8
ALL_ASSEMBLY_MEMBERS
100
AcDbLine
 62
7
  6
CONTINUOUS
 10
5.056899538
 20
3.3301169458
 11
5.0666107251
 21
3.330601611
  0
LINE
  5
2B6
100
AcDbEntity
  8
ALL_ASSEMBLY_MEMBERS
100
AcDbLine
 62
7
  6
CONTINUOUS
 10
5.5665126348
 20
3.3493066207
 11
5.5762328866
 21
3.3495490287
  0
LINE
  5
2B7
100
AcDbEntity
  8
ALL_ASSEMBLY_MEMBERS
100
AcDbLine
 62
7
  6
CONTINUOUS
 10
5.0407935109
 20
3.3495490287
 11
5.0505137627
 21
3.3493066207
  0
LINE
  5
2B8
100
AcDbEntity
  8
ALL_ASSEMBLY_MEMBERS
100
AcDbLine
 62
7
  6
CONTINUOUS
 10
5.5504156724
 20
3.330601611
 11
5.5601268595
 21
3.3301169458
  0
LINE
  5
2B9
100
AcDbEntity
  8
ALL_ASSEMBLY_MEMBERS
100
AcDbLine
 62
7
  6
CONTINUOUS
 10
5.0261846809
 20
3.3701303804
 11
5.0358596377
 21
3.369162255
  0
LINE
  5
2BA
100
AcDbEntity
  8
ALL_ASSEMBLY_MEMBERS
100
AcDbLine
 62
7
  6
CONTINUOUS
 10
5.5329658931
 20
3.3131518317
 11
5.5426137067
 21
3.3119428038
  0
LINE
  5
2BB
100
AcDbEntity
  8
ALL_ASSEMBLY_MEMBERS
100
AcDbLine
 62
7
  6
CONTINUOUS
 10
5.0131547465
 20
3.3917459018
 11
5.022730302
 21
3.390057473
  0
LINE
  5
2BC
100
AcDbEntity
  8
ALL_ASSEMBLY_MEMBERS
100
AcDbLine
 62
7
  6
CONTINUOUS
 10
5.0017765763
 20
3.41427471
 11
5.0111991802
 21
3.4118754202
  0
LINE
  5
2BD
100
AcDbEntity
  8
ALL_ASSEMBLY_MEMBERS
100
AcDbLine
 62
7
  6
CONTINUOUS
 10
4.9921138018
 20
3.4375908148
 11
5.0013307591
 21
3.4344940818
  0
LINE
  5
2BE
100
AcDbEntity
  8
ALL_ASSEMBLY_MEMBERS
100
AcDbLine
 62
7
  6
CONTINUOUS
 10
4.9842204611
 20
3.4615638231
 11
4.9931802267
 21
3.4577869651
  0
LINE
  5
2BF
100
AcDbEntity
  8
ALL_ASSEMBLY_MEMBERS
100
AcDbLine
 62
7
  6
CONTINUOUS
 10
3.2706268853
 20
6.3230217258
 11
3.2744455886
 21
6.3140797148
  0
LINE
  5
2C0
100
AcDbEntity
  8
ALL_ASSEMBLY_MEMBERS
100
AcDbLine
 62
7
  6
CONTINUOUS
 10
3.1235480231
 20
6.6783786638
 11
3.1271707488
 21
6.6693554762
  0
LINE
  5
2C1
100
AcDbEntity
  8
ALL_ASSEMBLY_MEMBERS
100
AcDbLine
 62
7
  6
CONTINUOUS
 10
3.4338037528
 20
6.7790705194
 11
3.430879908
 21
6.7883437705
  0
LINE
  5
2C2
100
AcDbEntity
  8
ALL_ASSEMBLY_MEMBERS
100
AcDbLine
 62
7
  6
CONTINUOUS
 10
3.5453433192
 20
6.4110084727
 11
3.542622465
 21
6.4203433004
  0
LINE
  5
2C3
100
AcDbEntity
  8
ALL_ASSEMBLY_MEMBERS
100
AcDbLine
 62
7
  6
CONTINUOUS
 10
3.4553143696
 20
6.7688967553
 11
3.4533135414
 21
6.7784119402
  0
LINE
  5
2C4
100
AcDbEntity
  8
ALL_ASSEMBLY_MEMBERS
100
AcDbLine
 62
7
  6
CONTINUOUS
 10
7.0406988544
 20
6.6023585196
 11
7.0321742
 21
6.597681734
  0
LINE
  5
2C5
100
AcDbEntity
  8
ALL_ASSEMBLY_MEMBERS
100
AcDbLine
 62
7
  6
CONTINUOUS
 10
7.3799284021
 20
6.7835602276
 11
7.3713037528
 21
6.7790705194
  0
LINE
  5
2C6
100
AcDbEntity
  8
ALL_ASSEMBLY_MEMBERS
100
AcDbLine
 62
7
  6
CONTINUOUS
 10
7.5105457783
 20
6.4846679919
 11
7.5194877893
 21
6.4884866952
  0
LINE
  5
2C7
100
AcDbEntity
  8
ALL_ASSEMBLY_MEMBERS
100
AcDbLine
 62
7
  6
CONTINUOUS
 10
7.1551888403
 20
6.3375891297
 11
7.1642120279
 21
6.3412118553
  0
LINE
  5
2C8
100
AcDbEntity
  8
ALL_ASSEMBLY_MEMBERS
100
AcDbLine
 62
7
  6
CONTINUOUS
 10
4.9781406968
 20
3.4860596681
 11
4.9867931642
 21
3.4816238069
  0
LINE
  5
2C9
100
AcDbEntity
  8
ALL_ASSEMBLY_MEMBERS
100
AcDbLine
 62
7
  6
CONTINUOUS
 10
4.9739085097
 20
3.510941359
 11
4.9822052906
 21
3.5058713017
  0
LINE
  5
2CA
100
AcDbEntity
  8
ALL_ASSEMBLY_MEMBERS
100
AcDbLine
 62
7
  6
CONTINUOUS
 10
4.9715475676
 20
3.5360697475
 11
4.9794422633
 21
3.5303938479
  0
LINE
  5
2CB
100
AcDbEntity
  8
ALL_ASSEMBLY_MEMBERS
100
AcDbLine
 62
7
  6
CONTINUOUS
 10
4.9710710741
 20
3.5613043053
 11
4.978519534
 21
3.5550543053
  0
LINE
  5
2CC
100
AcDbEntity
  8
ALL_ASSEMBLY_MEMBERS
100
AcDbLine
 62
7
  6
CONTINUOUS
 10
4.9724816938
 20
3.5865039106
 11
4.9794422633
 21
3.5797147628
  0
LINE
  5
2CD
100
AcDbEntity
  8
ALL_ASSEMBLY_MEMBERS
100
AcDbLine
 62
7
  6
CONTINUOUS
 10
4.975771538
 20
3.611527637
 11
4.9822052906
 21
3.604237309
  0
LINE
  5
2CE
100
AcDbEntity
  8
ALL_ASSEMBLY_MEMBERS
100
AcDbLine
 62
7
  6
CONTINUOUS
 10
3.2937089845
 20
6.3172399609
 11
3.2983857701
 21
6.3087153066
  0
LINE
  5
2CF
100
AcDbEntity
  8
ALL_ASSEMBLY_MEMBERS
100
AcDbLine
 62
7
  6
CONTINUOUS
 10
3.1125072765
 20
6.6564695087
 11
3.1169969847
 21
6.6478448594
  0
LINE
  5
2D0
100
AcDbEntity
  8
ALL_ASSEMBLY_MEMBERS
100
AcDbLine
 62
7
  6
CONTINUOUS
 10
3.4113995122
 20
6.7870868849
 11
3.4075808089
 21
6.7960288959
  0
LINE
  5
2D1
100
AcDbEntity
  8
ALL_ASSEMBLY_MEMBERS
100
AcDbLine
 62
7
  6
CONTINUOUS
 10
3.5584783744
 20
6.4317299469
 11
3.5548556488
 21
6.4407531345
  0
LINE
  5
2D2
100
AcDbEntity
  8
ALL_ASSEMBLY_MEMBERS
100
AcDbLine
 62
7
  6
CONTINUOUS
 10
7.0372073716
 20
6.5788208549
 11
7.0291821709
 21
6.5733310271
  0
LINE
  5
2D3
100
AcDbEntity
  8
ALL_ASSEMBLY_MEMBERS
100
AcDbLine
 62
7
  6
CONTINUOUS
 10
7.3570425631
 20
6.7924003374
 11
7.3488995122
 21
6.7870868849
  0
LINE
  5
2D4
100
AcDbEntity
  8
ALL_ASSEMBLY_MEMBERS
100
AcDbLine
 62
7
  6
CONTINUOUS
 10
7.5163275431
 20
6.5077500911
 11
7.5248521975
 21
6.5124268767
  0
LINE
  5
2D5
100
AcDbEntity
  8
ALL_ASSEMBLY_MEMBERS
100
AcDbLine
 62
7
  6
CONTINUOUS
 10
7.1770979954
 20
6.326548383
 11
7.1857226447
 21
6.3310380913
  0
LINE
  5
2D6
100
AcDbEntity
  8
ALL_ASSEMBLY_MEMBERS
100
AcDbLine
 62
7
  6
CONTINUOUS
 10
5.5037651084
 20
3.8303413225
 11
5.4944052491
 21
3.8277078664
  0
LINE
  5
2D7
100
AcDbEntity
  8
ALL_ASSEMBLY_MEMBERS
100
AcDbLine
 62
7
  6
CONTINUOUS
 10
5.0111991802
 20
3.6982331905
 11
5.0017765763
 21
3.6958339007
  0
LINE
  5
2D8
100
AcDbEntity
  8
ALL_ASSEMBLY_MEMBERS
100
AcDbLine
 62
7
  6
CONTINUOUS
 10
5.523791369
 20
3.8149803707
 11
5.5142608834
 21
3.8130537414
  0
LINE
  5
2D9
100
AcDbEntity
  8
ALL_ASSEMBLY_MEMBERS
100
AcDbLine
 62
7
  6
CONTINUOUS
 10
5.022730302
 20
3.7200511377
 11
5.0131547465
 21
3.7183627089
  0
LINE
  5
2DA
100
AcDbEntity
  8
ALL_ASSEMBLY_MEMBERS
100
AcDbLine
 62
7
  6
CONTINUOUS
 10
5.5426137067
 20
3.7981658069
 11
5.5329658931
 21
3.7969567789
  0
LINE
  5
2DB
100
AcDbEntity
  8
ALL_ASSEMBLY_MEMBERS
100
AcDbLine
 62
7
  6
CONTINUOUS
 10
5.0358596377
 20
3.7409463557
 11
5.0261846809
 21
3.7399782303
  0
LINE
  5
2DC
100
AcDbEntity
  8
ALL_ASSEMBLY_MEMBERS
100
AcDbLine
 62
7
  6
CONTINUOUS
 10
5.5601268595
 20
3.7799916649
 11
5.5504156724
 21
3.7795069997
  0
LINE
  5
2DD
100
AcDbEntity
  8
ALL_ASSEMBLY_MEMBERS
100
AcDbLine
 62
7
  6
CONTINUOUS
 10
5.0505137627
 20
3.76080199
 11
5.0407935109
 21
3.760559582
  0
LINE
  5
2DE
100
AcDbEntity
  8
ALL_ASSEMBLY_MEMBERS
100
AcDbLine
 62
7
  6
CONTINUOUS
 10
5.5762328866
 20
3.760559582
 11
5.5665126348
 21
3.76080199
  0
LINE
  5
2DF
100
AcDbEntity
  8
ALL_ASSEMBLY_MEMBERS
100
AcDbLine
 62
7
  6
CONTINUOUS
 10
5.0666107251
 20
3.7795069997
 11
5.056899538
 21
3.7799916649
  0
LINE
  5
2E0
100
AcDbEntity
  8
ALL_ASSEMBLY_MEMBERS
100
AcDbLine
 62
7
  6
CONTINUOUS
 10
5.5908417166
 20
3.7399782303
 11
5.5811667598
 21
3.7409463557
  0
LINE
  5
2E1
100
AcDbEntity
  8
ALL_ASSEMBLY_MEMBERS
100
AcDbLine
 62
7
  6
CONTINUOUS
 10
5.0840605044
 20
3.7969567789
 11
5.0744126908
 21
3.7981658069
  0
LINE
  5
2E2
100
AcDbEntity
  8
ALL_ASSEMBLY_MEMBERS
100
AcDbLine
 62
7
  6
CONTINUOUS
 10
5.603871651
 20
3.7183627089
 11
5.5942960955
 21
3.7200511377
  0
LINE
  5
2E3
100
AcDbEntity
  8
ALL_ASSEMBLY_MEMBERS
100
AcDbLine
 62
7
  6
CONTINUOUS
 10
5.1027655141
 20
3.8130537414
 11
5.0932350285
 21
3.8149803707
  0
LINE
  5
2E4
100
AcDbEntity
  8
ALL_ASSEMBLY_MEMBERS
100
AcDbLine
 62
7
  6
CONTINUOUS
 10
5.6152498212
 20
3.6958339007
 11
5.6058272173
 21
3.6982331905
  0
LINE
  5
2E5
100
AcDbEntity
  8
ALL_ASSEMBLY_MEMBERS
100
AcDbLine
 62
7
  6
CONTINUOUS
 10
5.1226211484
 20
3.8277078664
 11
5.1132612892
 21
3.8303413225
  0
LINE
  5
2E6
100
AcDbEntity
  8
ALL_ASSEMBLY_MEMBERS
100
AcDbLine
 62
7
  6
CONTINUOUS
 10
5.6249125957
 20
3.6725177959
 11
5.6156956385
 21
3.6756145288
  0
LINE
  5
2E7
100
AcDbEntity
  8
ALL_ASSEMBLY_MEMBERS
100
AcDbLine
 62
7
  6
CONTINUOUS
 10
5.1435163664
 20
3.8408372021
 11
5.1343794777
 21
3.8441627576
  0
LINE
  5
2E8
100
AcDbEntity
  8
ALL_ASSEMBLY_MEMBERS
100
AcDbLine
 62
7
  6
CONTINUOUS
 10
5.6328059365
 20
3.6485447876
 11
5.6238461708
 21
3.6523216455
  0
LINE
  5
2E9
100
AcDbEntity
  8
ALL_ASSEMBLY_MEMBERS
100
AcDbLine
 62
7
  6
CONTINUOUS
 10
5.1653343136
 20
3.8523683239
 11
5.1564714925
 21
3.856367381
  0
LINE
  5
2EA
100
AcDbEntity
  8
ALL_ASSEMBLY_MEMBERS
100
AcDbLine
 62
7
  6
CONTINUOUS
 10
5.6388857007
 20
3.6240489426
 11
5.6302332333
 21
3.6284848038
  0
LINE
  5
2EB
100
AcDbEntity
  8
ALL_ASSEMBLY_MEMBERS
100
AcDbLine
 62
7
  6
CONTINUOUS
 10
5.1879529753
 20
3.862236745
 11
5.1794137863
 21
3.8668869395
  0
LINE
  5
2EC
100
AcDbEntity
  8
ALL_ASSEMBLY_MEMBERS
100
AcDbLine
 62
7
  6
CONTINUOUS
 10
5.6431178879
 20
3.5991672516
 11
5.6348211069
 21
3.604237309
  0
LINE
  5
2ED
100
AcDbEntity
  8
ALL_ASSEMBLY_MEMBERS
100
AcDbLine
 62
7
  6
CONTINUOUS
 10
5.2112458586
 20
3.8703872774
 11
5.2030780564
 21
3.8756626034
  0
LINE
  5
2EE
100
AcDbEntity
  8
ALL_ASSEMBLY_MEMBERS
100
AcDbLine
 62
7
  6
CONTINUOUS
 10
5.6454788299
 20
3.5740388632
 11
5.6375841343
 21
3.5797147628
  0
LINE
  5
2EF
100
AcDbEntity
  8
ALL_ASSEMBLY_MEMBERS
100
AcDbLine
 62
7
  6
CONTINUOUS
 10
5.2350827003
 20
3.8767743399
 11
5.2273319626
 21
3.8826452956
  0
LINE
  5
2F0
100
AcDbEntity
  8
ALL_ASSEMBLY_MEMBERS
100
AcDbLine
 62
7
  6
CONTINUOUS
 10
4.9809222085
 20
3.6362355415
 11
4.9867931642
 21
3.6284848038
  0
LINE
  5
2F1
100
AcDbEntity
  8
ALL_ASSEMBLY_MEMBERS
100
AcDbLine
 62
7
  6
CONTINUOUS
 10
3.3172466492
 20
6.3137484782
 11
3.322736477
 21
6.3057232775
  0
LINE
  5
2F2
100
AcDbEntity
  8
ALL_ASSEMBLY_MEMBERS
100
AcDbLine
 62
7
  6
CONTINUOUS
 10
3.1036671667
 20
6.6335836697
 11
3.1089806192
 21
6.6254406188
  0
LINE
  5
2F3
100
AcDbEntity
  8
ALL_ASSEMBLY_MEMBERS
100
AcDbLine
 62
7
  6
CONTINUOUS
 10
4.9879049007
 20
3.6604894477
 11
4.9931802267
 21
3.6523216455
  0
LINE
  5
2F4
100
AcDbEntity
  8
ALL_ASSEMBLY_MEMBERS
100
AcDbLine
 62
7
  6
CONTINUOUS
 10
3.388317413
 20
6.7928686497
 11
3.3836406274
 21
6.8013933041
  0
LINE
  5
2F5
100
AcDbEntity
  8
ALL_ASSEMBLY_MEMBERS
100
AcDbLine
 62
7
  6
CONTINUOUS
 10
4.9966805646
 20
3.6841537178
 11
5.0013307591
 21
3.6756145288
  0
LINE
  5
2F6
100
AcDbEntity
  8
ALL_ASSEMBLY_MEMBERS
100
AcDbLine
 62
7
  6
CONTINUOUS
 10
3.5695191211
 20
6.453639102
 11
3.5650294128
 21
6.4622637513
  0
LINE
  5
2F7
100
AcDbEntity
  8
ALL_ASSEMBLY_MEMBERS
100
AcDbLine
 62
7
  6
CONTINUOUS
 10
5.0072001231
 20
3.7070960116
 11
5.0111991802
 21
3.6982331905
  0
LINE
  5
2F8
100
AcDbEntity
  8
ALL_ASSEMBLY_MEMBERS
100
AcDbLine
 62
7
  6
CONTINUOUS
 10
5.0194047465
 20
3.7291880264
 11
5.022730302
 21
3.7200511377
  0
LINE
  5
2F9
100
AcDbEntity
  8
ALL_ASSEMBLY_MEMBERS
100
AcDbLine
 62
7
  6
CONTINUOUS
 10
5.0835758392
 20
3.8066679661
 11
5.0840605044
 21
3.7969567789
  0
LINE
  5
2FA
100
AcDbEntity
  8
ALL_ASSEMBLY_MEMBERS
100
AcDbLine
 62
7
  6
CONTINUOUS
 10
5.058591336
 20
2.3150543053
 11
5.058591336
 21
1.9400543053
  0
LINE
  5
2FB
100
AcDbEntity
  8
ALL_ASSEMBLY_MEMBERS
100
AcDbLine
 62
7
  6
CONTINUOUS
 10
5.0591821709
 20
2.3150543053
 11
5.0591821709
 21
1.9400543053
  0
LINE
  5
2FC
100
AcDbEntity
  8
ALL_ASSEMBLY_MEMBERS
100
AcDbLine
 62
7
  6
CONTINUOUS
 10
5.0604073852
 20
2.3150543053
 11
5.0604073852
 21
1.9400543053
  0
LINE
  5
2FD
100
AcDbEntity
  8
ALL_ASSEMBLY_MEMBERS
100
AcDbLine
 62
7
  6
CONTINUOUS
 10
5.0621742
 20
2.3150543053
 11
5.0621742
 21
1.9400543053
  0
LINE
  5
2FE
100
AcDbEntity
  8
ALL_ASSEMBLY_MEMBERS
100
AcDbLine
 62
7
  6
CONTINUOUS
 10
7.0360397959
 20
6.5550543053
 11
7.028591336
 21
6.5488043053
  0
LINE
  5
2FF
100
AcDbEntity
  8
ALL_ASSEMBLY_MEMBERS
100
AcDbLine
 62
7
  6
CONTINUOUS
 10
7.3334004435
 20
6.7989546751
 11
7.325817413
 21
6.7928686497
  0
LINE
  5
300
100
AcDbEntity
  8
ALL_ASSEMBLY_MEMBERS
100
AcDbLine
 62
7
  6
CONTINUOUS
 10
7.5198190259
 20
6.5312877558
 11
7.5278442266
 21
6.5367775836
  0
LINE
  5
301
100
AcDbEntity
  8
ALL_ASSEMBLY_MEMBERS
100
AcDbLine
 62
7
  6
CONTINUOUS
 10
7.1999838344
 20
6.3177082733
 11
7.2081268853
 21
6.3230217258
  0
LINE
  5
302
100
AcDbEntity
  8
ALL_ASSEMBLY_MEMBERS
100
AcDbLine
 62
7
  6
CONTINUOUS
 10
5.6459553234
 20
3.5488043053
 11
5.6385068635
 21
3.5550543053
  0
LINE
  5
303
100
AcDbEntity
  8
ALL_ASSEMBLY_MEMBERS
100
AcDbLine
 62
7
  6
CONTINUOUS
 10
5.2593301951
 20
3.8813622135
 11
5.2520398671
 21
3.8877959661
  0
LINE
  5
304
100
AcDbEntity
  8
ALL_ASSEMBLY_MEMBERS
100
AcDbLine
 62
7
  6
CONTINUOUS
 10
5.6445447037
 20
3.5236047001
 11
5.6375841343
 21
3.5303938479
  0
LINE
  5
305
100
AcDbEntity
  8
ALL_ASSEMBLY_MEMBERS
100
AcDbLine
 62
7
  6
CONTINUOUS
 10
5.2838527413
 20
3.8841252408
 11
5.2770635935
 21
3.8910858103
  0
LINE
  5
306
100
AcDbEntity
  8
ALL_ASSEMBLY_MEMBERS
100
AcDbLine
 62
7
  6
CONTINUOUS
 10
5.6412548595
 20
3.4985809737
 11
5.6348211069
 21
3.5058713017
  0
LINE
  5
307
100
AcDbEntity
  8
ALL_ASSEMBLY_MEMBERS
100
AcDbLine
 62
7
  6
CONTINUOUS
 10
5.3085131988
 20
3.8850479701
 11
5.3022631988
 21
3.89249643
  0
LINE
  5
308
100
AcDbEntity
  8
ALL_ASSEMBLY_MEMBERS
100
AcDbLine
 62
7
  6
CONTINUOUS
 10
3.3410131988
 20
6.3125809025
 11
3.3472631988
 21
6.3051324426
  0
LINE
  5
309
100
AcDbEntity
  8
ALL_ASSEMBLY_MEMBERS
100
AcDbLine
 62
7
  6
CONTINUOUS
 10
3.097112829
 20
6.60994155
 11
3.1031988544
 21
6.6023585196
  0
LINE
  5
30A
100
AcDbEntity
  8
ALL_ASSEMBLY_MEMBERS
100
AcDbLine
 62
7
  6
CONTINUOUS
 10
5.636104189
 20
3.4738730692
 11
5.6302332333
 21
3.4816238069
  0
LINE
  5
30B
100
AcDbEntity
  8
ALL_ASSEMBLY_MEMBERS
100
AcDbLine
 62
7
  6
CONTINUOUS
 10
5.3331736562
 20
3.8841252408
 11
5.3274977566
 21
3.8920199365
  0
LINE
  5
30C
100
AcDbEntity
  8
ALL_ASSEMBLY_MEMBERS
100
AcDbLine
 62
7
  6
CONTINUOUS
 10
3.3647797483
 20
6.7963601325
 11
3.3592899205
 21
6.8043853332
  0
LINE
  5
30D
100
AcDbEntity
  8
ALL_ASSEMBLY_MEMBERS
100
AcDbLine
 62
7
  6
CONTINUOUS
 10
3.5783592308
 20
6.476524941
 11
3.5730457783
 21
6.4846679919
  0
LINE
  5
30E
100
AcDbEntity
  8
ALL_ASSEMBLY_MEMBERS
100
AcDbLine
 62
7
  6
CONTINUOUS
 10
5.6291214968
 20
3.449619163
 11
5.6238461708
 21
3.4577869651
  0
LINE
  5
30F
100
AcDbEntity
  8
ALL_ASSEMBLY_MEMBERS
100
AcDbLine
 62
7
  6
CONTINUOUS
 10
5.3576962024
 20
3.8813622135
 11
5.3526261451
 21
3.8896589944
  0
LINE
  5
310
100
AcDbEntity
  8
ALL_ASSEMBLY_MEMBERS
100
AcDbLine
 62
7
  6
CONTINUOUS
 10
5.6203458329
 20
3.4259548929
 11
5.6156956385
 21
3.4344940818
  0
LINE
  5
311
100
AcDbEntity
  8
ALL_ASSEMBLY_MEMBERS
100
AcDbLine
 62
7
  6
CONTINUOUS
 10
5.0332261816
 20
3.7503062149
 11
5.0358596377
 21
3.7409463557
  0
LINE
  5
312
100
AcDbEntity
  8
ALL_ASSEMBLY_MEMBERS
100
AcDbLine
 62
7
  6
CONTINUOUS
 10
5.0485871334
 20
3.7703324756
 11
5.0505137627
 21
3.76080199
  0
LINE
  5
313
100
AcDbEntity
  8
ALL_ASSEMBLY_MEMBERS
100
AcDbLine
 62
7
  6
CONTINUOUS
 10
5.0654016972
 20
3.7891548133
 11
5.0666107251
 21
3.7795069997
  0
LINE
  5
314
100
AcDbEntity
  8
ALL_ASSEMBLY_MEMBERS
100
AcDbLine
 62
7
  6
CONTINUOUS
 10
5.064612829
 20
2.3150543053
 11
5.064612829
 21
1.9400543053
  0
LINE
  5
315
100
AcDbEntity
  8
ALL_ASSEMBLY_MEMBERS
100
AcDbLine
 62
7
  6
CONTINUOUS
 10
5.0675386082
 20
2.3150543053
 11
5.0675386082
 21
1.9400543053
  0
LINE
  5
316
100
AcDbEntity
  8
ALL_ASSEMBLY_MEMBERS
100
AcDbLine
 62
7
  6
CONTINUOUS
 10
5.0711671667
 20
2.3150543053
 11
5.0711671667
 21
1.9400543053
  0
LINE
  5
317
100
AcDbEntity
  8
ALL_ASSEMBLY_MEMBERS
100
AcDbLine
 62
7
  6
CONTINUOUS
 10
5.0752237335
 20
2.3150543053
 11
5.0752237335
 21
1.9400543053
  0
LINE
  5
318
100
AcDbEntity
  8
ALL_ASSEMBLY_MEMBERS
100
AcDbLine
 62
7
  6
CONTINUOUS
 10
5.0800072765
 20
2.3150543053
 11
5.0800072765
 21
1.9400543053
  0
LINE
  5
319
100
AcDbEntity
  8
ALL_ASSEMBLY_MEMBERS
100
AcDbLine
 62
7
  6
CONTINUOUS
 10
5.0851555639
 20
2.3150543053
 11
5.0851555639
 21
1.9400543053
  0
LINE
  5
31A
100
AcDbEntity
  8
ALL_ASSEMBLY_MEMBERS
100
AcDbLine
 62
7
  6
CONTINUOUS
 10
5.0897631988
 20
3.5550543053
 11
5.0897631988
 21
2.3300543053
  0
LINE
  5
31B
100
AcDbEntity
  8
ALL_ASSEMBLY_MEMBERS
100
AcDbLine
 62
7
  6
CONTINUOUS
 10
5.0910480231
 20
2.3150543053
 11
5.0910480231
 21
1.9400543053
  0
LINE
  5
31C
100
AcDbEntity
  8
ALL_ASSEMBLY_MEMBERS
100
AcDbLine
 62
7
  6
CONTINUOUS
 10
5.0972384504
 20
2.3150543053
 11
5.0972384504
 21
1.9400543053
  0
LINE
  5
31D
100
AcDbEntity
  8
ALL_ASSEMBLY_MEMBERS
100
AcDbLine
 62
7
  6
CONTINUOUS
 10
5.1041830784
 20
2.3150543053
 11
5.1041830784
 21
1.9400543053
  0
LINE
  5
31E
100
AcDbEntity
  8
ALL_ASSEMBLY_MEMBERS
100
AcDbLine
 62
7
  6
CONTINUOUS
 10
5.1113560283
 20
2.3150543053
 11
5.1113560283
 21
1.9400543053
  0
LINE
  5
31F
100
AcDbEntity
  8
ALL_ASSEMBLY_MEMBERS
100
AcDbLine
 62
7
  6
CONTINUOUS
 10
5.1192859443
 20
2.3150543053
 11
5.1192859443
 21
1.9400543053
  0
LINE
  5
320
100
AcDbEntity
  8
ALL_ASSEMBLY_MEMBERS
100
AcDbLine
 62
7
  6
CONTINUOUS
 10
5.1273723374
 20
2.3150543053
 11
5.1273723374
 21
1.9400543053
  0
LINE
  5
321
100
AcDbEntity
  8
ALL_ASSEMBLY_MEMBERS
100
AcDbLine
 62
7
  6
CONTINUOUS
 10
5.1362111722
 20
2.3150543053
 11
5.1362111722
 21
1.9400543053
  0
LINE
  5
322
100
AcDbEntity
  8
ALL_ASSEMBLY_MEMBERS
100
AcDbLine
 62
7
  6
CONTINUOUS
 10
5.1451331321
 20
2.3150543053
 11
5.1451331321
 21
1.9400543053
  0
LINE
  5
323
100
AcDbEntity
  8
ALL_ASSEMBLY_MEMBERS
100
AcDbLine
 62
7
  6
CONTINUOUS
 10
5.1546897004
 20
1.9270486047
 11
5.1546897004
 21
2.328060006
  0
LINE
  5
324
100
AcDbEntity
  8
ALL_ASSEMBLY_MEMBERS
100
AcDbLine
 62
7
  6
CONTINUOUS
 10
5.1547957628
 20
2.3150543053
 11
5.1547957628
 21
1.9400543053
  0
LINE
  5
325
100
AcDbEntity
  8
ALL_ASSEMBLY_MEMBERS
100
AcDbLine
 62
7
  6
CONTINUOUS
 10
5.1644673661
 20
2.3150543053
 11
5.1644673661
 21
1.9400543053
  0
LINE
  5
326
100
AcDbEntity
  8
ALL_ASSEMBLY_MEMBERS
100
AcDbLine
 62
7
  6
CONTINUOUS
 10
5.1738021938
 20
1.9270486047
 11
5.1738021938
 21
2.328060006
  0
LINE
  5
327
100
AcDbEntity
  8
ALL_ASSEMBLY_MEMBERS
100
AcDbLine
 62
7
  6
CONTINUOUS
 10
5.1748607363
 20
2.3150543053
 11
5.1748607363
 21
1.9400543053
  0
LINE
  5
328
100
AcDbEntity
  8
ALL_ASSEMBLY_MEMBERS
100
AcDbLine
 62
7
  6
CONTINUOUS
 10
5.1851888403
 20
2.3150543053
 11
5.1851888403
 21
1.9400543053
  0
LINE
  5
329
100
AcDbEntity
  8
ALL_ASSEMBLY_MEMBERS
100
AcDbLine
 62
7
  6
CONTINUOUS
 10
5.1942120279
 20
1.9270486047
 11
5.1942120279
 21
2.328060006
  0
LINE
  5
32A
100
AcDbEntity
  8
ALL_ASSEMBLY_MEMBERS
100
AcDbLine
 62
7
  6
CONTINUOUS
 10
5.1962128561
 20
2.3150543053
 11
5.1962128561
 21
1.9400543053
  0
LINE
  5
32B
100
AcDbEntity
  8
ALL_ASSEMBLY_MEMBERS
100
AcDbLine
 62
7
  6
CONTINUOUS
 10
5.2070979954
 20
2.3150543053
 11
5.2070979954
 21
1.9400543053
  0
LINE
  5
32C
100
AcDbEntity
  8
ALL_ASSEMBLY_MEMBERS
100
AcDbLine
 62
7
  6
CONTINUOUS
 10
5.2157226447
 20
1.9270486047
 11
5.2157226447
 21
2.328060006
  0
LINE
  5
32D
100
AcDbEntity
  8
ALL_ASSEMBLY_MEMBERS
100
AcDbLine
 62
7
  6
CONTINUOUS
 10
5.2186464896
 20
2.3150543053
 11
5.2186464896
 21
1.9400543053
  0
LINE
  5
32E
100
AcDbEntity
  8
ALL_ASSEMBLY_MEMBERS
100
AcDbLine
 62
7
  6
CONTINUOUS
 10
5.2299838344
 20
2.3150543053
 11
5.2299838344
 21
1.9400543053
  0
LINE
  5
32F
100
AcDbEntity
  8
ALL_ASSEMBLY_MEMBERS
100
AcDbLine
 62
7
  6
CONTINUOUS
 10
5.2381268853
 20
1.9270486047
 11
5.2381268853
 21
2.328060006
  0
LINE
  5
330
100
AcDbEntity
  8
ALL_ASSEMBLY_MEMBERS
100
AcDbLine
 62
7
  6
CONTINUOUS
 10
5.2419455886
 20
2.3150543053
 11
5.2419455886
 21
1.9400543053
  0
LINE
  5
331
100
AcDbEntity
  8
ALL_ASSEMBLY_MEMBERS
100
AcDbLine
 62
7
  6
CONTINUOUS
 10
5.2536259541
 20
2.3150543053
 11
5.2536259541
 21
1.9400543053
  0
LINE
  5
332
100
AcDbEntity
  8
ALL_ASSEMBLY_MEMBERS
100
AcDbLine
 62
7
  6
CONTINUOUS
 10
5.2612089845
 20
1.9270486047
 11
5.2612089845
 21
2.328060006
  0
LINE
  5
333
100
AcDbEntity
  8
ALL_ASSEMBLY_MEMBERS
100
AcDbLine
 62
7
  6
CONTINUOUS
 10
5.2658857701
 20
2.3150543053
 11
5.2658857701
 21
1.9400543053
  0
LINE
  5
334
100
AcDbEntity
  8
ALL_ASSEMBLY_MEMBERS
100
AcDbLine
 62
7
  6
CONTINUOUS
 10
5.2777966679
 20
2.3150543053
 11
5.2777966679
 21
1.9400543053
  0
LINE
  5
335
100
AcDbEntity
  8
ALL_ASSEMBLY_MEMBERS
100
AcDbLine
 62
7
  6
CONTINUOUS
 10
5.2847466492
 20
1.9270486047
 11
5.2847466492
 21
2.328060006
  0
LINE
  5
336
100
AcDbEntity
  8
ALL_ASSEMBLY_MEMBERS
100
AcDbLine
 62
7
  6
CONTINUOUS
 10
5.290236477
 20
2.3150543053
 11
5.290236477
 21
1.9400543053
  0
LINE
  5
337
100
AcDbEntity
  8
ALL_ASSEMBLY_MEMBERS
100
AcDbLine
 62
7
  6
CONTINUOUS
 10
5.3022631988
 20
2.3150543053
 11
5.3022631988
 21
1.9400543053
  0
LINE
  5
338
100
AcDbEntity
  8
ALL_ASSEMBLY_MEMBERS
100
AcDbLine
 62
7
  6
CONTINUOUS
 10
5.3085131988
 20
1.9270486047
 11
5.3085131988
 21
2.328060006
  0
LINE
  5
339
100
AcDbEntity
  8
ALL_ASSEMBLY_MEMBERS
100
AcDbLine
 62
7
  6
CONTINUOUS
 10
5.3147631988
 20
2.3150543053
 11
5.3147631988
 21
1.9400543053
  0
LINE
  5
33A
100
AcDbEntity
  8
ALL_ASSEMBLY_MEMBERS
100
AcDbLine
 62
7
  6
CONTINUOUS
 10
5.3267899205
 20
2.3150543053
 11
5.3267899205
 21
1.9400543053
  0
LINE
  5
33B
100
AcDbEntity
  8
ALL_ASSEMBLY_MEMBERS
100
AcDbLine
 62
7
  6
CONTINUOUS
 10
5.3322797483
 20
1.9270486047
 11
5.3322797483
 21
2.328060006
  0
LINE
  5
33C
100
AcDbEntity
  8
ALL_ASSEMBLY_MEMBERS
100
AcDbLine
 62
7
  6
CONTINUOUS
 10
5.3392297296
 20
2.3150543053
 11
5.3392297296
 21
1.9400543053
  0
LINE
  5
33D
100
AcDbEntity
  8
ALL_ASSEMBLY_MEMBERS
100
AcDbLine
 62
7
  6
CONTINUOUS
 10
5.1030079221
 20
3.8227739932
 11
5.1027655141
 21
3.8130537414
  0
LINE
  5
33E
100
AcDbEntity
  8
ALL_ASSEMBLY_MEMBERS
100
AcDbLine
 62
7
  6
CONTINUOUS
 10
5.0840605044
 20
3.3131518317
 11
5.0835758392
 21
3.3034406446
  0
LINE
  5
33F
100
AcDbEntity
  8
ALL_ASSEMBLY_MEMBERS
100
AcDbLine
 62
7
  6
CONTINUOUS
 10
5.1235892738
 20
3.8373828232
 11
5.1226211484
 21
3.8277078664
  0
LINE
  5
340
100
AcDbEntity
  8
ALL_ASSEMBLY_MEMBERS
100
AcDbLine
 62
7
  6
CONTINUOUS
 10
5.0666107251
 20
3.330601611
 11
5.0654016972
 21
3.3209537974
  0
LINE
  5
341
100
AcDbEntity
  8
ALL_ASSEMBLY_MEMBERS
100
AcDbLine
 62
7
  6
CONTINUOUS
 10
5.1452047952
 20
3.8504127576
 11
5.1435163664
 21
3.8408372021
  0
LINE
  5
342
100
AcDbEntity
  8
ALL_ASSEMBLY_MEMBERS
100
AcDbLine
 62
7
  6
CONTINUOUS
 10
5.0505137627
 20
3.3493066207
 11
5.0485871334
 21
3.3397761351
  0
LINE
  5
343
100
AcDbEntity
  8
ALL_ASSEMBLY_MEMBERS
100
AcDbLine
 62
7
  6
CONTINUOUS
 10
5.1677336034
 20
3.8617909278
 11
5.1653343136
 21
3.8523683239
  0
LINE
  5
344
100
AcDbEntity
  8
ALL_ASSEMBLY_MEMBERS
100
AcDbLine
 62
7
  6
CONTINUOUS
 10
7.0372073716
 20
6.5312877558
 11
7.0304073852
 21
6.5243377745
  0
LINE
  5
345
100
AcDbEntity
  8
ALL_ASSEMBLY_MEMBERS
100
AcDbLine
 62
7
  6
CONTINUOUS
 10
7.3092297296
 20
6.8031601189
 11
7.3022797483
 21
6.7963601325
  0
LINE
  5
346
100
AcDbEntity
  8
ALL_ASSEMBLY_MEMBERS
100
AcDbLine
 62
7
  6
CONTINUOUS
 10
7.5209866016
 20
6.5550543053
 11
7.5284350615
 21
6.5613043053
  0
LINE
  5
347
100
AcDbEntity
  8
ALL_ASSEMBLY_MEMBERS
100
AcDbLine
 62
7
  6
CONTINUOUS
 10
7.2236259541
 20
6.3111539356
 11
7.2312089845
 21
6.3172399609
  0
LINE
  5
348
100
AcDbEntity
  8
ALL_ASSEMBLY_MEMBERS
100
AcDbLine
 62
7
  6
CONTINUOUS
 10
3.3647797483
 20
6.3137484782
 11
3.3717297296
 21
6.3069484918
  0
LINE
  5
349
100
AcDbEntity
  8
ALL_ASSEMBLY_MEMBERS
100
AcDbLine
 62
7
  6
CONTINUOUS
 10
3.0929073852
 20
6.5857708362
 11
3.0997073716
 21
6.5788208549
  0
LINE
  5
34A
100
AcDbEntity
  8
ALL_ASSEMBLY_MEMBERS
100
AcDbLine
 62
7
  6
CONTINUOUS
 10
3.3410131988
 20
6.7975277082
 11
3.3347631988
 21
6.8049761681
  0
LINE
  5
34B
100
AcDbEntity
  8
ALL_ASSEMBLY_MEMBERS
100
AcDbLine
 62
7
  6
CONTINUOUS
 10
3.5849135685
 20
6.5001670606
 11
3.5788275431
 21
6.5077500911
  0
LINE
  5
34C
100
AcDbEntity
  8
ALL_ASSEMBLY_MEMBERS
100
AcDbLine
 62
7
  6
CONTINUOUS
 10
5.3819436972
 20
3.8767743399
 11
5.377507836
 21
3.8854268073
  0
LINE
  5
34D
100
AcDbEntity
  8
ALL_ASSEMBLY_MEMBERS
100
AcDbLine
 62
7
  6
CONTINUOUS
 10
5.6098262744
 20
3.4030125991
 11
5.6058272173
 21
3.4118754202
  0
LINE
  5
34E
100
AcDbEntity
  8
ALL_ASSEMBLY_MEMBERS
100
AcDbLine
 62
7
  6
CONTINUOUS
 10
5.405780539
 20
3.8703872774
 11
5.402003681
 21
3.879347043
  0
LINE
  5
34F
100
AcDbEntity
  8
ALL_ASSEMBLY_MEMBERS
100
AcDbLine
 62
7
  6
CONTINUOUS
 10
5.597621651
 20
3.3809205842
 11
5.5942960955
 21
3.390057473
  0
LINE
  5
350
100
AcDbEntity
  8
ALL_ASSEMBLY_MEMBERS
100
AcDbLine
 62
7
  6
CONTINUOUS
 10
5.4290734223
 20
3.862236745
 11
5.4259766893
 21
3.8714537023
  0
LINE
  5
351
100
AcDbEntity
  8
ALL_ASSEMBLY_MEMBERS
100
AcDbLine
 62
7
  6
CONTINUOUS
 10
5.5838002159
 20
3.3598023957
 11
5.5811667598
 21
3.369162255
  0
LINE
  5
352
100
AcDbEntity
  8
ALL_ASSEMBLY_MEMBERS
100
AcDbLine
 62
7
  6
CONTINUOUS
 10
5.4516920839
 20
3.8523683239
 11
5.4492927941
 21
3.8617909278
  0
LINE
  5
353
100
AcDbEntity
  8
ALL_ASSEMBLY_MEMBERS
100
AcDbLine
 62
7
  6
CONTINUOUS
 10
5.5684392641
 20
3.3397761351
 11
5.5665126348
 21
3.3493066207
  0
LINE
  5
354
100
AcDbEntity
  8
ALL_ASSEMBLY_MEMBERS
100
AcDbLine
 62
7
  6
CONTINUOUS
 10
5.4944052491
 20
3.8277078664
 11
5.4934371237
 21
3.8373828232
  0
LINE
  5
355
100
AcDbEntity
  8
ALL_ASSEMBLY_MEMBERS
100
AcDbLine
 62
7
  6
CONTINUOUS
 10
5.5334505583
 20
3.3034406446
 11
5.5329658931
 21
3.3131518317
  0
LINE
  5
356
100
AcDbEntity
  8
ALL_ASSEMBLY_MEMBERS
100
AcDbLine
 62
7
  6
CONTINUOUS
 10
5.5142608834
 20
3.8130537414
 11
5.5140184754
 21
3.8227739932
  0
LINE
  5
357
100
AcDbEntity
  8
ALL_ASSEMBLY_MEMBERS
100
AcDbLine
 62
7
  6
CONTINUOUS
 10
5.3511406274
 20
2.3150543053
 11
5.3511406274
 21
1.9400543053
  0
LINE
  5
358
100
AcDbEntity
  8
ALL_ASSEMBLY_MEMBERS
100
AcDbLine
 62
7
  6
CONTINUOUS
 10
5.355817413
 20
1.9270486047
 11
5.355817413
 21
2.328060006
  0
LINE
  5
359
100
AcDbEntity
  8
ALL_ASSEMBLY_MEMBERS
100
AcDbLine
 62
7
  6
CONTINUOUS
 10
5.3634004435
 20
2.3150543053
 11
5.3634004435
 21
1.9400543053
  0
LINE
  5
35A
100
AcDbEntity
  8
ALL_ASSEMBLY_MEMBERS
100
AcDbLine
 62
7
  6
CONTINUOUS
 10
5.3750808089
 20
2.3150543053
 11
5.3750808089
 21
1.9400543053
  0
LINE
  5
35B
100
AcDbEntity
  8
ALL_ASSEMBLY_MEMBERS
100
AcDbLine
 62
7
  6
CONTINUOUS
 10
5.3788995122
 20
1.9270486047
 11
5.3788995122
 21
2.328060006
  0
LINE
  5
35C
100
AcDbEntity
  8
ALL_ASSEMBLY_MEMBERS
100
AcDbLine
 62
7
  6
CONTINUOUS
 10
5.3870425631
 20
2.3150543053
 11
5.3870425631
 21
1.9400543053
  0
LINE
  5
35D
100
AcDbEntity
  8
ALL_ASSEMBLY_MEMBERS
100
AcDbLine
 62
7
  6
CONTINUOUS
 10
5.398379908
 20
2.3150543053
 11
5.398379908
 21
1.9400543053
  0
LINE
  5
35E
100
AcDbEntity
  8
ALL_ASSEMBLY_MEMBERS
100
AcDbLine
 62
7
  6
CONTINUOUS
 10
5.4013037528
 20
1.9270486047
 11
5.4013037528
 21
2.328060006
  0
LINE
  5
35F
100
AcDbEntity
  8
ALL_ASSEMBLY_MEMBERS
100
AcDbLine
 62
7
  6
CONTINUOUS
 10
5.4099284021
 20
2.3150543053
 11
5.4099284021
 21
1.9400543053
  0
LINE
  5
360
100
AcDbEntity
  8
ALL_ASSEMBLY_MEMBERS
100
AcDbLine
 62
7
  6
CONTINUOUS
 10
5.4208135414
 20
2.3150543053
 11
5.4208135414
 21
1.9400543053
  0
LINE
  5
361
100
AcDbEntity
  8
ALL_ASSEMBLY_MEMBERS
100
AcDbLine
 62
7
  6
CONTINUOUS
 10
5.4228143696
 20
1.9270486047
 11
5.4228143696
 21
2.328060006
  0
LINE
  5
362
100
AcDbEntity
  8
ALL_ASSEMBLY_MEMBERS
100
AcDbLine
 62
7
  6
CONTINUOUS
 10
5.4318375572
 20
2.3150543053
 11
5.4318375572
 21
1.9400543053
  0
LINE
  5
363
100
AcDbEntity
  8
ALL_ASSEMBLY_MEMBERS
100
AcDbLine
 62
7
  6
CONTINUOUS
 10
5.4421656612
 20
2.3150543053
 11
5.4421656612
 21
1.9400543053
  0
LINE
  5
364
100
AcDbEntity
  8
ALL_ASSEMBLY_MEMBERS
100
AcDbLine
 62
7
  6
CONTINUOUS
 10
5.4432242037
 20
1.9270486047
 11
5.4432242037
 21
2.328060006
  0
LINE
  5
365
100
AcDbEntity
  8
ALL_ASSEMBLY_MEMBERS
100
AcDbLine
 62
7
  6
CONTINUOUS
 10
5.4525590314
 20
2.3150543053
 11
5.4525590314
 21
1.9400543053
  0
LINE
  5
366
100
AcDbEntity
  8
ALL_ASSEMBLY_MEMBERS
100
AcDbLine
 62
7
  6
CONTINUOUS
 10
5.4622306347
 20
2.3150543053
 11
5.4622306347
 21
1.9400543053
  0
LINE
  5
367
100
AcDbEntity
  8
ALL_ASSEMBLY_MEMBERS
100
AcDbLine
 62
7
  6
CONTINUOUS
 10
5.4623366971
 20
1.9270486047
 11
5.4623366971
 21
2.328060006
  0
LINE
  5
368
100
AcDbEntity
  8
ALL_ASSEMBLY_MEMBERS
100
AcDbLine
 62
7
  6
CONTINUOUS
 10
5.4718932654
 20
2.3150543053
 11
5.4718932654
 21
1.9400543053
  0
LINE
  5
369
100
AcDbEntity
  8
ALL_ASSEMBLY_MEMBERS
100
AcDbLine
 62
7
  6
CONTINUOUS
 10
5.4808152253
 20
2.3150543053
 11
5.4808152253
 21
1.9400543053
  0
LINE
  5
36A
100
AcDbEntity
  8
ALL_ASSEMBLY_MEMBERS
100
AcDbLine
 62
7
  6
CONTINUOUS
 10
5.4896540601
 20
2.3150543053
 11
5.4896540601
 21
1.9400543053
  0
LINE
  5
36B
100
AcDbEntity
  8
ALL_ASSEMBLY_MEMBERS
100
AcDbLine
 62
7
  6
CONTINUOUS
 10
5.4977404532
 20
2.3150543053
 11
5.4977404532
 21
1.9400543053
  0
LINE
  5
36C
100
AcDbEntity
  8
ALL_ASSEMBLY_MEMBERS
100
AcDbLine
 62
7
  6
CONTINUOUS
 10
5.5056703692
 20
2.3150543053
 11
5.5056703692
 21
1.9400543053
  0
LINE
  5
36D
100
AcDbEntity
  8
ALL_ASSEMBLY_MEMBERS
100
AcDbLine
 62
7
  6
CONTINUOUS
 10
5.5128433192
 20
2.3150543053
 11
5.5128433192
 21
1.9400543053
  0
LINE
  5
36E
100
AcDbEntity
  8
ALL_ASSEMBLY_MEMBERS
100
AcDbLine
 62
7
  6
CONTINUOUS
 10
5.5197879471
 20
2.3150543053
 11
5.5197879471
 21
1.9400543053
  0
LINE
  5
36F
100
AcDbEntity
  8
ALL_ASSEMBLY_MEMBERS
100
AcDbLine
 62
7
  6
CONTINUOUS
 10
5.5259783744
 20
2.3150543053
 11
5.5259783744
 21
1.9400543053
  0
LINE
  5
370
100
AcDbEntity
  8
ALL_ASSEMBLY_MEMBERS
100
AcDbLine
 62
7
  6
CONTINUOUS
 10
5.5272631988
 20
3.5550543053
 11
5.5272631988
 21
2.3300543053
  0
LINE
  5
371
100
AcDbEntity
  8
ALL_ASSEMBLY_MEMBERS
100
AcDbLine
 62
7
  6
CONTINUOUS
 10
5.5318708336
 20
2.3150543053
 11
5.5318708336
 21
1.9400543053
  0
LINE
  5
372
100
AcDbEntity
  8
ALL_ASSEMBLY_MEMBERS
100
AcDbLine
 62
7
  6
CONTINUOUS
 10
5.5370191211
 20
2.3150543053
 11
5.5370191211
 21
1.9400543053
  0
LINE
  5
373
100
AcDbEntity
  8
ALL_ASSEMBLY_MEMBERS
100
AcDbLine
 62
7
  6
CONTINUOUS
 10
5.541802664
 20
2.3150543053
 11
5.541802664
 21
1.9400543053
  0
LINE
  5
374
100
AcDbEntity
  8
ALL_ASSEMBLY_MEMBERS
100
AcDbLine
 62
7
  6
CONTINUOUS
 10
5.5458592308
 20
2.3150543053
 11
5.5458592308
 21
1.9400543053
  0
LINE
  5
375
100
AcDbEntity
  8
ALL_ASSEMBLY_MEMBERS
100
AcDbLine
 62
7
  6
CONTINUOUS
 10
5.5494877893
 20
2.3150543053
 11
5.5494877893
 21
1.9400543053
  0
LINE
  5
376
100
AcDbEntity
  8
ALL_ASSEMBLY_MEMBERS
100
AcDbLine
 62
7
  6
CONTINUOUS
 10
5.5524135685
 20
2.3150543053
 11
5.5524135685
 21
1.9400543053
  0
LINE
  5
377
100
AcDbEntity
  8
ALL_ASSEMBLY_MEMBERS
100
AcDbLine
 62
7
  6
CONTINUOUS
 10
5.5548521975
 20
2.3150543053
 11
5.5548521975
 21
1.9400543053
  0
LINE
  5
378
100
AcDbEntity
  8
ALL_ASSEMBLY_MEMBERS
100
AcDbLine
 62
7
  6
CONTINUOUS
 10
5.5566190123
 20
2.3150543053
 11
5.5566190123
 21
1.9400543053
  0
LINE
  5
379
100
AcDbEntity
  8
ALL_ASSEMBLY_MEMBERS
100
AcDbLine
 62
7
  6
CONTINUOUS
 10
5.5578442266
 20
2.3150543053
 11
5.5578442266
 21
1.9400543053
  0
LINE
  5
37A
100
AcDbEntity
  8
ALL_ASSEMBLY_MEMBERS
100
AcDbLine
 62
7
  6
CONTINUOUS
 10
5.5584350615
 20
2.3150543053
 11
5.5584350615
 21
1.9400543053
  0
LINE
  5
37B
100
AcDbEntity
  8
ALL_ASSEMBLY_MEMBERS
100
AcDbLine
 62
7
  6
CONTINUOUS
 10
5.5329658931
 20
3.7969567789
 11
5.5334505583
 21
3.8066679661
  0
LINE
  5
37C
100
AcDbEntity
  8
ALL_ASSEMBLY_MEMBERS
100
AcDbLine
 62
7
  6
CONTINUOUS
 10
5.0358596377
 20
3.369162255
 11
5.0332261816
 21
3.3598023957
  0
LINE
  5
37D
100
AcDbEntity
  8
ALL_ASSEMBLY_MEMBERS
100
AcDbLine
 62
7
  6
CONTINUOUS
 10
5.1910497082
 20
3.8714537023
 11
5.1879529753
 21
3.862236745
  0
LINE
  5
37E
100
AcDbEntity
  8
ALL_ASSEMBLY_MEMBERS
100
AcDbLine
 62
7
  6
CONTINUOUS
 10
5.022730302
 20
3.390057473
 11
5.0194047465
 21
3.3809205842
  0
LINE
  5
37F
100
AcDbEntity
  8
ALL_ASSEMBLY_MEMBERS
100
AcDbLine
 62
7
  6
CONTINUOUS
 10
5.2150227165
 20
3.879347043
 11
5.2112458586
 21
3.8703872774
  0
LINE
  5
380
100
AcDbEntity
  8
ALL_ASSEMBLY_MEMBERS
100
AcDbLine
 62
7
  6
CONTINUOUS
 10
5.0111991802
 20
3.4118754202
 11
5.0072001231
 21
3.4030125991
  0
LINE
  5
381
100
AcDbEntity
  8
ALL_ASSEMBLY_MEMBERS
100
AcDbLine
 62
7
  6
CONTINUOUS
 10
5.2395185615
 20
3.8854268073
 11
5.2350827003
 21
3.8767743399
  0
LINE
  5
382
100
AcDbEntity
  8
ALL_ASSEMBLY_MEMBERS
100
AcDbLine
 62
7
  6
CONTINUOUS
 10
5.0013307591
 20
3.4344940818
 11
4.9966805646
 21
3.4259548929
  0
LINE
  5
383
100
AcDbEntity
  8
ALL_ASSEMBLY_MEMBERS
100
AcDbLine
 62
7
  6
CONTINUOUS
 10
5.2644002525
 20
3.8896589944
 11
5.2593301951
 21
3.8813622135
  0
LINE
  5
384
100
AcDbEntity
  8
ALL_ASSEMBLY_MEMBERS
100
AcDbLine
 62
7
  6
CONTINUOUS
 10
4.9931802267
 20
3.4577869651
 11
4.9879049007
 21
3.449619163
  0
LINE
  5
385
100
AcDbEntity
  8
ALL_ASSEMBLY_MEMBERS
100
AcDbLine
 62
7
  6
CONTINUOUS
 10
7.260236477
 20
6.8043853332
 11
7.2547466492
 21
6.7963601325
  0
LINE
  5
386
100
AcDbEntity
  8
ALL_ASSEMBLY_MEMBERS
100
AcDbLine
 62
7
  6
CONTINUOUS
 10
7.0406988544
 20
6.5077500911
 11
7.034612829
 21
6.5001670606
  0
LINE
  5
387
100
AcDbEntity
  8
ALL_ASSEMBLY_MEMBERS
100
AcDbLine
 62
7
  6
CONTINUOUS
 10
7.2847631988
 20
6.8049761681
 11
7.2785131988
 21
6.7975277082
  0
LINE
  5
388
100
AcDbEntity
  8
ALL_ASSEMBLY_MEMBERS
100
AcDbLine
 62
7
  6
CONTINUOUS
 10
7.5198190259
 20
6.5788208549
 11
7.5266190123
 21
6.5857708362
  0
LINE
  5
389
100
AcDbEntity
  8
ALL_ASSEMBLY_MEMBERS
100
AcDbLine
 62
7
  6
CONTINUOUS
 10
7.2477966679
 20
6.3069484918
 11
7.2547466492
 21
6.3137484782
  0
LINE
  5
38A
100
AcDbEntity
  8
ALL_ASSEMBLY_MEMBERS
100
AcDbLine
 62
7
  6
CONTINUOUS
 10
3.388317413
 20
6.3172399609
 11
3.3959004435
 21
6.3111539356
  0
LINE
  5
38B
100
AcDbEntity
  8
ALL_ASSEMBLY_MEMBERS
100
AcDbLine
 62
7
  6
CONTINUOUS
 10
3.091091336
 20
6.5613043053
 11
3.0985397959
 21
6.5550543053
  0
LINE
  5
38C
100
AcDbEntity
  8
ALL_ASSEMBLY_MEMBERS
100
AcDbLine
 62
7
  6
CONTINUOUS
 10
3.3172466492
 20
6.7963601325
 11
3.3102966679
 21
6.8031601189
  0
LINE
  5
38D
100
AcDbEntity
  8
ALL_ASSEMBLY_MEMBERS
100
AcDbLine
 62
7
  6
CONTINUOUS
 10
3.5891190123
 20
6.5243377745
 11
3.5823190259
 21
6.5312877558
  0
LINE
  5
38E
100
AcDbEntity
  8
ALL_ASSEMBLY_MEMBERS
100
AcDbLine
 62
7
  6
CONTINUOUS
 10
5.4735100311
 20
3.8408372021
 11
5.4718216023
 21
3.8504127576
  0
LINE
  5
38F
100
AcDbEntity
  8
ALL_ASSEMBLY_MEMBERS
100
AcDbLine
 62
7
  6
CONTINUOUS
 10
5.5516247003
 20
3.3209537974
 11
5.5504156724
 21
3.330601611
  0
LINE
  5
390
100
AcDbEntity
  8
ALL_ASSEMBLY_MEMBERS
100
AcDbLine
 62
7
  6
CONTINUOUS
 10
5.5504156724
 20
3.7795069997
 11
5.5516247003
 21
3.7891548133
  0
LINE
  5
391
100
AcDbEntity
  8
ALL_ASSEMBLY_MEMBERS
100
AcDbLine
 62
7
  6
CONTINUOUS
 10
5.5665126348
 20
3.76080199
 11
5.5684392641
 21
3.7703324756
  0
LINE
  5
392
100
AcDbEntity
  8
ALL_ASSEMBLY_MEMBERS
100
AcDbLine
 62
7
  6
CONTINUOUS
 10
5.5811667598
 20
3.7409463557
 11
5.5838002159
 21
3.7503062149
  0
LINE
  5
393
100
AcDbEntity
  8
ALL_ASSEMBLY_MEMBERS
100
AcDbLine
 62
7
  6
CONTINUOUS
 10
5.5942960955
 20
3.7200511377
 11
5.597621651
 21
3.7291880264
  0
LINE
  5
394
100
AcDbEntity
  8
ALL_ASSEMBLY_MEMBERS
100
AcDbLine
 62
7
  6
CONTINUOUS
 10
7.2358857701
 20
6.8013933041
 11
7.2312089845
 21
6.7928686497
  0
LINE
  5
395
100
AcDbEntity
  8
ALL_ASSEMBLY_MEMBERS
100
AcDbLine
 62
7
  6
CONTINUOUS
 10
7.0464806192
 20
6.4846679919
 11
7.0411671667
 21
6.476524941
  0
LINE
  5
396
100
AcDbEntity
  8
ALL_ASSEMBLY_MEMBERS
100
AcDbLine
 62
7
  6
CONTINUOUS
 10
5.2895286409
 20
3.8920199365
 11
5.2838527413
 21
3.8841252408
  0
LINE
  5
397
100
AcDbEntity
  8
ALL_ASSEMBLY_MEMBERS
100
AcDbLine
 62
7
  6
CONTINUOUS
 10
4.9867931642
 20
3.4816238069
 11
4.9809222085
 21
3.4738730692
  0
LINE
  5
398
100
AcDbEntity
  8
ALL_ASSEMBLY_MEMBERS
100
AcDbLine
 62
7
  6
CONTINUOUS
 10
7.5163275431
 20
6.6023585196
 11
7.5224135685
 21
6.60994155
  0
LINE
  5
399
100
AcDbEntity
  8
ALL_ASSEMBLY_MEMBERS
100
AcDbLine
 62
7
  6
CONTINUOUS
 10
7.2722631988
 20
6.3051324426
 11
7.2785131988
 21
6.3125809025
  0
LINE
  5
39A
100
AcDbEntity
  8
ALL_ASSEMBLY_MEMBERS
100
AcDbLine
 62
7
  6
CONTINUOUS
 10
5.3147631988
 20
3.89249643
 11
5.3085131988
 21
3.8850479701
  0
LINE
  5
39B
100
AcDbEntity
  8
ALL_ASSEMBLY_MEMBERS
100
AcDbLine
 62
7
  6
CONTINUOUS
 10
4.9822052906
 20
3.5058713017
 11
4.975771538
 21
3.4985809737
  0
LINE
  5
39C
100
AcDbEntity
  8
ALL_ASSEMBLY_MEMBERS
100
AcDbLine
 62
7
  6
CONTINUOUS
 10
5.339962804
 20
3.8910858103
 11
5.3331736562
 21
3.8841252408
  0
LINE
  5
39D
100
AcDbEntity
  8
ALL_ASSEMBLY_MEMBERS
100
AcDbLine
 62
7
  6
CONTINUOUS
 10
4.9794422633
 20
3.5303938479
 11
4.9724816938
 21
3.5236047001
  0
LINE
  5
39E
100
AcDbEntity
  8
ALL_ASSEMBLY_MEMBERS
100
AcDbLine
 62
7
  6
CONTINUOUS
 10
5.3649865304
 20
3.8877959661
 11
5.3576962024
 21
3.8813622135
  0
LINE
  5
39F
100
AcDbEntity
  8
ALL_ASSEMBLY_MEMBERS
100
AcDbLine
 62
7
  6
CONTINUOUS
 10
4.978519534
 20
3.5550543053
 11
4.9710710741
 21
3.5488043053
  0
LINE
  5
3A0
100
AcDbEntity
  8
ALL_ASSEMBLY_MEMBERS
100
AcDbLine
 62
7
  6
CONTINUOUS
 10
5.3896944349
 20
3.8826452956
 11
5.3819436972
 21
3.8767743399
  0
LINE
  5
3A1
100
AcDbEntity
  8
ALL_ASSEMBLY_MEMBERS
100
AcDbLine
 62
7
  6
CONTINUOUS
 10
4.9794422633
 20
3.5797147628
 11
4.9715475676
 21
3.5740388632
  0
LINE
  5
3A2
100
AcDbEntity
  8
ALL_ASSEMBLY_MEMBERS
100
AcDbLine
 62
7
  6
CONTINUOUS
 10
5.4139483411
 20
3.8756626034
 11
5.405780539
 21
3.8703872774
  0
LINE
  5
3A3
100
AcDbEntity
  8
ALL_ASSEMBLY_MEMBERS
100
AcDbLine
 62
7
  6
CONTINUOUS
 10
3.4113995122
 20
6.3230217258
 11
3.4195425631
 21
6.3177082733
  0
LINE
  5
3A4
100
AcDbEntity
  8
ALL_ASSEMBLY_MEMBERS
100
AcDbLine
 62
7
  6
CONTINUOUS
 10
3.0916821709
 20
6.5367775836
 11
3.0997073716
 21
6.5312877558
  0
LINE
  5
3A5
100
AcDbEntity
  8
ALL_ASSEMBLY_MEMBERS
100
AcDbLine
 62
7
  6
CONTINUOUS
 10
3.2937089845
 20
6.7928686497
 11
3.2861259541
 21
6.7989546751
  0
LINE
  5
3A6
100
AcDbEntity
  8
ALL_ASSEMBLY_MEMBERS
100
AcDbLine
 62
7
  6
CONTINUOUS
 10
3.5909350615
 20
6.5488043053
 11
3.5834866016
 21
6.5550543053
  0
LINE
  5
3A7
100
AcDbEntity
  8
ALL_ASSEMBLY_MEMBERS
100
AcDbLine
 62
7
  6
CONTINUOUS
 10
7.2119455886
 20
6.7960288959
 11
7.2081268853
 21
6.7870868849
  0
LINE
  5
3A8
100
AcDbEntity
  8
ALL_ASSEMBLY_MEMBERS
100
AcDbLine
 62
7
  6
CONTINUOUS
 10
5.6058272173
 20
3.6982331905
 11
5.6098262744
 21
3.7070960116
  0
LINE
  5
3A9
100
AcDbEntity
  8
ALL_ASSEMBLY_MEMBERS
100
AcDbLine
 62
7
  6
CONTINUOUS
 10
7.0544969847
 20
6.4622637513
 11
7.0500072765
 21
6.453639102
  0
LINE
  5
3AA
100
AcDbEntity
  8
ALL_ASSEMBLY_MEMBERS
100
AcDbLine
 62
7
  6
CONTINUOUS
 10
5.6156956385
 20
3.6756145288
 11
5.6203458329
 21
3.6841537178
  0
LINE
  5
3AB
100
AcDbEntity
  8
ALL_ASSEMBLY_MEMBERS
100
AcDbLine
 62
7
  6
CONTINUOUS
 10
5.6238461708
 20
3.6523216455
 11
5.6291214968
 21
3.6604894477
  0
LINE
  5
3AC
100
AcDbEntity
  8
ALL_ASSEMBLY_MEMBERS
100
AcDbLine
 62
7
  6
CONTINUOUS
 10
7.5105457783
 20
6.6254406188
 11
7.5158592308
 21
6.6335836697
  0
LINE
  5
3AD
100
AcDbEntity
  8
ALL_ASSEMBLY_MEMBERS
100
AcDbLine
 62
7
  6
CONTINUOUS
 10
7.2967899205
 20
6.3057232775
 11
7.3022797483
 21
6.3137484782
  0
LINE
  5
3AE
100
AcDbEntity
  8
ALL_ASSEMBLY_MEMBERS
100
AcDbLine
 62
7
  6
CONTINUOUS
 10
5.6302332333
 20
3.6284848038
 11
5.636104189
 21
3.6362355415
  0
LINE
  5
3AF
100
AcDbEntity
  8
ALL_ASSEMBLY_MEMBERS
100
AcDbLine
 62
7
  6
CONTINUOUS
 10
5.6348211069
 20
3.604237309
 11
5.6412548595
 21
3.611527637
  0
LINE
  5
3B0
100
AcDbEntity
  8
ALL_ASSEMBLY_MEMBERS
100
AcDbLine
 62
7
  6
CONTINUOUS
 10
4.9822052906
 20
3.604237309
 11
4.9739085097
 21
3.5991672516
  0
LINE
  5
3B1
100
AcDbEntity
  8
ALL_ASSEMBLY_MEMBERS
100
AcDbLine
 62
7
  6
CONTINUOUS
 10
5.4376126112
 20
3.8668869395
 11
5.4290734223
 21
3.862236745
  0
LINE
  5
3B2
100
AcDbEntity
  8
ALL_ASSEMBLY_MEMBERS
100
AcDbLine
 62
7
  6
CONTINUOUS
 10
4.9867931642
 20
3.6284848038
 11
4.9781406968
 21
3.6240489426
  0
LINE
  5
3B3
100
AcDbEntity
  8
ALL_ASSEMBLY_MEMBERS
100
AcDbLine
 62
7
  6
CONTINUOUS
 10
5.460554905
 20
3.856367381
 11
5.4516920839
 21
3.8523683239
  0
LINE
  5
3B4
100
AcDbEntity
  8
ALL_ASSEMBLY_MEMBERS
100
AcDbLine
 62
7
  6
CONTINUOUS
 10
4.9931802267
 20
3.6523216455
 11
4.9842204611
 21
3.6485447876
  0
LINE
  5
3B5
100
AcDbEntity
  8
ALL_ASSEMBLY_MEMBERS
100
AcDbLine
 62
7
  6
CONTINUOUS
 10
5.4826469199
 20
3.8441627576
 11
5.4735100311
 21
3.8408372021
  0
LINE
  5
3B6
100
AcDbEntity
  8
ALL_ASSEMBLY_MEMBERS
100
AcDbLine
 62
7
  6
CONTINUOUS
 10
5.0013307591
 20
3.6756145288
 11
4.9921138018
 21
3.6725177959
  0
LINE
  5
3B7
100
AcDbEntity
  8
ALL_ASSEMBLY_MEMBERS
100
AcDbLine
 62
7
  6
CONTINUOUS
 10
3.4338037528
 20
6.3310380913
 11
3.4424284021
 21
6.326548383
  0
LINE
  5
3B8
100
AcDbEntity
  8
ALL_ASSEMBLY_MEMBERS
100
AcDbLine
 62
7
  6
CONTINUOUS
 10
3.0946742
 20
6.5124268767
 11
3.1031988544
 21
6.5077500911
  0
LINE
  5
3B9
100
AcDbEntity
  8
ALL_ASSEMBLY_MEMBERS
100
AcDbLine
 62
7
  6
CONTINUOUS
 10
3.2706268853
 20
6.7870868849
 11
3.2624838344
 21
6.7924003374
  0
LINE
  5
3BA
100
AcDbEntity
  8
ALL_ASSEMBLY_MEMBERS
100
AcDbLine
 62
7
  6
CONTINUOUS
 10
3.5903442266
 20
6.5733310271
 11
3.5823190259
 21
6.5788208549
  0
LINE
  5
3BB
100
AcDbEntity
  8
ALL_ASSEMBLY_MEMBERS
100
AcDbLine
 62
7
  6
CONTINUOUS
 10
7.0769039325
 20
6.4203433004
 11
7.0741830784
 21
6.4110084727
  0
LINE
  5
3BC
100
AcDbEntity
  8
ALL_ASSEMBLY_MEMBERS
100
AcDbLine
 62
7
  6
CONTINUOUS
 10
7.1886464896
 20
6.7883437705
 11
7.1857226447
 21
6.7790705194
  0
LINE
  5
3BD
100
AcDbEntity
  8
ALL_ASSEMBLY_MEMBERS
100
AcDbLine
 62
7
  6
CONTINUOUS
 10
7.0646707488
 20
6.4407531345
 11
7.0610480231
 21
6.4317299469
  0
LINE
  5
3BE
100
AcDbEntity
  8
ALL_ASSEMBLY_MEMBERS
100
AcDbLine
 62
7
  6
CONTINUOUS
 10
7.3450808089
 20
6.3140797148
 11
7.3488995122
 21
6.3230217258
  0
LINE
  5
3BF
100
AcDbEntity
  8
ALL_ASSEMBLY_MEMBERS
100
AcDbLine
 62
7
  6
CONTINUOUS
 10
7.5025294128
 20
6.6478448594
 11
7.5070191211
 21
6.6564695087
  0
LINE
  5
3C0
100
AcDbEntity
  8
ALL_ASSEMBLY_MEMBERS
100
AcDbLine
 62
7
  6
CONTINUOUS
 10
7.3211406274
 20
6.3087153066
 11
7.325817413
 21
6.3172399609
  0
LINE
  5
3C1
100
AcDbEntity
  8
ALL_ASSEMBLY_MEMBERS
100
AcDbLine
 62
7
  6
CONTINUOUS
 10
5.6375841343
 20
3.5797147628
 11
5.6445447037
 21
3.5865039106
  0
LINE
  5
3C2
100
AcDbEntity
  8
ALL_ASSEMBLY_MEMBERS
100
AcDbLine
 62
7
  6
CONTINUOUS
 10
5.6385068635
 20
3.5550543053
 11
5.6459553234
 21
3.5613043053
  0
LINE
  5
3C3
100
AcDbEntity
  8
ALL_ASSEMBLY_MEMBERS
100
AcDbLine
 62
7
  6
CONTINUOUS
 10
5.6375841343
 20
3.5303938479
 11
5.6454788299
 21
3.5360697475
  0
LINE
  5
3C4
100
AcDbEntity
  8
ALL_ASSEMBLY_MEMBERS
100
AcDbLine
 62
7
  6
CONTINUOUS
 10
5.6348211069
 20
3.5058713017
 11
5.6431178879
 21
3.510941359
  0
LINE
  5
3C5
100
AcDbEntity
  8
ALL_ASSEMBLY_MEMBERS
100
AcDbLine
 62
7
  6
CONTINUOUS
 10
5.6302332333
 20
3.4816238069
 11
5.6388857007
 21
3.4860596681
  0
LINE
  5
3C6
100
AcDbEntity
  8
ALL_ASSEMBLY_MEMBERS
100
AcDbLine
 62
7
  6
CONTINUOUS
 10
5.6238461708
 20
3.4577869651
 11
5.6328059365
 21
3.4615638231
  0
LINE
  5
3C7
100
AcDbEntity
  8
ALL_ASSEMBLY_MEMBERS
100
AcDbLine
 62
7
  6
CONTINUOUS
 10
5.6156956385
 20
3.4344940818
 11
5.6249125957
 21
3.4375908148
  0
LINE
  5
3C8
100
AcDbEntity
  8
ALL_ASSEMBLY_MEMBERS
100
AcDbLine
 62
7
  6
CONTINUOUS
 10
3.4553143696
 20
6.3412118553
 11
3.4643375572
 21
6.3375891297
  0
LINE
  5
3C9
100
AcDbEntity
  8
ALL_ASSEMBLY_MEMBERS
100
AcDbLine
 62
7
  6
CONTINUOUS
 10
3.1000034271
 20
6.4885017193
 11
3.1089806192
 21
6.4846679919
  0
LINE
  5
3CA
100
AcDbEntity
  8
ALL_ASSEMBLY_MEMBERS
100
AcDbLine
 62
7
  6
CONTINUOUS
 10
3.2482226447
 20
6.7790705194
 11
3.2395979954
 21
6.7835602276
  0
LINE
  5
3CB
100
AcDbEntity
  8
ALL_ASSEMBLY_MEMBERS
100
AcDbLine
 62
7
  6
CONTINUOUS
 10
3.5873521975
 20
6.597681734
 11
3.5788275431
 21
6.6023585196
  0
LINE
  5
3CC
100
AcDbEntity
  8
ALL_ASSEMBLY_MEMBERS
100
AcDbLine
 62
7
  6
CONTINUOUS
 10
7.0910787237
 20
6.401230807
 11
7.0892859443
 21
6.3916742387
  0
LINE
  5
3CD
100
AcDbEntity
  8
ALL_ASSEMBLY_MEMBERS
100
AcDbLine
 62
7
  6
CONTINUOUS
 10
7.1662128561
 20
6.7784119402
 11
7.1642120279
 21
6.7688967553
  0
LINE
  5
3CE
100
AcDbEntity
  8
ALL_ASSEMBLY_MEMBERS
100
AcDbLine
 62
7
  6
CONTINUOUS
 10
7.368379908
 20
6.3217648401
 11
7.3713037528
 21
6.3310380913
  0
LINE
  5
3CF
100
AcDbEntity
  8
ALL_ASSEMBLY_MEMBERS
100
AcDbLine
 62
7
  6
CONTINUOUS
 10
7.4923556488
 20
6.6693554762
 11
7.4959783744
 21
6.6783786638
  0
LINE
  5
3D0
100
AcDbEntity
  8
ALL_ASSEMBLY_MEMBERS
100
AcDbLine
 62
7
  6
CONTINUOUS
 10
7.4923556488
 20
6.4407531345
 11
7.5018708336
 21
6.4427539627
  0
LINE
  5
3D1
100
AcDbEntity
  8
ALL_ASSEMBLY_MEMBERS
100
AcDbLine
 62
7
  6
CONTINUOUS
 10
3.1176555639
 20
6.4427539627
 11
3.1271707488
 21
6.4407531345
  0
LINE
  5
3D2
100
AcDbEntity
  8
ALL_ASSEMBLY_MEMBERS
100
AcDbLine
 62
7
  6
CONTINUOUS
 10
3.4757242037
 20
6.3534450391
 11
3.4850590314
 21
6.3507241849
  0
LINE
  5
3D3
100
AcDbEntity
  8
ALL_ASSEMBLY_MEMBERS
100
AcDbLine
 62
7
  6
CONTINUOUS
 10
3.1077237335
 20
6.4651875961
 11
3.1169969847
 21
6.4622637513
  0
LINE
  5
3D4
100
AcDbEntity
  8
ALL_ASSEMBLY_MEMBERS
100
AcDbLine
 62
7
  6
CONTINUOUS
 10
3.2267120279
 20
6.7688967553
 11
3.2176888403
 21
6.772519481
  0
LINE
  5
3D5
100
AcDbEntity
  8
ALL_ASSEMBLY_MEMBERS
100
AcDbLine
 62
7
  6
CONTINUOUS
 10
3.5819877893
 20
6.6216219155
 11
3.5730457783
 21
6.6254406188
  0
LINE
  5
3D6
100
AcDbEntity
  8
ALL_ASSEMBLY_MEMBERS
100
AcDbLine
 62
7
  6
CONTINUOUS
 10
7.1070586114
 20
6.3835997179
 11
7.1062111722
 21
6.373913444
  0
LINE
  5
3D7
100
AcDbEntity
  8
ALL_ASSEMBLY_MEMBERS
100
AcDbLine
 62
7
  6
CONTINUOUS
 10
7.1448607363
 20
6.7663290537
 11
7.1438021938
 21
6.7566635716
  0
LINE
  5
3D8
100
AcDbEntity
  8
ALL_ASSEMBLY_MEMBERS
100
AcDbLine
 62
7
  6
CONTINUOUS
 10
7.4659476738
 20
6.7088778037
 11
7.4677404532
 21
6.718434372
  0
LINE
  5
3D9
100
AcDbEntity
  8
ALL_ASSEMBLY_MEMBERS
100
AcDbLine
 62
7
  6
CONTINUOUS
 10
7.3908135414
 20
6.3316966705
 11
7.3928143696
 21
6.3412118553
  0
LINE
  5
3DA
100
AcDbEntity
  8
ALL_ASSEMBLY_MEMBERS
100
AcDbLine
 62
7
  6
CONTINUOUS
 10
7.480122465
 20
6.6897653103
 11
7.4828433192
 21
6.699100138
  0
LINE
  5
3DB
100
AcDbEntity
  8
ALL_ASSEMBLY_MEMBERS
100
AcDbLine
 62
7
  6
CONTINUOUS
 10
7.1151331321
 20
6.3658270509
 11
7.1246897004
 21
6.3676198303
  0
LINE
  5
3DC
100
AcDbEntity
  8
ALL_ASSEMBLY_MEMBERS
100
AcDbLine
 62
7
  6
CONTINUOUS
 10
7.480122465
 20
6.4203433004
 11
7.4897879471
 21
6.4214018429
  0
LINE
  5
3DD
100
AcDbEntity
  8
ALL_ASSEMBLY_MEMBERS
100
AcDbLine
 62
7
  6
CONTINUOUS
 10
7.0973723374
 20
6.3827522788
 11
7.1070586114
 21
6.3835997179
  0
LINE
  5
3DE
100
AcDbEntity
  8
ALL_ASSEMBLY_MEMBERS
100
AcDbLine
 62
7
  6
CONTINUOUS
 10
3.5124677862
 20
6.3835997179
 11
3.5221540601
 21
6.3827522788
  0
LINE
  5
3DF
100
AcDbEntity
  8
ALL_ASSEMBLY_MEMBERS
100
AcDbLine
 62
7
  6
CONTINUOUS
 10
3.1297384504
 20
6.4214018429
 11
3.1394039325
 21
6.4203433004
  0
LINE
  5
3E0
100
AcDbEntity
  8
ALL_ASSEMBLY_MEMBERS
100
AcDbLine
 62
7
  6
CONTINUOUS
 10
3.4948366971
 20
6.3676198303
 11
3.5043932654
 21
6.3658270509
  0
LINE
  5
3E1
100
AcDbEntity
  8
ALL_ASSEMBLY_MEMBERS
100
AcDbLine
 62
7
  6
CONTINUOUS
 10
3.2063021938
 20
6.7566635716
 11
3.1969673661
 21
6.7593844257
  0
LINE
  5
3E2
100
AcDbEntity
  8
ALL_ASSEMBLY_MEMBERS
100
AcDbLine
 62
7
  6
CONTINUOUS
 10
3.574302664
 20
6.6449210145
 11
3.5650294128
 21
6.6478448594
  0
LINE
  5
3E3
100
AcDbEntity
  8
ALL_ASSEMBLY_MEMBERS
100
AcDbLine
 62
7
  6
CONTINUOUS
 10
7.1438021938
 20
6.3534450391
 11
7.1448607363
 21
6.343779557
  0
LINE
  5
3E4
100
AcDbEntity
  8
ALL_ASSEMBLY_MEMBERS
100
AcDbLine
 62
7
  6
CONTINUOUS
 10
7.1062111722
 20
6.7361951667
 11
7.1070586114
 21
6.7265088927
  0
LINE
  5
3E5
100
AcDbEntity
  8
ALL_ASSEMBLY_MEMBERS
100
AcDbLine
 62
7
  6
CONTINUOUS
 10
7.1246897004
 20
6.3676198303
 11
7.1247957628
 21
6.3578971349
  0
LINE
  5
3E6
100
AcDbEntity
  8
ALL_ASSEMBLY_MEMBERS
100
AcDbLine
 62
7
  6
CONTINUOUS
 10
7.1247957628
 20
6.7522114758
 11
7.1246897004
 21
6.7424887804
  0
LINE
  5
3E7
100
AcDbEntity
  8
ALL_ASSEMBLY_MEMBERS
100
AcDbLine
 62
7
  6
CONTINUOUS
 10
7.4499677862
 20
6.7265088927
 11
7.4508152253
 21
6.7361951667
  0
LINE
  5
3E8
100
AcDbEntity
  8
ALL_ASSEMBLY_MEMBERS
100
AcDbLine
 62
7
  6
CONTINUOUS
 10
7.4121656612
 20
6.343779557
 11
7.4132242037
 21
6.3534450391
  0
LINE
  5
3E9
100
AcDbEntity
  8
ALL_ASSEMBLY_MEMBERS
100
AcDbLine
 62
7
  6
CONTINUOUS
 10
7.0646707488
 20
6.6693554762
 11
7.0551555639
 21
6.667354648
  0
LINE
  5
3EA
100
AcDbEntity
  8
ALL_ASSEMBLY_MEMBERS
100
AcDbLine
 62
7
  6
CONTINUOUS
 10
7.4418932654
 20
6.7442815598
 11
7.4323366971
 21
6.7424887804
  0
LINE
  5
3EB
100
AcDbEntity
  8
ALL_ASSEMBLY_MEMBERS
100
AcDbLine
 62
7
  6
CONTINUOUS
 10
7.0769039325
 20
6.6897653103
 11
7.0672384504
 21
6.6887067678
  0
LINE
  5
3EC
100
AcDbEntity
  8
ALL_ASSEMBLY_MEMBERS
100
AcDbLine
 62
7
  6
CONTINUOUS
 10
7.4596540601
 20
6.7273563319
 11
7.4499677862
 21
6.7265088927
  0
LINE
  5
3ED
100
AcDbEntity
  8
ALL_ASSEMBLY_MEMBERS
100
AcDbLine
 62
7
  6
CONTINUOUS
 10
7.4659476738
 20
6.401230807
 11
7.4756703692
 21
6.4013368694
  0
LINE
  5
3EE
100
AcDbEntity
  8
ALL_ASSEMBLY_MEMBERS
100
AcDbLine
 62
7
  6
CONTINUOUS
 10
3.5284476738
 20
6.401230807
 11
3.5381703692
 21
6.4013368694
  0
LINE
  5
3EF
100
AcDbEntity
  8
ALL_ASSEMBLY_MEMBERS
100
AcDbLine
 62
7
  6
CONTINUOUS
 10
1.9510131988
 20
6.4925543053
 11
3.0989524596
 21
6.4925543053
  0
LINE
  5
3F0
100
AcDbEntity
  8
ALL_ASSEMBLY_MEMBERS
100
AcDbLine
 62
7
  6
CONTINUOUS
 10
7.5205739312
 20
6.4925543053
 11
8.6685131988
 21
6.4925543053
  0
LINE
  5
3F1
100
AcDbEntity
  8
ALL_ASSEMBLY_MEMBERS
100
AcDbLine
 62
7
  6
CONTINUOUS
 10
1.9410131988
 20
6.5025543052
 11
3.0990287954
 21
6.5025543053
  0
LINE
  5
3F2
100
AcDbEntity
  8
ALL_ASSEMBLY_MEMBERS
100
AcDbLine
 62
7
  6
CONTINUOUS
 10
7.5204976021
 20
6.5025543053
 11
8.6785131988
 21
6.5025543053
  0
LINE
  5
3F3
100
AcDbEntity
  8
ALL_ASSEMBLY_MEMBERS
100
AcDbLine
 62
7
  6
CONTINUOUS
 10
3.1438560283
 20
6.4013368694
 11
3.1535787237
 21
6.401230807
  0
LINE
  5
3F4
100
AcDbEntity
  8
ALL_ASSEMBLY_MEMBERS
100
AcDbLine
 62
7
  6
CONTINUOUS
 10
7.0813560283
 20
6.4013368694
 11
7.0910787237
 21
6.401230807
  0
LINE
  5
3F5
100
AcDbEntity
  8
ALL_ASSEMBLY_MEMBERS
100
AcDbLine
 62
7
  6
CONTINUOUS
 10
3.1695586114
 20
6.7265088927
 11
3.1598723374
 21
6.7273563319
  0
LINE
  5
3F6
100
AcDbEntity
  8
ALL_ASSEMBLY_MEMBERS
100
AcDbLine
 62
7
  6
CONTINUOUS
 10
3.5522879471
 20
6.6887067678
 11
3.542622465
 21
6.6897653103
  0
LINE
  5
3F7
100
AcDbEntity
  8
ALL_ASSEMBLY_MEMBERS
100
AcDbLine
 62
7
  6
CONTINUOUS
 10
3.1871897004
 20
6.7424887804
 11
3.1776331321
 21
6.7442815598
  0
LINE
  5
3F8
100
AcDbEntity
  8
ALL_ASSEMBLY_MEMBERS
100
AcDbLine
 62
7
  6
CONTINUOUS
 10
3.5643708336
 20
6.667354648
 11
3.5548556488
 21
6.6693554762
  0
LINE
  5
3F9
100
AcDbEntity
  8
ALL_ASSEMBLY_MEMBERS
100
AcDbLine
 62
7
  6
CONTINUOUS
 10
7.4508152253
 20
6.373913444
 11
7.4499677862
 21
6.3835997179
  0
LINE
  5
3FA
100
AcDbEntity
  8
ALL_ASSEMBLY_MEMBERS
100
AcDbLine
 62
7
  6
CONTINUOUS
 10
7.4323366971
 20
6.7424887804
 11
7.4322306347
 21
6.7522114758
  0
LINE
  5
3FB
100
AcDbEntity
  8
ALL_ASSEMBLY_MEMBERS
100
AcDbLine
 62
7
  6
CONTINUOUS
 10
7.4322306347
 20
6.3578971349
 11
7.4323366971
 21
6.3676198303
  0
LINE
  5
3FC
100
AcDbEntity
  8
ALL_ASSEMBLY_MEMBERS
100
AcDbLine
 62
7
  6
CONTINUOUS
 10
3.5548556488
 20
6.4407531345
 11
3.5643708336
 21
6.4427539627
  0
LINE
  5
3FD
100
AcDbEntity
  8
ALL_ASSEMBLY_MEMBERS
100
AcDbLine
 62
7
  6
CONTINUOUS
 10
3.1776331321
 20
6.3658270509
 11
3.1871897004
 21
6.3676198303
  0
LINE
  5
3FE
100
AcDbEntity
  8
ALL_ASSEMBLY_MEMBERS
100
AcDbLine
 62
7
  6
CONTINUOUS
 10
3.542622465
 20
6.4203433004
 11
3.5522879471
 21
6.4214018429
  0
LINE
  5
3FF
100
AcDbEntity
  8
ALL_ASSEMBLY_MEMBERS
100
AcDbLine
 62
7
  6
CONTINUOUS
 10
3.1598723374
 20
6.3827522788
 11
3.1695586114
 21
6.3835997179
  0
LINE
  5
400
100
AcDbEntity
  8
ALL_ASSEMBLY_MEMBERS
100
AcDbLine
 62
7
  6
CONTINUOUS
 10
7.0910787237
 20
6.7088778037
 11
7.0813560283
 21
6.7087717413
  0
LINE
  5
401
100
AcDbEntity
  8
ALL_ASSEMBLY_MEMBERS
100
AcDbLine
 62
7
  6
CONTINUOUS
 10
3.1535787237
 20
6.7088778037
 11
3.1438560283
 21
6.7087717413
  0
LINE
  5
402
100
AcDbEntity
  8
ALL_ASSEMBLY_MEMBERS
100
AcDbLine
 62
7
  6
CONTINUOUS
 10
3.0990287954
 20
6.6075543053
 11
1.9410131988
 21
6.6075543053
  0
LINE
  5
403
100
AcDbEntity
  8
ALL_ASSEMBLY_MEMBERS
100
AcDbLine
 62
7
  6
CONTINUOUS
 10
7.5204976021
 20
6.6075543053
 11
8.6785131988
 21
6.6075543055
  0
LINE
  5
404
100
AcDbEntity
  8
ALL_ASSEMBLY_MEMBERS
100
AcDbLine
 62
7
  6
CONTINUOUS
 10
8.6685131988
 20
6.6175543053
 11
7.520573938
 21
6.6175543053
  0
LINE
  5
405
100
AcDbEntity
  8
ALL_ASSEMBLY_MEMBERS
100
AcDbLine
 62
7
  6
CONTINUOUS
 10
3.0989524663
 20
6.6175543053
 11
1.9510131988
 21
6.6175543053
  0
LINE
  5
406
100
AcDbEntity
  8
ALL_ASSEMBLY_MEMBERS
100
AcDbLine
 62
7
  6
CONTINUOUS
 10
3.5381703692
 20
6.7087717413
 11
3.5284476738
 21
6.7088778037
  0
LINE
  5
407
100
AcDbEntity
  8
ALL_ASSEMBLY_MEMBERS
100
AcDbLine
 62
7
  6
CONTINUOUS
 10
7.4756703692
 20
6.7087717413
 11
7.4659476738
 21
6.7088778037
  0
LINE
  5
408
100
AcDbEntity
  8
ALL_ASSEMBLY_MEMBERS
100
AcDbLine
 62
7
  6
CONTINUOUS
 10
7.4499677862
 20
6.3835997179
 11
7.4596540601
 21
6.3827522788
  0
LINE
  5
409
100
AcDbEntity
  8
ALL_ASSEMBLY_MEMBERS
100
AcDbLine
 62
7
  6
CONTINUOUS
 10
7.0672384504
 20
6.4214018429
 11
7.0769039325
 21
6.4203433004
  0
LINE
  5
40A
100
AcDbEntity
  8
ALL_ASSEMBLY_MEMBERS
100
AcDbLine
 62
7
  6
CONTINUOUS
 10
7.4323366971
 20
6.3676198303
 11
7.4418932654
 21
6.3658270509
  0
LINE
  5
40B
100
AcDbEntity
  8
ALL_ASSEMBLY_MEMBERS
100
AcDbLine
 62
7
  6
CONTINUOUS
 10
7.0551555639
 20
6.4427539627
 11
7.0646707488
 21
6.4407531345
  0
LINE
  5
40C
100
AcDbEntity
  8
ALL_ASSEMBLY_MEMBERS
100
AcDbLine
 62
7
  6
CONTINUOUS
 10
7.0741830784
 20
6.699100138
 11
7.0769039325
 21
6.6897653103
  0
LINE
  5
40D
100
AcDbEntity
  8
ALL_ASSEMBLY_MEMBERS
100
AcDbLine
 62
7
  6
CONTINUOUS
 10
7.1642120279
 20
6.3412118553
 11
7.1662128561
 21
6.3316966705
  0
LINE
  5
40E
100
AcDbEntity
  8
ALL_ASSEMBLY_MEMBERS
100
AcDbLine
 62
7
  6
CONTINUOUS
 10
7.0892859443
 20
6.718434372
 11
7.0910787237
 21
6.7088778037
  0
LINE
  5
40F
100
AcDbEntity
  8
ALL_ASSEMBLY_MEMBERS
100
AcDbLine
 62
7
  6
CONTINUOUS
 10
7.4132242037
 20
6.7566635716
 11
7.4121656612
 21
6.7663290537
  0
LINE
  5
410
100
AcDbEntity
  8
ALL_ASSEMBLY_MEMBERS
100
AcDbLine
 62
7
  6
CONTINUOUS
 10
3.1271707488
 20
6.6693554762
 11
3.1176555639
 21
6.667354648
  0
LINE
  5
411
100
AcDbEntity
  8
ALL_ASSEMBLY_MEMBERS
100
AcDbLine
 62
7
  6
CONTINUOUS
 10
3.5043932654
 20
6.7442815598
 11
3.4948366971
 21
6.7424887804
  0
LINE
  5
412
100
AcDbEntity
  8
ALL_ASSEMBLY_MEMBERS
100
AcDbLine
 62
7
  6
CONTINUOUS
 10
3.1394039325
 20
6.6897653103
 11
3.1297384504
 21
6.6887067678
  0
LINE
  5
413
100
AcDbEntity
  8
ALL_ASSEMBLY_MEMBERS
100
AcDbLine
 62
7
  6
CONTINUOUS
 10
3.5221540601
 20
6.7273563319
 11
3.5124677862
 21
6.7265088927
  0
LINE
  5
414
100
AcDbEntity
  8
ALL_ASSEMBLY_MEMBERS
100
AcDbLine
 62
7
  6
CONTINUOUS
 10
7.1070586114
 20
6.7265088927
 11
7.0973723374
 21
6.7273563319
  0
LINE
  5
415
100
AcDbEntity
  8
ALL_ASSEMBLY_MEMBERS
100
AcDbLine
 62
7
  6
CONTINUOUS
 10
7.4897879471
 20
6.6887067678
 11
7.480122465
 21
6.6897653103
  0
LINE
  5
416
100
AcDbEntity
  8
ALL_ASSEMBLY_MEMBERS
100
AcDbLine
 62
7
  6
CONTINUOUS
 10
7.1246897004
 20
6.7424887804
 11
7.1151331321
 21
6.7442815598
  0
LINE
  5
417
100
AcDbEntity
  8
ALL_ASSEMBLY_MEMBERS
100
AcDbLine
 62
7
  6
CONTINUOUS
 10
7.5018708336
 20
6.667354648
 11
7.4923556488
 21
6.6693554762
  0
LINE
  5
418
100
AcDbEntity
  8
ALL_ASSEMBLY_MEMBERS
100
AcDbLine
 62
7
  6
CONTINUOUS
 10
7.4132242037
 20
6.3534450391
 11
7.4225590314
 21
6.3507241849
  0
LINE
  5
419
100
AcDbEntity
  8
ALL_ASSEMBLY_MEMBERS
100
AcDbLine
 62
7
  6
CONTINUOUS
 10
7.0452237335
 20
6.4651875961
 11
7.0544969847
 21
6.4622637513
  0
LINE
  5
41A
100
AcDbEntity
  8
ALL_ASSEMBLY_MEMBERS
100
AcDbLine
 62
7
  6
CONTINUOUS
 10
7.3928143696
 20
6.3412118553
 11
7.4018375572
 21
6.3375891297
  0
LINE
  5
41B
100
AcDbEntity
  8
ALL_ASSEMBLY_MEMBERS
100
AcDbLine
 62
7
  6
CONTINUOUS
 10
7.0375386082
 20
6.4884866952
 11
7.0464806192
 21
6.4846679919
  0
LINE
  5
41C
100
AcDbEntity
  8
ALL_ASSEMBLY_MEMBERS
100
AcDbLine
 62
7
  6
CONTINUOUS
 10
7.3713037528
 20
6.3310380913
 11
7.3799284021
 21
6.326548383
  0
LINE
  5
41D
100
AcDbEntity
  8
ALL_ASSEMBLY_MEMBERS
100
AcDbLine
 62
7
  6
CONTINUOUS
 10
7.0321742
 20
6.5124268767
 11
7.0406988544
 21
6.5077500911
  0
LINE
  5
41E
100
AcDbEntity
  8
ALL_ASSEMBLY_MEMBERS
100
AcDbLine
 62
7
  6
CONTINUOUS
 10
7.2312089845
 20
6.3172399609
 11
7.2358857701
 21
6.3087153066
  0
LINE
  5
41F
100
AcDbEntity
  8
ALL_ASSEMBLY_MEMBERS
100
AcDbLine
 62
7
  6
CONTINUOUS
 10
7.0500072765
 20
6.6564695087
 11
7.0544969847
 21
6.6478448594
  0
LINE
  5
420
100
AcDbEntity
  8
ALL_ASSEMBLY_MEMBERS
100
AcDbLine
 62
7
  6
CONTINUOUS
 10
7.2081268853
 20
6.3230217258
 11
7.2119455886
 21
6.3140797148
  0
LINE
  5
421
100
AcDbEntity
  8
ALL_ASSEMBLY_MEMBERS
100
AcDbLine
 62
7
  6
CONTINUOUS
 10
7.0610480231
 20
6.6783786638
 11
7.0646707488
 21
6.6693554762
  0
LINE
  5
422
100
AcDbEntity
  8
ALL_ASSEMBLY_MEMBERS
100
AcDbLine
 62
7
  6
CONTINUOUS
 10
7.1857226447
 20
6.3310380913
 11
7.1886464896
 21
6.3217648401
  0
LINE
  5
423
100
AcDbEntity
  8
ALL_ASSEMBLY_MEMBERS
100
AcDbLine
 62
7
  6
CONTINUOUS
 10
7.3928143696
 20
6.7688967553
 11
7.3908135414
 21
6.7784119402
  0
LINE
  5
424
100
AcDbEntity
  8
ALL_ASSEMBLY_MEMBERS
100
AcDbLine
 62
7
  6
CONTINUOUS
 10
7.4677404532
 20
6.3916742387
 11
7.4659476738
 21
6.401230807
  0
LINE
  5
425
100
AcDbEntity
  8
ALL_ASSEMBLY_MEMBERS
100
AcDbLine
 62
7
  6
CONTINUOUS
 10
7.1438021938
 20
6.7566635716
 11
7.1344673661
 21
6.7593844257
  0
LINE
  5
426
100
AcDbEntity
  8
ALL_ASSEMBLY_MEMBERS
100
AcDbLine
 62
7
  6
CONTINUOUS
 10
7.511802664
 20
6.6449210145
 11
7.5025294128
 21
6.6478448594
  0
LINE
  5
427
100
AcDbEntity
  8
ALL_ASSEMBLY_MEMBERS
100
AcDbLine
 62
7
  6
CONTINUOUS
 10
7.1642120279
 20
6.7688967553
 11
7.1551888403
 21
6.772519481
  0
LINE
  5
428
100
AcDbEntity
  8
ALL_ASSEMBLY_MEMBERS
100
AcDbLine
 62
7
  6
CONTINUOUS
 10
7.5105457783
 20
6.6254406188
 11
7.5195229704
 21
6.6216068913
  0
LINE
  5
429
100
AcDbEntity
  8
ALL_ASSEMBLY_MEMBERS
100
AcDbLine
 62
7
  6
CONTINUOUS
 10
7.1857226447
 20
6.7790705194
 11
7.1770979954
 21
6.7835602276
  0
LINE
  5
42A
100
AcDbEntity
  8
ALL_ASSEMBLY_MEMBERS
100
AcDbLine
 62
7
  6
CONTINUOUS
 10
7.3488995122
 20
6.3230217258
 11
7.3570425631
 21
6.3177082733
  0
LINE
  5
42B
100
AcDbEntity
  8
ALL_ASSEMBLY_MEMBERS
100
AcDbLine
 62
7
  6
CONTINUOUS
 10
7.0291821709
 20
6.5367775836
 11
7.0372073716
 21
6.5312877558
  0
LINE
  5
42C
100
AcDbEntity
  8
ALL_ASSEMBLY_MEMBERS
100
AcDbLine
 62
7
  6
CONTINUOUS
 10
7.325817413
 20
6.3172399609
 11
7.3334004435
 21
6.3111539356
  0
LINE
  5
42D
100
AcDbEntity
  8
ALL_ASSEMBLY_MEMBERS
100
AcDbLine
 62
7
  6
CONTINUOUS
 10
7.028591336
 20
6.5613043053
 11
7.0360397959
 21
6.5550543053
  0
LINE
  5
42E
100
AcDbEntity
  8
ALL_ASSEMBLY_MEMBERS
100
AcDbLine
 62
7
  6
CONTINUOUS
 10
7.3022797483
 20
6.3137484782
 11
7.3092297296
 21
6.3069484918
  0
LINE
  5
42F
100
AcDbEntity
  8
ALL_ASSEMBLY_MEMBERS
100
AcDbLine
 62
7
  6
CONTINUOUS
 10
7.0304073852
 20
6.5857708362
 11
7.0372073716
 21
6.5788208549
  0
LINE
  5
430
100
AcDbEntity
  8
ALL_ASSEMBLY_MEMBERS
100
AcDbLine
 62
7
  6
CONTINUOUS
 10
7.2785131988
 20
6.3125809025
 11
7.2847631988
 21
6.3051324426
  0
LINE
  5
431
100
AcDbEntity
  8
ALL_ASSEMBLY_MEMBERS
100
AcDbLine
 62
7
  6
CONTINUOUS
 10
7.034612829
 20
6.60994155
 11
7.0406988544
 21
6.6023585196
  0
LINE
  5
432
100
AcDbEntity
  8
ALL_ASSEMBLY_MEMBERS
100
AcDbLine
 62
7
  6
CONTINUOUS
 10
7.2547466492
 20
6.3137484782
 11
7.260236477
 21
6.3057232775
  0
LINE
  5
433
100
AcDbEntity
  8
ALL_ASSEMBLY_MEMBERS
100
AcDbLine
 62
7
  6
CONTINUOUS
 10
7.0411671667
 20
6.6335836697
 11
7.0464806192
 21
6.6254406188
  0
LINE
  5
434
100
AcDbEntity
  8
ALL_ASSEMBLY_MEMBERS
100
AcDbLine
 62
7
  6
CONTINUOUS
 10
7.325817413
 20
6.7928686497
 11
7.3211406274
 21
6.8013933041
  0
LINE
  5
435
100
AcDbEntity
  8
ALL_ASSEMBLY_MEMBERS
100
AcDbLine
 62
7
  6
CONTINUOUS
 10
7.5070191211
 20
6.453639102
 11
7.5025294128
 21
6.4622637513
  0
LINE
  5
436
100
AcDbEntity
  8
ALL_ASSEMBLY_MEMBERS
100
AcDbLine
 62
7
  6
CONTINUOUS
 10
7.3488995122
 20
6.7870868849
 11
7.3450808089
 21
6.7960288959
  0
LINE
  5
437
100
AcDbEntity
  8
ALL_ASSEMBLY_MEMBERS
100
AcDbLine
 62
7
  6
CONTINUOUS
 10
7.4959783744
 20
6.4317299469
 11
7.4923556488
 21
6.4407531345
  0
LINE
  5
438
100
AcDbEntity
  8
ALL_ASSEMBLY_MEMBERS
100
AcDbLine
 62
7
  6
CONTINUOUS
 10
7.3713037528
 20
6.7790705194
 11
7.368379908
 21
6.7883437705
  0
LINE
  5
439
100
AcDbEntity
  8
ALL_ASSEMBLY_MEMBERS
100
AcDbLine
 62
7
  6
CONTINUOUS
 10
7.4828433192
 20
6.4110084727
 11
7.480122465
 21
6.4203433004
  0
LINE
  5
43A
100
AcDbEntity
  8
ALL_ASSEMBLY_MEMBERS
100
AcDbLine
 62
7
  6
CONTINUOUS
 10
7.5248521975
 20
6.597681734
 11
7.5163275431
 21
6.6023585196
  0
LINE
  5
43B
100
AcDbEntity
  8
ALL_ASSEMBLY_MEMBERS
100
AcDbLine
 62
7
  6
CONTINUOUS
 10
7.2081268853
 20
6.7870868849
 11
7.1999838344
 21
6.7924003374
  0
LINE
  5
43C
100
AcDbEntity
  8
ALL_ASSEMBLY_MEMBERS
100
AcDbLine
 62
7
  6
CONTINUOUS
 10
7.5278442266
 20
6.5733310271
 11
7.5198190259
 21
6.5788208549
  0
LINE
  5
43D
100
AcDbEntity
  8
ALL_ASSEMBLY_MEMBERS
100
AcDbLine
 62
7
  6
CONTINUOUS
 10
7.2312089845
 20
6.7928686497
 11
7.2236259541
 21
6.7989546751
  0
LINE
  5
43E
100
AcDbEntity
  8
ALL_ASSEMBLY_MEMBERS
100
AcDbLine
 62
7
  6
CONTINUOUS
 10
7.5284350615
 20
6.5488043053
 11
7.5209866016
 21
6.5550543053
  0
LINE
  5
43F
100
AcDbEntity
  8
ALL_ASSEMBLY_MEMBERS
100
AcDbLine
 62
7
  6
CONTINUOUS
 10
7.2547466492
 20
6.7963601325
 11
7.2477966679
 21
6.8031601189
  0
LINE
  5
440
100
AcDbEntity
  8
ALL_ASSEMBLY_MEMBERS
100
AcDbLine
 62
7
  6
CONTINUOUS
 10
7.5266190123
 20
6.5243377745
 11
7.5198190259
 21
6.5312877558
  0
LINE
  5
441
100
AcDbEntity
  8
ALL_ASSEMBLY_MEMBERS
100
AcDbLine
 62
7
  6
CONTINUOUS
 10
7.2785131988
 20
6.7975277082
 11
7.2722631988
 21
6.8049761681
  0
LINE
  5
442
100
AcDbEntity
  8
ALL_ASSEMBLY_MEMBERS
100
AcDbLine
 62
7
  6
CONTINUOUS
 10
7.5224135685
 20
6.5001670606
 11
7.5163275431
 21
6.5077500911
  0
LINE
  5
443
100
AcDbEntity
  8
ALL_ASSEMBLY_MEMBERS
100
AcDbLine
 62
7
  6
CONTINUOUS
 10
7.3022797483
 20
6.7963601325
 11
7.2967899205
 21
6.8043853332
  0
LINE
  5
444
100
AcDbEntity
  8
ALL_ASSEMBLY_MEMBERS
100
AcDbLine
 62
7
  6
CONTINUOUS
 10
7.5158592308
 20
6.476524941
 11
7.5105457783
 21
6.4846679919
  0
LINE
  5
445
100
AcDbEntity
  8
ALL_ASSEMBLY_MEMBERS
100
AcDbLine
 62
7
  6
CONTINUOUS
 10
8.6685131989
 20
6.4925543053
 11
8.6685131988
 21
6.6175543053
  0
LINE
  5
446
100
AcDbEntity
  8
ALL_ASSEMBLY_MEMBERS
100
AcDbLine
 62
7
  6
CONTINUOUS
 10
8.6785131988
 20
6.5025543053
 11
8.6785131988
 21
6.6075543053
  0
ARC
  5
447
100
AcDbEntity
  8
ALL_ASSEMBLY_MEMBERS
100
AcDbCircle
 62
7
  6
CONTINUOUS
 10
5.0739633853
 20
1.9400610127
 40
0.0153720508
100
AcDbArc
 50
180.0250001157
 51
187.3786021463
  0
ARC
  5
448
100
AcDbEntity
  8
ALL_ASSEMBLY_MEMBERS
100
AcDbCircle
 62
7
  6
CONTINUOUS
 10
5.0735131988
 20
2.3150543053
 40
0.015
100
AcDbArc
 50
90.0
 51
119.8827589035
  0
ARC
  5
449
100
AcDbEntity
  8
ALL_ASSEMBLY_MEMBERS
100
AcDbCircle
 62
7
  6
CONTINUOUS
 10
5.0735131988
 20
1.9400543053
 40
0.015
100
AcDbArc
 50
240.1172410997
 51
270.0
  0
ARC
  5
44A
100
AcDbEntity
  8
ALL_ASSEMBLY_MEMBERS
100
AcDbCircle
 62
7
  6
CONTINUOUS
 10
5.0733781009
 20
1.9398193512
 40
0.0147289744
100
AcDbArc
 50
235.6049055829
 51
240.1175355814
  0
ARC
  5
44B
100
AcDbEntity
  8
ALL_ASSEMBLY_MEMBERS
100
AcDbCircle
 62
7
  6
CONTINUOUS
 10
5.0733758108
 20
2.3152930753
 40
0.0147245249
100
AcDbArc
 50
119.8821354659
 51
128.7951218484
  0
ARC
  5
44C
100
AcDbEntity
  8
ALL_ASSEMBLY_MEMBERS
100
AcDbCircle
 62
7
  6
CONTINUOUS
 10
5.3085131988
 20
3.5550543053
 40
0.5625
100
AcDbArc
 50
292.890456625
 51
247.1095433726
  0
ARC
  5
44D
100
AcDbEntity
  8
ALL_ASSEMBLY_MEMBERS
100
AcDbCircle
 62
7
  6
CONTINUOUS
 10
5.3085131988
 20
3.5550543053
 40
0.5508866378
100
AcDbArc
 50
293.4026240107
 51
246.5973759916
  0
ARC
  5
44E
100
AcDbEntity
  8
ALL_ASSEMBLY_MEMBERS
100
AcDbCircle
 62
7
  6
CONTINUOUS
 10
5.3085131988
 20
3.5550543053
 40
0.4144436
100
AcDbArc
 50
301.8616047785
 51
238.1383952215
  0
ARC
  5
44F
100
AcDbEntity
  8
ALL_ASSEMBLY_MEMBERS
100
AcDbCircle
 62
7
  6
CONTINUOUS
 10
5.3085131988
 20
3.5550543053
 40
0.3571920131
100
AcDbArc
 50
307.77537068
 51
232.2246293127
  0
ARC
  5
450
100
AcDbEntity
  8
ALL_ASSEMBLY_MEMBERS
100
AcDbCircle
 62
7
  6
CONTINUOUS
 10
5.3085131988
 20
3.5550543053
 40
0.342353501
100
AcDbArc
 50
309.7270150143
 51
230.2729852612
  0
ARC
  5
451
100
AcDbEntity
  8
ALL_ASSEMBLY_MEMBERS
100
AcDbCircle
 62
7
  6
CONTINUOUS
 10
5.3085131988
 20
3.5550543053
 40
0.3375
100
AcDbArc
 50
181.0610936076
 51
183.2246206781
  0
ARC
  5
452
100
AcDbEntity
  8
ALL_ASSEMBLY_MEMBERS
100
AcDbCircle
 62
7
  6
CONTINUOUS
 10
5.3085131988
 20
3.5550543053
 40
0.3375
100
AcDbArc
 50
185.3468078933
 51
187.5103349638
  0
ARC
  5
453
100
AcDbEntity
  8
ALL_ASSEMBLY_MEMBERS
100
AcDbCircle
 62
7
  6
CONTINUOUS
 10
5.3085131988
 20
3.5550543053
 40
0.3375
100
AcDbArc
 50
189.6325221791
 51
191.7960492495
  0
ARC
  5
454
100
AcDbEntity
  8
ALL_ASSEMBLY_MEMBERS
100
AcDbCircle
 62
7
  6
CONTINUOUS
 10
5.3085131988
 20
3.5550543053
 40
0.3375
100
AcDbArc
 50
193.9182364648
 51
196.0817635352
  0
ARC
  5
455
100
AcDbEntity
  8
ALL_ASSEMBLY_MEMBERS
100
AcDbCircle
 62
7
  6
CONTINUOUS
 10
5.3085131988
 20
3.5550543053
 40
0.3375
100
AcDbArc
 50
198.2039507505
 51
200.3674778209
  0
ARC
  5
456
100
AcDbEntity
  8
ALL_ASSEMBLY_MEMBERS
100
AcDbCircle
 62
7
  6
CONTINUOUS
 10
5.3085131988
 20
3.5550543053
 40
0.3375
100
AcDbArc
 50
202.4896650362
 51
204.6531921067
  0
ARC
  5
457
100
AcDbEntity
  8
ALL_ASSEMBLY_MEMBERS
100
AcDbCircle
 62
7
  6
CONTINUOUS
 10
5.3085131988
 20
3.5550543053
 40
0.3375
100
AcDbArc
 50
206.7753793219
 51
208.9389063924
  0
ARC
  5
458
100
AcDbEntity
  8
ALL_ASSEMBLY_MEMBERS
100
AcDbCircle
 62
7
  6
CONTINUOUS
 10
5.3085131988
 20
3.5550543053
 40
0.3375
100
AcDbArc
 50
211.0610936076
 51
213.2246206781
  0
ARC
  5
459
100
AcDbEntity
  8
ALL_ASSEMBLY_MEMBERS
100
AcDbCircle
 62
7
  6
CONTINUOUS
 10
5.3085131988
 20
3.5550543053
 40
0.3375
100
AcDbArc
 50
215.3468078933
 51
217.5103349638
  0
ARC
  5
45A
100
AcDbEntity
  8
ALL_ASSEMBLY_MEMBERS
100
AcDbCircle
 62
7
  6
CONTINUOUS
 10
5.3085131988
 20
3.5550543053
 40
0.3375
100
AcDbArc
 50
219.6325221791
 51
221.7960492495
  0
ARC
  5
45B
100
AcDbEntity
  8
ALL_ASSEMBLY_MEMBERS
100
AcDbCircle
 62
7
  6
CONTINUOUS
 10
5.3085131988
 20
3.5550543053
 40
0.3375
100
AcDbArc
 50
223.9182364648
 51
226.0817635352
  0
ARC
  5
45C
100
AcDbEntity
  8
ALL_ASSEMBLY_MEMBERS
100
AcDbCircle
 62
7
  6
CONTINUOUS
 10
5.3085131988
 20
3.5550543053
 40
0.3375
100
AcDbArc
 50
228.2039507505
 51
229.5977620376
  0
ARC
  5
45D
100
AcDbEntity
  8
ALL_ASSEMBLY_MEMBERS
100
AcDbCircle
 62
7
  6
CONTINUOUS
 10
5.3085131988
 20
3.5550543053
 40
0.3375
100
AcDbArc
 50
310.4022379625
 51
311.7960492495
  0
ARC
  5
45E
100
AcDbEntity
  8
ALL_ASSEMBLY_MEMBERS
100
AcDbCircle
 62
7
  6
CONTINUOUS
 10
5.3085131988
 20
3.5550543053
 40
0.3375
100
AcDbArc
 50
313.9182364648
 51
316.0817635352
  0
ARC
  5
45F
100
AcDbEntity
  8
ALL_ASSEMBLY_MEMBERS
100
AcDbCircle
 62
7
  6
CONTINUOUS
 10
5.3085131988
 20
3.5550543053
 40
0.3375
100
AcDbArc
 50
318.2039507505
 51
320.3674778209
  0
ARC
  5
460
100
AcDbEntity
  8
ALL_ASSEMBLY_MEMBERS
100
AcDbCircle
 62
7
  6
CONTINUOUS
 10
5.3085131988
 20
3.5550543053
 40
0.3375
100
AcDbArc
 50
322.4896650362
 51
324.6531921067
  0
ARC
  5
461
100
AcDbEntity
  8
ALL_ASSEMBLY_MEMBERS
100
AcDbCircle
 62
7
  6
CONTINUOUS
 10
5.3085131988
 20
3.5550543053
 40
0.3375
100
AcDbArc
 50
326.7753793219
 51
328.9389063924
  0
ARC
  5
462
100
AcDbEntity
  8
ALL_ASSEMBLY_MEMBERS
100
AcDbCircle
 62
7
  6
CONTINUOUS
 10
5.3085131988
 20
3.5550543053
 40
0.3375
100
AcDbArc
 50
331.0610936076
 51
333.2246206781
  0
ARC
  5
463
100
AcDbEntity
  8
ALL_ASSEMBLY_MEMBERS
100
AcDbCircle
 62
7
  6
CONTINUOUS
 10
5.3085131988
 20
3.5550543053
 40
0.3375
100
AcDbArc
 50
335.3468078933
 51
337.5103349638
  0
ARC
  5
464
100
AcDbEntity
  8
ALL_ASSEMBLY_MEMBERS
100
AcDbCircle
 62
7
  6
CONTINUOUS
 10
5.3085131988
 20
3.5550543053
 40
0.3375
100
AcDbArc
 50
339.6325221791
 51
341.7960492495
  0
ARC
  5
465
100
AcDbEntity
  8
ALL_ASSEMBLY_MEMBERS
100
AcDbCircle
 62
7
  6
CONTINUOUS
 10
5.3085131988
 20
3.5550543053
 40
0.3375
100
AcDbArc
 50
343.9182364648
 51
346.0817635352
  0
ARC
  5
466
100
AcDbEntity
  8
ALL_ASSEMBLY_MEMBERS
100
AcDbCircle
 62
7
  6
CONTINUOUS
 10
5.3085131988
 20
3.5550543053
 40
0.3375
100
AcDbArc
 50
348.2039507505
 51
350.3674778209
  0
ARC
  5
467
100
AcDbEntity
  8
ALL_ASSEMBLY_MEMBERS
100
AcDbCircle
 62
7
  6
CONTINUOUS
 10
5.3085131988
 20
3.5550543053
 40
0.3375
100
AcDbArc
 50
352.4896650362
 51
354.6531921067
  0
ARC
  5
468
100
AcDbEntity
  8
ALL_ASSEMBLY_MEMBERS
100
AcDbCircle
 62
7
  6
CONTINUOUS
 10
5.3085131988
 20
3.5550543053
 40
0.3375
100
AcDbArc
 50
356.7753793219
 51
358.9389063924
  0
ARC
  5
469
100
AcDbEntity
  8
ALL_ASSEMBLY_MEMBERS
100
AcDbCircle
 62
7
  6
CONTINUOUS
 10
5.3085131988
 20
3.5550543053
 40
0.3375
100
AcDbArc
 50
1.0610936076
 51
3.2246206781
  0
ARC
  5
46A
100
AcDbEntity
  8
ALL_ASSEMBLY_MEMBERS
100
AcDbCircle
 62
7
  6
CONTINUOUS
 10
5.3085131988
 20
3.5550543053
 40
0.3375
100
AcDbArc
 50
5.3468078933
 51
7.5103349638
  0
ARC
  5
46B
100
AcDbEntity
  8
ALL_ASSEMBLY_MEMBERS
100
AcDbCircle
 62
7
  6
CONTINUOUS
 10
5.3085131988
 20
3.5550543053
 40
0.3375
100
AcDbArc
 50
9.6325221791
 51
11.7960492495
  0
ARC
  5
46C
100
AcDbEntity
  8
ALL_ASSEMBLY_MEMBERS
100
AcDbCircle
 62
7
  6
CONTINUOUS
 10
5.3085131988
 20
3.5550543053
 40
0.3375
100
AcDbArc
 50
13.9182364648
 51
16.0817635352
  0
ARC
  5
46D
100
AcDbEntity
  8
ALL_ASSEMBLY_MEMBERS
100
AcDbCircle
 62
7
  6
CONTINUOUS
 10
5.3085131988
 20
3.5550543053
 40
0.3375
100
AcDbArc
 50
18.2039507505
 51
20.3674778209
  0
ARC
  5
46E
100
AcDbEntity
  8
ALL_ASSEMBLY_MEMBERS
100
AcDbCircle
 62
7
  6
CONTINUOUS
 10
5.3085131988
 20
3.5550543053
 40
0.3375
100
AcDbArc
 50
22.4896650362
 51
24.6531921067
  0
ARC
  5
46F
100
AcDbEntity
  8
ALL_ASSEMBLY_MEMBERS
100
AcDbCircle
 62
7
  6
CONTINUOUS
 10
5.3085131988
 20
3.5550543053
 40
0.3375
100
AcDbArc
 50
26.7753793219
 51
28.9389063924
  0
ARC
  5
470
100
AcDbEntity
  8
ALL_ASSEMBLY_MEMBERS
100
AcDbCircle
 62
7
  6
CONTINUOUS
 10
5.3085131988
 20
3.5550543053
 40
0.3375
100
AcDbArc
 50
31.0610936076
 51
33.2246206781
  0
ARC
  5
471
100
AcDbEntity
  8
ALL_ASSEMBLY_MEMBERS
100
AcDbCircle
 62
7
  6
CONTINUOUS
 10
5.3085131988
 20
3.5550543053
 40
0.3375
100
AcDbArc
 50
35.3468078933
 51
37.5103349638
  0
ARC
  5
472
100
AcDbEntity
  8
ALL_ASSEMBLY_MEMBERS
100
AcDbCircle
 62
7
  6
CONTINUOUS
 10
5.3085131988
 20
3.5550543053
 40
0.3375
100
AcDbArc
 50
39.6325221791
 51
41.7960492495
  0
ARC
  5
473
100
AcDbEntity
  8
ALL_ASSEMBLY_MEMBERS
100
AcDbCircle
 62
7
  6
CONTINUOUS
 10
5.3085131988
 20
3.5550543053
 40
0.3375
100
AcDbArc
 50
43.9182364648
 51
46.0817635352
  0
ARC
  5
474
100
AcDbEntity
  8
ALL_ASSEMBLY_MEMBERS
100
AcDbCircle
 62
7
  6
CONTINUOUS
 10
5.3085131988
 20
3.5550543053
 40
0.3375
100
AcDbArc
 50
48.2039507505
 51
50.3674778209
  0
ARC
  5
475
100
AcDbEntity
  8
ALL_ASSEMBLY_MEMBERS
100
AcDbCircle
 62
7
  6
CONTINUOUS
 10
5.3085131988
 20
3.5550543053
 40
0.3375
100
AcDbArc
 50
52.4896650362
 51
54.6531921067
  0
ARC
  5
476
100
AcDbEntity
  8
ALL_ASSEMBLY_MEMBERS
100
AcDbCircle
 62
7
  6
CONTINUOUS
 10
5.3085131988
 20
3.5550543053
 40
0.3375
100
AcDbArc
 50
56.7753793219
 51
58.9389063924
  0
ARC
  5
477
100
AcDbEntity
  8
ALL_ASSEMBLY_MEMBERS
100
AcDbCircle
 62
7
  6
CONTINUOUS
 10
5.3085131988
 20
3.5550543053
 40
0.3375
100
AcDbArc
 50
61.0610936076
 51
63.2246206781
  0
ARC
  5
478
100
AcDbEntity
  8
ALL_ASSEMBLY_MEMBERS
100
AcDbCircle
 62
7
  6
CONTINUOUS
 10
5.3085131988
 20
3.5550543053
 40
0.3375
100
AcDbArc
 50
65.3468078933
 51
67.5103349638
  0
ARC
  5
479
100
AcDbEntity
  8
ALL_ASSEMBLY_MEMBERS
100
AcDbCircle
 62
7
  6
CONTINUOUS
 10
5.3085131988
 20
3.5550543053
 40
0.3375
100
AcDbArc
 50
69.6325221791
 51
71.7960492495
  0
ARC
  5
47A
100
AcDbEntity
  8
ALL_ASSEMBLY_MEMBERS
100
AcDbCircle
 62
7
  6
CONTINUOUS
 10
5.3085131988
 20
3.5550543053
 40
0.3375
100
AcDbArc
 50
73.9182364648
 51
76.0817635352
  0
ARC
  5
47B
100
AcDbEntity
  8
ALL_ASSEMBLY_MEMBERS
100
AcDbCircle
 62
7
  6
CONTINUOUS
 10
5.3085131988
 20
3.5550543053
 40
0.3375
100
AcDbArc
 50
78.2039507505
 51
80.3674778209
  0
ARC
  5
47C
100
AcDbEntity
  8
ALL_ASSEMBLY_MEMBERS
100
AcDbCircle
 62
7
  6
CONTINUOUS
 10
5.3085131988
 20
3.5550543053
 40
0.3375
100
AcDbArc
 50
82.4896650362
 51
84.6531921067
  0
ARC
  5
47D
100
AcDbEntity
  8
ALL_ASSEMBLY_MEMBERS
100
AcDbCircle
 62
7
  6
CONTINUOUS
 10
5.3085131988
 20
3.5550543053
 40
0.3375
100
AcDbArc
 50
86.7753793219
 51
88.9389063924
  0
ARC
  5
47E
100
AcDbEntity
  8
ALL_ASSEMBLY_MEMBERS
100
AcDbCircle
 62
7
  6
CONTINUOUS
 10
5.3085131988
 20
3.5550543053
 40
0.3375
100
AcDbArc
 50
91.0610936076
 51
93.2246206781
  0
ARC
  5
47F
100
AcDbEntity
  8
ALL_ASSEMBLY_MEMBERS
100
AcDbCircle
 62
7
  6
CONTINUOUS
 10
5.3085131988
 20
3.5550543053
 40
0.3375
100
AcDbArc
 50
95.3468078933
 51
97.5103349638
  0
ARC
  5
480
100
AcDbEntity
  8
ALL_ASSEMBLY_MEMBERS
100
AcDbCircle
 62
7
  6
CONTINUOUS
 10
5.3085131988
 20
3.5550543053
 40
0.3375
100
AcDbArc
 50
99.6325221791
 51
101.7960492495
  0
ARC
  5
481
100
AcDbEntity
  8
ALL_ASSEMBLY_MEMBERS
100
AcDbCircle
 62
7
  6
CONTINUOUS
 10
5.3085131988
 20
3.5550543053
 40
0.3375
100
AcDbArc
 50
103.9182364648
 51
106.0817635352
  0
ARC
  5
482
100
AcDbEntity
  8
ALL_ASSEMBLY_MEMBERS
100
AcDbCircle
 62
7
  6
CONTINUOUS
 10
5.3085131988
 20
3.5550543053
 40
0.3375
100
AcDbArc
 50
108.2039507505
 51
110.3674778209
  0
ARC
  5
483
100
AcDbEntity
  8
ALL_ASSEMBLY_MEMBERS
100
AcDbCircle
 62
7
  6
CONTINUOUS
 10
5.3085131988
 20
3.5550543053
 40
0.3375
100
AcDbArc
 50
112.4896650362
 51
114.6531921067
  0
ARC
  5
484
100
AcDbEntity
  8
ALL_ASSEMBLY_MEMBERS
100
AcDbCircle
 62
7
  6
CONTINUOUS
 10
5.3085131988
 20
3.5550543053
 40
0.3375
100
AcDbArc
 50
116.7753793219
 51
118.9389063924
  0
ARC
  5
485
100
AcDbEntity
  8
ALL_ASSEMBLY_MEMBERS
100
AcDbCircle
 62
7
  6
CONTINUOUS
 10
5.3085131988
 20
3.5550543053
 40
0.3375
100
AcDbArc
 50
121.0610936076
 51
123.2246206781
  0
ARC
  5
486
100
AcDbEntity
  8
ALL_ASSEMBLY_MEMBERS
100
AcDbCircle
 62
7
  6
CONTINUOUS
 10
5.3085131988
 20
3.5550543053
 40
0.3375
100
AcDbArc
 50
125.3468078933
 51
127.5103349638
  0
ARC
  5
487
100
AcDbEntity
  8
ALL_ASSEMBLY_MEMBERS
100
AcDbCircle
 62
7
  6
CONTINUOUS
 10
5.3085131988
 20
3.5550543053
 40
0.3375
100
AcDbArc
 50
129.6325221791
 51
131.7960492495
  0
ARC
  5
488
100
AcDbEntity
  8
ALL_ASSEMBLY_MEMBERS
100
AcDbCircle
 62
7
  6
CONTINUOUS
 10
5.3085131988
 20
3.5550543053
 40
0.3375
100
AcDbArc
 50
133.9182364648
 51
136.0817635352
  0
ARC
  5
489
100
AcDbEntity
  8
ALL_ASSEMBLY_MEMBERS
100
AcDbCircle
 62
7
  6
CONTINUOUS
 10
5.3085131988
 20
3.5550543053
 40
0.3375
100
AcDbArc
 50
138.2039507505
 51
140.3674778209
  0
ARC
  5
48A
100
AcDbEntity
  8
ALL_ASSEMBLY_MEMBERS
100
AcDbCircle
 62
7
  6
CONTINUOUS
 10
5.3085131988
 20
3.5550543053
 40
0.3375
100
AcDbArc
 50
142.4896650362
 51
144.6531921067
  0
ARC
  5
48B
100
AcDbEntity
  8
ALL_ASSEMBLY_MEMBERS
100
AcDbCircle
 62
7
  6
CONTINUOUS
 10
5.3085131988
 20
3.5550543053
 40
0.3375
100
AcDbArc
 50
146.7753793219
 51
148.9389063924
  0
ARC
  5
48C
100
AcDbEntity
  8
ALL_ASSEMBLY_MEMBERS
100
AcDbCircle
 62
7
  6
CONTINUOUS
 10
5.3085131988
 20
3.5550543053
 40
0.3375
100
AcDbArc
 50
151.0610936076
 51
153.2246206781
  0
ARC
  5
48D
100
AcDbEntity
  8
ALL_ASSEMBLY_MEMBERS
100
AcDbCircle
 62
7
  6
CONTINUOUS
 10
5.3085131988
 20
3.5550543053
 40
0.3375
100
AcDbArc
 50
155.3468078933
 51
157.5103349638
  0
ARC
  5
48E
100
AcDbEntity
  8
ALL_ASSEMBLY_MEMBERS
100
AcDbCircle
 62
7
  6
CONTINUOUS
 10
5.3085131988
 20
3.5550543053
 40
0.3375
100
AcDbArc
 50
159.6325221791
 51
161.7960492495
  0
ARC
  5
48F
100
AcDbEntity
  8
ALL_ASSEMBLY_MEMBERS
100
AcDbCircle
 62
7
  6
CONTINUOUS
 10
5.3085131988
 20
3.5550543053
 40
0.3375
100
AcDbArc
 50
163.9182364648
 51
166.0817635352
  0
ARC
  5
490
100
AcDbEntity
  8
ALL_ASSEMBLY_MEMBERS
100
AcDbCircle
 62
7
  6
CONTINUOUS
 10
5.3085131988
 20
3.5550543053
 40
0.3375
100
AcDbArc
 50
168.2039507505
 51
170.3674778209
  0
ARC
  5
491
100
AcDbEntity
  8
ALL_ASSEMBLY_MEMBERS
100
AcDbCircle
 62
7
  6
CONTINUOUS
 10
5.3085131988
 20
3.5550543053
 40
0.3375
100
AcDbArc
 50
176.7753793219
 51
178.9389063924
  0
ARC
  5
492
100
AcDbEntity
  8
ALL_ASSEMBLY_MEMBERS
100
AcDbCircle
 62
7
  6
CONTINUOUS
 10
5.3085131988
 20
3.5550543053
 40
0.3375
100
AcDbArc
 50
172.4896650362
 51
174.6531921067
  0
ARC
  5
493
100
AcDbEntity
  8
ALL_ASSEMBLY_MEMBERS
100
AcDbCircle
 62
7
  6
CONTINUOUS
 10
5.3085131988
 20
3.5550543053
 40
0.335
100
AcDbArc
 50
183.5827298979
 51
184.9867296537
  0
ARC
  5
494
100
AcDbEntity
  8
ALL_ASSEMBLY_MEMBERS
100
AcDbCircle
 62
7
  6
CONTINUOUS
 10
5.3085131988
 20
3.5550543053
 40
0.335
100
AcDbArc
 50
187.8721649916
 51
189.2799919132
  0
ARC
  5
495
100
AcDbEntity
  8
ALL_ASSEMBLY_MEMBERS
100
AcDbCircle
 62
7
  6
CONTINUOUS
 10
5.3085131988
 20
3.5550543053
 40
0.335
100
AcDbArc
 50
192.1459514698
 51
193.5552612819
  0
ARC
  5
496
100
AcDbEntity
  8
ALL_ASSEMBLY_MEMBERS
100
AcDbCircle
 62
7
  6
CONTINUOUS
 10
5.3085131988
 20
3.5550543053
 40
0.335
100
AcDbArc
 50
196.4464401061
 51
197.8550006
  0
ARC
  5
497
100
AcDbEntity
  8
ALL_ASSEMBLY_MEMBERS
100
AcDbCircle
 62
7
  6
CONTINUOUS
 10
5.3085131988
 20
3.5550543053
 40
0.335
100
AcDbArc
 50
200.7189994965
 51
202.1276583448
  0
ARC
  5
498
100
AcDbEntity
  8
ALL_ASSEMBLY_MEMBERS
100
AcDbCircle
 62
7
  6
CONTINUOUS
 10
5.3085131988
 20
3.5550543053
 40
0.335
100
AcDbArc
 50
205.0160597105
 51
206.4201880164
  0
ARC
  5
499
100
AcDbEntity
  8
ALL_ASSEMBLY_MEMBERS
100
AcDbCircle
 62
7
  6
CONTINUOUS
 10
5.3085131988
 20
3.5550543053
 40
0.335
100
AcDbArc
 50
209.295670067
 51
210.7026379144
  0
ARC
  5
49A
100
AcDbEntity
  8
ALL_ASSEMBLY_MEMBERS
100
AcDbCircle
 62
7
  6
CONTINUOUS
 10
5.3085131988
 20
3.5550543053
 40
0.335
100
AcDbArc
 50
213.5826589932
 51
214.9877581938
  0
ARC
  5
49B
100
AcDbEntity
  8
ALL_ASSEMBLY_MEMBERS
100
AcDbCircle
 62
7
  6
CONTINUOUS
 10
5.3085131988
 20
3.5550543053
 40
0.335
100
AcDbArc
 50
217.8701282621
 51
219.2801531856
  0
ARC
  5
49C
100
AcDbEntity
  8
ALL_ASSEMBLY_MEMBERS
100
AcDbCircle
 62
7
  6
CONTINUOUS
 10
5.3085131988
 20
3.5550543053
 40
0.335
100
AcDbArc
 50
222.1461813126
 51
223.5576671192
  0
ARC
  5
49D
100
AcDbEntity
  8
ALL_ASSEMBLY_MEMBERS
100
AcDbCircle
 62
7
  6
CONTINUOUS
 10
5.3085131988
 20
3.5550543053
 40
0.335
100
AcDbArc
 50
226.4423328808
 51
227.8538186874
  0
ARC
  5
49E
100
AcDbEntity
  8
ALL_ASSEMBLY_MEMBERS
100
AcDbCircle
 62
7
  6
CONTINUOUS
 10
5.3085131988
 20
3.5550543053
 40
0.335
100
AcDbArc
 50
312.1461813126
 51
313.5576671192
  0
ARC
  5
49F
100
AcDbEntity
  8
ALL_ASSEMBLY_MEMBERS
100
AcDbCircle
 62
7
  6
CONTINUOUS
 10
5.3085131988
 20
3.5550543053
 40
0.335
100
AcDbArc
 50
316.4423328808
 51
317.8538186874
  0
ARC
  5
4A0
100
AcDbEntity
  8
ALL_ASSEMBLY_MEMBERS
100
AcDbCircle
 62
7
  6
CONTINUOUS
 10
5.3085131988
 20
3.5550543053
 40
0.335
100
AcDbArc
 50
320.7198468144
 51
322.1298717379
  0
ARC
  5
4A1
100
AcDbEntity
  8
ALL_ASSEMBLY_MEMBERS
100
AcDbCircle
 62
7
  6
CONTINUOUS
 10
5.3085131988
 20
3.5550543053
 40
0.335
100
AcDbArc
 50
325.0122418062
 51
326.4173410068
  0
ARC
  5
4A2
100
AcDbEntity
  8
ALL_ASSEMBLY_MEMBERS
100
AcDbCircle
 62
7
  6
CONTINUOUS
 10
5.3085131988
 20
3.5550543053
 40
0.335
100
AcDbArc
 50
329.2973620856
 51
330.704329933
  0
ARC
  5
4A3
100
AcDbEntity
  8
ALL_ASSEMBLY_MEMBERS
100
AcDbCircle
 62
7
  6
CONTINUOUS
 10
5.3085131988
 20
3.5550543053
 40
0.335
100
AcDbArc
 50
333.5798119836
 51
334.9839402895
  0
ARC
  5
4A4
100
AcDbEntity
  8
ALL_ASSEMBLY_MEMBERS
100
AcDbCircle
 62
7
  6
CONTINUOUS
 10
5.3085131988
 20
3.5550543053
 40
0.335
100
AcDbArc
 50
337.8723416552
 51
339.2810005035
  0
ARC
  5
4A5
100
AcDbEntity
  8
ALL_ASSEMBLY_MEMBERS
100
AcDbCircle
 62
7
  6
CONTINUOUS
 10
5.3085131988
 20
3.5550543053
 40
0.335
100
AcDbArc
 50
342.1449994
 51
343.5535598939
  0
ARC
  5
4A6
100
AcDbEntity
  8
ALL_ASSEMBLY_MEMBERS
100
AcDbCircle
 62
7
  6
CONTINUOUS
 10
5.3085131988
 20
3.5550543053
 40
0.335
100
AcDbArc
 50
346.4447387181
 51
347.8540485302
  0
ARC
  5
4A7
100
AcDbEntity
  8
ALL_ASSEMBLY_MEMBERS
100
AcDbCircle
 62
7
  6
CONTINUOUS
 10
5.3085131988
 20
3.5550543053
 40
0.335
100
AcDbArc
 50
350.7200080868
 51
352.1278350084
  0
ARC
  5
4A8
100
AcDbEntity
  8
ALL_ASSEMBLY_MEMBERS
100
AcDbCircle
 62
7
  6
CONTINUOUS
 10
5.3085131988
 20
3.5550543053
 40
0.335
100
AcDbArc
 50
355.0132703463
 51
356.4172701021
  0
ARC
  5
4A9
100
AcDbEntity
  8
ALL_ASSEMBLY_MEMBERS
100
AcDbCircle
 62
7
  6
CONTINUOUS
 10
5.3085131988
 20
3.5550543053
 40
0.335
100
AcDbArc
 50
359.2950293426
 51
0.7049706574
  0
ARC
  5
4AA
100
AcDbEntity
  8
ALL_ASSEMBLY_MEMBERS
100
AcDbCircle
 62
7
  6
CONTINUOUS
 10
5.3085131988
 20
3.5550543053
 40
0.335
100
AcDbArc
 50
3.5827298979
 51
4.9867296537
  0
ARC
  5
4AB
100
AcDbEntity
  8
ALL_ASSEMBLY_MEMBERS
100
AcDbCircle
 62
7
  6
CONTINUOUS
 10
5.3085131988
 20
3.5550543053
 40
0.335
100
AcDbArc
 50
7.8721649916
 51
9.2799919132
  0
ARC
  5
4AC
100
AcDbEntity
  8
ALL_ASSEMBLY_MEMBERS
100
AcDbCircle
 62
7
  6
CONTINUOUS
 10
5.3085131988
 20
3.5550543053
 40
0.335
100
AcDbArc
 50
12.1459514698
 51
13.5552612819
  0
ARC
  5
4AD
100
AcDbEntity
  8
ALL_ASSEMBLY_MEMBERS
100
AcDbCircle
 62
7
  6
CONTINUOUS
 10
5.3085131988
 20
3.5550543053
 40
0.335
100
AcDbArc
 50
16.4464401061
 51
17.8550006
  0
ARC
  5
4AE
100
AcDbEntity
  8
ALL_ASSEMBLY_MEMBERS
100
AcDbCircle
 62
7
  6
CONTINUOUS
 10
5.3085131988
 20
3.5550543053
 40
0.335
100
AcDbArc
 50
20.7189994965
 51
22.1276583448
  0
ARC
  5
4AF
100
AcDbEntity
  8
ALL_ASSEMBLY_MEMBERS
100
AcDbCircle
 62
7
  6
CONTINUOUS
 10
5.3085131988
 20
3.5550543053
 40
0.335
100
AcDbArc
 50
25.0160597105
 51
26.4201880164
  0
ARC
  5
4B0
100
AcDbEntity
  8
ALL_ASSEMBLY_MEMBERS
100
AcDbCircle
 62
7
  6
CONTINUOUS
 10
5.3085131988
 20
3.5550543053
 40
0.335
100
AcDbArc
 50
29.295670067
 51
30.7026379144
  0
ARC
  5
4B1
100
AcDbEntity
  8
ALL_ASSEMBLY_MEMBERS
100
AcDbCircle
 62
7
  6
CONTINUOUS
 10
5.3085131988
 20
3.5550543053
 40
0.335
100
AcDbArc
 50
33.5826589932
 51
34.9877581938
  0
ARC
  5
4B2
100
AcDbEntity
  8
ALL_ASSEMBLY_MEMBERS
100
AcDbCircle
 62
7
  6
CONTINUOUS
 10
5.3085131988
 20
3.5550543053
 40
0.335
100
AcDbArc
 50
37.8701282621
 51
39.2801531856
  0
ARC
  5
4B3
100
AcDbEntity
  8
ALL_ASSEMBLY_MEMBERS
100
AcDbCircle
 62
7
  6
CONTINUOUS
 10
5.3085131988
 20
3.5550543053
 40
0.335
100
AcDbArc
 50
42.1461813126
 51
43.5576671192
  0
ARC
  5
4B4
100
AcDbEntity
  8
ALL_ASSEMBLY_MEMBERS
100
AcDbCircle
 62
7
  6
CONTINUOUS
 10
5.3085131988
 20
3.5550543053
 40
0.335
100
AcDbArc
 50
46.4423328808
 51
47.8538186874
  0
ARC
  5
4B5
100
AcDbEntity
  8
ALL_ASSEMBLY_MEMBERS
100
AcDbCircle
 62
7
  6
CONTINUOUS
 10
5.3085131988
 20
3.5550543053
 40
0.335
100
AcDbArc
 50
50.7198468144
 51
52.1298717379
  0
ARC
  5
4B6
100
AcDbEntity
  8
ALL_ASSEMBLY_MEMBERS
100
AcDbCircle
 62
7
  6
CONTINUOUS
 10
5.3085131988
 20
3.5550543053
 40
0.335
100
AcDbArc
 50
55.0122418062
 51
56.4173410068
  0
ARC
  5
4B7
100
AcDbEntity
  8
ALL_ASSEMBLY_MEMBERS
100
AcDbCircle
 62
7
  6
CONTINUOUS
 10
5.3085131988
 20
3.5550543053
 40
0.335
100
AcDbArc
 50
59.2973620856
 51
60.704329933
  0
ARC
  5
4B8
100
AcDbEntity
  8
ALL_ASSEMBLY_MEMBERS
100
AcDbCircle
 62
7
  6
CONTINUOUS
 10
5.3085131988
 20
3.5550543053
 40
0.335
100
AcDbArc
 50
63.5798119836
 51
64.9839402895
  0
ARC
  5
4B9
100
AcDbEntity
  8
ALL_ASSEMBLY_MEMBERS
100
AcDbCircle
 62
7
  6
CONTINUOUS
 10
5.3085131988
 20
3.5550543053
 40
0.335
100
AcDbArc
 50
67.8723416552
 51
69.2810005035
  0
ARC
  5
4BA
100
AcDbEntity
  8
ALL_ASSEMBLY_MEMBERS
100
AcDbCircle
 62
7
  6
CONTINUOUS
 10
5.3085131988
 20
3.5550543053
 40
0.335
100
AcDbArc
 50
72.1449994
 51
73.5535598939
  0
ARC
  5
4BB
100
AcDbEntity
  8
ALL_ASSEMBLY_MEMBERS
100
AcDbCircle
 62
7
  6
CONTINUOUS
 10
5.3085131988
 20
3.5550543053
 40
0.335
100
AcDbArc
 50
76.4447387181
 51
77.8540485302
  0
ARC
  5
4BC
100
AcDbEntity
  8
ALL_ASSEMBLY_MEMBERS
100
AcDbCircle
 62
7
  6
CONTINUOUS
 10
5.3085131988
 20
3.5550543053
 40
0.335
100
AcDbArc
 50
80.7200080868
 51
82.1261443678
  0
ARC
  5
4BD
100
AcDbEntity
  8
ALL_ASSEMBLY_MEMBERS
100
AcDbCircle
 62
7
  6
CONTINUOUS
 10
5.3085131988
 20
3.5550543053
 40
0.335
100
AcDbArc
 50
85.0145054552
 51
86.4184069892
  0
ARC
  5
4BE
100
AcDbEntity
  8
ALL_ASSEMBLY_MEMBERS
100
AcDbCircle
 62
7
  6
CONTINUOUS
 10
5.3085131988
 20
3.5550543053
 40
0.335
100
AcDbArc
 50
89.2983605765
 51
90.7016394235
  0
ARC
  5
4BF
100
AcDbEntity
  8
ALL_ASSEMBLY_MEMBERS
100
AcDbCircle
 62
7
  6
CONTINUOUS
 10
5.3085131988
 20
3.5550543053
 40
0.335
100
AcDbArc
 50
93.5815930108
 51
94.9854945448
  0
ARC
  5
4C0
100
AcDbEntity
  8
ALL_ASSEMBLY_MEMBERS
100
AcDbCircle
 62
7
  6
CONTINUOUS
 10
5.3085131988
 20
3.5550543053
 40
0.335
100
AcDbArc
 50
97.8738556322
 51
99.2799919132
  0
ARC
  5
4C1
100
AcDbEntity
  8
ALL_ASSEMBLY_MEMBERS
100
AcDbCircle
 62
7
  6
CONTINUOUS
 10
5.3085131988
 20
3.5550543053
 40
0.335
100
AcDbArc
 50
102.1459514698
 51
103.5552612819
  0
ARC
  5
4C2
100
AcDbEntity
  8
ALL_ASSEMBLY_MEMBERS
100
AcDbCircle
 62
7
  6
CONTINUOUS
 10
5.3085131988
 20
3.5550543053
 40
0.335
100
AcDbArc
 50
106.4464401061
 51
107.8550006
  0
ARC
  5
4C3
100
AcDbEntity
  8
ALL_ASSEMBLY_MEMBERS
100
AcDbCircle
 62
7
  6
CONTINUOUS
 10
5.3085131988
 20
3.5550543053
 40
0.335
100
AcDbArc
 50
110.7189994965
 51
112.1276583448
  0
ARC
  5
4C4
100
AcDbEntity
  8
ALL_ASSEMBLY_MEMBERS
100
AcDbCircle
 62
7
  6
CONTINUOUS
 10
5.3085131988
 20
3.5550543053
 40
0.335
100
AcDbArc
 50
115.0160597105
 51
116.4201880164
  0
ARC
  5
4C5
100
AcDbEntity
  8
ALL_ASSEMBLY_MEMBERS
100
AcDbCircle
 62
7
  6
CONTINUOUS
 10
5.3085131988
 20
3.5550543053
 40
0.335
100
AcDbArc
 50
119.295670067
 51
120.7026379144
  0
ARC
  5
4C6
100
AcDbEntity
  8
ALL_ASSEMBLY_MEMBERS
100
AcDbCircle
 62
7
  6
CONTINUOUS
 10
5.3085131988
 20
3.5550543053
 40
0.335
100
AcDbArc
 50
123.5826589932
 51
124.9877581938
  0
ARC
  5
4C7
100
AcDbEntity
  8
ALL_ASSEMBLY_MEMBERS
100
AcDbCircle
 62
7
  6
CONTINUOUS
 10
5.3085131988
 20
3.5550543053
 40
0.335
100
AcDbArc
 50
127.8701282621
 51
129.2801531856
  0
ARC
  5
4C8
100
AcDbEntity
  8
ALL_ASSEMBLY_MEMBERS
100
AcDbCircle
 62
7
  6
CONTINUOUS
 10
5.3085131988
 20
3.5550543053
 40
0.335
100
AcDbArc
 50
132.1461813126
 51
133.5576671192
  0
ARC
  5
4C9
100
AcDbEntity
  8
ALL_ASSEMBLY_MEMBERS
100
AcDbCircle
 62
7
  6
CONTINUOUS
 10
5.3085131988
 20
3.5550543053
 40
0.335
100
AcDbArc
 50
136.4423328808
 51
137.8538186874
  0
ARC
  5
4CA
100
AcDbEntity
  8
ALL_ASSEMBLY_MEMBERS
100
AcDbCircle
 62
7
  6
CONTINUOUS
 10
5.3085131988
 20
3.5550543053
 40
0.335
100
AcDbArc
 50
140.7198468144
 51
142.1298717379
  0
ARC
  5
4CB
100
AcDbEntity
  8
ALL_ASSEMBLY_MEMBERS
100
AcDbCircle
 62
7
  6
CONTINUOUS
 10
5.3085131988
 20
3.5550543053
 40
0.335
100
AcDbArc
 50
145.0122418062
 51
146.4173410068
  0
ARC
  5
4CC
100
AcDbEntity
  8
ALL_ASSEMBLY_MEMBERS
100
AcDbCircle
 62
7
  6
CONTINUOUS
 10
5.3085131988
 20
3.5550543053
 40
0.335
100
AcDbArc
 50
149.2973620856
 51
150.704329933
  0
ARC
  5
4CD
100
AcDbEntity
  8
ALL_ASSEMBLY_MEMBERS
100
AcDbCircle
 62
7
  6
CONTINUOUS
 10
5.3085131988
 20
3.5550543053
 40
0.335
100
AcDbArc
 50
153.5798119836
 51
154.9839402895
  0
ARC
  5
4CE
100
AcDbEntity
  8
ALL_ASSEMBLY_MEMBERS
100
AcDbCircle
 62
7
  6
CONTINUOUS
 10
5.3085131988
 20
3.5550543053
 40
0.335
100
AcDbArc
 50
157.8723416552
 51
159.2810005035
  0
ARC
  5
4CF
100
AcDbEntity
  8
ALL_ASSEMBLY_MEMBERS
100
AcDbCircle
 62
7
  6
CONTINUOUS
 10
5.3085131988
 20
3.5550543053
 40
0.335
100
AcDbArc
 50
162.1449994
 51
163.5535598939
  0
ARC
  5
4D0
100
AcDbEntity
  8
ALL_ASSEMBLY_MEMBERS
100
AcDbCircle
 62
7
  6
CONTINUOUS
 10
5.3085131988
 20
3.5550543053
 40
0.335
100
AcDbArc
 50
166.4447387181
 51
167.8540485302
  0
ARC
  5
4D1
100
AcDbEntity
  8
ALL_ASSEMBLY_MEMBERS
100
AcDbCircle
 62
7
  6
CONTINUOUS
 10
5.3085131988
 20
3.5550543053
 40
0.335
100
AcDbArc
 50
170.7200080868
 51
172.1278350084
  0
ARC
  5
4D2
100
AcDbEntity
  8
ALL_ASSEMBLY_MEMBERS
100
AcDbCircle
 62
7
  6
CONTINUOUS
 10
5.3085131988
 20
3.5550543053
 40
0.335
100
AcDbArc
 50
175.0132703463
 51
176.4172701021
  0
ARC
  5
4D3
100
AcDbEntity
  8
ALL_ASSEMBLY_MEMBERS
100
AcDbCircle
 62
7
  6
CONTINUOUS
 10
5.3085131988
 20
3.5550543053
 40
0.335
100
AcDbArc
 50
179.2950293426
 51
180.7049706574
  0
ARC
  5
4D4
100
AcDbEntity
  8
ALL_ASSEMBLY_MEMBERS
100
AcDbCircle
 62
7
  6
CONTINUOUS
 10
5.3085131988
 20
3.5550543053
 40
0.3225
100
AcDbArc
 50
312.7256690286
 51
227.2743250999
  0
ARC
  5
4D5
100
AcDbEntity
  8
ALL_ASSEMBLY_MEMBERS
100
AcDbCircle
 62
7
  6
CONTINUOUS
 10
5.3085131988
 20
3.5550543053
 40
0.22025
100
AcDbArc
 50
353.3155393166
 51
186.6844606834
  0
ARC
  5
4D6
100
AcDbEntity
  8
ALL_ASSEMBLY_MEMBERS
100
AcDbCircle
 62
7
  6
CONTINUOUS
 10
5.3085131988
 20
3.5550543053
 40
0.21875
100
AcDbArc
 50
0.0
 51
180.0
  0
ARC
  5
4D7
100
AcDbEntity
  8
ALL_ASSEMBLY_MEMBERS
100
AcDbCircle
 62
7
  6
CONTINUOUS
 10
1.9510131988
 20
6.5025543053
 40
0.01
100
AcDbArc
 50
180.0
 51
270.0
  0
ARC
  5
4D8
100
AcDbEntity
  8
ALL_ASSEMBLY_MEMBERS
100
AcDbCircle
 62
7
  6
CONTINUOUS
 10
1.9510131988
 20
6.6075543053
 40
0.01
100
AcDbArc
 50
90.0
 51
180.0
  0
ARC
  5
4D9
100
AcDbEntity
  8
ALL_ASSEMBLY_MEMBERS
100
AcDbCircle
 62
7
  6
CONTINUOUS
 10
3.3410131988
 20
6.5550543053
 40
0.5625
100
AcDbArc
 50
186.3810346159
 51
173.6189653761
  0
ARC
  5
4DA
100
AcDbEntity
  8
ALL_ASSEMBLY_MEMBERS
100
AcDbCircle
 62
7
  6
CONTINUOUS
 10
3.3410131988
 20
6.5550543053
 40
0.5485886871
100
AcDbArc
 50
186.5435340759
 51
173.4564653453
  0
ARC
  5
4DB
100
AcDbEntity
  8
ALL_ASSEMBLY_MEMBERS
100
AcDbCircle
 62
7
  6
CONTINUOUS
 10
3.3410131988
 20
6.5550543053
 40
0.3147829219
100
AcDbArc
 50
191.4550644757
 51
168.5449355243
  0
ARC
  5
4DC
100
AcDbEntity
  8
ALL_ASSEMBLY_MEMBERS
100
AcDbCircle
 62
7
  6
CONTINUOUS
 10
3.3410131988
 20
6.5550543053
 40
0.2509420131
100
AcDbArc
 50
194.4274220875
 51
165.5725779071
  0
ARC
  5
4DD
100
AcDbEntity
  8
ALL_ASSEMBLY_MEMBERS
100
AcDbCircle
 62
7
  6
CONTINUOUS
 10
3.3410131988
 20
6.5550543053
 40
0.25
100
AcDbArc
 50
170.1825437376
 51
172.9424562624
  0
ARC
  5
4DE
100
AcDbEntity
  8
ALL_ASSEMBLY_MEMBERS
100
AcDbCircle
 62
7
  6
CONTINUOUS
 10
3.3410131988
 20
6.5550543053
 40
0.25
100
AcDbArc
 50
175.8075437376
 51
178.5674562624
  0
ARC
  5
4DF
100
AcDbEntity
  8
ALL_ASSEMBLY_MEMBERS
100
AcDbCircle
 62
7
  6
CONTINUOUS
 10
3.3410131988
 20
6.5550543053
 40
0.25
100
AcDbArc
 50
181.4325437376
 51
184.1924562624
  0
ARC
  5
4E0
100
AcDbEntity
  8
ALL_ASSEMBLY_MEMBERS
100
AcDbCircle
 62
7
  6
CONTINUOUS
 10
3.3410131988
 20
6.5550543053
 40
0.25
100
AcDbArc
 50
187.0575437376
 51
189.8174562624
  0
ARC
  5
4E1
100
AcDbEntity
  8
ALL_ASSEMBLY_MEMBERS
100
AcDbCircle
 62
7
  6
CONTINUOUS
 10
3.3410131988
 20
6.5550543053
 40
0.25
100
AcDbArc
 50
192.6825437376
 51
167.3174562624
  0
CIRCLE
  5
4E2
100
AcDbEntity
  8
ALL_ASSEMBLY_MEMBERS
100
AcDbCircle
 62
7
  6
CONTINUOUS
 10
3.3410131988
 20
6.5550543053
 40
0.2349999996
  0
ARC
  5
4E3
100
AcDbEntity
  8
ALL_ASSEMBLY_MEMBERS
100
AcDbCircle
 62
7
  6
CONTINUOUS
 10
5.5430602098
 20
2.3150473982
 40
0.0153748533
100
AcDbArc
 50
0.0257402142
 51
9.4929867517
  0
ARC
  5
4E4
100
AcDbEntity
  8
ALL_ASSEMBLY_MEMBERS
100
AcDbCircle
 62
7
  6
CONTINUOUS
 10
5.5431175555
 20
1.940057284
 40
0.0153175063
100
AcDbArc
 50
352.6090195785
 51
359.9888581598
  0
ARC
  5
4E5
100
AcDbEntity
  8
ALL_ASSEMBLY_MEMBERS
100
AcDbCircle
 62
7
  6
CONTINUOUS
 10
5.5435131988
 20
2.3150543053
 40
0.015
100
AcDbArc
 50
60.1172410965
 51
90.0
  0
ARC
  5
4E6
100
AcDbEntity
  8
ALL_ASSEMBLY_MEMBERS
100
AcDbCircle
 62
7
  6
CONTINUOUS
 10
5.5435131988
 20
1.9400543053
 40
0.015
100
AcDbArc
 50
270.0
 51
299.8827589003
  0
ARC
  5
4E7
100
AcDbEntity
  8
ALL_ASSEMBLY_MEMBERS
100
AcDbCircle
 62
7
  6
CONTINUOUS
 10
5.543647199
 20
1.9398211404
 40
0.0147310726
100
AcDbArc
 50
299.8826990407
 51
304.3946846545
  0
ARC
  5
4E8
100
AcDbEntity
  8
ALL_ASSEMBLY_MEMBERS
100
AcDbCircle
 62
7
  6
CONTINUOUS
 10
5.5436539601
 20
2.3152980551
 40
0.0147185265
100
AcDbArc
 50
51.2029639747
 51
60.1195924324
  0
ARC
  5
4E9
100
AcDbEntity
  8
ALL_ASSEMBLY_MEMBERS
100
AcDbCircle
 62
7
  6
CONTINUOUS
 10
7.2785131988
 20
6.5550543053
 40
0.5625
100
AcDbArc
 50
6.3810346159
 51
353.6189653761
  0
ARC
  5
4EA
100
AcDbEntity
  8
ALL_ASSEMBLY_MEMBERS
100
AcDbCircle
 62
7
  6
CONTINUOUS
 10
7.2785131988
 20
6.5550543053
 40
0.5485886871
100
AcDbArc
 50
6.5435340759
 51
353.4564653453
  0
ARC
  5
4EB
100
AcDbEntity
  8
ALL_ASSEMBLY_MEMBERS
100
AcDbCircle
 62
7
  6
CONTINUOUS
 10
7.2785131988
 20
6.5550543053
 40
0.3147829219
100
AcDbArc
 50
11.4550644757
 51
348.5449355243
  0
ARC
  5
4EC
100
AcDbEntity
  8
ALL_ASSEMBLY_MEMBERS
100
AcDbCircle
 62
7
  6
CONTINUOUS
 10
7.2785131988
 20
6.5550543053
 40
0.2509420131
100
AcDbArc
 50
14.4274220875
 51
345.5725779071
  0
ARC
  5
4ED
100
AcDbEntity
  8
ALL_ASSEMBLY_MEMBERS
100
AcDbCircle
 62
7
  6
CONTINUOUS
 10
7.2785131988
 20
6.5550543053
 40
0.25
100
AcDbArc
 50
350.1825437376
 51
352.9424562624
  0
ARC
  5
4EE
100
AcDbEntity
  8
ALL_ASSEMBLY_MEMBERS
100
AcDbCircle
 62
7
  6
CONTINUOUS
 10
7.2785131988
 20
6.5550543053
 40
0.25
100
AcDbArc
 50
355.8075437376
 51
358.5674562624
  0
ARC
  5
4EF
100
AcDbEntity
  8
ALL_ASSEMBLY_MEMBERS
100
AcDbCircle
 62
7
  6
CONTINUOUS
 10
7.2785131988
 20
6.5550543053
 40
0.25
100
AcDbArc
 50
1.4325437376
 51
4.1924562624
  0
ARC
  5
4F0
100
AcDbEntity
  8
ALL_ASSEMBLY_MEMBERS
100
AcDbCircle
 62
7
  6
CONTINUOUS
 10
7.2785131988
 20
6.5550543053
 40
0.25
100
AcDbArc
 50
7.0575437376
 51
9.8174562624
  0
ARC
  5
4F1
100
AcDbEntity
  8
ALL_ASSEMBLY_MEMBERS
100
AcDbCircle
 62
7
  6
CONTINUOUS
 10
7.2785131988
 20
6.5550543053
 40
0.25
100
AcDbArc
 50
12.6825437376
 51
347.3174562624
  0
CIRCLE
  5
4F2
100
AcDbEntity
  8
ALL_ASSEMBLY_MEMBERS
100
AcDbCircle
 62
7
  6
CONTINUOUS
 10
7.2785131988
 20
6.5550543053
 40
0.2349999996
  0
ARC
  5
4F3
100
AcDbEntity
  8
ALL_ASSEMBLY_MEMBERS
100
AcDbCircle
 62
7
  6
CONTINUOUS
 10
8.6685131988
 20
6.5025543053
 40
0.01
100
AcDbArc
 50
270.0
 51
360.0
  0
ARC
  5
4F4
100
AcDbEntity
  8
ALL_ASSEMBLY_MEMBERS
100
AcDbCircle
 62
7
  6
CONTINUOUS
 10
8.6685131988
 20
6.6075543053
 40
0.01
100
AcDbArc
 50
0.0
 51
90.0
  0
SPLINE
  5
4F5
100
AcDbEntity
  8
ALL_ASSEMBLY_MEMBERS
100
AcDbSpline
 62
7
  6
CONTINUOUS
 70
0
 71
3
 72
11
 73
7
 74
0
 42
0.0000001
 43
0.0000001
 44
0.0000000001
 40
0.0
 40
0.0
 40
0.0
 40
0.0
 40
0.2308288553
 40
0.4751592159
 40
0.7330725882
 40
1.0
 40
1.0
 40
1.0
 40
1.0
 10
5.0641503444
 20
2.3267692421
 30
0.0
 10
5.0633479643
 20
2.3261241568
 30
0.0
 10
5.06183174
 20
2.3246173652
 30
0.0
 10
5.0600469986
 20
2.321847022
 30
0.0
 10
5.0588664715
 20
2.3185951104
 30
0.0
 10
5.058591336
 20
2.3162448495
 30
0.0
 10
5.058591336
 20
2.3150543053
 30
0.0
  0
SPLINE
  5
4F6
100
AcDbEntity
  8
ALL_ASSEMBLY_MEMBERS
100
AcDbSpline
 62
7
  6
CONTINUOUS
 70
0
 71
3
 72
16
 73
12
 74
0
 42
0.0000001
 43
0.0000001
 44
0.0000000001
 40
0.0
 40
0.0
 40
0.0
 40
0.0
 40
0.1079341655
 40
0.2202489352
 40
0.3375160539
 40
0.4602462765
 40
0.5886081905
 40
0.7222029625
 40
0.7906857514
 40
0.8600502994
 40
1.0
 40
1.0
 40
1.0
 40
1.0
 10
5.0672073716
 20
2.328060006
 30
0.0
 10
5.0667414519
 20
2.3277667451
 30
0.0
 10
5.0658272202
 20
2.327108115
 30
0.0
 10
5.0645626225
 20
2.325933768
 30
0.0
 10
5.0634053573
 20
2.3245527645
 30
0.0
 10
5.0623864641
 20
2.3229682501
 30
0.0
 10
5.0615385125
 20
2.3211930974
 30
0.0
 10
5.0610092806
 20
2.3195877251
 30
0.0
 10
5.0607014211
 20
2.3182370036
 30
0.0
 10
5.0604762302
 20
2.3168373741
 30
0.0
 10
5.0604073852
 20
2.315768134
 30
0.0
 10
5.0604073852
 20
2.3150543053
 30
0.0
  0
SPLINE
  5
4F7
100
AcDbEntity
  8
ALL_ASSEMBLY_MEMBERS
100
AcDbSpline
 62
7
  6
CONTINUOUS
 70
0
 71
3
 72
15
 73
11
 74
0
 42
0.0000001
 43
0.0000001
 44
0.0000000001
 40
0.0
 40
0.0
 40
0.0
 40
0.0
 40
0.1033400481
 40
0.2123558047
 40
0.3277453695
 40
0.4500692268
 40
0.5794459642
 40
0.7153124528
 40
0.8563132294
 40
1.0
 40
1.0
 40
1.0
 40
1.0
 10
5.0706988544
 20
2.328060006
 30
0.0
 10
5.0702790864
 20
2.327764799
 30
0.0
 10
5.0694555509
 20
2.3271007513
 30
0.0
 10
5.0683243514
 20
2.3259250043
 30
0.0
 10
5.067289775
 20
2.3245432002
 30
0.0
 10
5.066379448
 20
2.3229588229
 30
0.0
 10
5.065622274
 20
2.3211845956
 30
0.0
 10
5.0650506537
 20
2.3192450936
 30
0.0
 10
5.06469396
 20
2.3171829122
 30
0.0
 10
5.064612829
 20
2.3157678427
 30
0.0
 10
5.064612829
 20
2.3150543053
 30
0.0
  0
SPLINE
  5
4F8
100
AcDbEntity
  8
ALL_ASSEMBLY_MEMBERS
100
AcDbSpline
 62
7
  6
CONTINUOUS
 70
0
 71
3
 72
14
 73
10
 74
0
 42
0.0000001
 43
0.0000001
 44
0.0000000001
 40
0.0
 40
0.0
 40
0.0
 40
0.0
 40
0.0982961107
 40
0.2037777802
 40
0.317235231
 40
0.4392358053
 40
0.7078080329
 40
0.8522988446
 40
1.0
 40
1.0
 40
1.0
 40
1.0
 10
5.0764806192
 20
2.328060006
 30
0.0
 10
5.0761109546
 20
2.3277622351
 30
0.0
 10
5.0753863821
 20
2.3270915292
 30
0.0
 10
5.0743999608
 20
2.3259147238
 30
0.0
 10
5.0734982162
 20
2.324532498
 30
0.0
 10
5.0724066005
 20
2.3223523869
 30
0.0
 10
5.0716418288
 20
2.3198602548
 30
0.0
 10
5.0712378047
 20
2.3171798879
 30
0.0
 10
5.0711671667
 20
2.3157675638
 30
0.0
 10
5.0711671667
 20
2.3150543053
 30
0.0
  0
SPLINE
  5
4F9
100
AcDbEntity
  8
ALL_ASSEMBLY_MEMBERS
100
AcDbSpline
 62
7
  6
CONTINUOUS
 70
0
 71
3
 72
14
 73
10
 74
0
 42
0.0000001
 43
0.0000001
 44
0.0000000001
 40
0.0
 40
0.0
 40
0.0
 40
0.0
 40
0.1942781898
 40
0.305759
 40
0.4274667849
 40
0.5592873649
 40
0.7002257343
 40
0.8482511184
 40
1.0
 40
1.0
 40
1.0
 40
1.0
 10
5.0844969847
 20
2.328060006
 30
0.0
 10
5.0838362761
 20
2.3274301475
 30
0.0
 10
5.0829403845
 20
2.3262828584
 30
0.0
 10
5.0819718738
 20
2.324521737
 30
0.0
 10
5.0813032385
 20
2.3229387353
 30
0.0
 10
5.0807476755
 20
2.32116793
 30
0.0
 10
5.0803283163
 20
2.3192330899
 30
0.0
 10
5.0800667178
 20
2.3171765509
 30
0.0
 10
5.0800072765
 20
2.3157673079
 30
0.0
 10
5.0800072765
 20
2.3150543053
 30
0.0
  0
SPLINE
  5
4FA
100
AcDbEntity
  8
ALL_ASSEMBLY_MEMBERS
100
AcDbSpline
 62
7
  6
CONTINUOUS
 70
0
 71
3
 72
15
 73
11
 74
0
 42
0.0000001
 43
0.0000001
 44
0.0000000001
 40
0.0
 40
0.0
 40
0.0
 40
0.0
 40
0.0873505947
 40
0.1854297675
 40
0.2950025041
 40
0.4164687249
 40
0.5495353392
 40
0.6929616546
 40
0.8443809499
 40
1.0
 40
1.0
 40
1.0
 40
1.0
 10
5.0946707488
 20
2.328060006
 30
0.0
 10
5.0944122665
 20
2.3277546219
 30
0.0
 10
5.0939090814
 20
2.327067144
 30
0.0
 10
5.0932400928
 20
2.3258904796
 30
0.0
 10
5.0926287125
 20
2.3245100673
 30
0.0
 10
5.0920910453
 20
2.3229293438
 30
0.0
 10
5.0916438844
 20
2.3211604109
 30
0.0
 10
5.0913064071
 20
2.319227952
 30
0.0
 10
5.0910958464
 20
2.3171738845
 30
0.0
 10
5.0910480231
 20
2.315767085
 30
0.0
 10
5.0910480231
 20
2.3150543053
 30
0.0
  0
SPLINE
  5
4FB
100
AcDbEntity
  8
ALL_ASSEMBLY_MEMBERS
100
AcDbSpline
 62
7
  6
CONTINUOUS
 70
0
 71
3
 72
15
 73
11
 74
0
 42
0.0000001
 43
0.0000001
 44
0.0000000001
 40
0.0
 40
0.0
 40
0.0
 40
0.0
 40
0.0821738375
 40
0.1769251858
 40
0.2848699068
 40
0.4062394226
 40
0.5405426454
 40
0.6863009756
 40
0.8408437348
 40
1.0
 40
1.0
 40
1.0
 40
1.0
 10
5.1069039325
 20
2.328060006
 30
0.0
 10
5.1067065508
 20
2.3277495123
 30
0.0
 10
5.1063251758
 20
2.3270529873
 30
0.0
 10
5.1058248581
 20
2.3258781141
 30
0.0
 10
5.1053672839
 20
2.3244996746
 30
0.0
 10
5.1049646393
 20
2.3229210032
 30
0.0
 10
5.1046296233
 20
2.3211540765
 30
0.0
 10
5.1043767253
 20
2.3192236968
 30
0.0
 10
5.1042189119
 20
2.3171717129
 30
0.0
 10
5.1041830784
 20
2.3157669036
 30
0.0
 10
5.1041830784
 20
2.3150543053
 30
0.0
  0
SPLINE
  5
4FC
100
AcDbEntity
  8
ALL_ASSEMBLY_MEMBERS
100
AcDbSpline
 62
7
  6
CONTINUOUS
 70
0
 71
3
 72
15
 73
11
 74
0
 42
0.0000001
 43
0.0000001
 44
0.0000000001
 40
0.0
 40
0.0
 40
0.0
 40
0.0
 40
0.0778601991
 40
0.1699304408
 40
0.2766173723
 40
0.397968519
 40
0.5333097958
 40
0.6809628894
 40
0.8380147753
 40
1.0
 40
1.0
 40
1.0
 40
1.0
 10
5.1210787237
 20
2.328060006
 30
0.0
 10
5.1209464183
 20
2.3277441407
 30
0.0
 10
5.120693303
 20
2.3270397608
 30
0.0
 10
5.1203651308
 20
2.3258674648
 30
0.0
 10
5.120064643
 20
2.3244912533
 30
0.0
 10
5.1197999965
 20
2.3229145177
 30
0.0
 10
5.1195796893
 20
2.3211492914
 30
0.0
 10
5.1194133378
 20
2.3192205421
 30
0.0
 10
5.1193095146
 20
2.31717012
 30
0.0
 10
5.1192859443
 20
2.3157667707
 30
0.0
 10
5.1192859443
 20
2.3150543053
 30
0.0
  0
SPLINE
  5
4FD
100
AcDbEntity
  8
ALL_ASSEMBLY_MEMBERS
100
AcDbSpline
 62
7
  6
CONTINUOUS
 70
0
 71
3
 72
14
 73
10
 74
0
 42
0.0000001
 43
0.0000001
 44
0.0000000001
 40
0.0
 40
0.0
 40
0.0
 40
0.0
 40
0.0750291668
 40
0.1653890232
 40
0.2713008836
 40
0.3926706359
 40
0.5286967501
 40
0.677570173
 40
1.0
 40
1.0
 40
1.0
 40
1.0
 10
5.1370586114
 20
2.328060006
 30
0.0
 10
5.1369952279
 20
2.3277398817
 30
0.0
 10
5.1368750698
 20
2.3270303463
 30
0.0
 10
5.1367204807
 20
2.3258603302
 30
0.0
 10
5.136578785
 20
2.3244858703
 30
0.0
 10
5.136453896
 20
2.3229104903
 30
0.0
 10
5.1363498693
 20
2.3211463749
 30
0.0
 10
5.1362424269
 20
2.3185068885
 30
0.0
 10
5.1362111722
 20
2.3164567115
 30
0.0
 10
5.1362111722
 20
2.3150543053
 30
0.0
  0
SPLINE
  5
4FE
100
AcDbEntity
  8
ALL_ASSEMBLY_MEMBERS
100
AcDbSpline
 62
7
  6
CONTINUOUS
 70
0
 71
3
 72
14
 73
10
 74
0
 42
0.0000001
 43
0.0000001
 44
0.0000000001
 40
0.0
 40
0.0
 40
0.0
 40
0.0
 40
0.3224071417
 40
0.4712674363
 40
0.6073039316
 40
0.7286805231
 40
0.8346017218
 40
0.9249678131
 40
1.0
 40
1.0
 40
1.0
 40
1.0
 10
5.4808152253
 20
2.3150543053
 30
0.0
 10
5.4808152253
 20
2.3164566128
 30
0.0
 10
5.4807839795
 20
2.3185066342
 30
0.0
 10
5.4806765429
 20
2.3211460101
 30
0.0
 10
5.4805725251
 20
2.3229101438
 30
0.0
 10
5.480447636
 20
2.3244856397
 30
0.0
 10
5.4803059329
 20
2.3258601968
 30
0.0
 10
5.4801513351
 20
2.3270302934
 30
0.0
 10
5.4800311722
 20
2.3277398689
 30
0.0
 10
5.4799677862
 20
2.328060006
 30
0.0
  0
SPLINE
  5
4FF
100
AcDbEntity
  8
ALL_ASSEMBLY_MEMBERS
100
AcDbSpline
 62
7
  6
CONTINUOUS
 70
0
 71
3
 72
15
 73
11
 74
0
 42
0.0000001
 43
0.0000001
 44
0.0000000001
 40
0.0
 40
0.0
 40
0.0
 40
0.0
 40
0.1619799815
 40
0.3190146381
 40
0.4666546714
 40
0.6020061371
 40
0.7233639565
 40
0.830060203
 40
0.9221367285
 40
1.0
 40
1.0
 40
1.0
 40
1.0
 10
5.4977404532
 20
2.3150543053
 30
0.0
 10
5.4977404532
 20
2.3157667477
 30
0.0
 10
5.4977168907
 20
2.3171699982
 30
0.0
 10
5.4976130806
 20
2.3192202645
 30
0.0
 10
5.4974467395
 20
2.3211489257
 30
0.0
 10
5.4972264511
 20
2.3229141711
 30
0.0
 10
5.496961804
 20
2.3244910235
 30
0.0
 10
5.4966613006
 20
2.3258673321
 30
0.0
 10
5.4963331103
 20
2.3270397083
 30
0.0
 10
5.4960799845
 20
2.3277441282
 30
0.0
 10
5.4959476738
 20
2.328060006
 30
0.0
  0
SPLINE
  5
500
100
AcDbEntity
  8
ALL_ASSEMBLY_MEMBERS
100
AcDbSpline
 62
7
  6
CONTINUOUS
 70
0
 71
3
 72
15
 73
11
 74
0
 42
0.0000001
 43
0.0000001
 44
0.0000000001
 40
0.0
 40
0.0
 40
0.0
 40
0.0
 40
0.1591511047
 40
0.3136768838
 40
0.4594222561
 40
0.5937353633
 40
0.7151112899
 40
0.8230652942
 40
0.9178230061
 40
1.0
 40
1.0
 40
1.0
 40
1.0
 10
5.5128433192
 20
2.3150543053
 30
0.0
 10
5.5128433192
 20
2.3157668805
 30
0.0
 10
5.5128074975
 20
2.3171715908
 30
0.0
 10
5.512649704
 20
2.3192234188
 30
0.0
 10
5.5123968219
 20
2.3211537095
 30
0.0
 10
5.5120618343
 20
2.3229206565
 30
0.0
 10
5.5116591884
 20
2.3244994462
 30
0.0
 10
5.5112015905
 20
2.3258779824
 30
0.0
 10
5.5107012454
 20
2.3270529353
 30
0.0
 10
5.5103198543
 20
2.3277495004
 30
0.0
 10
5.510122465
 20
2.328060006
 30
0.0
  0
SPLINE
  5
501
100
AcDbEntity
  8
ALL_ASSEMBLY_MEMBERS
100
AcDbSpline
 62
7
  6
CONTINUOUS
 70
0
 71
3
 72
15
 73
11
 74
0
 42
0.0000001
 43
0.0000001
 44
0.0000000001
 40
0.0
 40
0.0
 40
0.0
 40
0.0
 40
0.1556139917
 40
0.3070166148
 40
0.4504300933
 40
0.5835062084
 40
0.7049785136
 40
0.8145605014
 40
0.9126461422
 40
1.0
 40
1.0
 40
1.0
 40
1.0
 10
5.5259783744
 20
2.3150543053
 30
0.0
 10
5.5259783744
 20
2.3157670618
 30
0.0
 10
5.525930567
 20
2.317173762
 30
0.0
 10
5.5257200328
 20
2.3192276734
 30
0.0
 10
5.525382577
 20
2.3211600423
 30
0.0
 10
5.5249354539
 20
2.3229289972
 30
0.0
 10
5.5243977842
 20
2.3245098407
 30
0.0
 10
5.5237863722
 20
2.3258903489
 30
0.0
 10
5.5231173475
 20
2.3270670928
 30
0.0
 10
5.5226141407
 20
2.3277546105
 30
0.0
 10
5.5223556488
 20
2.328060006
 30
0.0
  0
SPLINE
  5
502
100
AcDbEntity
  8
ALL_ASSEMBLY_MEMBERS
100
AcDbSpline
 62
7
  6
CONTINUOUS
 70
0
 71
3
 72
14
 73
10
 74
0
 42
0.0000001
 43
0.0000001
 44
0.0000000001
 40
0.0
 40
0.0
 40
0.0
 40
0.0
 40
0.1517439377
 40
0.299752985
 40
0.4406786425
 40
0.5725083017
 40
0.6942218176
 40
0.8057118593
 40
1.0
 40
1.0
 40
1.0
 40
1.0
 10
5.5370191211
 20
2.3150543053
 30
0.0
 10
5.5370191211
 20
2.3157672847
 30
0.0
 10
5.5369596994
 20
2.317176428
 30
0.0
 10
5.5366981338
 20
2.3192328106
 30
0.0
 10
5.5362788018
 20
2.3211675594
 30
0.0
 10
5.5357232853
 20
2.3229383888
 30
0.0
 10
5.535054646
 20
2.3245215127
 30
0.0
 10
5.5340860905
 20
2.3262827434
 30
0.0
 10
5.5331901553
 20
2.3274301153
 30
0.0
 10
5.5325294128
 20
2.328060006
 30
0.0
  0
SPLINE
  5
503
100
AcDbEntity
  8
ALL_ASSEMBLY_MEMBERS
100
AcDbSpline
 62
7
  6
CONTINUOUS
 70
0
 71
3
 72
14
 73
10
 74
0
 42
0.0000001
 43
0.0000001
 44
0.0000000001
 40
0.0
 40
0.0
 40
0.0
 40
0.0
 40
0.1476963031
 40
0.2921710985
 40
0.5607394508
 40
0.6827453719
 40
0.7962120196
 40
0.901700396
 40
1.0
 40
1.0
 40
1.0
 40
1.0
 10
5.5458592308
 20
2.3150543053
 30
0.0
 10
5.5458592308
 20
2.3157675404
 30
0.0
 10
5.5457886175
 20
2.3171797647
 30
0.0
 10
5.5453846235
 20
2.3198600166
 30
0.0
 10
5.5446198984
 20
2.3223520845
 30
0.0
 10
5.5435283257
 20
2.3245322759
 30
0.0
 10
5.5426265338
 20
2.3259145955
 30
0.0
 10
5.5416400604
 20
2.3270914795
 30
0.0
 10
5.5409154561
 20
2.3277622245
 30
0.0
 10
5.5405457783
 20
2.328060006
 30
0.0
  0
SPLINE
  5
504
100
AcDbEntity
  8
ALL_ASSEMBLY_MEMBERS
100
AcDbSpline
 62
7
  6
CONTINUOUS
 70
0
 71
3
 72
14
 73
10
 74
0
 42
0.0000001
 43
0.0000001
 44
0.0000000001
 40
0.0
 40
0.0
 40
0.0
 40
0.0
 40
0.2843325091
 40
0.4202500712
 40
0.5496955308
 40
0.6720816249
 40
0.787534376
 40
0.8966079826
 40
1.0
 40
1.0
 40
1.0
 40
1.0
 10
5.5524135685
 20
2.3150543053
 30
0.0
 10
5.5524135685
 20
2.3164656184
 30
0.0
 10
5.5521770138
 20
2.3185627213
 30
0.0
 10
5.551404288
 20
2.3211839344
 30
0.0
 10
5.5506471081
 20
2.322958548
 30
0.0
 10
5.5497367891
 20
2.3245429626
 30
0.0
 10
5.548702156
 20
2.3259248813
 30
0.0
 10
5.5475708979
 20
2.3271007011
 30
0.0
 10
5.5467473259
 20
2.3277647886
 30
0.0
 10
5.5463275431
 20
2.328060006
 30
0.0
  0
SPLINE
  5
505
100
AcDbEntity
  8
ALL_ASSEMBLY_MEMBERS
100
AcDbSpline
 62
7
  6
CONTINUOUS
 70
0
 71
3
 72
16
 73
12
 74
0
 42
0.0000001
 43
0.0000001
 44
0.0000000001
 40
0.0
 40
0.0
 40
0.0
 40
0.0
 40
0.1399450913
 40
0.2093016966
 40
0.2777770162
 40
0.4113594087
 40
0.5397291128
 40
0.6624640257
 40
0.7797403508
 40
0.8920620962
 40
1.0
 40
1.0
 40
1.0
 40
1.0
 10
5.5566190123
 20
2.3150543053
 30
0.0
 10
5.5566190123
 20
2.3157681105
 30
0.0
 10
5.5565502038
 20
2.3168372897
 30
0.0
 10
5.5563250046
 20
2.3182368141
 30
0.0
 10
5.5560172249
 20
2.3195874081
 30
0.0
 10
5.5554880048
 20
2.3211927195
 30
0.0
 10
5.5546401269
 20
2.3229679053
 30
0.0
 10
5.5536212213
 20
2.3245525462
 30
0.0
 10
5.5524638979
 20
2.3259336416
 30
0.0
 10
5.5511992338
 20
2.3271080665
 30
0.0
 10
5.5502849618
 20
2.3277667349
 30
0.0
 10
5.5498190259
 20
2.328060006
 30
0.0
  0
SPLINE
  5
506
100
AcDbEntity
  8
ALL_ASSEMBLY_MEMBERS
100
AcDbSpline
 62
7
  6
CONTINUOUS
 70
0
 71
3
 72
11
 73
7
 74
0
 42
0.0000001
 43
0.0000001
 44
0.0000000001
 40
0.0
 40
0.0
 40
0.0
 40
0.0
 40
0.2669118036
 40
0.5248079053
 40
0.7691531688
 40
1.0
 40
1.0
 40
1.0
 40
1.0
 10
5.5584350615
 20
2.3150543053
 30
0.0
 10
5.5584350615
 20
2.3162447794
 30
0.0
 10
5.5581599777
 20
2.3185948985
 30
0.0
 10
5.5569794804
 20
2.321846723
 30
0.0
 10
5.5551948376
 20
2.3246172137
 30
0.0
 10
5.5536784942
 20
2.3261241039
 30
0.0
 10
5.5528760515
 20
2.3267692387
 30
0.0
  0
SPLINE
  5
507
100
AcDbEntity
  8
ALL_ASSEMBLY_MEMBERS
100
AcDbSpline
 62
7
  6
CONTINUOUS
 70
0
 71
3
 72
16
 73
12
 74
0
 42
0.0000001
 43
0.0000001
 44
0.0000000001
 40
0.0
 40
0.0
 40
0.0
 40
0.0
 40
0.1128801129
 40
0.2289790748
 40
0.3486419426
 40
0.4722377593
 40
0.5997158362
 40
0.6648727766
 40
0.7308406667
 40
0.8647345773
 40
1.0
 40
1.0
 40
1.0
 40
1.0
 10
5.5519686413
 20
1.9276655615
 30
0.0
 10
5.5524198006
 20
1.9279744209
 30
0.0
 10
5.5533008203
 20
1.9286526004
 30
0.0
 10
5.5545164919
 20
1.9298298047
 30
0.0
 10
5.5556205774
 20
1.9311807526
 30
0.0
 10
5.5565852177
 20
1.9327004011
 30
0.0
 10
5.5572448651
 20
1.9340875033
 30
0.0
 10
5.5576752691
 20
1.9352645651
 30
0.0
 10
5.5580401925
 20
1.936496068
 30
0.0
 10
5.5583506119
 20
1.9380940041
 30
0.0
 10
5.5584350615
 20
1.9393991255
 30
0.0
 10
5.5584350615
 20
1.9400543053
 30
0.0
  0
SPLINE
  5
508
100
AcDbEntity
  8
ALL_ASSEMBLY_MEMBERS
100
AcDbSpline
 62
7
  6
CONTINUOUS
 70
0
 71
3
 72
16
 73
12
 74
0
 42
0.0000001
 43
0.0000001
 44
0.0000000001
 40
0.0
 40
0.0
 40
0.0
 40
0.0
 40
0.1352595022
 40
0.2691392286
 40
0.33510434
 40
0.4002592706
 40
0.5277416779
 40
0.6513444352
 40
0.7710123915
 40
0.8871160867
 40
1.0
 40
1.0
 40
1.0
 40
1.0
 10
5.058591336
 20
1.9400543053
 30
0.0
 10
5.058591336
 20
1.9393991541
 30
0.0
 10
5.0586757204
 20
1.9380941239
 30
0.0
 10
5.0589861776
 20
1.9364963086
 30
0.0
 10
5.0593510145
 20
1.9352648773
 30
0.0
 10
5.0597813924
 20
1.9340878064
 30
0.0
 10
5.0604410676
 20
1.9327006695
 30
0.0
 10
5.0614056779
 20
1.931180908
 30
0.0
 10
5.0625098182
 20
1.9298298961
 30
0.0
 10
5.0637255312
 20
1.9286526404
 30
0.0
 10
5.064606583
 20
1.9279744339
 30
0.0
 10
5.0650577569
 20
1.9276655632
 30
0.0
  0
SPLINE
  5
509
100
AcDbEntity
  8
ALL_ASSEMBLY_MEMBERS
100
AcDbSpline
 62
7
  6
CONTINUOUS
 70
0
 71
3
 72
16
 73
12
 74
0
 42
0.0000001
 43
0.0000001
 44
0.0000000001
 40
0.0
 40
0.0
 40
0.0
 40
0.0
 40
0.1399424866
 40
0.2092972352
 40
0.2777731215
 40
0.4113594826
 40
0.5397303494
 40
0.6624655696
 40
0.7797412284
 40
0.8920623995
 40
1.0
 40
1.0
 40
1.0
 40
1.0
 10
5.0604073852
 20
1.9400543053
 30
0.0
 10
5.0604073852
 20
1.9393405135
 30
0.0
 10
5.0604761716
 20
1.9382713552
 30
0.0
 10
5.0607013855
 20
1.9368718528
 30
0.0
 10
5.0610091737
 20
1.9355212474
 30
0.0
 10
5.0615383794
 20
1.9339159004
 30
0.0
 10
5.0623862779
 20
1.9321406924
 30
0.0
 10
5.0634051879
 20
1.9305560499
 30
0.0
 10
5.0645625093
 20
1.9291749591
 30
0.0
 10
5.0658271683
 20
1.9280005403
 30
0.0
 10
5.066741437
 20
1.9273418749
 30
0.0
 10
5.0672073716
 20
1.9270486047
 30
0.0
  0
SPLINE
  5
50A
100
AcDbEntity
  8
ALL_ASSEMBLY_MEMBERS
100
AcDbSpline
 62
7
  6
CONTINUOUS
 70
0
 71
3
 72
14
 73
10
 74
0
 42
0.0000001
 43
0.0000001
 44
0.0000000001
 40
0.0
 40
0.0
 40
0.0
 40
0.0
 40
0.2843284444
 40
0.4202501132
 40
0.5496967421
 40
0.6720831274
 40
0.7875352195
 40
0.8966082694
 40
1.0
 40
1.0
 40
1.0
 40
1.0
 10
5.064612829
 20
1.9400543053
 30
0.0
 10
5.064612829
 20
1.9386430126
 30
0.0
 10
5.0648493985
 20
1.9365459136
 30
0.0
 10
5.0656220986
 20
1.9339246867
 30
0.0
 10
5.0663792955
 20
1.9321500497
 30
0.0
 10
5.067289619
 20
1.9305656335
 30
0.0
 10
5.0683242503
 20
1.9291837193
 30
0.0
 10
5.0694555038
 20
1.9280079056
 30
0.0
 10
5.0702790728
 20
1.9273438212
 30
0.0
 10
5.0706988544
 20
1.9270486047
 30
0.0
  0
SPLINE
  5
50B
100
AcDbEntity
  8
ALL_ASSEMBLY_MEMBERS
100
AcDbSpline
 62
7
  6
CONTINUOUS
 70
0
 71
3
 72
14
 73
10
 74
0
 42
0.0000001
 43
0.0000001
 44
0.0000000001
 40
0.0
 40
0.0
 40
0.0
 40
0.0
 40
0.147693583
 40
0.292166981
 40
0.5607406793
 40
0.6827468624
 40
0.7962128471
 40
0.9017006751
 40
1.0
 40
1.0
 40
1.0
 40
1.0
 10
5.0711671667
 20
1.9400543053
 30
0.0
 10
5.0711671667
 20
1.9393410834
 30
0.0
 10
5.0712377609
 20
1.9379288777
 30
0.0
 10
5.0716417876
 20
1.9352486248
 30
0.0
 10
5.07240649
 20
1.9327565298
 30
0.0
 10
5.0734980819
 20
1.9305763203
 30
0.0
 10
5.0743998712
 20
1.929194005
 30
0.0
 10
5.0753863408
 20
1.9280171272
 30
0.0
 10
5.0761109425
 20
1.9273463853
 30
0.0
 10
5.0764806192
 20
1.9270486047
 30
0.0
  0
SPLINE
  5
50C
100
AcDbEntity
  8
ALL_ASSEMBLY_MEMBERS
100
AcDbSpline
 62
7
  6
CONTINUOUS
 70
0
 71
3
 72
14
 73
10
 74
0
 42
0.0000001
 43
0.0000001
 44
0.0000000001
 40
0.0
 40
0.0
 40
0.0
 40
0.0
 40
0.1517411445
 40
0.2997487224
 40
0.4406787466
 40
0.5725095604
 40
0.6942233044
 40
0.8057126745
 40
1.0
 40
1.0
 40
1.0
 40
1.0
 10
5.0800072765
 20
1.9400543053
 30
0.0
 10
5.0800072765
 20
1.9393413391
 30
0.0
 10
5.0800666808
 20
1.9379322147
 30
0.0
 10
5.0803282718
 20
1.9358758349
 30
0.0
 10
5.080747586
 20
1.9339410631
 30
0.0
 10
5.0813031168
 20
1.9321702091
 30
0.0
 10
5.0819717593
 20
1.9305870832
 30
0.0
 10
5.0829403131
 20
1.9288258582
 30
0.0
 10
5.083836245
 20
1.9276784928
 30
0.0
 10
5.0844969847
 20
1.9270486047
 30
0.0
  0
SPLINE
  5
50D
100
AcDbEntity
  8
ALL_ASSEMBLY_MEMBERS
100
AcDbSpline
 62
7
  6
CONTINUOUS
 70
0
 71
3
 72
15
 73
11
 74
0
 42
0.0000001
 43
0.0000001
 44
0.0000000001
 40
0.0
 40
0.0
 40
0.0
 40
0.0
 40
0.1556111369
 40
0.3070122309
 40
0.4504302074
 40
0.5835074765
 40
0.704979984
 40
0.8145612981
 40
0.9126464057
 40
1.0
 40
1.0
 40
1.0
 40
1.0
 10
5.0910480231
 20
1.9400543053
 30
0.0
 10
5.0910480231
 20
1.9393415619
 30
0.0
 10
5.0910958166
 20
1.9379348811
 30
0.0
 10
5.0913063713
 20
1.9358809713
 30
0.0
 10
5.0916438126
 20
1.933948581
 30
0.0
 10
5.0920909473
 20
1.9321796008
 30
0.0
 10
5.0926286197
 20
1.9305987551
 30
0.0
 10
5.0932400307
 20
1.9292182514
 30
0.0
 10
5.0939090526
 20
1.9280415138
 30
0.0
 10
5.0944122576
 20
1.9273539992
 30
0.0
 10
5.0946707488
 20
1.9270486047
 30
0.0
  0
SPLINE
  5
50E
100
AcDbEntity
  8
ALL_ASSEMBLY_MEMBERS
100
AcDbSpline
 62
7
  6
CONTINUOUS
 70
0
 71
3
 72
15
 73
11
 74
0
 42
0.0000001
 43
0.0000001
 44
0.0000000001
 40
0.0
 40
0.0
 40
0.0
 40
0.0
 40
0.1591481927
 40
0.3136723892
 40
0.4594223783
 40
0.59373664
 40
0.7151127456
 40
0.8230660732
 40
0.9178232604
 40
1.0
 40
1.0
 40
1.0
 40
1.0
 10
5.1041830784
 20
1.9400543053
 30
0.0
 10
5.1041830784
 20
1.9393417432
 30
0.0
 10
5.1042188895
 20
1.9379370526
 30
0.0
 10
5.1043766986
 20
1.9358852253
 30
0.0
 10
5.1046295696
 20
1.9339549143
 30
0.0
 10
5.1049645659
 20
1.9321879416
 30
0.0
 10
5.1053672139
 20
1.9306091495
 30
0.0
 10
5.105824811
 20
1.9292306179
 30
0.0
 10
5.106325154
 20
1.9280556711
 30
0.0
 10
5.1067065438
 20
1.9273591093
 30
0.0
 10
5.1069039325
 20
1.9270486047
 30
0.0
  0
SPLINE
  5
50F
100
AcDbEntity
  8
ALL_ASSEMBLY_MEMBERS
100
AcDbSpline
 62
7
  6
CONTINUOUS
 70
0
 71
3
 72
15
 73
11
 74
0
 42
0.0000001
 43
0.0000001
 44
0.0000000001
 40
0.0
 40
0.0
 40
0.0
 40
0.0
 40
0.1619770236
 40
0.3190100555
 40
0.4666548003
 40
0.6020074214
 40
0.7233654014
 40
0.8300609682
 40
0.9221369756
 40
1.0
 40
1.0
 40
1.0
 40
1.0
 10
5.1192859443
 20
1.9400543053
 30
0.0
 10
5.1192859443
 20
1.939341876
 30
0.0
 10
5.1193094999
 20
1.9379386455
 30
0.0
 10
5.1194133203
 20
1.9358883791
 30
0.0
 10
5.119579654
 20
1.9339596986
 30
0.0
 10
5.1197999482
 20
1.9321944271
 30
0.0
 10
5.1200645967
 20
1.9306175721
 30
0.0
 10
5.1203650996
 20
1.9292412681
 30
0.0
 10
5.1206932885
 20
1.9280688981
 30
0.0
 10
5.1209464135
 20
1.9273644815
 30
0.0
 10
5.1210787237
 20
1.9270486047
 30
0.0
  0
SPLINE
  5
510
100
AcDbEntity
  8
ALL_ASSEMBLY_MEMBERS
100
AcDbSpline
 62
7
  6
CONTINUOUS
 70
0
 71
3
 72
14
 73
10
 74
0
 42
0.0000001
 43
0.0000001
 44
0.0000000001
 40
0.0
 40
0.0
 40
0.0
 40
0.0
 40
0.322402502
 40
0.4712675685
 40
0.6073052204
 40
0.7286819613
 40
0.8346024782
 40
0.9249680556
 40
1.0
 40
1.0
 40
1.0
 40
1.0
 10
5.1362111722
 20
1.9400543053
 30
0.0
 10
5.1362111722
 20
1.938652018
 30
0.0
 10
5.1362424203
 20
1.9366019962
 30
0.0
 10
5.136349853
 20
1.9339626145
 30
0.0
 10
5.1364538731
 20
1.9321984545
 30
0.0
 10
5.136578763
 20
1.9306229559
 30
0.0
 10
5.1367204659
 20
1.9292484033
 30
0.0
 10
5.136875063
 20
1.928078313
 30
0.0
 10
5.1369952255
 20
1.9273687408
 30
0.0
 10
5.1370586114
 20
1.9270486047
 30
0.0
  0
SPLINE
  5
511
100
AcDbEntity
  8
ALL_ASSEMBLY_MEMBERS
100
AcDbSpline
 62
7
  6
CONTINUOUS
 70
0
 71
3
 72
14
 73
10
 74
0
 42
0.0000001
 43
0.0000001
 44
0.0000000001
 40
0.0
 40
0.0
 40
0.0
 40
0.0
 40
0.0750301794
 40
0.1653922852
 40
0.2713074161
 40
0.3926779169
 40
0.5287050347
 40
0.6775739373
 40
1.0
 40
1.0
 40
1.0
 40
1.0
 10
5.4799677862
 20
1.9270486047
 30
0.0
 10
5.4800311705
 20
1.9273687333
 30
0.0
 10
5.4801513305
 20
1.9280782828
 30
0.0
 10
5.4803059224
 20
1.9292483272
 30
0.0
 10
5.4804476195
 20
1.9306228143
 30
0.0
 10
5.4805725084
 20
1.9321982162
 30
0.0
 10
5.4806765313
 20
1.9339623198
 30
0.0
 10
5.4807839731
 20
1.9366017745
 30
0.0
 10
5.4808152253
 20
1.9386519155
 30
0.0
 10
5.4808152253
 20
1.9400543053
 30
0.0
  0
SPLINE
  5
512
100
AcDbEntity
  8
ALL_ASSEMBLY_MEMBERS
100
AcDbSpline
 62
7
  6
CONTINUOUS
 70
0
 71
3
 72
15
 73
11
 74
0
 42
0.0000001
 43
0.0000001
 44
0.0000000001
 40
0.0
 40
0.0
 40
0.0
 40
0.0
 40
0.0778612337
 40
0.1699337383
 40
0.2766239246
 40
0.3979757786
 40
0.5333180165
 40
0.6809666215
 40
0.8380151593
 40
1.0
 40
1.0
 40
1.0
 40
1.0
 10
5.4959476738
 20
1.9270486047
 30
0.0
 10
5.496079981
 20
1.9273644742
 30
0.0
 10
5.4963331004
 20
1.928068868
 30
0.0
 10
5.4966612785
 20
1.9292411923
 30
0.0
 10
5.4969617692
 20
1.9306174313
 30
0.0
 10
5.4972264156
 20
1.9321941889
 30
0.0
 10
5.4974467148
 20
1.9339594036
 30
0.0
 10
5.4976130651
 20
1.9358881226
 30
0.0
 10
5.4977168829
 20
1.9379385088
 30
0.0
 10
5.4977404532
 20
1.9393418416
 30
0.0
 10
5.4977404532
 20
1.9400543053
 30
0.0
  0
SPLINE
  5
513
100
AcDbEntity
  8
ALL_ASSEMBLY_MEMBERS
100
AcDbSpline
 62
7
  6
CONTINUOUS
 70
0
 71
3
 72
15
 73
11
 74
0
 42
0.0000001
 43
0.0000001
 44
0.0000000001
 40
0.0
 40
0.0
 40
0.0
 40
0.0
 40
0.0821749067
 40
0.1769285404
 40
0.2848764935
 40
0.4062466511
 40
0.5405507669
 40
0.6863046574
 40
0.8408441127
 40
1.0
 40
1.0
 40
1.0
 40
1.0
 10
5.510122465
 20
1.9270486047
 30
0.0
 10
5.5103198493
 20
1.9273591024
 30
0.0
 10
5.5107012305
 20
1.9280556412
 30
0.0
 10
5.5112015573
 20
1.9292305426
 30
0.0
 10
5.5116591358
 20
1.9306090099
 30
0.0
 10
5.5120617804
 20
1.9321877034
 30
0.0
 10
5.5123967844
 20
1.933954619
 30
0.0
 10
5.5126496803
 20
1.9358849679
 30
0.0
 10
5.5128074857
 20
1.937936916
 30
0.0
 10
5.5128433192
 20
1.9393417088
 30
0.0
 10
5.5128433192
 20
1.9400543053
 30
0.0
  0
SPLINE
  5
514
100
AcDbEntity
  8
ALL_ASSEMBLY_MEMBERS
100
AcDbSpline
 62
7
  6
CONTINUOUS
 70
0
 71
3
 72
15
 73
11
 74
0
 42
0.0000001
 43
0.0000001
 44
0.0000000001
 40
0.0
 40
0.0
 40
0.0
 40
0.0
 40
0.0873514299
 40
0.1854322976
 40
0.295007301
 40
0.4164737417
 40
0.5495406879
 40
0.6929637823
 40
0.8443810262
 40
1.0
 40
1.0
 40
1.0
 40
1.0
 10
5.5223556488
 20
1.9270486047
 30
0.0
 10
5.5226141335
 20
1.9273539917
 30
0.0
 10
5.5231173246
 20
1.9280414797
 30
0.0
 10
5.523786322
 20
1.9292181644
 30
0.0
 10
5.524397706
 20
1.9305985961
 30
0.0
 10
5.5249353729
 20
1.9321793334
 30
0.0
 10
5.5253825218
 20
1.9339482566
 30
0.0
 10
5.525719998
 20
1.9358806926
 30
0.0
 10
5.5259305504
 20
1.9379347365
 30
0.0
 10
5.5259783744
 20
1.9393415261
 30
0.0
 10
5.5259783744
 20
1.9400543053
 30
0.0
  0
SPLINE
  5
515
100
AcDbEntity
  8
ALL_ASSEMBLY_MEMBERS
100
AcDbSpline
 62
7
  6
CONTINUOUS
 70
0
 71
3
 72
14
 73
10
 74
0
 42
0.0000001
 43
0.0000001
 44
0.0000000001
 40
0.0
 40
0.0
 40
0.0
 40
0.0
 40
0.1942816899
 40
0.3057656849
 40
0.4274739404
 40
0.5592952312
 40
0.7002292844
 40
0.8482514789
 40
1.0
 40
1.0
 40
1.0
 40
1.0
 10
5.5325294128
 20
1.9270486047
 30
0.0
 10
5.5331901333
 20
1.9276784745
 30
0.0
 10
5.5340860412
 20
1.928825792
 30
0.0
 10
5.5350545604
 20
1.930586947
 30
0.0
 10
5.5357231958
 20
1.9321699711
 30
0.0
 10
5.5362787391
 20
1.9339407669
 30
0.0
 10
5.5366980946
 20
1.9358755749
 30
0.0
 10
5.5369596799
 20
1.9379320784
 30
0.0
 10
5.5370191211
 20
1.9393413045
 30
0.0
 10
5.5370191211
 20
1.9400543053
 30
0.0
  0
SPLINE
  5
516
100
AcDbEntity
  8
ALL_ASSEMBLY_MEMBERS
100
AcDbSpline
 62
7
  6
CONTINUOUS
 70
0
 71
3
 72
14
 73
10
 74
0
 42
0.0000001
 43
0.0000001
 44
0.0000000001
 40
0.0
 40
0.0
 40
0.0
 40
0.0
 40
0.0982973139
 40
0.2037813699
 40
0.3172419771
 40
0.4392429209
 40
0.7078115338
 40
0.8522992063
 40
1.0
 40
1.0
 40
1.0
 40
1.0
 10
5.5405457783
 20
1.9270486047
 30
0.0
 10
5.5409154475
 20
1.9273463792
 30
0.0
 10
5.5416400317
 20
1.9280170982
 30
0.0
 10
5.5426264707
 20
1.9291939315
 30
0.0
 10
5.543528225
 20
1.9305761857
 30
0.0
 10
5.5446198256
 20
1.9327563038
 30
0.0
 10
5.545384584
 20
1.935248407
 30
0.0
 10
5.5457885937
 20
1.9379287415
 30
0.0
 10
5.5458592308
 20
1.9393410486
 30
0.0
 10
5.5458592308
 20
1.9400543053
 30
0.0
  0
SPLINE
  5
517
100
AcDbEntity
  8
ALL_ASSEMBLY_MEMBERS
100
AcDbSpline
 62
7
  6
CONTINUOUS
 70
0
 71
3
 72
15
 73
11
 74
0
 42
0.0000001
 43
0.0000001
 44
0.0000000001
 40
0.0
 40
0.0
 40
0.0
 40
0.0
 40
0.1033413012
 40
0.2123594882
 40
0.3277521963
 40
0.4500763379
 40
0.5794535793
 40
0.7153158741
 40
0.8563135763
 40
1.0
 40
1.0
 40
1.0
 40
1.0
 10
5.5463275431
 20
1.9270486047
 30
0.0
 10
5.5467473162
 20
1.9273438153
 30
0.0
 10
5.5475708651
 20
1.9280078758
 30
0.0
 10
5.5487020849
 20
1.9291836506
 30
0.0
 10
5.5497366719
 20
1.9305654833
 30
0.0
 10
5.5506469995
 20
1.9321498833
 30
0.0
 10
5.5514041473
 20
1.9339241029
 30
0.0
 10
5.5519757619
 20
1.9358635712
 30
0.0
 10
5.552332438
 20
1.9379257175
 30
0.0
 10
5.5524135685
 20
1.9393407697
 30
0.0
 10
5.5524135685
 20
1.9400543053
 30
0.0
  0
SPLINE
  5
518
100
AcDbEntity
  8
ALL_ASSEMBLY_MEMBERS
100
AcDbSpline
 62
7
  6
CONTINUOUS
 70
0
 71
3
 72
16
 73
12
 74
0
 42
0.0000001
 43
0.0000001
 44
0.0000000001
 40
0.0
 40
0.0
 40
0.0
 40
0.0
 40
0.107935462
 40
0.2202527018
 40
0.3375229517
 40
0.4602533758
 40
0.5886156987
 40
0.7222063329
 40
0.7906873511
 40
0.8600506374
 40
1.0
 40
1.0
 40
1.0
 40
1.0
 10
5.5498190259
 20
1.9270486047
 30
0.0
 10
5.5502849512
 20
1.9273418691
 30
0.0
 10
5.5511991976
 20
1.9280005119
 30
0.0
 10
5.5524638181
 20
1.9291748865
 30
0.0
 10
5.5536210953
 20
1.9305559187
 30
0.0
 10
5.5546399895
 20
1.9321404559
 30
0.0
 10
5.5554879113
 20
1.9339156022
 30
0.0
 10
5.5560171408
 20
1.9355209455
 30
0.0
 10
5.5563249804
 20
1.9368716341
 30
0.0
 10
5.55655017
 20
1.9382712462
 30
0.0
 10
5.5566190123
 20
1.9393404784
 30
0.0
 10
5.5566190123
 20
1.9400543053
 30
0.0
  0
SPLINE
  5
519
100
AcDbEntity
  8
ALL_ASSEMBLY_MEMBERS
100
AcDbSpline
 62
7
  6
CONTINUOUS
 70
0
 71
3
 72
16
 73
12
 74
0
 42
0.0000001
 43
0.0000001
 44
0.0000000001
 40
0.0
 40
0.0
 40
0.0
 40
0.0
 40
0.1335419996
 40
0.2000001386
 40
0.2659198772
 40
0.3957290133
 40
0.5225257804
 40
0.6461107397
 40
0.766666099
 40
0.8845311051
 40
1.0
 40
1.0
 40
1.0
 40
1.0
 10
5.0591821709
 20
2.3150543053
 30
0.0
 10
5.0591821709
 20
2.315768685
 30
0.0
 10
5.059263873
 20
2.3168407896
 30
0.0
 10
5.0595297026
 20
2.3182392173
 30
0.0
 10
5.0598945074
 20
2.3195947218
 30
0.0
 10
5.0605241258
 20
2.321208101
 30
0.0
 10
5.0615282549
 20
2.3229841643
 30
0.0
 10
5.0627334854
 20
2.3245679556
 30
0.0
 10
5.0641007768
 20
2.325946809
 30
0.0
 10
5.065593469
 20
2.3271183895
 30
0.0
 10
5.066662343
 20
2.3277693264
 30
0.0
 10
5.0672073716
 20
2.328060006
 30
0.0
  0
SPLINE
  5
51A
100
AcDbEntity
  8
ALL_ASSEMBLY_MEMBERS
100
AcDbSpline
 62
7
  6
CONTINUOUS
 70
0
 71
3
 72
16
 73
12
 74
0
 42
0.0000001
 43
0.0000001
 44
0.0000000001
 40
0.0
 40
0.0
 40
0.0
 40
0.0
 40
0.1309658676
 40
0.1962640058
 40
0.2611675813
 40
0.3895003714
 40
0.5157194186
 40
0.6396921548
 40
0.7615765404
 40
0.8816227824
 40
1.0
 40
1.0
 40
1.0
 40
1.0
 10
5.0621742
 20
2.3150543053
 30
0.0
 10
5.0621742
 20
2.3157689463
 30
0.0
 10
5.0622612257
 20
2.3168423717
 30
0.0
 10
5.0625436209
 20
2.3182402885
 30
0.0
 10
5.0629318621
 20
2.3195979346
 30
0.0
 10
5.0636029044
 20
2.3212145944
 30
0.0
 10
5.0646708495
 20
2.322990675
 30
0.0
 10
5.0659519376
 20
2.3245737818
 30
0.0
 10
5.0674045645
 20
2.3259515046
 30
0.0
 10
5.068989909
 20
2.3271218739
 30
0.0
 10
5.0701215819
 20
2.3277701681
 30
0.0
 10
5.0706988544
 20
2.328060006
 30
0.0
  0
SPLINE
  5
51B
100
AcDbEntity
  8
ALL_ASSEMBLY_MEMBERS
100
AcDbSpline
 62
7
  6
CONTINUOUS
 70
0
 71
3
 72
16
 73
12
 74
0
 42
0.0000001
 43
0.0000001
 44
0.0000000001
 40
0.0
 40
0.0
 40
0.0
 40
0.0
 40
0.1288387675
 40
0.1931818984
 40
0.2572518664
 40
0.3843841284
 40
0.5101496177
 40
0.6344608223
 40
0.7574449715
 40
0.8792707337
 40
1.0
 40
1.0
 40
1.0
 40
1.0
 10
5.0675386082
 20
2.3150543053
 30
0.0
 10
5.0675386082
 20
2.3157691767
 30
0.0
 10
5.0676301151
 20
2.3168437615
 30
0.0
 10
5.0679263536
 20
2.3182412217
 30
0.0
 10
5.0683342665
 20
2.3196007103
 30
0.0
 10
5.0690401341
 20
2.32122008
 30
0.0
 10
5.0701614271
 20
2.3229960215
 30
0.0
 10
5.0715058334
 20
2.3245784292
 30
0.0
 10
5.0730296496
 20
2.3259551465
 30
0.0
 10
5.0746922996
 20
2.3271245099
 30
0.0
 10
5.0758763929
 20
2.3277707945
 30
0.0
 10
5.0764806192
 20
2.328060006
 30
0.0
  0
SPLINE
  5
51C
100
AcDbEntity
  8
ALL_ASSEMBLY_MEMBERS
100
AcDbSpline
 62
7
  6
CONTINUOUS
 70
0
 71
3
 72
16
 73
12
 74
0
 42
0.0000001
 43
0.0000001
 44
0.0000000001
 40
0.0
 40
0.0
 40
0.0
 40
0.0
 40
0.1271701385
 40
0.1907659348
 40
0.2541855034
 40
0.3803878676
 40
0.5058122772
 40
0.6304000453
 40
0.7542478291
 40
0.8774558489
 40
1.0
 40
1.0
 40
1.0
 40
1.0
 10
5.0752237335
 20
2.3150543053
 30
0.0
 10
5.0752237335
 20
2.3157693673
 30
0.0
 10
5.0753188191
 20
2.3168449079
 30
0.0
 10
5.0756260444
 20
2.3182419863
 30
0.0
 10
5.0760496276
 20
2.319602968
 30
0.0
 10
5.076783266
 20
2.3212244586
 30
0.0
 10
5.0779469019
 20
2.3230001916
 30
0.0
 10
5.0793415087
 20
2.3245819714
 30
0.0
 10
5.0809217486
 20
2.3259578629
 30
0.0
 10
5.0826456846
 20
2.3271264397
 30
0.0
 10
5.0838713575
 20
2.3277712476
 30
0.0
 10
5.0844969847
 20
2.328060006
 30
0.0
  0
SPLINE
  5
51D
100
AcDbEntity
  8
ALL_ASSEMBLY_MEMBERS
100
AcDbSpline
 62
7
  6
CONTINUOUS
 70
0
 71
3
 72
16
 73
12
 74
0
 42
0.0000001
 43
0.0000001
 44
0.0000000001
 40
0.0
 40
0.0
 40
0.0
 40
0.0
 40
0.125963448
 40
0.189019831
 40
0.2519710334
 40
0.377507508
 40
0.5026932667
 40
0.6274868664
 40
0.7519594534
 40
0.8761595307
 40
1.0
 40
1.0
 40
1.0
 40
1.0
 10
5.0851555639
 20
2.3150543053
 30
0.0
 10
5.0851555639
 20
2.3157695109
 30
0.0
 10
5.085253276
 20
2.3168457692
 30
0.0
 10
5.0855685259
 20
2.3182425576
 30
0.0
 10
5.0860035869
 20
2.3196046454
 30
0.0
 10
5.0867575796
 20
2.3212276648
 30
0.0
 10
5.0879521391
 20
2.3230031917
 30
0.0
 10
5.0893833795
 20
2.3245844765
 30
0.0
 10
5.0910047892
 20
2.3259597539
 30
0.0
 10
5.0927734526
 20
2.3271277651
 30
0.0
 10
5.0940294854
 20
2.3277715561
 30
0.0
 10
5.0946707488
 20
2.328060006
 30
0.0
  0
SPLINE
  5
51E
100
AcDbEntity
  8
ALL_ASSEMBLY_MEMBERS
100
AcDbSpline
 62
7
  6
CONTINUOUS
 70
0
 71
3
 72
16
 73
12
 74
0
 42
0.0000001
 43
0.0000001
 44
0.0000000001
 40
0.0
 40
0.0
 40
0.0
 40
0.0
 40
0.1252566511
 40
0.1879995391
 40
0.2506814471
 40
0.3758474062
 40
0.5009266744
 40
0.5634703882
 40
0.6259613461
 40
0.7508566162
 40
1.0
 40
1.0
 40
1.0
 40
1.0
 10
5.0972384504
 20
2.3150543053
 30
0.0
 10
5.0972384504
 20
2.3157696019
 30
0.0
 10
5.0973378012
 20
2.3168463155
 30
0.0
 10
5.0976580322
 20
2.318242916
 30
0.0
 10
5.0981002533
 20
2.3196057088
 30
0.0
 10
5.098866799
 20
2.32122958
 30
0.0
 10
5.0998790705
 20
2.3227099209
 30
0.0
 10
5.10080801
 20
2.3237961064
 30
0.0
 10
5.1018091478
 20
2.3248149549
 30
0.0
 10
5.1037268369
 20
2.3264165208
 30
0.0
 10
5.1056030059
 20
2.3274839292
 30
0.0
 10
5.1069039325
 20
2.328060006
 30
0.0
  0
SPLINE
  5
51F
100
AcDbEntity
  8
ALL_ASSEMBLY_MEMBERS
100
AcDbSpline
 62
7
  6
CONTINUOUS
 70
0
 71
3
 72
16
 73
12
 74
0
 42
0.0000001
 43
0.0000001
 44
0.0000000001
 40
0.0
 40
0.0
 40
0.0
 40
0.0
 40
0.1249742051
 40
0.18759108
 40
0.2501638264
 40
0.3751754473
 40
0.5002006294
 40
0.5627563829
 40
0.6252847272
 40
0.7503259667
 40
1.0
 40
1.0
 40
1.0
 40
1.0
 10
5.1113560283
 20
2.3150543053
 30
0.0
 10
5.1113560283
 20
2.315769637
 30
0.0
 10
5.1114560034
 20
2.3168465251
 30
0.0
 10
5.1117781321
 20
2.3182430542
 30
0.0
 10
5.1122230756
 20
2.3196061121
 30
0.0
 10
5.1129944514
 20
2.3212303391
 30
0.0
 10
5.1140126114
 20
2.3227103265
 30
0.0
 10
5.1149468653
 20
2.3237962666
 30
0.0
 10
5.1159541243
 20
2.3248152855
 30
0.0
 10
5.1178841239
 20
2.326417484
 30
0.0
 10
5.1197707571
 20
2.32748422
 30
0.0
 10
5.1210787237
 20
2.328060006
 30
0.0
  0
SPLINE
  5
520
100
AcDbEntity
  8
ALL_ASSEMBLY_MEMBERS
100
AcDbSpline
 62
7
  6
CONTINUOUS
 70
0
 71
3
 72
16
 73
12
 74
0
 42
0.0000001
 43
0.0000001
 44
0.0000000001
 40
0.0
 40
0.0
 40
0.0
 40
0.0
 40
0.1251539349
 40
0.1878509905
 40
0.2504931893
 40
0.3756029853
 40
0.5006625421
 40
0.5632106172
 40
0.6257151596
 40
0.7506635143
 40
1.0
 40
1.0
 40
1.0
 40
1.0
 10
5.1273723374
 20
2.3150543053
 30
0.0
 10
5.1273723374
 20
2.3157696146
 30
0.0
 10
5.1274719151
 20
2.3168463916
 30
0.0
 10
5.1277928357
 20
2.3182429662
 30
0.0
 10
5.1282360459
 20
2.3196058552
 30
0.0
 10
5.1290043465
 20
2.3212298558
 30
0.0
 10
5.1300187583
 20
2.3227100684
 30
0.0
 10
5.1309496293
 20
2.3237961647
 30
0.0
 10
5.1319529915
 20
2.3248150753
 30
0.0
 10
5.1338751542
 20
2.3264168719
 30
0.0
 10
5.1357551264
 20
2.3274840353
 30
0.0
 10
5.1370586114
 20
2.328060006
 30
0.0
  0
SPLINE
  5
521
100
AcDbEntity
  8
ALL_ASSEMBLY_MEMBERS
100
AcDbSpline
 62
7
  6
CONTINUOUS
 70
0
 71
3
 72
16
 73
12
 74
0
 42
0.0000001
 43
0.0000001
 44
0.0000000001
 40
0.0
 40
0.0
 40
0.0
 40
0.0
 40
0.1257581105
 40
0.1887227913
 40
0.2515944614
 40
0.3770181779
 40
0.5021639924
 40
0.6269930937
 40
0.75157201
 40
0.8759402703
 40
1.0
 40
1.0
 40
1.0
 40
1.0
 10
5.1451331321
 20
2.3150543053
 30
0.0
 10
5.1451331321
 20
2.3157695358
 30
0.0
 10
5.1452312945
 20
2.3168459186
 30
0.0
 10
5.1455479171
 20
2.3182426564
 30
0.0
 10
5.1459849441
 20
2.3196049347
 30
0.0
 10
5.1467424244
 20
2.3212282136
 30
0.0
 10
5.1479422729
 20
2.3230037008
 30
0.0
 10
5.1493797768
 20
2.3245848981
 30
0.0
 10
5.1510082252
 20
2.3259600697
 30
0.0
 10
5.1527845366
 20
2.327127985
 30
0.0
 10
5.1540457619
 20
2.3277716071
 30
0.0
 10
5.1546897004
 20
2.328060006
 30
0.0
  0
LINE
  5
522
100
AcDbEntity
  8
ALL_ASSEMBLY_MEMBERS
100
AcDbLine
 62
7
  6
CONTINUOUS
 10
5.1546897004
 20
2.328060006
 11
5.1547957628
 21
2.3150543053
  0
SPLINE
  5
523
100
AcDbEntity
  8
ALL_ASSEMBLY_MEMBERS
100
AcDbSpline
 62
7
  6
CONTINUOUS
 70
0
 71
3
 72
16
 73
12
 74
0
 42
0.0000001
 43
0.0000001
 44
0.0000000001
 40
0.0
 40
0.0
 40
0.0
 40
0.0
 40
0.1268620162
 40
0.190319993
 40
0.2536198074
 40
0.3796516128
 40
0.5050144472
 40
0.6296543149
 40
0.7536616261
 40
0.8771235652
 40
1.0
 40
1.0
 40
1.0
 40
1.0
 10
5.1644673661
 20
2.3150543053
 30
0.0
 10
5.1644673661
 20
2.3157694035
 30
0.0
 10
5.1645631191
 20
2.3168451252
 30
0.0
 10
5.1648723869
 20
2.3182421306
 30
0.0
 10
5.1652988887
 20
2.3196033927
 30
0.0
 10
5.1660377021
 20
2.3212252742
 30
0.0
 10
5.167209209
 20
2.3230009589
 30
0.0
 10
5.1686131424
 20
2.3245826156
 30
0.0
 10
5.1702038641
 20
2.3259583515
 30
0.0
 10
5.1719391867
 20
2.3271267835
 30
0.0
 10
5.1731725874
 20
2.3277713278
 30
0.0
 10
5.1738021938
 20
2.328060006
 30
0.0
  0
SPLINE
  5
524
100
AcDbEntity
  8
ALL_ASSEMBLY_MEMBERS
100
AcDbSpline
 62
7
  6
CONTINUOUS
 70
0
 71
3
 72
14
 73
10
 74
0
 42
0.0000001
 43
0.0000001
 44
0.0000000001
 40
0.0
 40
0.0
 40
0.0
 40
0.0
 40
0.0755010238
 40
0.1661435132
 40
0.2721824671
 40
0.3935484755
 40
0.5294615711
 40
0.6781343988
 40
1.0
 40
1.0
 40
1.0
 40
1.0
 10
5.1738021938
 20
2.328060006
 30
0.0
 10
5.1738811795
 20
2.3277406381
 30
0.0
 10
5.1740311693
 20
2.3270319537
 30
0.0
 10
5.174224384
 20
2.3258615251
 30
0.0
 10
5.1744014512
 20
2.3244867574
 30
0.0
 10
5.1745574931
 20
2.322911149
 30
0.0
 10
5.1746874604
 20
2.3211468449
 30
0.0
 10
5.1748216717
 20
2.3185075339
 30
0.0
 10
5.1748607363
 20
2.3164568116
 30
0.0
 10
5.1748607363
 20
2.3150543053
 30
0.0
  0
SPLINE
  5
525
100
AcDbEntity
  8
ALL_ASSEMBLY_MEMBERS
100
AcDbSpline
 62
7
  6
CONTINUOUS
 70
0
 71
3
 72
16
 73
12
 74
0
 42
0.0000001
 43
0.0000001
 44
0.0000000001
 40
0.0
 40
0.0
 40
0.0
 40
0.0
 40
0.1284281498
 40
0.1925872245
 40
0.2564968502
 40
0.3833993084
 40
0.5090796684
 40
0.6334580457
 40
0.7566546633
 40
0.8788216931
 40
1.0
 40
1.0
 40
1.0
 40
1.0
 10
5.1851888403
 20
2.3150543053
 30
0.0
 10
5.1851888403
 20
2.3157692228
 30
0.0
 10
5.1852812224
 20
2.3168440389
 30
0.0
 10
5.1855801533
 20
2.3182414072
 30
0.0
 10
5.1859919018
 20
2.3196012593
 30
0.0
 10
5.1867045646
 20
2.3212211515
 30
0.0
 10
5.1878362346
 20
2.3229970498
 30
0.0
 10
5.1891929481
 20
2.3245793093
 30
0.0
 10
5.1907305981
 20
2.3259558261
 30
0.0
 10
5.1924082728
 20
2.3271249956
 30
0.0
 10
5.1936025576
 20
2.327770909
 30
0.0
 10
5.1942120279
 20
2.328060006
 30
0.0
  0
SPLINE
  5
526
100
AcDbEntity
  8
ALL_ASSEMBLY_MEMBERS
100
AcDbSpline
 62
7
  6
CONTINUOUS
 70
0
 71
3
 72
15
 73
11
 74
0
 42
0.0000001
 43
0.0000001
 44
0.0000000001
 40
0.0
 40
0.0
 40
0.0
 40
0.0
 40
0.078712393
 40
0.1713053526
 40
0.2782335791
 40
0.3995840108
 40
0.5347198507
 40
0.6820022299
 40
0.8385651762
 40
1.0
 40
1.0
 40
1.0
 40
1.0
 10
5.1942120279
 20
2.328060006
 30
0.0
 10
5.1943591456
 20
2.3277452991
 30
0.0
 10
5.1946412457
 20
2.3270424801
 30
0.0
 10
5.195007856
 20
2.3258695908
 30
0.0
 10
5.195343448
 20
2.324492897
 30
0.0
 10
5.1956389515
 20
2.3229157655
 30
0.0
 10
5.1958849196
 20
2.3211502027
 30
0.0
 10
5.1960706364
 20
2.319221139
 30
0.0
 10
5.196186542
 20
2.3171704203
 30
0.0
 10
5.1962128561
 20
2.3157667958
 30
0.0
 10
5.1962128561
 20
2.3150543053
 30
0.0
  0
SPLINE
  5
527
100
AcDbEntity
  8
ALL_ASSEMBLY_MEMBERS
100
AcDbSpline
 62
7
  6
CONTINUOUS
 70
0
 71
3
 72
16
 73
12
 74
0
 42
0.0000001
 43
0.0000001
 44
0.0000000001
 40
0.0
 40
0.0
 40
0.0
 40
0.0
 40
0.1304539141
 40
0.1955219646
 40
0.2602244513
 40
0.3882667584
 40
0.5143747119
 40
0.6384274337
 40
0.7605763534
 40
0.8810526772
 40
1.0
 40
1.0
 40
1.0
 40
1.0
 10
5.2070979954
 20
2.3150543053
 30
0.0
 10
5.2070979954
 20
2.3157690005
 30
0.0
 10
5.207186092
 20
2.3168426991
 30
0.0
 10
5.2074718039
 20
2.318240509
 30
0.0
 10
5.207864751
 20
2.3195985923
 30
0.0
 10
5.2085441199
 20
2.3212159046
 30
0.0
 10
5.2096248456
 20
2.3229919645
 30
0.0
 10
5.2109211106
 20
2.3245749139
 30
0.0
 10
5.2123908037
 20
2.3259524
 30
0.0
 10
5.2139946791
 20
2.3271225273
 30
0.0
 10
5.2151389153
 20
2.3277703242
 30
0.0
 10
5.2157226447
 20
2.328060006
 30
0.0
  0
SPLINE
  5
528
100
AcDbEntity
  8
ALL_ASSEMBLY_MEMBERS
100
AcDbSpline
 62
7
  6
CONTINUOUS
 70
0
 71
3
 72
15
 73
11
 74
0
 42
0.0000001
 43
0.0000001
 44
0.0000000001
 40
0.0
 40
0.0
 40
0.0
 40
0.0
 40
0.0832708476
 40
0.1787176668
 40
0.2869966536
 40
0.4083797301
 40
0.5424198884
 40
0.6876892186
 40
0.841580297
 40
1.0
 40
1.0
 40
1.0
 40
1.0
 10
5.2157226447
 20
2.328060006
 30
0.0
 10
5.2159339392
 20
2.3277507024
 30
0.0
 10
5.2163429828
 20
2.3270561399
 30
0.0
 10
5.2168811676
 20
2.325880775
 30
0.0
 10
5.2173732674
 20
2.3245018534
 30
0.0
 10
5.2178062217
 20
2.3229227199
 30
0.0
 10
5.2181664168
 20
2.3211553635
 30
0.0
 10
5.2184383063
 20
2.319224554
 30
0.0
 10
5.2186079645
 20
2.3171721482
 30
0.0
 10
5.2186464896
 20
2.3157669399
 30
0.0
 10
5.2186464896
 20
2.3150543053
 30
0.0
  0
SPLINE
  5
529
100
AcDbEntity
  8
ALL_ASSEMBLY_MEMBERS
100
AcDbSpline
 62
7
  6
CONTINUOUS
 70
0
 71
3
 72
16
 73
12
 74
0
 42
0.0000001
 43
0.0000001
 44
0.0000000001
 40
0.0
 40
0.0
 40
0.0
 40
0.0
 40
0.1329315272
 40
0.1991144491
 40
0.2647927442
 40
0.3942498297
 40
0.5209068625
 40
0.6445814558
 40
0.7654513942
 40
0.8838358616
 40
1.0
 40
1.0
 40
1.0
 40
1.0
 10
5.2299838344
 20
2.3150543053
 30
0.0
 10
5.2299838344
 20
2.3157687453
 30
0.0
 10
5.2300667889
 20
2.3168411548
 30
0.0
 10
5.2303365272
 20
2.3182394655
 30
0.0
 10
5.2307068518
 20
2.3195954686
 30
0.0
 10
5.2313462193
 20
2.3212096245
 30
0.0
 10
5.2323654024
 20
2.3229857099
 30
0.0
 10
5.2335885394
 20
2.3245693558
 30
0.0
 10
5.2349759804
 20
2.325947951
 30
0.0
 10
5.2364905493
 20
2.327119246
 30
0.0
 10
5.2375742493
 20
2.3277695348
 30
0.0
 10
5.2381268853
 20
2.328060006
 30
0.0
  0
SPLINE
  5
52A
100
AcDbEntity
  8
ALL_ASSEMBLY_MEMBERS
100
AcDbSpline
 62
7
  6
CONTINUOUS
 70
0
 71
3
 72
15
 73
11
 74
0
 42
0.0000001
 43
0.0000001
 44
0.0000000001
 40
0.0
 40
0.0
 40
0.0
 40
0.0
 40
0.0885606005
 40
0.1874339121
 40
0.2974055738
 40
0.4189065841
 40
0.5516862167
 40
0.6945587096
 40
0.8452303118
 40
1.0
 40
1.0
 40
1.0
 40
1.0
 10
5.2381268853
 20
2.328060006
 30
0.0
 10
5.2383984329
 20
2.3277556504
 30
0.0
 10
5.2389277123
 20
2.3270701972
 30
0.0
 10
5.2396334667
 20
2.3258932956
 30
0.0
 10
5.2402783954
 20
2.3245125325
 30
0.0
 10
5.2408455231
 20
2.3229313805
 30
0.0
 10
5.2413171503
 20
2.3211619897
 30
0.0
 10
5.2416730803
 20
2.319229027
 30
0.0
 10
5.2418951481
 20
2.3171744373
 30
0.0
 10
5.2419455886
 20
2.3157671312
 30
0.0
 10
5.2419455886
 20
2.3150543053
 30
0.0
  0
SPLINE
  5
52B
100
AcDbEntity
  8
ALL_ASSEMBLY_MEMBERS
100
AcDbSpline
 62
7
  6
CONTINUOUS
 70
0
 71
3
 72
16
 73
12
 74
0
 42
0.0000001
 43
0.0000001
 44
0.0000000001
 40
0.0
 40
0.0
 40
0.0
 40
0.0
 40
0.1358439021
 40
0.203341593
 40
0.2701752496
 40
0.4013240061
 40
0.5286635922
 40
0.6519236321
 40
0.7712953839
 40
0.8871874109
 40
1.0
 40
1.0
 40
1.0
 40
1.0
 10
5.2536259541
 20
2.3150543053
 30
0.0
 10
5.2536259541
 20
2.3157684668
 30
0.0
 10
5.2537029768
 20
2.3168394635
 30
0.0
 10
5.2539541419
 20
2.3182383123
 30
0.0
 10
5.2542982916
 20
2.3195919847
 30
0.0
 10
5.254891474
 20
2.321202444
 30
0.0
 10
5.2558391517
 20
2.3229783249
 30
0.0
 10
5.2569771653
 20
2.324562567
 30
0.0
 10
5.25826878
 20
2.3259423317
 30
0.0
 10
5.2596793064
 20
2.3271149734
 30
0.0
 10
5.2606924958
 20
2.3277684855
 30
0.0
 10
5.2612089845
 20
2.328060006
 30
0.0
  0
SPLINE
  5
52C
100
AcDbEntity
  8
ALL_ASSEMBLY_MEMBERS
100
AcDbSpline
 62
7
  6
CONTINUOUS
 70
0
 71
3
 72
14
 73
10
 74
0
 42
0.0000001
 43
0.0000001
 44
0.0000000001
 40
0.0
 40
0.0
 40
0.0
 40
0.0
 40
0.1963198349
 40
0.3082358476
 40
0.4300021085
 40
0.5615392906
 40
0.701905656
 40
0.8491470248
 40
1.0
 40
1.0
 40
1.0
 40
1.0
 10
5.2612089845
 20
2.328060006
 30
0.0
 10
5.2618935511
 20
2.3274335085
 30
0.0
 10
5.2628266279
 20
2.3262891421
 30
0.0
 10
5.2638380479
 20
2.3245242507
 30
0.0
 10
5.264534985
 20
2.3229409448
 30
0.0
 10
5.2651140452
 20
2.3211697041
 30
0.0
 10
5.265551145
 20
2.3192343319
 30
0.0
 10
5.2658238084
 20
2.317177199
 30
0.0
 10
5.2658857701
 20
2.3157673622
 30
0.0
 10
5.2658857701
 20
2.3150543053
 30
0.0
  0
SPLINE
  5
52D
100
AcDbEntity
  8
ALL_ASSEMBLY_MEMBERS
100
AcDbSpline
 62
7
  6
CONTINUOUS
 70
0
 71
3
 72
16
 73
12
 74
0
 42
0.0000001
 43
0.0000001
 44
0.0000000001
 40
0.0
 40
0.0
 40
0.0
 40
0.0
 40
0.1391587873
 40
0.2081583337
 40
0.2763176041
 40
0.4094288027
 40
0.5375947024
 40
0.6604247477
 40
0.7781012209
 40
0.8911128872
 40
1.0
 40
1.0
 40
1.0
 40
1.0
 10
5.2777966679
 20
2.3150543053
 30
0.0
 10
5.2777966679
 20
2.3157681757
 30
0.0
 10
5.2778670431
 20
2.3168376887
 30
0.0
 10
5.2780972157
 20
2.3182370904
 30
0.0
 10
5.2784119421
 20
2.3195882566
 30
0.0
 10
5.278953358
 20
2.3211945479
 30
0.0
 10
5.2798203319
 20
2.3229699024
 30
0.0
 10
5.2808620556
 20
2.3245545086
 30
0.0
 10
5.282045128
 20
2.325935382
 30
0.0
 10
5.2833377689
 20
2.3271094801
 30
0.0
 10
5.2842710267
 20
2.3277670989
 30
0.0
 10
5.2847466492
 20
2.328060006
 30
0.0
  0
SPLINE
  5
52E
100
AcDbEntity
  8
ALL_ASSEMBLY_MEMBERS
100
AcDbSpline
 62
7
  6
CONTINUOUS
 70
0
 71
3
 72
14
 73
10
 74
0
 42
0.0000001
 43
0.0000001
 44
0.0000000001
 40
0.0
 40
0.0
 40
0.0
 40
0.0
 40
0.0994628112
 40
0.2057581928
 40
0.3196602702
 40
0.4417394806
 40
0.7094737858
 40
0.8531898041
 40
1.0
 40
1.0
 40
1.0
 40
1.0
 10
5.2847466492
 20
2.328060006
 30
0.0
 10
5.2851277743
 20
2.3277628668
 30
0.0
 10
5.2858750332
 20
2.3270937491
 30
0.0
 10
5.2868945364
 20
2.3259171461
 30
0.0
 10
5.2878266232
 20
2.3245349157
 30
0.0
 10
5.2889535918
 20
2.3223575276
 30
0.0
 10
5.289745495
 20
2.3198636367
 30
0.0
 10
5.2901634248
 20
2.3171806136
 30
0.0
 10
5.290236477
 20
2.3157676241
 30
0.0
 10
5.290236477
 20
2.3150543053
 30
0.0
  0
SPLINE
  5
52F
100
AcDbEntity
  8
ALL_ASSEMBLY_MEMBERS
100
AcDbSpline
 62
7
  6
CONTINUOUS
 70
0
 71
3
 72
14
 73
10
 74
0
 42
0.0000001
 43
0.0000001
 44
0.0000000001
 40
0.0
 40
0.0
 40
0.0
 40
0.0
 40
0.2827262701
 40
0.4181223266
 40
0.5473338111
 40
0.6698120876
 40
0.7856993934
 40
0.8955379255
 40
1.0
 40
1.0
 40
1.0
 40
1.0
 10
5.3022631988
 20
2.3150543053
 30
0.0
 10
5.3022631988
 20
2.3164661167
 30
0.0
 10
5.3025067914
 20
2.3185657058
 30
0.0
 10
5.3033003494
 20
2.3211857714
 30
0.0
 10
5.3040783153
 20
2.3229606677
 30
0.0
 10
5.3050135713
 20
2.3245451529
 30
0.0
 10
5.3060764049
 20
2.3259269494
 30
0.0
 10
5.3072383456
 20
2.3271024883
 30
0.0
 10
5.3080828078
 20
2.3277652693
 30
0.0
 10
5.3085131988
 20
2.328060006
 30
0.0
  0
SPLINE
  5
530
100
AcDbEntity
  8
ALL_ASSEMBLY_MEMBERS
100
AcDbSpline
 62
7
  6
CONTINUOUS
 70
0
 71
3
 72
14
 73
10
 74
0
 42
0.0000001
 43
0.0000001
 44
0.0000000001
 40
0.0
 40
0.0
 40
0.0
 40
0.0
 40
0.1044588478
 40
0.2142909732
 40
0.3301690634
 40
0.452641689
 40
0.5818441142
 40
0.71725154
 40
1.0
 40
1.0
 40
1.0
 40
1.0
 10
5.3085131988
 20
2.328060006
 30
0.0
 10
5.3089435764
 20
2.3277652784
 30
0.0
 10
5.3097880041
 20
2.3271025324
 30
0.0
 10
5.3109498864
 20
2.3259270682
 30
0.0
 10
5.3120126642
 20
2.3245453646
 30
0.0
 10
5.3129479053
 20
2.3229610118
 30
0.0
 10
5.31372593
 20
2.3211861584
 30
0.0
 10
5.3145195426
 20
2.3185659805
 30
0.0
 10
5.3147631988
 20
2.3164662274
 30
0.0
 10
5.3147631988
 20
2.3150543053
 30
0.0
  0
SPLINE
  5
531
100
AcDbEntity
  8
ALL_ASSEMBLY_MEMBERS
100
AcDbSpline
 62
7
  6
CONTINUOUS
 70
0
 71
3
 72
14
 73
10
 74
0
 42
0.0000001
 43
0.0000001
 44
0.0000000001
 40
0.0
 40
0.0
 40
0.0
 40
0.0
 40
0.1468053678
 40
0.2905054438
 40
0.5582358049
 40
0.6803202815
 40
0.7942315526
 40
0.9005336695
 40
1.0
 40
1.0
 40
1.0
 40
1.0
 10
5.3267899205
 20
2.3150543053
 30
0.0
 10
5.3267899205
 20
2.3157676008
 30
0.0
 10
5.3268629472
 20
2.3171804903
 30
0.0
 10
5.3272808458
 20
2.3198633981
 30
0.0
 10
5.3280727004
 20
2.3223572246
 30
0.0
 10
5.3291996253
 20
2.3245346941
 30
0.0
 10
5.3301317609
 20
2.3259170179
 30
0.0
 10
5.3311513178
 20
2.3270936995
 30
0.0
 10
5.3318986096
 20
2.3277628562
 30
0.0
 10
5.3322797483
 20
2.328060006
 30
0.0
  0
SPLINE
  5
532
100
AcDbEntity
  8
ALL_ASSEMBLY_MEMBERS
100
AcDbSpline
 62
7
  6
CONTINUOUS
 70
0
 71
3
 72
16
 73
12
 74
0
 42
0.0000001
 43
0.0000001
 44
0.0000000001
 40
0.0
 40
0.0
 40
0.0
 40
0.0
 40
0.1088833514
 40
0.2218880156
 40
0.3395552814
 40
0.4623807038
 40
0.5905388995
 40
0.7236624585
 40
0.7918291787
 40
0.8608366252
 40
1.0
 40
1.0
 40
1.0
 40
1.0
 10
5.3322797483
 20
2.328060006
 30
0.0
 10
5.3327553544
 20
2.327767109
 30
0.0
 10
5.333688571
 20
2.3271095286
 30
0.0
 10
5.3349811441
 20
2.3259355083
 30
0.0
 10
5.3361641571
 20
2.3245547264
 30
0.0
 10
5.3372058678
 20
2.322970247
 30
0.0
 10
5.3380729168
 20
2.3211949263
 30
0.0
 10
5.338614345
 20
2.3195885735
 30
0.0
 10
5.338929153
 20
2.3182372801
 30
0.0
 10
5.3391593172
 20
2.316837773
 30
0.0
 10
5.3392297296
 20
2.3157681993
 30
0.0
 10
5.3392297296
 20
2.3150543053
 30
0.0
  0
SPLINE
  5
533
100
AcDbEntity
  8
ALL_ASSEMBLY_MEMBERS
100
AcDbSpline
 62
7
  6
CONTINUOUS
 70
0
 71
3
 72
14
 73
10
 74
0
 42
0.0000001
 43
0.0000001
 44
0.0000000001
 40
0.0
 40
0.0
 40
0.0
 40
0.0
 40
0.1508480569
 40
0.2980731652
 40
0.4384268461
 40
0.5699730092
 40
0.6917449198
 40
0.8036701595
 40
1.0
 40
1.0
 40
1.0
 40
1.0
 10
5.3511406274
 20
2.3150543053
 30
0.0
 10
5.3511406274
 20
2.315767339
 30
0.0
 10
5.3512025685
 20
2.317177076
 30
0.0
 10
5.3514751977
 20
2.3192340524
 30
0.0
 10
5.351912269
 20
2.321169333
 30
0.0
 10
5.3524912808
 20
2.3229405983
 30
0.0
 10
5.3531882225
 20
2.3245240269
 30
0.0
 10
5.3541996891
 20
2.3262890275
 30
0.0
 10
5.3551328116
 20
2.3274334766
 30
0.0
 10
5.355817413
 20
2.328060006
 30
0.0
  0
SPLINE
  5
534
100
AcDbEntity
  8
ALL_ASSEMBLY_MEMBERS
100
AcDbSpline
 62
7
  6
CONTINUOUS
 70
0
 71
3
 72
16
 73
12
 74
0
 42
0.0000001
 43
0.0000001
 44
0.0000000001
 40
0.0
 40
0.0
 40
0.0
 40
0.0
 40
0.1128087311
 40
0.2286936445
 40
0.348056181
 40
0.471311879
 40
0.5986441237
 40
0.7298051638
 40
0.7966461903
 40
0.8641516022
 40
1.0
 40
1.0
 40
1.0
 40
1.0
 10
5.355817413
 20
2.328060006
 30
0.0
 10
5.356333884
 20
2.3277684955
 30
0.0
 10
5.3573470287
 20
2.3271150214
 30
0.0
 10
5.3587574814
 20
2.3259424572
 30
0.0
 10
5.3600490318
 20
2.3245627831
 30
0.0
 10
5.3611870298
 20
2.3229786688
 30
0.0
 10
5.3621347885
 20
2.3212028244
 30
0.0
 10
5.3627279854
 20
2.3195923015
 30
0.0
 10
5.3630722239
 20
2.3182385029
 30
0.0
 10
5.3633233801
 20
2.3168395475
 30
0.0
 10
5.3634004435
 20
2.3157684904
 30
0.0
 10
5.3634004435
 20
2.3150543053
 30
0.0
  0
SPLINE
  5
535
100
AcDbEntity
  8
ALL_ASSEMBLY_MEMBERS
100
AcDbSpline
 62
7
  6
CONTINUOUS
 70
0
 71
3
 72
15
 73
11
 74
0
 42
0.0000001
 43
0.0000001
 44
0.0000000001
 40
0.0
 40
0.0
 40
0.0
 40
0.0
 40
0.1547646541
 40
0.3054196575
 40
0.4482793413
 40
0.5810683822
 40
0.702575399
 40
0.8125563052
 40
0.9114361107
 40
1.0
 40
1.0
 40
1.0
 40
1.0
 10
5.3750808089
 20
2.3150543053
 30
0.0
 10
5.3750808089
 20
2.315767108
 30
0.0
 10
5.3751312327
 20
2.3171743147
 30
0.0
 10
5.3753532725
 20
2.3192287482
 30
0.0
 10
5.3757091797
 20
2.3211616205
 30
0.0
 10
5.3761807672
 20
2.3229310339
 30
0.0
 10
5.3767478977
 20
2.3245123064
 30
0.0
 10
5.3773928598
 20
2.3258931652
 30
0.0
 10
5.3780986522
 20
2.3270701462
 30
0.0
 10
5.3786279545
 20
2.3277556391
 30
0.0
 10
5.3788995122
 20
2.328060006
 30
0.0
  0
SPLINE
  5
536
100
AcDbEntity
  8
ALL_ASSEMBLY_MEMBERS
100
AcDbSpline
 62
7
  6
CONTINUOUS
 70
0
 71
3
 72
16
 73
12
 74
0
 42
0.0000001
 43
0.0000001
 44
0.0000000001
 40
0.0
 40
0.0
 40
0.0
 40
0.0
 40
0.116160197
 40
0.2345374525
 40
0.3553981645
 40
0.4790686581
 40
0.6057186668
 40
0.7351879737
 40
0.8008735713
 40
0.8670640571
 40
1.0
 40
1.0
 40
1.0
 40
1.0
 10
5.3788995122
 20
2.328060006
 30
0.0
 10
5.3794521294
 20
2.3277695447
 30
0.0
 10
5.3805357816
 20
2.3271192936
 30
0.0
 10
5.3820502716
 20
2.3259480759
 30
0.0
 10
5.383437644
 20
2.3245695704
 30
0.0
 10
5.3846607631
 20
2.3229860531
 30
0.0
 10
5.3856800323
 20
2.3212100068
 30
0.0
 10
5.3863194162
 20
2.3195957853
 30
0.0
 10
5.3866898361
 20
2.3182396568
 30
0.0
 10
5.3869595652
 20
2.3168412385
 30
0.0
 10
5.3870425631
 20
2.315768769
 30
0.0
 10
5.3870425631
 20
2.3150543053
 30
0.0
  0
SPLINE
  5
537
100
AcDbEntity
  8
ALL_ASSEMBLY_MEMBERS
100
AcDbSpline
 62
7
  6
CONTINUOUS
 70
0
 71
3
 72
15
 73
11
 74
0
 42
0.0000001
 43
0.0000001
 44
0.0000000001
 40
0.0
 40
0.0
 40
0.0
 40
0.0
 40
0.1584145639
 40
0.3122887266
 40
0.4575451247
 40
0.5915950878
 40
0.712984507
 40
0.8212727697
 40
0.9167259739
 40
1.0
 40
1.0
 40
1.0
 40
1.0
 10
5.398379908
 20
2.3150543053
 30
0.0
 10
5.398379908
 20
2.3157669168
 30
0.0
 10
5.3984184202
 20
2.317172026
 30
0.0
 10
5.3985880571
 20
2.3192242758
 30
0.0
 10
5.3988599294
 20
2.3211549961
 30
0.0
 10
5.3992200939
 20
2.3229223733
 30
0.0
 10
5.3996530498
 20
2.3245016254
 30
0.0
 10
5.4001451751
 20
2.3258806435
 30
0.0
 10
5.4006833892
 20
2.3270560881
 30
0.0
 10
5.4010924502
 20
2.3277506906
 30
0.0
 10
5.4013037528
 20
2.328060006
 30
0.0
  0
SPLINE
  5
538
100
AcDbEntity
  8
ALL_ASSEMBLY_MEMBERS
100
AcDbSpline
 62
7
  6
CONTINUOUS
 70
0
 71
3
 72
16
 73
12
 74
0
 42
0.0000001
 43
0.0000001
 44
0.0000000001
 40
0.0
 40
0.0
 40
0.0
 40
0.0
 40
0.1189433115
 40
0.2394123397
 40
0.3615520208
 40
0.4856008452
 40
0.6117020436
 40
0.7397565227
 40
0.8044662566
 40
0.8695417377
 40
1.0
 40
1.0
 40
1.0
 40
1.0
 10
5.4013037528
 20
2.328060006
 30
0.0
 10
5.4018874625
 20
2.327770334
 30
0.0
 10
5.4030316481
 20
2.3271225747
 30
0.0
 10
5.4046354403
 20
2.3259525245
 30
0.0
 10
5.4061050612
 20
2.3245751272
 30
0.0
 10
5.4074013061
 20
2.322992307
 30
0.0
 10
5.4084821221
 20
2.3212162885
 30
0.0
 10
5.4091615093
 20
2.3195989089
 30
0.0
 10
5.4095545572
 20
2.318240701
 30
0.0
 10
5.4098402596
 20
2.3168427824
 30
0.0
 10
5.4099284021
 20
2.3157690243
 30
0.0
 10
5.4099284021
 20
2.3150543053
 30
0.0
  0
SPLINE
  5
539
100
AcDbEntity
  8
ALL_ASSEMBLY_MEMBERS
100
AcDbSpline
 62
7
  6
CONTINUOUS
 70
0
 71
3
 72
15
 73
11
 74
0
 42
0.0000001
 43
0.0000001
 44
0.0000000001
 40
0.0
 40
0.0
 40
0.0
 40
0.0
 40
0.1614295968
 40
0.3179753625
 40
0.4652447017
 40
0.6003906714
 40
0.7217477249
 40
0.8286852598
 40
0.9212845184
 40
1.0
 40
1.0
 40
1.0
 40
1.0
 10
5.4208135414
 20
2.3150543053
 30
0.0
 10
5.4208135414
 20
2.3157667727
 30
0.0
 10
5.4208398468
 20
2.3171702984
 30
0.0
 10
5.4209557378
 20
2.3192208614
 30
0.0
 10
5.421141443
 20
2.3211498368
 30
0.0
 10
5.4213873901
 20
2.3229154189
 30
0.0
 10
5.4216828944
 20
2.3244926674
 30
0.0
 10
5.4220185037
 20
2.3258694582
 30
0.0
 10
5.4223851343
 20
2.3270424277
 30
0.0
 10
5.4226672461
 20
2.3277452868
 30
0.0
 10
5.4228143696
 20
2.328060006
 30
0.0
  0
SPLINE
  5
53A
100
AcDbEntity
  8
ALL_ASSEMBLY_MEMBERS
100
AcDbSpline
 62
7
  6
CONTINUOUS
 70
0
 71
3
 72
16
 73
12
 74
0
 42
0.0000001
 43
0.0000001
 44
0.0000000001
 40
0.0
 40
0.0
 40
0.0
 40
0.0
 40
0.1211742392
 40
0.2433339049
 40
0.3665212723
 40
0.490895915
 40
0.6165697387
 40
0.7434843313
 40
0.8074011605
 40
0.8715675569
 40
1.0
 40
1.0
 40
1.0
 40
1.0
 10
5.4228143696
 20
2.328060006
 30
0.0
 10
5.4234238194
 20
2.3277709187
 30
0.0
 10
5.4246180514
 20
2.3271250428
 30
0.0
 10
5.4262956392
 20
2.3259559502
 30
0.0
 10
5.4278332141
 20
2.3245795216
 30
0.0
 10
5.4291899057
 20
2.3229973916
 30
0.0
 10
5.4303216695
 20
2.3212215367
 30
0.0
 10
5.4310343521
 20
2.3196015757
 30
0.0
 10
5.4314462059
 20
2.3182415999
 30
0.0
 10
5.4317451272
 20
2.316844122
 30
0.0
 10
5.4318375572
 20
2.3157692466
 30
0.0
 10
5.4318375572
 20
2.3150543053
 30
0.0
  0
SPLINE
  5
53B
100
AcDbEntity
  8
ALL_ASSEMBLY_MEMBERS
100
AcDbSpline
 62
7
  6
CONTINUOUS
 70
0
 71
3
 72
14
 73
10
 74
0
 42
0.0000001
 43
0.0000001
 44
0.0000000001
 40
0.0
 40
0.0
 40
0.0
 40
0.0
 40
0.3218429514
 40
0.4705026619
 40
0.6064261069
 40
0.7277989272
 40
0.8338472153
 40
0.9244959477
 40
1.0
 40
1.0
 40
1.0
 40
1.0
 10
5.4421656612
 20
2.3150543053
 30
0.0
 10
5.4421656612
 20
2.3164567129
 30
0.0
 10
5.4422047147
 20
2.3185072795
 30
0.0
 10
5.4423389188
 20
2.3211464799
 30
0.0
 10
5.4424688749
 20
2.3229108024
 30
0.0
 10
5.4426249171
 20
2.3244865269
 30
0.0
 10
5.4428019934
 20
2.3258613918
 30
0.0
 10
5.4429952189
 20
2.3270319008
 30
0.0
 10
5.4431452148
 20
2.3277406253
 30
0.0
 10
5.4432242037
 20
2.328060006
 30
0.0
  0
SPLINE
  5
53C
100
AcDbEntity
  8
ALL_ASSEMBLY_MEMBERS
100
AcDbSpline
 62
7
  6
CONTINUOUS
 70
0
 71
3
 72
16
 73
12
 74
0
 42
0.0000001
 43
0.0000001
 44
0.0000000001
 40
0.0
 40
0.0
 40
0.0
 40
0.0
 40
0.122872324
 40
0.2463268462
 40
0.370324897
 40
0.4949611543
 40
0.620317621
 40
0.7463615331
 40
0.8096685182
 40
0.8731337326
 40
1.0
 40
1.0
 40
1.0
 40
1.0
 10
5.4432242037
 20
2.328060006
 30
0.0
 10
5.443853789
 20
2.3277713375
 30
0.0
 10
5.4450871352
 20
2.3271268305
 30
0.0
 10
5.446822368
 20
2.3259584753
 30
0.0
 10
5.4484130124
 20
2.3245828272
 30
0.0
 10
5.4498169224
 20
2.3230013002
 30
0.0
 10
5.4509885256
 20
2.3212256604
 30
0.0
 10
5.4517273602
 20
2.319603709
 30
0.0
 10
5.4521539709
 20
2.3182423238
 30
0.0
 10
5.4524632289
 20
2.3168452081
 30
0.0
 10
5.4525590314
 20
2.3157694274
 30
0.0
 10
5.4525590314
 20
2.3150543053
 30
0.0
  0
LINE
  5
53D
100
AcDbEntity
  8
ALL_ASSEMBLY_MEMBERS
100
AcDbLine
 62
7
  6
CONTINUOUS
 10
5.4622306347
 20
2.3150543053
 11
5.4623366971
 21
2.328060006
  0
SPLINE
  5
53E
100
AcDbEntity
  8
ALL_ASSEMBLY_MEMBERS
100
AcDbSpline
 62
7
  6
CONTINUOUS
 70
0
 71
3
 72
16
 73
12
 74
0
 42
0.0000001
 43
0.0000001
 44
0.0000000001
 40
0.0
 40
0.0
 40
0.0
 40
0.0
 40
0.2481154766
 40
0.3727227093
 40
0.4351403865
 40
0.497660103
 40
0.6228374247
 40
0.7483110752
 40
0.8112088647
 40
0.8741997237
 40
1.0
 40
1.0
 40
1.0
 40
1.0
 10
5.4623366971
 20
2.328060006
 30
0.0
 10
5.4636241649
 20
2.3274833916
 30
0.0
 10
5.4654803038
 20
2.3264147608
 30
0.0
 10
5.4673744825
 20
2.3248145296
 30
0.0
 10
5.4683639292
 20
2.3237960727
 30
0.0
 10
5.4692827677
 20
2.3227095113
 30
0.0
 10
5.470283904
 20
2.3212285198
 30
0.0
 10
5.4710412882
 20
2.3196052609
 30
0.0
 10
5.471478442
 20
2.3182428481
 30
0.0
 10
5.4717950509
 20
2.3168460024
 30
0.0
 10
5.4718932654
 20
2.3157695598
 30
0.0
 10
5.4718932654
 20
2.3150543053
 30
0.0
  0
SPLINE
  5
53F
100
AcDbEntity
  8
ALL_ASSEMBLY_MEMBERS
100
AcDbSpline
 62
7
  6
CONTINUOUS
 70
0
 71
3
 72
16
 73
12
 74
0
 42
0.0000001
 43
0.0000001
 44
0.0000000001
 40
0.0
 40
0.0
 40
0.0
 40
0.0
 40
0.2493248888
 40
0.3742639712
 40
0.4367663635
 40
0.4993130573
 40
0.6243664349
 40
0.7494883153
 40
0.8121376528
 40
0.8748418563
 40
1.0
 40
1.0
 40
1.0
 40
1.0
 10
5.4799677862
 20
2.328060006
 30
0.0
 10
5.4812712103
 20
2.3274840622
 30
0.0
 10
5.4831510826
 20
2.3264169722
 30
0.0
 10
5.4850731653
 20
2.3248152853
 30
0.0
 10
5.4860764861
 20
2.3237964379
 30
0.0
 10
5.4870073782
 20
2.3227104346
 30
0.0
 10
5.4880218718
 20
2.3212302411
 30
0.0
 10
5.4887901977
 20
2.3196061716
 30
0.0
 10
5.4892335203
 20
2.3182431599
 30
0.0
 10
5.4895544312
 20
2.3168464742
 30
0.0
 10
5.4896540601
 20
2.3157696386
 30
0.0
 10
5.4896540601
 20
2.3150543053
 30
0.0
  0
SPLINE
  5
540
100
AcDbEntity
  8
ALL_ASSEMBLY_MEMBERS
100
AcDbSpline
 62
7
  6
CONTINUOUS
 70
0
 71
3
 72
15
 73
11
 74
0
 42
0.0000001
 43
0.0000001
 44
0.0000000001
 40
0.0
 40
0.0
 40
0.0
 40
0.0
 40
0.2496810193
 40
0.3747222972
 40
0.4997377169
 40
0.62476605
 40
0.7497990637
 40
0.8123836058
 40
0.875012283
 40
1.0
 40
1.0
 40
1.0
 40
1.0
 10
5.4959476738
 20
2.328060006
 30
0.0
 10
5.4972555794
 20
2.3274842469
 30
0.0
 10
5.4991422226
 20
2.3264173723
 30
0.0
 10
5.501347638
 20
2.3245869066
 30
0.0
 10
5.5028105443
 20
2.3230060391
 30
0.0
 10
5.5040316435
 20
2.321230814
 30
0.0
 10
5.5048031827
 20
2.3196064174
 30
0.0
 10
5.5052482209
 20
2.3182432501
 30
0.0
 10
5.5055703443
 20
2.3168466065
 30
0.0
 10
5.5056703692
 20
2.3157696609
 30
0.0
 10
5.5056703692
 20
2.3150543053
 30
0.0
  0
SPLINE
  5
541
100
AcDbEntity
  8
ALL_ASSEMBLY_MEMBERS
100
AcDbSpline
 62
7
  6
CONTINUOUS
 70
0
 71
3
 72
16
 73
12
 74
0
 42
0.0000001
 43
0.0000001
 44
0.0000000001
 40
0.0
 40
0.0
 40
0.0
 40
0.0
 40
0.2491317931
 40
0.3740177917
 40
0.4365065973
 40
0.499048924
 40
0.624122002
 40
0.7493000472
 40
0.8119890959
 40
0.8747391374
 40
1.0
 40
1.0
 40
1.0
 40
1.0
 10
5.510122465
 20
2.328060006
 30
0.0
 10
5.511423331
 20
2.327483956
 30
0.0
 10
5.5132994002
 20
2.326416621
 30
0.0
 10
5.5152170094
 20
2.3248151649
 30
0.0
 10
5.516218106
 20
2.3237963796
 30
0.0
 10
5.5171470665
 20
2.3227102871
 30
0.0
 10
5.5181594198
 20
2.3212299651
 30
0.0
 10
5.5189259906
 20
2.3196060252
 30
0.0
 10
5.5193683239
 20
2.3182431097
 30
0.0
 10
5.5196885451
 20
2.3168463982
 30
0.0
 10
5.5197879471
 20
2.3157696259
 30
0.0
 10
5.5197879471
 20
2.3150543053
 30
0.0
  0
SPLINE
  5
542
100
AcDbEntity
  8
ALL_ASSEMBLY_MEMBERS
100
AcDbSpline
 62
7
  6
CONTINUOUS
 70
0
 71
3
 72
16
 73
12
 74
0
 42
0.0000001
 43
0.0000001
 44
0.0000000001
 40
0.0
 40
0.0
 40
0.0
 40
0.0
 40
0.24772719
 40
0.3722281993
 40
0.4346188709
 40
0.4971301155
 40
0.6223475089
 40
0.7479340925
 40
0.8109115116
 40
0.8739941805
 40
1.0
 40
1.0
 40
1.0
 40
1.0
 10
5.5223556488
 20
2.328060006
 30
0.0
 10
5.5236380266
 20
2.3274831733
 30
0.0
 10
5.5254865889
 20
2.3264140447
 30
0.0
 10
5.5273718659
 20
2.3248142862
 30
0.0
 10
5.5283568869
 20
2.3237959553
 30
0.0
 10
5.5292718776
 20
2.3227092154
 30
0.0
 10
5.5302687495
 20
2.3212279708
 30
0.0
 10
5.5310226461
 20
2.3196049717
 30
0.0
 10
5.5314578334
 20
2.3182427492
 30
0.0
 10
5.5317730697
 20
2.3168458531
 30
0.0
 10
5.5318708336
 20
2.3157695348
 30
0.0
 10
5.5318708336
 20
2.3150543053
 30
0.0
  0
SPLINE
  5
543
100
AcDbEntity
  8
ALL_ASSEMBLY_MEMBERS
100
AcDbSpline
 62
7
  6
CONTINUOUS
 70
0
 71
3
 72
16
 73
12
 74
0
 42
0.0000001
 43
0.0000001
 44
0.0000000001
 40
0.0
 40
0.0
 40
0.0
 40
0.0
 40
0.1225400488
 40
0.245740662
 40
0.3695791875
 40
0.4941633208
 40
0.6195813297
 40
0.7457958059
 40
0.8092225515
 40
0.8728256021
 40
1.0
 40
1.0
 40
1.0
 40
1.0
 10
5.5325294128
 20
2.328060006
 30
0.0
 10
5.533155019
 20
2.3277712573
 30
0.0
 10
5.5343806377
 20
2.3271264867
 30
0.0
 10
5.5361044845
 20
2.3259579868
 30
0.0
 10
5.5376846476
 20
2.3245821831
 30
0.0
 10
5.5390792313
 20
2.3230005329
 30
0.0
 10
5.540242963
 20
2.3212248446
 30
0.0
 10
5.5409766224
 20
2.3196032843
 30
0.0
 10
5.5414003136
 20
2.3182421794
 30
0.0
 10
5.5417075293
 20
2.3168449908
 30
0.0
 10
5.541802664
 20
2.3157693912
 30
0.0
 10
5.541802664
 20
2.3150543053
 30
0.0
  0
SPLINE
  5
544
100
AcDbEntity
  8
ALL_ASSEMBLY_MEMBERS
100
AcDbSpline
 62
7
  6
CONTINUOUS
 70
0
 71
3
 72
16
 73
12
 74
0
 42
0.0000001
 43
0.0000001
 44
0.0000000001
 40
0.0
 40
0.0
 40
0.0
 40
0.0
 40
0.1207252101
 40
0.242543622
 40
0.3655185235
 40
0.4898259606
 40
0.6155848693
 40
0.7427292732
 40
0.8068064534
 40
0.871156928
 40
1.0
 40
1.0
 40
1.0
 40
1.0
 10
5.5405457783
 20
2.328060006
 30
0.0
 10
5.5411499843
 20
2.3277708042
 30
0.0
 10
5.5423340253
 20
2.3271245571
 30
0.0
 10
5.5439965891
 20
2.3259552706
 30
0.0
 10
5.5455203307
 20
2.3245786417
 30
0.0
 10
5.5468647155
 20
2.3229963634
 30
0.0
 10
5.5479861016
 20
2.321220465
 30
0.0
 10
5.5486919888
 20
2.3196010268
 30
0.0
 10
5.549100006
 20
2.3182414143
 30
0.0
 10
5.5493962349
 20
2.3168438446
 30
0.0
 10
5.5494877893
 20
2.3157692005
 30
0.0
 10
5.5494877893
 20
2.3150543053
 30
0.0
  0
SPLINE
  5
545
100
AcDbEntity
  8
ALL_ASSEMBLY_MEMBERS
100
AcDbSpline
 62
7
  6
CONTINUOUS
 70
0
 71
3
 72
16
 73
12
 74
0
 42
0.0000001
 43
0.0000001
 44
0.0000000001
 40
0.0
 40
0.0
 40
0.0
 40
0.0
 40
0.1183732207
 40
0.2384121843
 40
0.3602873342
 40
0.4842561314
 40
0.610468368
 40
0.7388133401
 40
0.803724174
 40
0.8690297703
 40
1.0
 40
1.0
 40
1.0
 40
1.0
 10
5.5463275431
 20
2.328060006
 30
0.0
 10
5.5469047961
 20
2.3277701779
 30
0.0
 10
5.548036419
 20
2.3271219213
 30
0.0
 10
5.5496216811
 20
2.3259516291
 30
0.0
 10
5.5510742366
 20
2.3245739955
 30
0.0
 10
5.5523553051
 20
2.3229910175
 30
0.0
 10
5.5534233396
 20
2.3212149779
 30
0.0
 10
5.5540943998
 20
2.3195982511
 30
0.0
 10
5.5544827406
 20
2.3182404804
 30
0.0
 10
5.5547651264
 20
2.3168424551
 30
0.0
 10
5.5548521975
 20
2.3157689701
 30
0.0
 10
5.5548521975
 20
2.3150543053
 30
0.0
  0
SPLINE
  5
546
100
AcDbEntity
  8
ALL_ASSEMBLY_MEMBERS
100
AcDbSpline
 62
7
  6
CONTINUOUS
 70
0
 71
3
 72
16
 73
12
 74
0
 42
0.0000001
 43
0.0000001
 44
0.0000000001
 40
0.0
 40
0.0
 40
0.0
 40
0.0
 40
0.1154649709
 40
0.2333227857
 40
0.3538689213
 40
0.4774497305
 40
0.6042394071
 40
0.7340607772
 40
0.7999878321
 40
0.8664535679
 40
1.0
 40
1.0
 40
1.0
 40
1.0
 10
5.5498190259
 20
2.328060006
 30
0.0
 10
5.550364036
 20
2.3277693363
 30
0.0
 10
5.5514328627
 20
2.3271184372
 30
0.0
 10
5.5529254772
 20
2.325946934
 30
0.0
 10
5.5542927009
 20
2.3245681705
 30
0.0
 10
5.5554979139
 20
2.3229845075
 30
0.0
 10
5.5565021281
 20
2.3212084829
 30
0.0
 10
5.5571317625
 20
2.3195950385
 30
0.0
 10
5.5574966612
 20
2.3182394085
 30
0.0
 10
5.5577624817
 20
2.3168408732
 30
0.0
 10
5.5578442266
 20
2.3157687087
 30
0.0
 10
5.5578442266
 20
2.3150543053
 30
0.0
  0
SPLINE
  5
547
100
AcDbEntity
  8
ALL_ASSEMBLY_MEMBERS
100
AcDbSpline
 62
7
  6
CONTINUOUS
 70
0
 71
3
 72
16
 73
12
 74
0
 42
0.0000001
 43
0.0000001
 44
0.0000000001
 40
0.0
 40
0.0
 40
0.0
 40
0.0
 40
0.1154663381
 40
0.2333266911
 40
0.3538759422
 40
0.4774568114
 40
0.6042467299
 40
0.7340640511
 40
0.7999893703
 40
0.8664538935
 40
1.0
 40
1.0
 40
1.0
 40
1.0
 10
5.0672073716
 20
1.9270486047
 30
0.0
 10
5.066662355
 20
1.9273392778
 30
0.0
 10
5.0655935113
 20
1.9279901894
 30
0.0
 10
5.0641008701
 20
1.9291617199
 30
0.0
 10
5.0627336319
 20
1.9305405123
 30
0.0
 10
5.0615284173
 20
1.932124198
 30
0.0
 10
5.0605242377
 20
1.9339002182
 30
0.0
 10
5.0598946069
 20
1.9355136319
 30
0.0
 10
5.0595297314
 20
1.9368692295
 30
0.0
 10
5.0592639127
 20
1.938267747
 30
0.0
 10
5.0591821709
 20
1.9393399037
 30
0.0
 10
5.0591821709
 20
1.9400543053
 30
0.0
  0
SPLINE
  5
548
100
AcDbEntity
  8
ALL_ASSEMBLY_MEMBERS
100
AcDbSpline
 62
7
  6
CONTINUOUS
 70
0
 71
3
 72
16
 73
12
 74
0
 42
0.0000001
 43
0.0000001
 44
0.0000000001
 40
0.0
 40
0.0
 40
0.0
 40
0.0
 40
0.1183746155
 40
0.2384161452
 40
0.3602944065
 40
0.4842632079
 40
0.610475619
 40
0.7388165763
 40
0.8037256876
 40
0.8690300909
 40
1.0
 40
1.0
 40
1.0
 40
1.0
 10
5.0706988544
 20
1.9270486047
 30
0.0
 10
5.0701215946
 20
1.9273384362
 30
0.0
 10
5.0689899537
 20
1.9279867051
 30
0.0
 10
5.0674046633
 20
1.9291570245
 30
0.0
 10
5.0659520923
 20
1.9305346871
 30
0.0
 10
5.0646710221
 20
1.9321176879
 30
0.0
 10
5.0636030238
 20
1.9338937238
 30
0.0
 10
5.0629319678
 20
1.9355104192
 30
0.0
 10
5.0625436517
 20
1.9368681578
 30
0.0
 10
5.0622612677
 20
1.9382661652
 30
0.0
 10
5.0621742
 20
1.9393396423
 30
0.0
 10
5.0621742
 20
1.9400543053
 30
0.0
  0
SPLINE
  5
549
100
AcDbEntity
  8
ALL_ASSEMBLY_MEMBERS
100
AcDbSpline
 62
7
  6
CONTINUOUS
 70
0
 71
3
 72
16
 73
12
 74
0
 42
0.0000001
 43
0.0000001
 44
0.0000000001
 40
0.0
 40
0.0
 40
0.0
 40
0.0
 40
0.1207266273
 40
0.2425476285
 40
0.3655256388
 40
0.4898330347
 40
0.6155920622
 40
0.7427324788
 40
0.8068079469
 40
0.8711572445
 40
1.0
 40
1.0
 40
1.0
 40
1.0
 10
5.0764806192
 20
1.9270486047
 30
0.0
 10
5.0758764061
 20
1.9273378098
 30
0.0
 10
5.0746923464
 20
1.9279840692
 30
0.0
 10
5.0730297529
 20
1.9291533828
 30
0.0
 10
5.0715059949
 20
1.9305300407
 30
0.0
 10
5.0701616081
 20
1.9321123418
 30
0.0
 10
5.0690402598
 20
1.9338882373
 30
0.0
 10
5.0683343774
 20
1.9355076434
 30
0.0
 10
5.067926386
 20
1.936867224
 30
0.0
 10
5.0676301591
 20
1.9382647756
 30
0.0
 10
5.0675386082
 20
1.9393394119
 30
0.0
 10
5.0675386082
 20
1.9400543053
 30
0.0
  0
SPLINE
  5
54A
100
AcDbEntity
  8
ALL_ASSEMBLY_MEMBERS
100
AcDbSpline
 62
7
  6
CONTINUOUS
 70
0
 71
3
 72
16
 73
12
 74
0
 42
0.0000001
 43
0.0000001
 44
0.0000000001
 40
0.0
 40
0.0
 40
0.0
 40
0.0
 40
0.1225414835
 40
0.2457447041
 40
0.3695863369
 40
0.4941703938
 40
0.6195884777
 40
0.7457989878
 40
0.8092240293
 40
0.8728259154
 40
1.0
 40
1.0
 40
1.0
 40
1.0
 10
5.0844969847
 20
1.9270486047
 30
0.0
 10
5.0838713712
 20
1.9273373568
 30
0.0
 10
5.082645733
 20
1.9279821396
 30
0.0
 10
5.0809218556
 20
1.9291506665
 30
0.0
 10
5.0793416755
 20
1.9305264992
 30
0.0
 10
5.0779470897
 20
1.9321081721
 30
0.0
 10
5.0767833968
 20
1.933883858
 30
0.0
 10
5.0760497427
 20
1.9355053859
 30
0.0
 10
5.0756260781
 20
1.936866459
 30
0.0
 10
5.0753188646
 20
1.9382636294
 30
0.0
 10
5.0752237335
 20
1.9393392212
 30
0.0
 10
5.0752237335
 20
1.9400543053
 30
0.0
  0
SPLINE
  5
54B
100
AcDbEntity
  8
ALL_ASSEMBLY_MEMBERS
100
AcDbSpline
 62
7
  6
CONTINUOUS
 70
0
 71
3
 72
16
 73
12
 74
0
 42
0.0000001
 43
0.0000001
 44
0.0000000001
 40
0.0
 40
0.0
 40
0.0
 40
0.0
 40
0.1238377811
 40
0.2480330318
 40
0.3724994588
 40
0.4972894169
 40
0.6224689479
 40
0.7480135628
 40
0.8109702189
 40
0.8740326359
 40
1.0
 40
1.0
 40
1.0
 40
1.0
 10
5.0946707488
 20
1.9270486047
 30
0.0
 10
5.0940294993
 20
1.9273370483
 30
0.0
 10
5.0927735022
 20
1.9279808142
 30
0.0
 10
5.0910048987
 20
1.9291487757
 30
0.0
 10
5.0893835503
 20
1.9305239946
 30
0.0
 10
5.0879523317
 20
1.9321051723
 30
0.0
 10
5.0867577142
 20
1.9338806514
 30
0.0
 10
5.086003705
 20
1.9355037084
 30
0.0
 10
5.0855685606
 20
1.9368658874
 30
0.0
 10
5.0852533227
 20
1.9382627682
 30
0.0
 10
5.0851555639
 20
1.9393390776
 30
0.0
 10
5.0851555639
 20
1.9400543053
 30
0.0
  0
SPLINE
  5
54C
100
AcDbEntity
  8
ALL_ASSEMBLY_MEMBERS
100
AcDbSpline
 62
7
  6
CONTINUOUS
 70
0
 71
3
 72
16
 73
12
 74
0
 42
0.0000001
 43
0.0000001
 44
0.0000000001
 40
0.0
 40
0.0
 40
0.0
 40
0.0
 40
0.2491358615
 40
0.3740249677
 40
0.436514078
 40
0.4990559971
 40
0.6241290996
 40
0.7493032018
 40
0.8119905552
 40
0.8747394466
 40
1.0
 40
1.0
 40
1.0
 40
1.0
 10
5.1069039325
 20
1.9270486047
 30
0.0
 10
5.1056030453
 20
1.9276246641
 30
0.0
 10
5.1037269406
 20
1.928692023
 30
0.0
 10
5.1018093091
 20
1.9302935191
 30
0.0
 10
5.1008082028
 20
1.931312319
 30
0.0
 10
5.0998792565
 20
1.9323984237
 30
0.0
 10
5.0988669376
 20
1.9338787374
 30
0.0
 10
5.0981003732
 20
1.9355026449
 30
0.0
 10
5.0976580676
 20
1.9368655288
 30
0.0
 10
5.0973378486
 20
1.938262222
 30
0.0
 10
5.0972384504
 20
1.9393389865
 30
0.0
 10
5.0972384504
 20
1.9400543053
 30
0.0
  0
SPLINE
  5
54D
100
AcDbEntity
  8
ALL_ASSEMBLY_MEMBERS
100
AcDbSpline
 62
7
  6
CONTINUOUS
 70
0
 71
3
 72
16
 73
12
 74
0
 42
0.0000001
 43
0.0000001
 44
0.0000000001
 40
0.0
 40
0.0
 40
0.0
 40
0.0
 40
0.2496664998
 40
0.3747015733
 40
0.4372280741
 40
0.4997820448
 40
0.624801084
 40
0.749820847
 40
0.8123990343
 40
0.8750218996
 40
1.0
 40
1.0
 40
1.0
 40
1.0
 10
5.1210787237
 20
1.9270486047
 30
0.0
 10
5.1197707967
 20
1.9276243732
 30
0.0
 10
5.117884228
 20
1.9286910598
 30
0.0
 10
5.1159542865
 20
1.9302931886
 30
0.0
 10
5.1149470592
 20
1.9313121589
 30
0.0
 10
5.1140127985
 20
1.9323980181
 30
0.0
 10
5.1129945909
 20
1.9338779782
 30
0.0
 10
5.1122231961
 20
1.9355022416
 30
0.0
 10
5.1117781676
 20
1.9368653905
 30
0.0
 10
5.1114560511
 20
1.9382620125
 30
0.0
 10
5.1113560283
 20
1.9393389515
 30
0.0
 10
5.1113560283
 20
1.9400543053
 30
0.0
  0
SPLINE
  5
54E
100
AcDbEntity
  8
ALL_ASSEMBLY_MEMBERS
100
AcDbSpline
 62
7
  6
CONTINUOUS
 70
0
 71
3
 72
16
 73
12
 74
0
 42
0.0000001
 43
0.0000001
 44
0.0000000001
 40
0.0
 40
0.0
 40
0.0
 40
0.0
 40
0.2493289593
 40
0.3742711493
 40
0.4367738457
 40
0.4993201304
 40
0.6243735298
 40
0.7494914686
 40
0.8121391111
 40
0.8748421653
 40
1.0
 40
1.0
 40
1.0
 40
1.0
 10
5.1370586114
 20
1.9270486047
 30
0.0
 10
5.1357551659
 20
1.9276245579
 30
0.0
 10
5.1338752581
 20
1.9286916718
 30
0.0
 10
5.1319531531
 20
1.9302933988
 30
0.0
 10
5.1309498225
 20
1.9313122607
 30
0.0
 10
5.1300189446
 20
1.9323982762
 30
0.0
 10
5.1290044855
 20
1.9338784615
 30
0.0
 10
5.128236166
 20
1.9355024985
 30
0.0
 10
5.1277928711
 20
1.9368654786
 30
0.0
 10
5.1274719625
 20
1.938262146
 30
0.0
 10
5.1273723374
 20
1.9393389738
 30
0.0
 10
5.1273723374
 20
1.9400543053
 30
0.0
  0
SPLINE
  5
54F
100
AcDbEntity
  8
ALL_ASSEMBLY_MEMBERS
100
AcDbSpline
 62
7
  6
CONTINUOUS
 70
0
 71
3
 72
16
 73
12
 74
0
 42
0.0000001
 43
0.0000001
 44
0.0000000001
 40
0.0
 40
0.0
 40
0.0
 40
0.0
 40
0.2481195335
 40
0.3727298741
 40
0.4351478591
 40
0.4976671761
 40
0.6228445364
 40
0.7483142374
 40
0.811210329
 40
0.8742000339
 40
1.0
 40
1.0
 40
1.0
 40
1.0
 10
5.1546897004
 20
1.9270486047
 30
0.0
 10
5.1534022116
 20
1.9276252286
 30
0.0
 10
5.1515460375
 20
1.9286938833
 30
0.0
 10
5.1496518369
 20
1.9302941544
 30
0.0
 10
5.1486623805
 20
1.931312626
 30
0.0
 10
5.1477435561
 20
1.9323991994
 30
0.0
 10
5.1467424539
 20
1.9338801826
 30
0.0
 10
5.1459850759
 20
1.9355034092
 30
0.0
 10
5.1455479495
 20
1.9368657904
 30
0.0
 10
5.1452313429
 20
1.9382626178
 30
0.0
 10
5.1451331321
 20
1.9393390527
 30
0.0
 10
5.1451331321
 20
1.9400543053
 30
0.0
  0
LINE
  5
550
100
AcDbEntity
  8
ALL_ASSEMBLY_MEMBERS
100
AcDbLine
 62
7
  6
CONTINUOUS
 10
5.1547957628
 20
1.9400543053
 11
5.1546897004
 21
1.9270486047
  0
SPLINE
  5
551
100
AcDbEntity
  8
ALL_ASSEMBLY_MEMBERS
100
AcDbSpline
 62
7
  6
CONTINUOUS
 70
0
 71
3
 72
16
 73
12
 74
0
 42
0.0000001
 43
0.0000001
 44
0.0000000001
 40
0.0
 40
0.0
 40
0.0
 40
0.0
 40
0.1228737619
 40
0.2463308948
 40
0.3703320528
 40
0.4949682271
 40
0.6203247609
 40
0.7463647107
 40
0.809669993
 40
0.8731340453
 40
1.0
 40
1.0
 40
1.0
 40
1.0
 10
5.1738021938
 20
1.9270486047
 30
0.0
 10
5.1731726012
 20
1.9273372766
 30
0.0
 10
5.1719392354
 20
1.9279817957
 30
0.0
 10
5.1702039717
 20
1.929150178
 30
0.0
 10
5.1686133102
 20
1.9305258551
 30
0.0
 10
5.1672093981
 20
1.9321074048
 30
0.0
 10
5.1660378339
 20
1.9338830423
 30
0.0
 10
5.1652990046
 20
1.9355049611
 30
0.0
 10
5.1648724208
 20
1.9368663146
 30
0.0
 10
5.164563165
 20
1.9382634121
 30
0.0
 10
5.1644673661
 20
1.939339185
 30
0.0
 10
5.1644673661
 20
1.9400543053
 30
0.0
  0
SPLINE
  5
552
100
AcDbEntity
  8
ALL_ASSEMBLY_MEMBERS
100
AcDbSpline
 62
7
  6
CONTINUOUS
 70
0
 71
3
 72
14
 73
10
 74
0
 42
0.0000001
 43
0.0000001
 44
0.0000000001
 40
0.0
 40
0.0
 40
0.0
 40
0.0
 40
0.3218383201
 40
0.4705027929
 40
0.6064273946
 40
0.727800366
 40
0.833847973
 40
0.9244961908
 40
1.0
 40
1.0
 40
1.0
 40
1.0
 10
5.1748607363
 20
1.9400543053
 30
0.0
 10
5.1748607363
 20
1.938651918
 30
0.0
 10
5.1748216799
 20
1.9366013509
 30
0.0
 10
5.1746874808
 20
1.9339621447
 30
0.0
 10
5.1745575217
 20
1.9321977958
 30
0.0
 10
5.1744014785
 20
1.9306220687
 30
0.0
 10
5.1742244025
 20
1.9292472083
 30
0.0
 10
5.1740311779
 20
1.9280767055
 30
0.0
 10
5.1738811825
 20
1.9273679844
 30
0.0
 10
5.1738021938
 20
1.9270486047
 30
0.0
  0
SPLINE
  5
553
100
AcDbEntity
  8
ALL_ASSEMBLY_MEMBERS
100
AcDbSpline
 62
7
  6
CONTINUOUS
 70
0
 71
3
 72
16
 73
12
 74
0
 42
0.0000001
 43
0.0000001
 44
0.0000000001
 40
0.0
 40
0.0
 40
0.0
 40
0.0
 40
0.1211756607
 40
0.2433379202
 40
0.366528396
 40
0.4909029888
 40
0.6165769205
 40
0.743487531
 40
0.8074026501
 40
0.8715678726
 40
1.0
 40
1.0
 40
1.0
 40
1.0
 10
5.1942120279
 20
1.9270486047
 30
0.0
 10
5.193602571
 20
1.9273376954
 30
0.0
 10
5.19240832
 20
1.9279835836
 30
0.0
 10
5.1907307023
 20
1.9291527032
 30
0.0
 10
5.1891931109
 20
1.9305291608
 30
0.0
 10
5.1878364174
 20
1.9321113136
 30
0.0
 10
5.1867046916
 20
1.9338871656
 30
0.0
 10
5.1859920138
 20
1.9355070945
 30
0.0
 10
5.1855801861
 20
1.9368670384
 30
0.0
 10
5.1852812667
 20
1.9382644982
 30
0.0
 10
5.1851888403
 20
1.9393393658
 30
0.0
 10
5.1851888403
 20
1.9400543053
 30
0.0
  0
SPLINE
  5
554
100
AcDbEntity
  8
ALL_ASSEMBLY_MEMBERS
100
AcDbSpline
 62
7
  6
CONTINUOUS
 70
0
 71
3
 72
15
 73
11
 74
0
 42
0.0000001
 43
0.0000001
 44
0.0000000001
 40
0.0
 40
0.0
 40
0.0
 40
0.0
 40
0.1614266478
 40
0.3179707969
 40
0.4652448293
 40
0.6003919542
 40
0.7217491718
 40
0.8286860276
 40
0.9212847669
 40
1.0
 40
1.0
 40
1.0
 40
1.0
 10
5.1962128561
 20
1.9400543053
 30
0.0
 10
5.1962128561
 20
1.939341851
 30
0.0
 10
5.1961865584
 20
1.9379383452
 30
0.0
 10
5.196070656
 20
1.9358877824
 30
0.0
 10
5.195884959
 20
1.9339587875
 30
0.0
 10
5.1956390054
 20
1.9321931793
 30
0.0
 10
5.1953434996
 20
1.9306159282
 30
0.0
 10
5.1950078908
 20
1.929239142
 30
0.0
 10
5.1946412618
 20
1.9280661787
 30
0.0
 10
5.1943591509
 20
1.9273633229
 30
0.0
 10
5.1942120279
 20
1.9270486047
 30
0.0
  0
SPLINE
  5
555
100
AcDbEntity
  8
ALL_ASSEMBLY_MEMBERS
100
AcDbSpline
 62
7
  6
CONTINUOUS
 70
0
 71
3
 72
16
 73
12
 74
0
 42
0.0000001
 43
0.0000001
 44
0.0000000001
 40
0.0
 40
0.0
 40
0.0
 40
0.0
 40
0.1189447118
 40
0.2394163116
 40
0.3615591035
 40
0.485607921
 40
0.6117092805
 40
0.7397597515
 40
0.8044677654
 40
0.8695420573
 40
1.0
 40
1.0
 40
1.0
 40
1.0
 10
5.2157226447
 20
1.9270486047
 30
0.0
 10
5.2151389281
 20
1.9273382801
 30
0.0
 10
5.2139947243
 20
1.9279860518
 30
0.0
 10
5.2123909035
 20
1.9291561291
 30
0.0
 10
5.2109212669
 20
1.9305335553
 30
0.0
 10
5.2096250202
 20
1.9321163984
 30
0.0
 10
5.2085442408
 20
1.9338924133
 30
0.0
 10
5.2078648579
 20
1.9355097614
 30
0.0
 10
5.2074718351
 20
1.9368679372
 30
0.0
 10
5.2071861345
 20
1.9382658378
 30
0.0
 10
5.2070979954
 20
1.9393395881
 30
0.0
 10
5.2070979954
 20
1.9400543053
 30
0.0
  0
SPLINE
  5
556
100
AcDbEntity
  8
ALL_ASSEMBLY_MEMBERS
100
AcDbSpline
 62
7
  6
CONTINUOUS
 70
0
 71
3
 72
15
 73
11
 74
0
 42
0.0000001
 43
0.0000001
 44
0.0000000001
 40
0.0
 40
0.0
 40
0.0
 40
0.0
 40
0.1584116638
 40
0.312284255
 40
0.4575452452
 40
0.5915963627
 40
0.7129859657
 40
0.8212735523
 40
0.9167262301
 40
1.0
 40
1.0
 40
1.0
 40
1.0
 10
5.2186464896
 20
1.9400543053
 30
0.0
 10
5.2186464896
 20
1.9393417069
 30
0.0
 10
5.2186079886
 20
1.9379366173
 30
0.0
 10
5.218438335
 20
1.9358843684
 30
0.0
 10
5.2181664745
 20
1.9339536276
 30
0.0
 10
5.2178063007
 20
1.9321862248
 30
0.0
 10
5.2173733426
 20
1.9306069703
 30
0.0
 10
5.2168812181
 20
1.9292279568
 30
0.0
 10
5.2163430062
 20
1.9280525184
 30
0.0
 10
5.2159339466
 20
1.9273579192
 30
0.0
 10
5.2157226447
 20
1.9270486047
 30
0.0
  0
SPLINE
  5
557
100
AcDbEntity
  8
ALL_ASSEMBLY_MEMBERS
100
AcDbSpline
 62
7
  6
CONTINUOUS
 70
0
 71
3
 72
16
 73
12
 74
0
 42
0.0000001
 43
0.0000001
 44
0.0000000001
 40
0.0
 40
0.0
 40
0.0
 40
0.0
 40
0.1161615708
 40
0.2345413711
 40
0.3554051975
 40
0.4790757379
 40
0.6057259725
 40
0.7351912387
 40
0.8008751036
 40
0.8670643814
 40
1.0
 40
1.0
 40
1.0
 40
1.0
 10
5.2381268853
 20
1.9270486047
 30
0.0
 10
5.2375742615
 20
1.9273390695
 30
0.0
 10
5.2364905921
 20
1.9279893329
 30
0.0
 10
5.234976075
 20
1.9291605779
 30
0.0
 10
5.2335886878
 20
1.9305391123
 30
0.0
 10
5.2323655672
 20
1.9321226525
 30
0.0
 10
5.2313463329
 20
1.9338986944
 30
0.0
 10
5.2307069528
 20
1.935512885
 30
0.0
 10
5.2303365565
 20
1.9368689812
 30
0.0
 10
5.2300668291
 20
1.9382673818
 30
0.0
 10
5.2299838344
 20
1.9393398434
 30
0.0
 10
5.2299838344
 20
1.9400543053
 30
0.0
  0
SPLINE
  5
558
100
AcDbEntity
  8
ALL_ASSEMBLY_MEMBERS
100
AcDbSpline
 62
7
  6
CONTINUOUS
 70
0
 71
3
 72
15
 73
11
 74
0
 42
0.0000001
 43
0.0000001
 44
0.0000000001
 40
0.0
 40
0.0
 40
0.0
 40
0.0
 40
0.154761813
 40
0.3054153003
 40
0.4482794535
 40
0.5810696485
 40
0.7025768731
 40
0.8125571064
 40
0.9114363764
 40
1.0
 40
1.0
 40
1.0
 40
1.0
 10
5.2419455886
 20
1.9400543053
 30
0.0
 10
5.2419455886
 20
1.9393415157
 30
0.0
 10
5.2418951795
 20
1.9379343283
 30
0.0
 10
5.241673118
 20
1.9358798966
 30
0.0
 10
5.2413172261
 20
1.9339470025
 30
0.0
 10
5.2408456264
 20
1.9321775641
 30
0.0
 10
5.2402784931
 20
1.9305962894
 30
0.0
 10
5.2396335321
 20
1.9292154352
 30
0.0
 10
5.2389277426
 20
1.9280384604
 30
0.0
 10
5.2383984422
 20
1.9273529706
 30
0.0
 10
5.2381268853
 20
1.9270486047
 30
0.0
  0
SPLINE
  5
559
100
AcDbEntity
  8
ALL_ASSEMBLY_MEMBERS
100
AcDbSpline
 62
7
  6
CONTINUOUS
 70
0
 71
3
 72
16
 73
12
 74
0
 42
0.0000001
 43
0.0000001
 44
0.0000000001
 40
0.0
 40
0.0
 40
0.0
 40
0.0
 40
0.1128100732
 40
0.2286975002
 40
0.3480631569
 40
0.4713189653
 40
0.5986515121
 40
0.729808472
 40
0.7966477505
 40
0.8641519322
 40
1.0
 40
1.0
 40
1.0
 40
1.0
 10
5.2612089845
 20
1.9270486047
 30
0.0
 10
5.2606925074
 20
1.9273401187
 30
0.0
 10
5.2596793465
 20
1.9279936053
 30
0.0
 10
5.2582688685
 20
1.9291661969
 30
0.0
 10
5.2569773045
 20
1.9305458998
 30
0.0
 10
5.2558393051
 20
1.932130037
 30
0.0
 10
5.2548915792
 20
1.9339058761
 30
0.0
 10
5.2542983855
 20
1.9355163689
 30
0.0
 10
5.253954169
 20
1.936870135
 30
0.0
 10
5.2537030144
 20
1.9382690728
 30
0.0
 10
5.2536259541
 20
1.939340122
 30
0.0
 10
5.2536259541
 20
1.9400543053
 30
0.0
  0
SPLINE
  5
55A
100
AcDbEntity
  8
ALL_ASSEMBLY_MEMBERS
100
AcDbSpline
 62
7
  6
CONTINUOUS
 70
0
 71
3
 72
14
 73
10
 74
0
 42
0.0000001
 43
0.0000001
 44
0.0000000001
 40
0.0
 40
0.0
 40
0.0
 40
0.0
 40
0.150845278
 40
0.2980689308
 40
0.4384269482
 40
0.5699742662
 40
0.6917464107
 40
0.8036709795
 40
1.0
 40
1.0
 40
1.0
 40
1.0
 10
5.2658857701
 20
1.9400543053
 30
0.0
 10
5.2658857701
 20
1.9393412848
 30
0.0
 10
5.2658238469
 20
1.9379315665
 30
0.0
 10
5.2655511914
 20
1.9358745932
 30
0.0
 10
5.2651141386
 20
1.9339392893
 30
0.0
 10
5.2645351118
 20
1.9321679995
 30
0.0
 10
5.2638381669
 20
1.930584569
 30
0.0
 10
5.262826702
 20
1.9288195741
 30
0.0
 10
5.2618935831
 20
1.9276751315
 30
0.0
 10
5.2612089845
 20
1.9270486047
 30
0.0
  0
SPLINE
  5
55B
100
AcDbEntity
  8
ALL_ASSEMBLY_MEMBERS
100
AcDbSpline
 62
7
  6
CONTINUOUS
 70
0
 71
3
 72
16
 73
12
 74
0
 42
0.0000001
 43
0.0000001
 44
0.0000000001
 40
0.0
 40
0.0
 40
0.0
 40
0.0
 40
0.1088846568
 40
0.2218917993
 40
0.339562194
 40
0.4623878002
 40
0.5905463845
 40
0.7236658169
 40
0.7918307708
 40
0.8608369617
 40
1.0
 40
1.0
 40
1.0
 40
1.0
 10
5.2847466492
 20
1.9270486047
 30
0.0
 10
5.2842710374
 20
1.9273415052
 30
0.0
 10
5.2833378058
 20
1.9279990983
 30
0.0
 10
5.2820452095
 20
1.9291731462
 30
0.0
 10
5.2808621842
 20
1.9305539568
 30
0.0
 10
5.2798204724
 20
1.9321384589
 30
0.0
 10
5.2789534538
 20
1.9339137734
 30
0.0
 10
5.2784120281
 20
1.935520097
 30
0.0
 10
5.2780972404
 20
1.9368713576
 30
0.0
 10
5.2778670776
 20
1.9382708473
 30
0.0
 10
5.2777966679
 20
1.9393404131
 30
0.0
 10
5.2777966679
 20
1.9400543053
 30
0.0
  0
SPLINE
  5
55C
100
AcDbEntity
  8
ALL_ASSEMBLY_MEMBERS
100
AcDbSpline
 62
7
  6
CONTINUOUS
 70
0
 71
3
 72
14
 73
10
 74
0
 42
0.0000001
 43
0.0000001
 44
0.0000000001
 40
0.0
 40
0.0
 40
0.0
 40
0.0
 40
0.1468026622
 40
0.2905013553
 40
0.5582370304
 40
0.6803217753
 40
0.7942323842
 40
0.9005339505
 40
1.0
 40
1.0
 40
1.0
 40
1.0
 10
5.290236477
 20
1.9400543053
 30
0.0
 10
5.290236477
 20
1.9393410231
 30
0.0
 10
5.2901634701
 20
1.9379281519
 30
0.0
 10
5.2897455376
 20
1.9352452436
 30
0.0
 10
5.2889537063
 20
1.9327513894
 30
0.0
 10
5.2878267618
 20
1.9305739021
 30
0.0
 10
5.2868946289
 20
1.9291915826
 30
0.0
 10
5.2858750758
 20
1.9280149072
 30
0.0
 10
5.2851277868
 20
1.9273457536
 30
0.0
 10
5.2847466492
 20
1.9270486047
 30
0.0
  0
SPLINE
  5
55D
100
AcDbEntity
  8
ALL_ASSEMBLY_MEMBERS
100
AcDbSpline
 62
7
  6
CONTINUOUS
 70
0
 71
3
 72
14
 73
10
 74
0
 42
0.0000001
 43
0.0000001
 44
0.0000000001
 40
0.0
 40
0.0
 40
0.0
 40
0.0
 40
0.1044598665
 40
0.2142939308
 40
0.3301745531
 40
0.4526477574
 40
0.581851175
 40
0.7172554968
 40
1.0
 40
1.0
 40
1.0
 40
1.0
 10
5.3085131988
 20
1.9270486047
 30
0.0
 10
5.3080828169
 20
1.9273433352
 30
0.0
 10
5.3072383784
 20
1.9280060916
 30
0.0
 10
5.3060764792
 20
1.9291815778
 30
0.0
 10
5.3050136909
 20
1.9305633056
 30
0.0
 10
5.3040784483
 20
1.9321476817
 30
0.0
 10
5.3033004427
 20
1.9339225349
 30
0.0
 10
5.3025068408
 20
1.936542684
 30
0.0
 10
5.3022631988
 20
1.938642403
 30
0.0
 10
5.3022631988
 20
1.9400543053
 30
0.0
  0
SPLINE
  5
55E
100
AcDbEntity
  8
ALL_ASSEMBLY_MEMBERS
100
AcDbSpline
 62
7
  6
CONTINUOUS
 70
0
 71
3
 72
14
 73
10
 74
0
 42
0.0000001
 43
0.0000001
 44
0.0000000001
 40
0.0
 40
0.0
 40
0.0
 40
0.0
 40
0.2827216286
 40
0.418123045
 40
0.5473349952
 40
0.6698128744
 40
0.7856998624
 40
0.8955381062
 40
1.0
 40
1.0
 40
1.0
 40
1.0
 10
5.3147631988
 20
1.9400543053
 30
0.0
 10
5.3147631988
 20
1.9386425172
 30
0.0
 10
5.3145195844
 20
1.9365429304
 30
0.0
 10
5.3137260613
 20
1.9339228484
 30
0.0
 10
5.3129480782
 20
1.9321479288
 30
0.0
 10
5.312012816
 20
1.9305634496
 30
0.0
 10
5.3109499879
 20
1.9291816555
 30
0.0
 10
5.3097880498
 20
1.9280061195
 30
0.0
 10
5.308943589
 20
1.9273433409
 30
0.0
 10
5.3085131988
 20
1.9270486047
 30
0.0
  0
SPLINE
  5
55F
100
AcDbEntity
  8
ALL_ASSEMBLY_MEMBERS
100
AcDbSpline
 62
7
  6
CONTINUOUS
 70
0
 71
3
 72
14
 73
10
 74
0
 42
0.0000001
 43
0.0000001
 44
0.0000000001
 40
0.0
 40
0.0
 40
0.0
 40
0.0
 40
0.0994640245
 40
0.2057618013
 40
0.3196670307
 40
0.4417465897
 40
0.7094772726
 40
0.8531901644
 40
1.0
 40
1.0
 40
1.0
 40
1.0
 10
5.3322797483
 20
1.9270486047
 30
0.0
 10
5.3318986185
 20
1.9273457475
 30
0.0
 10
5.3311513474
 20
1.9280148783
 30
0.0
 10
5.330131826
 20
1.9291915092
 30
0.0
 10
5.3291997292
 20
1.9305737679
 30
0.0
 10
5.3280727761
 20
1.9327511633
 30
0.0
 10
5.3272808867
 20
1.9352450252
 30
0.0
 10
5.3268629717
 20
1.9379280158
 30
0.0
 10
5.3267899205
 20
1.9393409883
 30
0.0
 10
5.3267899205
 20
1.9400543053
 30
0.0
  0
SPLINE
  5
560
100
AcDbEntity
  8
ALL_ASSEMBLY_MEMBERS
100
AcDbSpline
 62
7
  6
CONTINUOUS
 70
0
 71
3
 72
16
 73
12
 74
0
 42
0.0000001
 43
0.0000001
 44
0.0000000001
 40
0.0
 40
0.0
 40
0.0
 40
0.0
 40
0.1391561949
 40
0.2081538978
 40
0.2763137343
 40
0.4094288747
 40
0.5375959379
 40
0.6604262957
 40
0.7781021027
 40
0.8911131925
 40
1.0
 40
1.0
 40
1.0
 40
1.0
 10
5.3392297296
 20
1.9400543053
 30
0.0
 10
5.3392297296
 20
1.9393404482
 30
0.0
 10
5.3391593771
 20
1.9382709562
 30
0.0
 10
5.3389291894
 20
1.9368715765
 30
0.0
 10
5.3386144544
 20
1.935520399
 30
0.0
 10
5.338073053
 20
1.9339140718
 30
0.0
 10
5.3372060582
 20
1.9321386953
 30
0.0
 10
5.3361643299
 20
1.9305540876
 30
0.0
 10
5.3349812596
 20
1.9291732186
 30
0.0
 10
5.3336886239
 20
1.9279991266
 30
0.0
 10
5.3327553695
 20
1.927341511
 30
0.0
 10
5.3322797483
 20
1.9270486047
 30
0.0
  0
SPLINE
  5
561
100
AcDbEntity
  8
ALL_ASSEMBLY_MEMBERS
100
AcDbSpline
 62
7
  6
CONTINUOUS
 70
0
 71
3
 72
14
 73
10
 74
0
 42
0.0000001
 43
0.0000001
 44
0.0000000001
 40
0.0
 40
0.0
 40
0.0
 40
0.0
 40
0.1963233539
 40
0.3082425464
 40
0.4300092572
 40
0.5615471274
 40
0.7019091909
 40
0.8491473833
 40
1.0
 40
1.0
 40
1.0
 40
1.0
 10
5.355817413
 20
1.9270486047
 30
0.0
 10
5.3551328342
 20
1.9276751134
 30
0.0
 10
5.3541997404
 20
1.9288195081
 30
0.0
 10
5.3531883115
 20
1.9305844332
 30
0.0
 10
5.3524913742
 20
1.9321677617
 30
0.0
 10
5.3519123344
 20
1.933938993
 30
0.0
 10
5.3514752386
 20
1.9358743329
 30
0.0
 10
5.3512025889
 20
1.9379314303
 30
0.0
 10
5.3511406274
 20
1.9393412501
 30
0.0
 10
5.3511406274
 20
1.9400543053
 30
0.0
  0
SPLINE
  5
562
100
AcDbEntity
  8
ALL_ASSEMBLY_MEMBERS
100
AcDbSpline
 62
7
  6
CONTINUOUS
 70
0
 71
3
 72
16
 73
12
 74
0
 42
0.0000001
 43
0.0000001
 44
0.0000000001
 40
0.0
 40
0.0
 40
0.0
 40
0.0
 40
0.1358413613
 40
0.2033372646
 40
0.270171485
 40
0.4013240705
 40
0.5286648236
 40
0.6519251979
 40
0.7712962835
 40
0.8871877246
 40
1.0
 40
1.0
 40
1.0
 40
1.0
 10
5.3634004435
 20
1.9400543053
 30
0.0
 10
5.3634004435
 20
1.9393401572
 30
0.0
 10
5.3633234453
 20
1.9382691811
 30
0.0
 10
5.3630722639
 20
1.9368703546
 30
0.0
 10
5.3627281049
 20
1.9355166713
 30
0.0
 10
5.3621349379
 20
1.9339061749
 30
0.0
 10
5.3611872376
 20
1.9321302727
 30
0.0
 10
5.3600492193
 20
1.9305460293
 30
0.0
 10
5.3587576067
 20
1.929166269
 30
0.0
 10
5.3573470861
 20
1.9279936334
 30
0.0
 10
5.3563339002
 20
1.9273401244
 30
0.0
 10
5.355817413
 20
1.9270486047
 30
0.0
  0
SPLINE
  5
563
100
AcDbEntity
  8
ALL_ASSEMBLY_MEMBERS
100
AcDbSpline
 62
7
  6
CONTINUOUS
 70
0
 71
3
 72
15
 73
11
 74
0
 42
0.0000001
 43
0.0000001
 44
0.0000000001
 40
0.0
 40
0.0
 40
0.0
 40
0.0
 40
0.0885617231
 40
0.187437358
 40
0.2974122205
 40
0.4189137707
 40
0.5516941888
 40
0.6945623151
 40
0.8452306806
 40
1.0
 40
1.0
 40
1.0
 40
1.0
 10
5.3788995122
 20
1.9270486047
 30
0.0
 10
5.3786279611
 20
1.9273529641
 30
0.0
 10
5.3780986731
 20
1.9280384308
 30
0.0
 10
5.3773929059
 20
1.9292153606
 30
0.0
 10
5.3767479709
 20
1.9305961517
 30
0.0
 10
5.3761808432
 20
1.932177326
 30
0.0
 10
5.3757092328
 20
1.9339467067
 30
0.0
 10
5.3753533059
 20
1.9358796378
 30
0.0
 10
5.3751312493
 20
1.9379341919
 30
0.0
 10
5.3750808089
 20
1.9393414812
 30
0.0
 10
5.3750808089
 20
1.9400543053
 30
0.0
  0
SPLINE
  5
564
100
AcDbEntity
  8
ALL_ASSEMBLY_MEMBERS
100
AcDbSpline
 62
7
  6
CONTINUOUS
 70
0
 71
3
 72
16
 73
12
 74
0
 42
0.0000001
 43
0.0000001
 44
0.0000000001
 40
0.0
 40
0.0
 40
0.0
 40
0.0
 40
0.1329290313
 40
0.199110215
 40
0.2647890723
 40
0.3942498877
 40
0.5209080909
 40
0.6445830376
 40
0.7654523093
 40
0.8838361825
 40
1.0
 40
1.0
 40
1.0
 40
1.0
 10
5.3870425631
 20
1.9400543053
 30
0.0
 10
5.3870425631
 20
1.9393398788
 30
0.0
 10
5.386959635
 20
1.9382674895
 30
0.0
 10
5.3866898791
 20
1.9368692015
 30
0.0
 10
5.3863195448
 20
1.9355131878
 30
0.0
 10
5.3856801934
 20
1.9338989936
 30
0.0
 10
5.3846609862
 20
1.9321228877
 30
0.0
 10
5.3834378443
 20
1.9305392406
 30
0.0
 10
5.3820504056
 20
1.9291606498
 30
0.0
 10
5.3805358428
 20
1.9279893609
 30
0.0
 10
5.3794521467
 20
1.9273390751
 30
0.0
 10
5.3788995122
 20
1.9270486047
 30
0.0
  0
SPLINE
  5
565
100
AcDbEntity
  8
ALL_ASSEMBLY_MEMBERS
100
AcDbSpline
 62
7
  6
CONTINUOUS
 70
0
 71
3
 72
15
 73
11
 74
0
 42
0.0000001
 43
0.0000001
 44
0.0000000001
 40
0.0
 40
0.0
 40
0.0
 40
0.0
 40
0.0832719258
 40
0.1787210365
 40
0.2870032498
 40
0.408386951
 40
0.5424279845
 40
0.6876928875
 40
0.8415806733
 40
1.0
 40
1.0
 40
1.0
 40
1.0
 10
5.4013037528
 20
1.9270486047
 30
0.0
 10
5.4010924556
 20
1.9273579123
 30
0.0
 10
5.4006834053
 20
1.9280524885
 30
0.0
 10
5.4001452107
 20
1.9292278817
 30
0.0
 10
5.3996531062
 20
1.930606831
 30
0.0
 10
5.3992201519
 20
1.9321859866
 30
0.0
 10
5.3988599698
 20
1.9339533322
 30
0.0
 10
5.3985880825
 20
1.9358841107
 30
0.0
 10
5.3984184329
 20
1.9379364808
 30
0.0
 10
5.398379908
 20
1.9393416725
 30
0.0
 10
5.398379908
 20
1.9400543053
 30
0.0
  0
SPLINE
  5
566
100
AcDbEntity
  8
ALL_ASSEMBLY_MEMBERS
100
AcDbSpline
 62
7
  6
CONTINUOUS
 70
0
 71
3
 72
16
 73
12
 74
0
 42
0.0000001
 43
0.0000001
 44
0.0000000001
 40
0.0
 40
0.0
 40
0.0
 40
0.0
 40
0.1304514561
 40
0.1955178109
 40
0.2602208584
 40
0.388266811
 40
0.5143759384
 40
0.6384290294
 40
0.7605772818
 40
0.8810530042
 40
1.0
 40
1.0
 40
1.0
 40
1.0
 10
5.4099284021
 20
1.9400543053
 30
0.0
 10
5.4099284021
 20
1.9393396236
 30
0.0
 10
5.4098403334
 20
1.938265945
 30
0.0
 10
5.4095546029
 20
1.9368681581
 30
0.0
 10
5.4091616457
 20
1.9355100644
 30
0.0
 10
5.4084822934
 20
1.9338927128
 30
0.0
 10
5.4074015423
 20
1.9321166331
 30
0.0
 10
5.4061052723
 20
1.9305336825
 30
0.0
 10
5.4046355817
 20
1.9291562008
 30
0.0
 10
5.4030317127
 20
1.9279860796
 30
0.0
 10
5.4018874806
 20
1.9273382857
 30
0.0
 10
5.4013037528
 20
1.9270486047
 30
0.0
  0
SPLINE
  5
567
100
AcDbEntity
  8
ALL_ASSEMBLY_MEMBERS
100
AcDbSpline
 62
7
  6
CONTINUOUS
 70
0
 71
3
 72
15
 73
11
 74
0
 42
0.0000001
 43
0.0000001
 44
0.0000000001
 40
0.0
 40
0.0
 40
0.0
 40
0.0
 40
0.0787134344
 40
0.1713086611
 40
0.2782401378
 40
0.3995912641
 40
0.5347280518
 40
0.6820059521
 40
0.838565559
 40
1.0
 40
1.0
 40
1.0
 40
1.0
 10
5.4228143696
 20
1.9270486047
 30
0.0
 10
5.42266725
 20
1.9273633157
 30
0.0
 10
5.4223851453
 20
1.9280661487
 30
0.0
 10
5.4220185283
 20
1.9292390663
 30
0.0
 10
5.4216829332
 20
1.9306157876
 30
0.0
 10
5.4213874297
 20
1.9321929411
 30
0.0
 10
5.4211414705
 20
1.9339584924
 30
0.0
 10
5.4209557552
 20
1.9358875257
 30
0.0
 10
5.4208398555
 20
1.9379382085
 30
0.0
 10
5.4208135414
 20
1.9393418166
 30
0.0
 10
5.4208135414
 20
1.9400543053
 30
0.0
  0
SPLINE
  5
568
100
AcDbEntity
  8
ALL_ASSEMBLY_MEMBERS
100
AcDbSpline
 62
7
  6
CONTINUOUS
 70
0
 71
3
 72
16
 73
12
 74
0
 42
0.0000001
 43
0.0000001
 44
0.0000000001
 40
0.0
 40
0.0
 40
0.0
 40
0.0
 40
0.1284257226
 40
0.1925831364
 40
0.256493322
 40
0.3833993567
 40
0.5090808934
 40
0.633459653
 40
0.7566556027
 40
0.8788220252
 40
1.0
 40
1.0
 40
1.0
 40
1.0
 10
5.4318375572
 20
1.9400543053
 30
0.0
 10
5.4318375572
 20
1.9393394014
 30
0.0
 10
5.4317452044
 20
1.9382646049
 30
0.0
 10
5.431446254
 20
1.93686726
 30
0.0
 10
5.431034495
 20
1.9355073978
 30
0.0
 10
5.4303218493
 20
1.9338874653
 30
0.0
 10
5.4291901527
 20
1.9321115478
 30
0.0
 10
5.4278334342
 20
1.9305292872
 30
0.0
 10
5.4262957867
 20
1.9291527747
 30
0.0
 10
5.4246181188
 20
1.9279836113
 30
0.0
 10
5.4234238382
 20
1.9273377009
 30
0.0
 10
5.4228143696
 20
1.9270486047
 30
0.0
  0
SPLINE
  5
569
100
AcDbEntity
  8
ALL_ASSEMBLY_MEMBERS
100
AcDbSpline
 62
7
  6
CONTINUOUS
 70
0
 71
3
 72
14
 73
10
 74
0
 42
0.0000001
 43
0.0000001
 44
0.0000000001
 40
0.0
 40
0.0
 40
0.0
 40
0.0
 40
0.0755020399
 40
0.1661467809
 40
0.2721890027
 40
0.3935557528
 40
0.5294698449
 40
0.6781381575
 40
1.0
 40
1.0
 40
1.0
 40
1.0
 10
5.4432242037
 20
1.9270486047
 30
0.0
 10
5.4431452169
 20
1.9273679769
 30
0.0
 10
5.4429952247
 20
1.9280766753
 30
0.0
 10
5.4428020065
 20
1.9292471322
 30
0.0
 10
5.4426249377
 20
1.9306219273
 30
0.0
 10
5.4424688958
 20
1.9321975576
 30
0.0
 10
5.4423389332
 20
1.9339618499
 30
0.0
 10
5.4422047227
 20
1.9366011291
 30
0.0
 10
5.4421656612
 20
1.9386518155
 30
0.0
 10
5.4421656612
 20
1.9400543053
 30
0.0
  0
SPLINE
  5
56A
100
AcDbEntity
  8
ALL_ASSEMBLY_MEMBERS
100
AcDbSpline
 62
7
  6
CONTINUOUS
 70
0
 71
3
 72
16
 73
12
 74
0
 42
0.0000001
 43
0.0000001
 44
0.0000000001
 40
0.0
 40
0.0
 40
0.0
 40
0.0
 40
0.1268596128
 40
0.1903159557
 40
0.2536163294
 40
0.379651658
 40
0.5050156714
 40
0.6296559313
 40
0.7536625739
 40
0.8771239011
 40
1.0
 40
1.0
 40
1.0
 40
1.0
 10
5.4525590314
 20
1.9400543053
 30
0.0
 10
5.4525590314
 20
1.9393392207
 30
0.0
 10
5.4524633086
 20
1.9382635185
 30
0.0
 10
5.4521540207
 20
1.9368665365
 30
0.0
 10
5.4517275081
 20
1.9355052646
 30
0.0
 10
5.4509887121
 20
1.9338833421
 30
0.0
 10
5.449817178
 20
1.9321076387
 30
0.0
 10
5.4484132394
 20
1.9305259809
 30
0.0
 10
5.4468225203
 20
1.9291502494
 30
0.0
 10
5.4450872046
 20
1.9279818234
 30
0.0
 10
5.4438538084
 20
1.9273372821
 30
0.0
 10
5.4432242037
 20
1.9270486047
 30
0.0
  0
LINE
  5
56B
100
AcDbEntity
  8
ALL_ASSEMBLY_MEMBERS
100
AcDbLine
 62
7
  6
CONTINUOUS
 10
5.4623366971
 20
1.9270486047
 11
5.4622306347
 21
1.9400543053
  0
SPLINE
  5
56C
100
AcDbEntity
  8
ALL_ASSEMBLY_MEMBERS
100
AcDbSpline
 62
7
  6
CONTINUOUS
 70
0
 71
3
 72
16
 73
12
 74
0
 42
0.0000001
 43
0.0000001
 44
0.0000000001
 40
0.0
 40
0.0
 40
0.0
 40
0.0
 40
0.1257557236
 40
0.1887187897
 40
0.2515910188
 40
0.3770182209
 40
0.5021652161
 40
0.6269947165
 40
0.7515729637
 40
0.8759406089
 40
1.0
 40
1.0
 40
1.0
 40
1.0
 10
5.4718932654
 20
1.9400543053
 30
0.0
 10
5.4718932654
 20
1.9393390884
 30
0.0
 10
5.4717951338
 20
1.938262725
 30
0.0
 10
5.4714784908
 20
1.9368660108
 30
0.0
 10
5.4710414528
 20
1.9355037228
 30
0.0
 10
5.47028399
 20
1.9338804024
 30
0.0
 10
5.4690841138
 20
1.9321048968
 30
0.0
 10
5.4676466046
 20
1.9305236984
 30
0.0
 10
5.4660181589
 20
1.9291485312
 30
0.0
 10
5.4642418547
 20
1.9279806219
 30
0.0
 10
5.4629806339
 20
1.9273370028
 30
0.0
 10
5.4623366971
 20
1.9270486047
 30
0.0
  0
SPLINE
  5
56D
100
AcDbEntity
  8
ALL_ASSEMBLY_MEMBERS
100
AcDbSpline
 62
7
  6
CONTINUOUS
 70
0
 71
3
 72
16
 73
12
 74
0
 42
0.0000001
 43
0.0000001
 44
0.0000000001
 40
0.0
 40
0.0
 40
0.0
 40
0.0
 40
0.1251515571
 40
0.1878470087
 40
0.2504897665
 40
0.3756030274
 40
0.5006637664
 40
0.563212208
 40
0.6257167832
 40
0.7506644685
 40
1.0
 40
1.0
 40
1.0
 40
1.0
 10
5.4896540601
 20
1.9400543053
 30
0.0
 10
5.4896540601
 20
1.9393390096
 30
0.0
 10
5.4895545137
 20
1.9382622519
 30
0.0
 10
5.4892335723
 20
1.936865701
 30
0.0
 10
5.4887903511
 20
1.9355028024
 30
0.0
 10
5.488022068
 20
1.9338787601
 30
0.0
 10
5.4870076305
 20
1.9323985281
 30
0.0
 10
5.48607675
 20
1.9313124284
 30
0.0
 10
5.4850733881
 20
1.9302935197
 30
0.0
 10
5.4831512307
 20
1.9286917308
 30
0.0
 10
5.4812712661
 20
1.9276245732
 30
0.0
 10
5.4799677862
 20
1.9270486047
 30
0.0
  0
SPLINE
  5
56E
100
AcDbEntity
  8
ALL_ASSEMBLY_MEMBERS
100
AcDbSpline
 62
7
  6
CONTINUOUS
 70
0
 71
3
 72
16
 73
12
 74
0
 42
0.0000001
 43
0.0000001
 44
0.0000000001
 40
0.0
 40
0.0
 40
0.0
 40
0.0
 40
0.12497183
 40
0.1875871041
 40
0.2501604094
 40
0.3751754891
 40
0.5002018537
 40
0.5627579745
 40
0.6252863519
 40
0.7503269219
 40
1.0
 40
1.0
 40
1.0
 40
1.0
 10
5.5056703692
 20
1.9400543053
 30
0.0
 10
5.5056703692
 20
1.9393389873
 30
0.0
 10
5.5055704255
 20
1.9382621183
 30
0.0
 10
5.5052482759
 20
1.936865613
 30
0.0
 10
5.5048033214
 20
1.9355025455
 30
0.0
 10
5.5040319632
 20
1.9338782768
 30
0.0
 10
5.5030137774
 20
1.9323982701
 30
0.0
 10
5.5020795139
 20
1.9313123266
 30
0.0
 10
5.5010722552
 20
1.9302933095
 30
0.0
 10
5.499142261
 20
1.9286911187
 30
0.0
 10
5.4972556354
 20
1.9276243885
 30
0.0
 10
5.4959476738
 20
1.9270486047
 30
0.0
  0
SPLINE
  5
56F
100
AcDbEntity
  8
ALL_ASSEMBLY_MEMBERS
100
AcDbSpline
 62
7
  6
CONTINUOUS
 70
0
 71
3
 72
16
 73
12
 74
0
 42
0.0000001
 43
0.0000001
 44
0.0000000001
 40
0.0
 40
0.0
 40
0.0
 40
0.0
 40
0.1252542718
 40
0.187995554
 40
0.2506780211
 40
0.3758474486
 40
0.5009278988
 40
0.5634719787
 40
0.6259629691
 40
0.7508575698
 40
1.0
 40
1.0
 40
1.0
 40
1.0
 10
5.5197879471
 20
1.9400543053
 30
0.0
 10
5.5197879471
 20
1.9393390223
 30
0.0
 10
5.5196886275
 20
1.9382623279
 30
0.0
 10
5.5193683757
 20
1.9368657512
 30
0.0
 10
5.5189261436
 20
1.9355029488
 30
0.0
 10
5.5181596156
 20
1.933879036
 30
0.0
 10
5.5171473183
 20
1.9323986756
 30
0.0
 10
5.5162183694
 20
1.9313124867
 30
0.0
 10
5.5152172318
 20
1.93029364
 30
0.0
 10
5.513299548
 20
1.928692082
 30
0.0
 10
5.5114233867
 20
1.9276246793
 30
0.0
 10
5.510122465
 20
1.9270486047
 30
0.0
  0
SPLINE
  5
570
100
AcDbEntity
  8
ALL_ASSEMBLY_MEMBERS
100
AcDbSpline
 62
7
  6
CONTINUOUS
 70
0
 71
3
 72
16
 73
12
 74
0
 42
0.0000001
 43
0.0000001
 44
0.0000000001
 40
0.0
 40
0.0
 40
0.0
 40
0.0
 40
0.1259610581
 40
0.1890158227
 40
0.2519675842
 40
0.3775075514
 40
0.5026944905
 40
0.627488488
 40
0.751960406
 40
0.8761598688
 40
1.0
 40
1.0
 40
1.0
 40
1.0
 10
5.5318708336
 20
1.9400543053
 30
0.0
 10
5.5318708336
 20
1.9393391133
 30
0.0
 10
5.5317731523
 20
1.9382628743
 30
0.0
 10
5.5314578819
 20
1.9368661096
 30
0.0
 10
5.53102281
 20
1.935504012
 30
0.0
 10
5.5302688348
 20
1.9338809513
 30
0.0
 10
5.5290742477
 20
1.9321054059
 30
0.0
 10
5.527643002
 20
1.93052412
 30
0.0
 10
5.526021595
 20
1.929148847
 30
0.0
 10
5.5242529387
 20
1.9279808418
 30
0.0
 10
5.5229969104
 20
1.9273370538
 30
0.0
 10
5.5223556488
 20
1.9270486047
 30
0.0
  0
SPLINE
  5
571
100
AcDbEntity
  8
ALL_ASSEMBLY_MEMBERS
100
AcDbSpline
 62
7
  6
CONTINUOUS
 70
0
 71
3
 72
16
 73
12
 74
0
 42
0.0000001
 43
0.0000001
 44
0.0000000001
 40
0.0
 40
0.0
 40
0.0
 40
0.0
 40
0.1271677303
 40
0.1907618875
 40
0.2541820155
 40
0.3803879134
 40
0.5058135016
 40
0.6304016599
 40
0.7542487752
 40
0.877456184
 40
1.0
 40
1.0
 40
1.0
 40
1.0
 10
5.541802664
 20
1.9400543053
 30
0.0
 10
5.541802664
 20
1.9393392569
 30
0.0
 10
5.5417076084
 20
1.9382637358
 30
0.0
 10
5.5414003631
 20
1.9368666809
 30
0.0
 10
5.5409767693
 20
1.9355056893
 30
0.0
 10
5.5402431482
 20
1.9338841578
 30
0.0
 10
5.5390794852
 20
1.9321084061
 30
0.0
 10
5.5376848732
 20
1.9305266251
 30
0.0
 10
5.5361046358
 20
1.929150738
 30
0.0
 10
5.5343807068
 20
1.9279821672
 30
0.0
 10
5.5331550383
 20
1.9273373623
 30
0.0
 10
5.5325294128
 20
1.9270486047
 30
0.0
  0
SPLINE
  5
572
100
AcDbEntity
  8
ALL_ASSEMBLY_MEMBERS
100
AcDbSpline
 62
7
  6
CONTINUOUS
 70
0
 71
3
 72
16
 73
12
 74
0
 42
0.0000001
 43
0.0000001
 44
0.0000000001
 40
0.0
 40
0.0
 40
0.0
 40
0.0
 40
0.1288363341
 40
0.193177797
 40
0.2572483251
 40
0.3843841777
 40
0.510150843
 40
0.6344624272
 40
0.7574459086
 40
0.8792710647
 40
1.0
 40
1.0
 40
1.0
 40
1.0
 10
5.5494877893
 20
1.9400543053
 30
0.0
 10
5.5494877893
 20
1.9393394475
 30
0.0
 10
5.5493963113
 20
1.9382648824
 30
0.0
 10
5.5491000536
 20
1.9368674454
 30
0.0
 10
5.5486921303
 20
1.9355079467
 30
0.0
 10
5.5479862797
 20
1.9338885369
 30
0.0
 10
5.5468649604
 20
1.9321125761
 30
0.0
 10
5.545520549
 20
1.9305301673
 30
0.0
 10
5.5439967353
 20
1.9291534544
 30
0.0
 10
5.542334092
 20
1.927984097
 30
0.0
 10
5.541150003
 20
1.9273378154
 30
0.0
 10
5.5405457783
 20
1.9270486047
 30
0.0
  0
SPLINE
  5
573
100
AcDbEntity
  8
ALL_ASSEMBLY_MEMBERS
100
AcDbSpline
 62
7
  6
CONTINUOUS
 70
0
 71
3
 72
16
 73
12
 74
0
 42
0.0000001
 43
0.0000001
 44
0.0000000001
 40
0.0
 40
0.0
 40
0.0
 40
0.0
 40
0.1309634018
 40
0.1962598355
 40
0.261163972
 40
0.389500425
 40
0.5157206454
 40
0.6396937476
 40
0.7615774661
 40
0.8816231082
 40
1.0
 40
1.0
 40
1.0
 40
1.0
 10
5.5548521975
 20
1.9400543053
 30
0.0
 10
5.5548521975
 20
1.9393396778
 30
0.0
 10
5.5547651994
 20
1.9382662724
 30
0.0
 10
5.5544827858
 20
1.9368683786
 30
0.0
 10
5.5540945345
 20
1.9355107221
 30
0.0
 10
5.5534235088
 20
1.9338940231
 30
0.0
 10
5.5523555386
 20
1.9321179227
 30
0.0
 10
5.5510744454
 20
1.9305348146
 30
0.0
 10
5.5496218209
 20
1.9291570962
 30
0.0
 10
5.5480364829
 20
1.927986733
 30
0.0
 10
5.5469048141
 20
1.9273384418
 30
0.0
 10
5.5463275431
 20
1.9270486047
 30
0.0
  0
SPLINE
  5
574
100
AcDbEntity
  8
ALL_ASSEMBLY_MEMBERS
100
AcDbSpline
 62
7
  6
CONTINUOUS
 70
0
 71
3
 72
16
 73
12
 74
0
 42
0.0000001
 43
0.0000001
 44
0.0000000001
 40
0.0
 40
0.0
 40
0.0
 40
0.0
 40
0.1335394944
 40
0.1999958848
 40
0.2659161858
 40
0.3957290726
 40
0.5225270094
 40
0.6461123181
 40
0.7666670109
 40
0.8845314245
 40
1.0
 40
1.0
 40
1.0
 40
1.0
 10
5.5578442266
 20
1.9400543053
 30
0.0
 10
5.5578442266
 20
1.939339939
 30
0.0
 10
5.5577625506
 20
1.9382678548
 30
0.0
 10
5.5574967036
 20
1.9368694497
 30
0.0
 10
5.5571318892
 20
1.9355139346
 30
0.0
 10
5.5565022867
 20
1.9339005172
 30
0.0
 10
5.5554981338
 20
1.9321244334
 30
0.0
 10
5.5542928984
 20
1.9305406408
 30
0.0
 10
5.5529256093
 20
1.9291617918
 30
0.0
 10
5.5514329231
 20
1.9279902174
 30
0.0
 10
5.5503640531
 20
1.9273392835
 30
0.0
 10
5.5498190259
 20
1.9270486047
 30
0.0
  0
ENDSEC
  0
SECTION
  2
OBJECTS
  0
DICTIONARY
  5
C
100
AcDbDictionary
280
0
281
1
  3
ACAD_GROUP
350
D
  3
ACAD_MLINESTYLE
350
17
  3
ACAD_LAYOUT
350
1A
  3
ACAD_PLOTSETTINGS
350
19
  3
ACAD_PLOTSTYLENAME
350
E
  0
DICTIONARY
  5
D
102
{ACAD_REACTORS
330
C
102
}
100
AcDbDictionary
280
0
281
1
  0
ACDBDICTIONARYWDFLT
  5
E
102
{ACAD_REACTORS
330
C
102
}
100
AcDbDictionary
281
1
  3
Normal
350
F
100
AcDbDictionaryWithDefault
340
F
  0
DICTIONARY
  5
17
102
{ACAD_REACTORS
330
C
102
}
100
AcDbDictionary
280
0
281
1
  3
Standard
350
18
  0
DICTIONARY
  5
19
102
{ACAD_REACTORS
330
C
102
}
100
AcDbDictionary
281
1
  0
DICTIONARY
  5
1A
102
{ACAD_REACTORS
330
C
102
}
100
AcDbDictionary
281
1
  3
Model
350
575
  3
Layout1
350
576
  0
ACDBPLACEHOLDER
  5
F
102
{ACAD_REACTORS
330
E
102
}
  0
MLINESTYLE
  5
18
102
{ACAD_REACTORS
330
17
102
}
100
AcDbMlineStyle
  2
STANDARD
 70
0
  3

 62
256
 51
90.0
 52
90.0
 71
2
 49
0.5
 62
256
  6
BYLAYER
 49
-0.5
 62
256
  6
BYLAYER
  0
LAYOUT
  5
575
102
{ACAD_REACTORS
330
1A
102
}
100
AcDbPlotSettings
  1

  2
none_device
  4
ANSI_A_(11.00_x_8.50_Inches)
  6

 40
0.0
 41
0.0
 42
0.0
 43
0.0
 44
279.4
 45
215.9
 46
0.0
 47
0.0
 48
0.0
 49
0.0
140
0.0
141
0.0
142
1.0
143
1.0
 70
1024
 72
0
 73
0
 74
0
  7

 75
0
147
1.0
148
0.0
149
0.0
100
AcDbLayout
  1
Model
 70
0
 71
0
 10
0.0
 20
0.0
 11
11.0
 21
8.5
 12
0.0
 22
0.0
 32
0.0
 14
0.0
 24
0.0
 34
0.0
 15
0.0
 25
0.0
 35
0.0
146
0.0
 13
0.0
 23
0.0
 33
0.0
 16
1.0
 26
0.0
 36
0.0
 17
0.0
 27
1.0
 37
0.0
 76
0
330
219
345
0
346
0
  0
LAYOUT
  5
576
102
{ACAD_REACTORS
330
1A
102
}
100
AcDbPlotSettings
  1

  2
none_device
  4
ANSI_A_(11.00_x_8.50_Inches)
  6

 40
0.0
 41
0.0
 42
0.0
 43
0.0
 44
279.4
 45
215.9
 46
0.0
 47
0.0
 48
0.0
 49
0.0
140
0.0
141
0.0
142
1.0
143
1.0
 70
0
 72
0
 73
0
 74
0
  7

 75
0
147
1.0
148
0.0
149
0.0
100
AcDbLayout
  1
Layout1
 70
0
 71
1
 10
0.0
 20
0.0
 11
11.0
 21
8.5
 12
0.0
 22
0.0
 32
0.0
 14
0.0
 24
0.0
 34
0.0
 15
0.0
 25
0.0
 35
0.0
146
0.0
 13
0.0
 23
0.0
 33
0.0
 16
1.0
 26
0.0
 36
0.0
 17
0.0
 27
1.0
 37
0.0
 76
0
330
21A
345
0
346
0
  0
ENDSEC
  0
EOF
