999
DXF file: E:\BT Custom\CADOUTPUT\_RIGHT.dxf
999
Pro/ENGINEER 2018400 by Parametric Technology Corporation
  0
SECTION
  2
HEADER
  9
$ACADVER
  1
AC1018
  9
$DWGCODEPAGE
  3
ANSI_1252
  9
$EXTMAX
 10
22.0
 20
17.0
 30
0.0
  9
$EXTMIN
 10
0.0
 20
0.0
 30
0.0
  9
$LIMMIN
 10
0.0
 20
0.0
  9
$LIMMAX
 10
22.0
 20
17.0
  9
$VIEWCTR
 10
11.0
 20
8.5
  9
$VIEWSIZE
 40
17.0
  9
$CLAYER
  8
0
  9
$LTSCALE
 40
1.21
  9
$CELTYPE
  6
BYLAYER
  9
$DIMSCALE
 40
1.0
  9
$DIMASZ
 40
0.1
  9
$DIMEXO
 40
0.0625
  9
$DIMDLI
 40
0.836
  9
$DIMEXE
 40
0.125
  9
$DIMCEN
 40
0.198
  9
$DIMLFAC
 40
1.0
  9
$DIMBLK
  1
_FILLED
  9
$DIMALT
 70
1
  9
$DIMALTD
 70
2
  9
$DIMALTTD
 70
2
  9
$DIMALTF
 40
25.4
  9
$DIMTXT
 40
0.08
  9
$DIMTOL
 70
1
  9
$DIMLIM
 70
0
  9
$DIMTFAC
 40
1.0
  9
$DIMTP
 40
0.001
  9
$DIMTM
 40
0.001
  9
$DIMGAP
 40
0.09
  9
$DIMDSEP
 70
46
  9
$AUNITS
 70
0
  9
$PDMODE
 70
3
  9
$PDSIZE
 40
0.06
  9
$HANDSEED
  5
343
  9
$TILEMODE
 70
1
  9
$MEASUREMENT
 70
0
  9
$INSUNITS
 70
1
  0
ENDSEC
  0
SECTION
  2
CLASSES
  0
CLASS
  1
ACDBDICTIONARYWDFLT
  2
AcDbDictionaryWithDefault
  3
AutoCAD 2000
 90
0
 91
1
280
0
281
0
  0
CLASS
  1
ACDBPLACEHOLDER
  2
AcDbPlaceHolder
  3
AutoCAD 2000
 90
0
 91
1
280
0
281
0
  0
CLASS
  1
LAYOUT
  2
AcDbLayout
  3
AutoCAD 2000
 90
0
 91
0
280
0
281
0
  0
ENDSEC
  0
SECTION
  2
TABLES
  0
TABLE
  2
VPORT
  5
8
100
AcDbSymbolTable
 70
2
  0
VPORT
  5
1F4
100
AcDbSymbolTableRecord
100
AcDbViewportTableRecord
  2
*ACTIVE
 70
0
 10
0.0
 20
0.0
 11
1.0
 21
1.0
 12
11.0
 22
8.5
 13
0.0
 23
0.0
 14
1.0
 24
1.0
 15
0.0
 25
0.0
 16
0.0
 26
0.0
 36
1.0
 17
0.0
 27
0.0
 37
0.0
 40
17.0
 41
1.2941176471
 42
50.0
 43
0.0
 44
0.0
 50
0.0
 51
0.0
 71
0
 72
100
 73
1
 74
1
 75
0
 76
0
 77
0
 78
0
  0
ENDTAB
  0
TABLE
  2
LTYPE
  5
5
100
AcDbSymbolTable
 70
6
  0
LTYPE
  5
14
100
AcDbSymbolTableRecord
100
AcDbLinetypeTableRecord
  2
BYBLOCK
 70
0
  3

 72
65
 73
0
 40
0.0
  0
LTYPE
  5
15
100
AcDbSymbolTableRecord
100
AcDbLinetypeTableRecord
  2
BYLAYER
 70
0
  3

 72
65
 73
0
 40
0.0
  0
LTYPE
  5
16
100
AcDbSymbolTableRecord
100
AcDbLinetypeTableRecord
  2
CONTINUOUS
 70
64
  3
Solid line
 72
65
 73
0
 40
0.0
  0
LTYPE
  5
1F5
100
AcDbSymbolTableRecord
100
AcDbLinetypeTableRecord
  2
CENTER
 70
64
  3
____ _ ____ _ ____ _ ____ _ ____ _ ____ _ ____
 72
65
 73
4
 40
0.6
 49
0.375
 74
0
 49
-0.075
 74
0
 49
0.075
 74
0
 49
-0.075
 74
0
  0
LTYPE
  5
1F6
100
AcDbSymbolTableRecord
100
AcDbLinetypeTableRecord
  2
HIDDEN
 70
64
  3
- - - - - - - - - - - - - - - - - - - -
 72
65
 73
2
 40
0.2
 49
0.1
 74
0
 49
-0.1
 74
0
  0
LTYPE
  5
1F7
100
AcDbSymbolTableRecord
100
AcDbLinetypeTableRecord
  2
PHANTOM
 70
64
  3
_____ _ _ _____ _ _ _____ _ _ _____
 72
65
 73
6
 40
0.8
 49
0.45
 74
0
 49
-0.05
 74
0
 49
0.1
 74
0
 49
-0.05
 74
0
 49
0.1
 74
0
 49
-0.05
 74
0
  0
LTYPE
  5
1F8
100
AcDbSymbolTableRecord
100
AcDbLinetypeTableRecord
  2
DOT
 70
64
  3
. . . . . . . . . . . . . . . . . . . .
 72
65
 73
2
 40
0.2
 49
0.1
 74
0
 49
-0.1
 74
0
  0
LTYPE
  5
1F9
100
AcDbSymbolTableRecord
100
AcDbLinetypeTableRecord
  2
DASHED
 70
64
  3
- - - - - - - - - - - - - - - - - - - -
 72
65
 73
2
 40
0.2
 49
0.1
 74
0
 49
-0.1
 74
0
  0
ENDTAB
  0
TABLE
  2
LAYER
  5
2
100
AcDbSymbolTable
 70
36
  0
LAYER
  5
10
100
AcDbSymbolTableRecord
100
AcDbLayerTableRecord
  2
0
 70
0
 62
7
  6
CONTINUOUS
370
-3
390
F
  0
LAYER
  5
1FA
100
AcDbSymbolTableRecord
100
AcDbLayerTableRecord
  2
DEFAULT_1
 70
0
 62
7
  6
CENTER
370
-3
390
F
  0
LAYER
  5
1FB
100
AcDbSymbolTableRecord
100
AcDbLayerTableRecord
  2
DEFAULT_2
 70
0
 62
8
  6
HIDDEN
370
-3
390
F
  0
LAYER
  5
1FC
100
AcDbSymbolTableRecord
100
AcDbLayerTableRecord
  2
DEFAULT_3
 70
0
 62
7
  6
PHANTOM
370
-3
390
F
  0
LAYER
  5
1FD
100
AcDbSymbolTableRecord
100
AcDbLayerTableRecord
  2
ALL_FEATURES
 70
0
 62
7
  6
CONTINUOUS
370
-3
390
F
  0
LAYER
  5
1FE
100
AcDbSymbolTableRecord
100
AcDbLayerTableRecord
  2
AXES_FEATURES
 70
0
 62
7
  6
CONTINUOUS
370
-3
390
F
  0
LAYER
  5
1FF
100
AcDbSymbolTableRecord
100
AcDbLayerTableRecord
  2
DIMENSIONS
 70
0
 62
7
  6
CONTINUOUS
370
-3
390
F
  0
ENDTAB
  0
TABLE
  2
STYLE
  5
3
100
AcDbSymbolTable
 70
1
  0
STYLE
  5
11
100
AcDbSymbolTableRecord
100
AcDbTextStyleTableRecord
  2
STANDARD
 70
0
 40
0.0
 41
0.8
 50
0.0
 71
0
 42
0.2
  3
txt
  4

  0
STYLE
  5
200
100
AcDbSymbolTableRecord
100
AcDbTextStyleTableRecord
  2
TEXTSTYLE_1
 70
0
 40
0.0
 41
0.8
 50
0.0
 71
0
 42
0.2
  3
gdt
  4

  0
ENDTAB
  0
TABLE
  2
VIEW
  5
6
100
AcDbSymbolTable
 70
0
  0
ENDTAB
  0
TABLE
  2
UCS
  5
7
100
AcDbSymbolTable
 70
0
  0
ENDTAB
  0
TABLE
  2
APPID
  5
9
100
AcDbSymbolTable
 70
1
  0
APPID
  5
201
100
AcDbSymbolTableRecord
100
AcDbRegAppTableRecord
  2
ACAD
 70
0
  0
ENDTAB
  0
TABLE
  2
BLOCK_RECORD
  5
1
100
AcDbSymbolTable
 70
0
  0
BLOCK_RECORD
  5
202
100
AcDbSymbolTableRecord
100
AcDbBlockTableRecord
  2
*Model_Space
  0
BLOCK_RECORD
  5
203
100
AcDbSymbolTableRecord
100
AcDbBlockTableRecord
  2
*Paper_Space
  0
BLOCK_RECORD
  5
204
100
AcDbSymbolTableRecord
100
AcDbBlockTableRecord
  2
_FILLED
  0
ENDTAB
  0
TABLE
  2
DIMSTYLE
  5
A
100
AcDbSymbolTable
 70
1
100
AcDbDimStyleTable
 71
0
  0
DIMSTYLE
105
205
100
AcDbSymbolTableRecord
100
AcDbDimStyleTableRecord
  2
STANDARD
 70
0
  3

  4

 40
1.0
 41
0.1
 42
0.0625
 43
0.38
 44
0.125
 45
0.0
 46
0.0
 47
0.001
 48
0.001
140
0.08
141
0.09
142
0.0
143
25.4
144
1.0
145
0.0
146
1.0
147
0.09
 71
1.0
 72
0.0
 73
1
 74
1
 75
0
 76
0
 77
0
 78
4
 79
1
170
1
171
2
172
0
173
0
174
0
175
0
176
0
177
0
178
0
270
2
179
3
271
3
272
3
273
2
274
2
275
0
280
0
281
0
282
0
283
1
284
4
285
0
286
0
287
3
288
0
340
11
278
46
341
204
342
204
343
204
344
204
  0
ENDTAB
  0
ENDSEC
  0
SECTION
  2
BLOCKS
  0
BLOCK
  5
20
100
AcDbEntity
  8
0
100
AcDbBlockBegin
  2
*Model_Space
 70
0
 10
0.0
 20
0.0
 30
0.0
  3
*Model_Space
  1

  0
ENDBLK
  5
21
100
AcDbEntity
  8
0
100
AcDbBlockEnd
  0
BLOCK
  5
1C
100
AcDbEntity
  8
0
100
AcDbBlockBegin
  2
*Paper_Space
 70
0
 10
0.0
 20
0.0
 30
0.0
  3
*Paper_Space
  1

  0
ENDBLK
  5
1D
100
AcDbEntity
  8
0
100
AcDbBlockEnd
  0
BLOCK
  5
206
100
AcDbEntity
  8
0
100
AcDbBlockBegin
  2
_FILLED
 70
64
 10
0.0
 20
0.0
  3
_FILLED
  1

  0
SOLID
  5
207
100
AcDbEntity
  8
0
  6
BYBLOCK
 62
0
100
AcDbTrace
 10
0.0
 20
0.0
 11
-1.0
 21
0.2
 12
-1.0
 22
-0.2
 13
-1.0
 23
-0.2
  0
ENDBLK
  5
208
100
AcDbEntity
  8
0
  6
BYBLOCK
 62
0
100
AcDbBlockEnd
  0
ENDSEC
  0
SECTION
  2
ENTITIES
  0
LINE
  5
209
100
AcDbEntity
  8
0
100
AcDbLine
 62
7
  6
CONTINUOUS
 10
9.5274834891
 20
7.304891804
 11
11.8924834891
 21
7.304891804
  0
LINE
  5
20A
100
AcDbEntity
  8
0
100
AcDbLine
 62
9
  6
CONTINUOUS
 10
11.8613194765
 20
7.4390154029
 11
9.5586475018
 21
7.4390154029
  0
LINE
  5
20B
100
AcDbEntity
  8
0
100
AcDbLine
 62
9
  6
CONTINUOUS
 10
11.8191040079
 20
7.4826563954
 11
9.6008629704
 21
7.4826563954
  0
LINE
  5
20C
100
AcDbEntity
  8
0
100
AcDbLine
 62
9
  6
CONTINUOUS
 10
11.5388606774
 20
7.6876698666
 11
9.8811063008
 21
7.6876698666
  0
LINE
  5
20D
100
AcDbEntity
  8
0
100
AcDbLine
 62
7
  6
CONTINUOUS
 10
10.0449834891
 20
7.779891804
 11
11.3749834891
 21
7.779891804
  0
LINE
  5
20E
100
AcDbEntity
  8
0
100
AcDbLine
 62
7
  6
CONTINUOUS
 10
11.3764834891
 20
7.9398777403
 11
10.0434834891
 21
7.9398777403
  0
LINE
  5
20F
100
AcDbEntity
  8
0
100
AcDbLine
 62
7
  6
CONTINUOUS
 10
9.5586475018
 20
7.4390154029
 11
9.5274834891
 21
7.304891804
  0
LINE
  5
210
100
AcDbEntity
  8
0
100
AcDbLine
 62
7
  6
CONTINUOUS
 10
10.3437623138
 20
8.8191704445
 11
10.3437623138
 21
8.9086131636
  0
LINE
  5
211
100
AcDbEntity
  8
0
100
AcDbLine
 62
7
  6
CONTINUOUS
 10
10.3795803885
 20
8.8191704445
 11
10.3795803885
 21
8.9086131636
  0
LINE
  5
212
100
AcDbEntity
  8
0
100
AcDbLine
 62
7
  6
CONTINUOUS
 10
10.4180588224
 20
8.8191704445
 11
10.4180588224
 21
8.9086131636
  0
LINE
  5
213
100
AcDbEntity
  8
0
100
AcDbLine
 62
7
  6
CONTINUOUS
 10
11.2481385576
 20
10.459016797
 11
11.2399834902
 21
10.4448918058
  0
LINE
  5
214
100
AcDbEntity
  8
0
100
AcDbLine
 62
7
  6
CONTINUOUS
 10
10.4588877925
 20
8.8191704445
 11
10.4588877925
 21
8.9086131636
  0
LINE
  5
215
100
AcDbEntity
  8
0
100
AcDbLine
 62
7
  6
CONTINUOUS
 10
10.4599834891
 20
9.119891804
 11
10.4599834891
 21
9.726891804
  0
LINE
  5
216
100
AcDbEntity
  8
0
100
AcDbLine
 62
7
  6
CONTINUOUS
 10
10.5017385497
 20
8.8191704445
 11
10.5017385497
 21
8.9086131636
  0
LINE
  5
217
100
AcDbEntity
  8
0
100
AcDbLine
 62
7
  6
CONTINUOUS
 10
10.5462660659
 20
8.8191704445
 11
10.5462660659
 21
8.9086131636
  0
LINE
  5
218
100
AcDbEntity
  8
0
100
AcDbLine
 62
7
  6
CONTINUOUS
 10
11.1999834891
 20
8.803891804
 11
10.2199834891
 21
8.803891804
  0
LINE
  5
219
100
AcDbEntity
  8
0
100
AcDbLine
 62
7
  6
CONTINUOUS
 10
10.5921118116
 20
8.8191704445
 11
10.5921118116
 21
8.9086131636
  0
LINE
  5
21A
100
AcDbEntity
  8
0
100
AcDbLine
 62
7
  6
CONTINUOUS
 10
10.6389066435
 20
8.8191704445
 11
10.6389066435
 21
8.9086131636
  0
LINE
  5
21B
100
AcDbEntity
  8
0
100
AcDbLine
 62
7
  6
CONTINUOUS
 10
10.6862737762
 20
8.8191704445
 11
10.6862737762
 21
8.9086131636
  0
LINE
  5
21C
100
AcDbEntity
  8
0
100
AcDbLine
 62
7
  6
CONTINUOUS
 10
11.1999834891
 20
8.923891804
 11
10.2199834891
 21
8.923891804
  0
LINE
  5
21D
100
AcDbEntity
  8
0
100
AcDbLine
 62
7
  6
CONTINUOUS
 10
10.7338318161
 20
8.8191704445
 11
10.7338318161
 21
8.9086131636
  0
LINE
  5
21E
100
AcDbEntity
  8
0
100
AcDbLine
 62
7
  6
CONTINUOUS
 10
10.7811978326
 20
8.8191704445
 11
10.7811978326
 21
8.9086131636
  0
LINE
  5
21F
100
AcDbEntity
  8
0
100
AcDbLine
 62
7
  6
CONTINUOUS
 10
10.8279904413
 20
8.8191704445
 11
10.8279904413
 21
8.9086131636
  0
LINE
  5
220
100
AcDbEntity
  8
0
100
AcDbLine
 62
7
  6
CONTINUOUS
 10
11.0000234931
 20
9.119891804
 11
10.4199434851
 21
9.119891804
  0
LINE
  5
221
100
AcDbEntity
  8
0
100
AcDbLine
 62
7
  6
CONTINUOUS
 10
10.8738328746
 20
8.8191704445
 11
10.8738328746
 21
8.9086131636
  0
LINE
  5
222
100
AcDbEntity
  8
0
100
AcDbLine
 62
7
  6
CONTINUOUS
 10
10.9183560158
 20
8.8191704445
 11
10.9183560158
 21
8.9086131636
  0
LINE
  5
223
100
AcDbEntity
  8
0
100
AcDbLine
 62
7
  6
CONTINUOUS
 10
10.9599834891
 20
9.119891804
 11
10.9599834891
 21
9.726891804
  0
LINE
  5
224
100
AcDbEntity
  8
0
100
AcDbLine
 62
7
  6
CONTINUOUS
 10
10.9612013708
 20
8.8191704445
 11
10.9612013708
 21
8.9086131636
  0
LINE
  5
225
100
AcDbEntity
  8
0
100
AcDbLine
 62
7
  6
CONTINUOUS
 10
11.0020239548
 20
8.8191704445
 11
11.0020239548
 21
8.9086131636
  0
LINE
  5
226
100
AcDbEntity
  8
0
100
AcDbLine
 62
7
  6
CONTINUOUS
 10
10.1718284206
 20
10.459016797
 11
10.1799834881
 21
10.4448918059
  0
LINE
  5
227
100
AcDbEntity
  8
0
100
AcDbLine
 62
7
  6
CONTINUOUS
 10
11.0404950701
 20
8.8191704445
 11
11.0404950701
 21
8.9086131636
  0
LINE
  5
228
100
AcDbEntity
  8
0
100
AcDbLine
 62
7
  6
CONTINUOUS
 10
11.0763049528
 20
8.8191704445
 11
11.0763049528
 21
8.9086131636
  0
LINE
  5
229
100
AcDbEntity
  8
0
100
AcDbLine
 62
9
  6
CONTINUOUS
 10
10.9599834891
 20
9.726891804
 11
10.885384398
 21
9.726891804
  0
LINE
  5
22A
100
AcDbEntity
  8
0
100
AcDbLine
 62
9
  6
CONTINUOUS
 10
10.5345825803
 20
9.726891804
 11
10.4600420534
 21
9.726891804
  0
LINE
  5
22B
100
AcDbEntity
  8
0
100
AcDbLine
 62
7
  6
CONTINUOUS
 10
10.2052774474
 20
9.844891804
 11
10.3723314973
 21
9.844891804
  0
LINE
  5
22C
100
AcDbEntity
  8
0
100
AcDbLine
 62
7
  6
CONTINUOUS
 10
11.047635481
 20
9.844891804
 11
11.2146790635
 21
9.844891804
  0
LINE
  5
22D
100
AcDbEntity
  8
0
100
AcDbLine
 62
7
  6
CONTINUOUS
 10
11.8613194765
 20
7.4390154029
 11
11.8924834891
 21
7.304891804
  0
LINE
  5
22E
100
AcDbEntity
  8
0
100
AcDbLine
 62
9
  6
CONTINUOUS
 10
11.2895401484
 20
9.8986255235
 11
11.0901051587
 21
9.8986255233
  0
LINE
  5
22F
100
AcDbEntity
  8
0
100
AcDbLine
 62
9
  6
CONTINUOUS
 10
10.3298618196
 20
9.8986255233
 11
10.1304268299
 21
9.8986255235
  0
LINE
  5
230
100
AcDbEntity
  8
0
100
AcDbLine
 62
9
  6
CONTINUOUS
 10
10.132224792
 20
10.3964216805
 11
10.3326752716
 21
10.3964216833
  0
LINE
  5
231
100
AcDbEntity
  8
0
100
AcDbLine
 62
9
  6
CONTINUOUS
 10
11.0872917067
 20
10.3964216833
 11
11.287742221
 21
10.3964215717
  0
LINE
  5
232
100
AcDbEntity
  8
0
100
AcDbLine
 62
7
  6
CONTINUOUS
 10
10.1799834881
 20
10.4448918058
 11
10.3723314987
 21
10.4448918058
  0
LINE
  5
233
100
AcDbEntity
  8
0
100
AcDbLine
 62
7
  6
CONTINUOUS
 10
11.0476354795
 20
10.4448918058
 11
11.2399834902
 21
10.4448918058
  0
LINE
  5
234
100
AcDbEntity
  8
0
100
AcDbLine
 62
9
  6
CONTINUOUS
 10
11.2481385576
 20
10.459016797
 11
11.0360433989
 21
10.459016797
  0
LINE
  5
235
100
AcDbEntity
  8
0
100
AcDbLine
 62
9
  6
CONTINUOUS
 10
10.3839235794
 20
10.459016797
 11
10.1718284206
 21
10.459016797
  0
LINE
  5
236
100
AcDbEntity
  8
0
100
AcDbLine
 62
9
  6
CONTINUOUS
 10
10.1874834891
 20
10.5142238104
 11
10.4485856985
 21
10.5142238104
  0
LINE
  5
237
100
AcDbEntity
  8
0
100
AcDbLine
 62
9
  6
CONTINUOUS
 10
10.9713812798
 20
10.5142238104
 11
11.2324834891
 21
10.5142238104
  0
LINE
  5
238
100
AcDbEntity
  8
0
100
AcDbLine
 62
9
  6
CONTINUOUS
 10
11.1806127613
 20
10.5907331218
 11
10.7878477749
 21
10.5907331218
  0
LINE
  5
239
100
AcDbEntity
  8
0
100
AcDbLine
 62
9
  6
CONTINUOUS
 10
10.6321192033
 20
10.5907331218
 11
10.239354217
 21
10.5907331218
  0
LINE
  5
23A
100
AcDbEntity
  8
0
100
AcDbLine
 62
7
  6
CONTINUOUS
 10
11.1647190481
 20
10.604891804
 11
10.2552479302
 21
10.604891804
  0
LINE
  5
23B
100
AcDbEntity
  8
0
100
AcDbLine
 62
9
  6
CONTINUOUS
 10
11.0965013463
 20
10.6492033299
 11
10.323465632
 21
10.6492033299
  0
ARC
  5
23C
100
AcDbEntity
  8
0
100
AcDbCircle
 62
7
  6
CONTINUOUS
 10
9.4767658478
 20
7.9463372168
 40
0.48
100
AcDbArc
 50
284.9831918385
 51
327.3918704587
  0
ARC
  5
23D
100
AcDbEntity
  8
0
100
AcDbCircle
 62
7
  6
CONTINUOUS
 10
9.6161165761
 20
7.4256622947
 40
0.059
100
AcDbArc
 50
104.9831928821
 51
166.9192614114
  0
ARC
  5
23E
100
AcDbEntity
  8
0
100
AcDbCircle
 62
7
  6
CONTINUOUS
 10
9.2229715507
 20
8.5575258269
 40
1.027
100
AcDbArc
 50
323.029050496
 51
13.8799876593
  0
ARC
  5
23F
100
AcDbEntity
  8
0
100
AcDbCircle
 62
7
  6
CONTINUOUS
 10
10.0495814896
 20
7.579891804
 40
0.2
100
AcDbArc
 50
90.0
 51
147.3918704588
  0
ARC
  5
240
100
AcDbEntity
  8
0
100
AcDbCircle
 62
7
  6
CONTINUOUS
 10
10.0449834891
 20
7.859891804
 40
0.08
100
AcDbArc
 50
91.0743588229
 51
270.0
  0
ARC
  5
241
100
AcDbEntity
  8
0
100
AcDbCircle
 62
7
  6
CONTINUOUS
 10
10.3558781863
 20
8.8638937329
 40
0.1325603562
100
AcDbArc
 50
176.6264353164
 51
183.3863741882
  0
ARC
  5
242
100
AcDbEntity
  8
0
100
AcDbCircle
 62
7
  6
CONTINUOUS
 10
10.3082355172
 20
8.8638943439
 40
0.1059277982
100
AcDbArc
 50
175.7765151666
 51
184.2395137101
  0
ARC
  5
243
100
AcDbEntity
  8
0
100
AcDbCircle
 62
7
  6
CONTINUOUS
 10
10.2742160572
 20
8.8638950593
 40
0.0888307156
100
AcDbArc
 50
174.9612110004
 51
185.0579012265
  0
ARC
  5
244
100
AcDbEntity
  8
0
100
AcDbCircle
 62
7
  6
CONTINUOUS
 10
10.2497292866
 20
8.8638958561
 40
0.0770423321
100
AcDbArc
 50
174.1871132012
 51
185.8349212427
  0
ARC
  5
245
100
AcDbEntity
  8
0
100
AcDbCircle
 62
7
  6
CONTINUOUS
 10
10.2328352734
 20
8.8638967085
 40
0.06852047
100
AcDbArc
 50
173.4604344073
 51
186.564337832
  0
ARC
  5
246
100
AcDbEntity
  8
0
100
AcDbCircle
 62
7
  6
CONTINUOUS
 10
10.2199834891
 20
8.863891804
 40
0.06
100
AcDbArc
 50
229.8761931966
 51
270.0
  0
ARC
  5
247
100
AcDbEntity
  8
0
100
AcDbCircle
 62
7
  6
CONTINUOUS
 10
10.2199834891
 20
8.863891804
 40
0.06
100
AcDbArc
 50
90.0
 51
131.8429992196
  0
ARC
  5
248
100
AcDbEntity
  8
0
100
AcDbCircle
 62
7
  6
CONTINUOUS
 10
10.2196861162
 20
8.863560768
 40
0.0595550116
100
AcDbArc
 50
228.1905896652
 51
229.8717357998
  0
ARC
  5
249
100
AcDbEntity
  8
0
100
AcDbCircle
 62
7
  6
CONTINUOUS
 10
10.2193039911
 20
8.8627791536
 40
0.0587448775
100
AcDbArc
 50
210.3666996756
 51
213.8046382573
  0
ARC
  5
24A
100
AcDbEntity
  8
0
100
AcDbCircle
 62
7
  6
CONTINUOUS
 10
10.2190071382
 20
8.8651831538
 40
0.0583984277
100
AcDbArc
 50
142.2134648052
 51
149.6900635312
  0
ARC
  5
24B
100
AcDbEntity
  8
0
100
AcDbCircle
 62
7
  6
CONTINUOUS
 10
10.2186066834
 20
8.8623868452
 40
0.0579526814
100
AcDbArc
 50
220.6963812272
 51
228.2208346843
  0
ARC
  5
24C
100
AcDbEntity
  8
0
100
AcDbCircle
 62
7
  6
CONTINUOUS
 10
10.2185148411
 20
8.8622521552
 40
0.0577959394
100
AcDbArc
 50
213.8057783085
 51
218.989051313
  0
ARC
  5
24D
100
AcDbEntity
  8
0
100
AcDbCircle
 62
7
  6
CONTINUOUS
 10
10.2181823909
 20
8.8657922493
 40
0.0573734299
100
AcDbArc
 50
131.7534281893
 51
142.1895244605
  0
ARC
  5
24E
100
AcDbEntity
  8
0
100
AcDbCircle
 62
7
  6
CONTINUOUS
 10
10.2181275974
 20
8.8639126851
 40
0.0573394721
100
AcDbArc
 50
147.4809036218
 51
212.4645473343
  0
ARC
  5
24F
100
AcDbEntity
  8
0
100
AcDbCircle
 62
7
  6
CONTINUOUS
 10
10.2179943822
 20
8.8618491794
 40
0.057137865
100
AcDbArc
 50
219.0033293006
 51
220.6879643343
  0
ARC
  5
250
100
AcDbEntity
  8
0
100
AcDbCircle
 62
7
  6
CONTINUOUS
 10
10.2192271112
 20
8.863899245
 40
0.0535606189
100
AcDbArc
 50
171.5876851296
 51
188.3805990495
  0
ARC
  5
251
100
AcDbEntity
  8
0
100
AcDbCircle
 62
7
  6
CONTINUOUS
 10
10.2255907911
 20
8.8639000327
 40
0.0506637046
100
AcDbArc
 50
171.1020244268
 51
188.8644497804
  0
ARC
  5
252
100
AcDbEntity
  8
0
100
AcDbCircle
 62
7
  6
CONTINUOUS
 10
10.2370117108
 20
8.8639074036
 40
0.0485158332
100
AcDbArc
 50
170.6959284096
 51
189.2690905276
  0
ARC
  5
253
100
AcDbEntity
  8
0
100
AcDbCircle
 62
7
  6
CONTINUOUS
 10
10.2531139082
 20
8.8639097838
 40
0.0468502937
100
AcDbArc
 50
170.3591607558
 51
189.6046258373
  0
ARC
  5
254
100
AcDbEntity
  8
0
100
AcDbCircle
 62
7
  6
CONTINUOUS
 10
10.2737307473
 20
8.8639116793
 40
0.0456435145
100
AcDbArc
 50
170.0993543192
 51
189.8634833143
  0
ARC
  5
255
100
AcDbEntity
  8
0
100
AcDbCircle
 62
7
  6
CONTINUOUS
 10
10.2986640401
 20
8.8639159225
 40
0.0448730249
100
AcDbArc
 50
169.9221727376
 51
190.0401255454
  0
ARC
  5
256
100
AcDbEntity
  8
0
100
AcDbCircle
 62
7
  6
CONTINUOUS
 10
10.3276056138
 20
8.8639167578
 40
0.0444376266
100
AcDbArc
 50
169.8212619041
 51
190.1405848774
  0
ARC
  5
257
100
AcDbEntity
  8
0
100
AcDbCircle
 62
7
  6
CONTINUOUS
 10
10.5566227726
 20
8.8638928994
 40
0.2797297529
100
AcDbArc
 50
178.4022372821
 51
181.6038212605
  0
ARC
  5
258
100
AcDbEntity
  8
0
100
AcDbCircle
 62
7
  6
CONTINUOUS
 10
10.4273590966
 20
8.8638932458
 40
0.1791125923
100
AcDbArc
 50
177.5040581138
 51
182.5054227122
  0
ARC
  5
259
100
AcDbEntity
  8
0
100
AcDbCircle
 62
7
  6
CONTINUOUS
 10
10.4199434851
 20
8.919891804
 40
0.2
100
AcDbArc
 50
90.0
 51
178.8540080016
  0
ARC
  5
25A
100
AcDbEntity
  8
0
100
AcDbCircle
 62
7
  6
CONTINUOUS
 10
10.5599834891
 20
10.144891804
 40
0.77
100
AcDbArc
 50
341.347577105
 51
19.0663079413
  0
ARC
  5
25B
100
AcDbEntity
  8
0
100
AcDbCircle
 62
7
  6
CONTINUOUS
 10
10.3419834891
 20
9.726891804
 40
0.118
100
AcDbArc
 50
0.0
 51
24.6405455407
  0
ARC
  5
25C
100
AcDbEntity
  8
0
100
AcDbCircle
 62
7
  6
CONTINUOUS
 10
10.3419834891
 20
9.726891804
 40
0.118
100
AcDbArc
 50
72.5189445222
 51
89.9999870546
  0
ARC
  5
25D
100
AcDbEntity
  8
0
100
AcDbCircle
 62
7
  6
CONTINUOUS
 10
10.14001862
 20
10.6022413439
 40
0.1
100
AcDbArc
 50
298.3364788229
 51
353.3916325535
  0
ARC
  5
25E
100
AcDbEntity
  8
0
100
AcDbCircle
 62
7
  6
CONTINUOUS
 10
10.2052774482
 20
9.923891804
 40
0.079
100
AcDbArc
 50
198.6524227613
 51
269.9999993655
  0
ARC
  5
25F
100
AcDbEntity
  8
0
100
AcDbCircle
 62
7
  6
CONTINUOUS
 10
10.2068909449
 20
10.370615371
 40
0.079
100
AcDbArc
 50
109.9134773482
 51
160.9337774627
  0
ARC
  5
260
100
AcDbEntity
  8
0
100
AcDbCircle
 62
7
  6
CONTINUOUS
 10
10.3399834891
 20
10.6020105296
 40
0.05
100
AcDbArc
 50
109.2904540363
 51
176.6453337496
  0
ARC
  5
261
100
AcDbEntity
  8
0
100
AcDbCircle
 62
7
  6
CONTINUOUS
 10
10.2064694368
 20
10.479016797
 40
0.04
100
AcDbArc
 50
118.3364788227
 51
210.0
  0
ARC
  5
262
100
AcDbEntity
  8
0
100
AcDbCircle
 62
7
  6
CONTINUOUS
 10
10.2552479122
 20
10.588891804
 40
0.016
100
AcDbArc
 50
89.9999355791
 51
173.3916245928
  0
ARC
  5
263
100
AcDbEntity
  8
0
100
AcDbCircle
 62
7
  6
CONTINUOUS
 10
11.3703854887
 20
7.579891804
 40
0.2
100
AcDbArc
 50
32.6081295412
 51
90.0
  0
ARC
  5
264
100
AcDbEntity
  8
0
100
AcDbCircle
 62
7
  6
CONTINUOUS
 10
11.3749834891
 20
7.859891804
 40
0.08
100
AcDbArc
 50
270.0
 51
88.9256411771
  0
ARC
  5
265
100
AcDbEntity
  8
0
100
AcDbCircle
 62
7
  6
CONTINUOUS
 10
10.8638929699
 20
8.8638907174
 40
0.2792697274
100
AcDbArc
 50
358.3995687269
 51
1.6065045876
  0
ARC
  5
266
100
AcDbEntity
  8
0
100
AcDbCircle
 62
7
  6
CONTINUOUS
 10
10.9928717291
 20
8.863890362
 40
0.1789269622
100
AcDbArc
 50
357.5014670333
 51
2.5080342203
  0
ARC
  5
267
100
AcDbEntity
  8
0
100
AcDbCircle
 62
7
  6
CONTINUOUS
 10
11.0000234931
 20
8.919891804
 40
0.2
100
AcDbArc
 50
1.1459919984
 51
90.0
  0
ARC
  5
268
100
AcDbEntity
  8
0
100
AcDbCircle
 62
7
  6
CONTINUOUS
 10
11.0642546792
 20
8.8638898746
 40
0.1324615343
100
AcDbArc
 50
356.6239153969
 51
3.388917961
  0
ARC
  5
269
100
AcDbEntity
  8
0
100
AcDbCircle
 62
7
  6
CONTINUOUS
 10
11.111847579
 20
8.8638892632
 40
0.1058670537
100
AcDbArc
 50
355.7740869707
 51
4.241968998
  0
ARC
  5
26A
100
AcDbEntity
  8
0
100
AcDbCircle
 62
7
  6
CONTINUOUS
 10
11.1458348635
 20
8.8638885475
 40
0.0887900087
100
AcDbArc
 50
354.9588941314
 51
5.0602480686
  0
ARC
  5
26B
100
AcDbEntity
  8
0
100
AcDbCircle
 62
7
  6
CONTINUOUS
 10
11.170297299
 20
8.8638877506
 40
0.0770134742
100
AcDbArc
 50
354.1849264868
 51
5.83714081
  0
ARC
  5
26C
100
AcDbEntity
  8
0
100
AcDbCircle
 62
7
  6
CONTINUOUS
 10
11.1871709734
 20
8.863886898
 40
0.0684992175
100
AcDbArc
 50
353.4583952458
 51
6.5664123334
  0
ARC
  5
26D
100
AcDbEntity
  8
0
100
AcDbCircle
 62
7
  6
CONTINUOUS
 10
11.1999834891
 20
8.863891804
 40
0.06
100
AcDbArc
 50
48.1896851042
 51
90.0
  0
ARC
  5
26E
100
AcDbEntity
  8
0
100
AcDbCircle
 62
7
  6
CONTINUOUS
 10
11.1999834891
 20
8.863891804
 40
0.06
100
AcDbArc
 50
270.0
 51
311.8103148958
  0
ARC
  5
26F
100
AcDbEntity
  8
0
100
AcDbCircle
 62
7
  6
CONTINUOUS
 10
11.2007871466
 20
8.8627190585
 40
0.0586082346
100
AcDbArc
 50
324.6204059383
 51
329.6820457104
  0
ARC
  5
270
100
AcDbEntity
  8
0
100
AcDbCircle
 62
7
  6
CONTINUOUS
 10
11.2007907655
 20
8.8650669563
 40
0.0586038917
100
AcDbArc
 50
30.3701485556
 51
35.3798276217
  0
ARC
  5
271
100
AcDbEntity
  8
0
100
AcDbCircle
 62
7
  6
CONTINUOUS
 10
11.2011664828
 20
8.8624558624
 40
0.058146561
100
AcDbArc
 50
321.0374225995
 51
324.6154402738
  0
ARC
  5
272
100
AcDbEntity
  8
0
100
AcDbCircle
 62
7
  6
CONTINUOUS
 10
11.2011665315
 20
8.8653277653
 40
0.058146511
100
AcDbArc
 50
35.3846760933
 51
38.9625916337
  0
ARC
  5
273
100
AcDbEntity
  8
0
100
AcDbCircle
 62
7
  6
CONTINUOUS
 10
11.2015008319
 20
8.8621850168
 40
0.0577162745
100
AcDbArc
 50
311.8171622525
 51
321.0377748355
  0
ARC
  5
274
100
AcDbEntity
  8
0
100
AcDbCircle
 62
7
  6
CONTINUOUS
 10
11.2015009824
 20
8.8655987327
 40
0.0577160687
100
AcDbArc
 50
38.9622090226
 51
48.1828555106
  0
ARC
  5
275
100
AcDbEntity
  8
0
100
AcDbCircle
 62
7
  6
CONTINUOUS
 10
11.2018380062
 20
8.8638713797
 40
0.0573486063
100
AcDbArc
 50
327.4872573157
 51
32.45821095
  0
ARC
  5
276
100
AcDbEntity
  8
0
100
AcDbCircle
 62
7
  6
CONTINUOUS
 10
11.2007509492
 20
8.8638843644
 40
0.0535701643
100
AcDbArc
 50
351.5892316061
 51
8.3790935684
  0
ARC
  5
277
100
AcDbEntity
  8
0
100
AcDbCircle
 62
7
  6
CONTINUOUS
 10
11.1944021295
 20
8.8638835765
 40
0.0506710812
100
AcDbArc
 50
351.1033688312
 51
8.8631476196
  0
ARC
  5
278
100
AcDbEntity
  8
0
100
AcDbCircle
 62
7
  6
CONTINUOUS
 10
11.1829954258
 20
8.8638762099
 40
0.0485214168
100
AcDbArc
 50
350.6970539374
 51
9.2680079682
  0
ARC
  5
279
100
AcDbEntity
  8
0
100
AcDbCircle
 62
7
  6
CONTINUOUS
 10
11.1669067259
 20
8.8638738285
 40
0.0468544346
100
AcDbArc
 50
350.3600661003
 51
9.6037636576
  0
ARC
  5
27A
100
AcDbEntity
  8
0
100
AcDbCircle
 62
7
  6
CONTINUOUS
 10
11.1463027219
 20
8.8638719314
 40
0.0456464098
100
AcDbArc
 50
350.1000332679
 51
9.8628481092
  0
ARC
  5
27B
100
AcDbEntity
  8
0
100
AcDbCircle
 62
7
  6
CONTINUOUS
 10
11.1213816286
 20
8.8638676594
 40
0.0448747569
100
AcDbArc
 50
349.9228041123
 51
10.039535973
  0
ARC
  5
27C
100
AcDbEntity
  8
0
100
AcDbCircle
 62
7
  6
CONTINUOUS
 10
11.0924514123
 20
8.8638668485
 40
0.0444383788
100
AcDbArc
 50
349.8214760029
 51
10.1404135717
  0
ARC
  5
27D
100
AcDbEntity
  8
0
100
AcDbCircle
 62
7
  6
CONTINUOUS
 10
11.9432011305
 20
7.9463372168
 40
0.48
100
AcDbArc
 50
212.6081295413
 51
255.0168081615
  0
ARC
  5
27E
100
AcDbEntity
  8
0
100
AcDbCircle
 62
7
  6
CONTINUOUS
 10
11.8038504022
 20
7.4256622947
 40
0.059
100
AcDbArc
 50
13.0807385886
 51
75.0168071179
  0
ARC
  5
27F
100
AcDbEntity
  8
0
100
AcDbCircle
 62
7
  6
CONTINUOUS
 10
12.1969954275
 20
8.5575258269
 40
1.027
100
AcDbArc
 50
166.1200123407
 51
216.970949504
  0
ARC
  5
280
100
AcDbEntity
  8
0
100
AcDbCircle
 62
7
  6
CONTINUOUS
 10
10.7099834891
 20
9.5448918041
 40
1.17
100
AcDbArc
 50
70.7095459639
 51
109.2904540361
  0
ARC
  5
281
100
AcDbEntity
  8
0
100
AcDbCircle
 62
7
  6
CONTINUOUS
 10
10.8599834891
 20
10.144891804
 40
0.77
100
AcDbArc
 50
160.9336920587
 51
198.652422895
  0
CIRCLE
  5
282
100
AcDbEntity
  8
0
100
AcDbCircle
 62
7
  6
CONTINUOUS
 10
10.7099834891
 20
10.144891804
 40
0.4535102805
  0
CIRCLE
  5
283
100
AcDbEntity
  8
0
100
AcDbCircle
 62
7
  6
CONTINUOUS
 10
10.7099834891
 20
10.144891804
 40
0.395
  0
CIRCLE
  5
284
100
AcDbEntity
  8
0
100
AcDbCircle
 62
9
  6
CONTINUOUS
 10
10.7099834891
 20
10.144891804
 40
0.3445
  0
CIRCLE
  5
285
100
AcDbEntity
  8
0
100
AcDbCircle
 62
7
  6
CONTINUOUS
 10
10.7099834891
 20
10.144891804
 40
0.2823809484
  0
ARC
  5
286
100
AcDbEntity
  8
0
100
AcDbCircle
 62
7
  6
CONTINUOUS
 10
11.0779834891
 20
9.726891804
 40
0.118
100
AcDbArc
 50
155.3594544593
 51
180.0
  0
ARC
  5
287
100
AcDbEntity
  8
0
100
AcDbCircle
 62
7
  6
CONTINUOUS
 10
11.0779834891
 20
9.726891804
 40
0.118
100
AcDbArc
 50
90.0000129454
 51
107.4810554778
  0
ARC
  5
288
100
AcDbEntity
  8
0
100
AcDbCircle
 62
7
  6
CONTINUOUS
 10
11.2799483583
 20
10.6022413439
 40
0.1
100
AcDbArc
 50
186.6083674465
 51
241.6635211771
  0
ARC
  5
289
100
AcDbEntity
  8
0
100
AcDbCircle
 62
7
  6
CONTINUOUS
 10
11.21468953
 20
9.923891804
 40
0.079
100
AcDbArc
 50
270.0000006345
 51
341.3475772387
  0
ARC
  5
28A
100
AcDbEntity
  8
0
100
AcDbCircle
 62
7
  6
CONTINUOUS
 10
11.2130760333
 20
10.3706153711
 40
0.079
100
AcDbArc
 50
19.0662225134
 51
70.0865226334
  0
ARC
  5
28B
100
AcDbEntity
  8
0
100
AcDbCircle
 62
7
  6
CONTINUOUS
 10
11.0799834891
 20
10.6020105296
 40
0.05
100
AcDbArc
 50
3.3546662504
 51
70.7095459637
  0
ARC
  5
28C
100
AcDbEntity
  8
0
100
AcDbCircle
 62
7
  6
CONTINUOUS
 10
11.2134975415
 20
10.479016797
 40
0.04
100
AcDbArc
 50
330.0
 51
61.6635211773
  0
ARC
  5
28D
100
AcDbEntity
  8
0
100
AcDbCircle
 62
7
  6
CONTINUOUS
 10
11.164719066
 20
10.588891804
 40
0.016
100
AcDbArc
 50
6.6083754072
 51
90.0000644209
  0
SPLINE
  5
28E
100
AcDbEntity
  8
0
100
AcDbSpline
 62
7
  6
CONTINUOUS
 70
0
 71
3
 72
11
 73
7
 74
0
 42
0.0000001
 43
0.0000001
 44
0.0000000001
 40
0.0
 40
0.0
 40
0.0
 40
0.0
 40
0.2753492254
 40
0.5351580923
 40
0.776394992
 40
1.0
 40
1.0
 40
1.0
 40
1.0
 10
11.2552208341
 20
8.8717201123
 30
0.0
 10
11.2547844646
 20
8.8755049414
 30
0.0
 10
11.2533136895
 20
8.8828058541
 30
0.0
 10
11.2494222169
 20
8.8928725614
 30
0.0
 10
11.2442589438
 20
8.9015215741
 30
0.0
 10
11.2400604166
 20
8.9064401612
 30
0.0
 10
11.2378580305
 20
8.9086131636
 30
0.0
  0
SPLINE
  5
28F
100
AcDbEntity
  8
0
100
AcDbSpline
 62
7
  6
CONTINUOUS
 70
0
 71
3
 72
11
 73
7
 74
0
 42
0.0000001
 43
0.0000001
 44
0.0000000001
 40
0.0
 40
0.0
 40
0.0
 40
0.0
 40
0.2802969462
 40
0.5421900067
 40
0.7818302249
 40
1.0
 40
1.0
 40
1.0
 40
1.0
 10
11.2469114578
 20
8.8717201123
 30
0.0
 10
11.246524762
 20
8.8754944115
 30
0.0
 10
11.2452293828
 20
8.8827526181
 30
0.0
 10
11.2417876722
 20
8.8928035302
 30
0.0
 10
11.2372153539
 20
8.9014501679
 30
0.0
 10
11.2334585303
 20
8.9064188462
 30
0.0
 10
11.2314822086
 20
8.9086131636
 30
0.0
  0
SPLINE
  5
290
100
AcDbEntity
  8
0
100
AcDbSpline
 62
7
  6
CONTINUOUS
 70
0
 71
3
 72
10
 73
6
 74
0
 42
0.0000001
 43
0.0000001
 44
0.0000000001
 40
0.0
 40
0.0
 40
0.0
 40
0.0
 40
0.2856890912
 40
0.550093735
 40
1.0
 40
1.0
 40
1.0
 40
1.0
 10
11.2342788132
 20
8.8717201122
 30
0.0
 10
11.2339445718
 20
8.8754844893
 30
0.0
 10
11.2328294155
 20
8.8827058384
 30
0.0
 10
11.2290762376
 20
8.8954071153
 30
0.0
 10
11.2245692763
 20
8.9039216058
 30
0.0
 10
11.2209073526
 20
8.9086131636
 30
0.0
  0
SPLINE
  5
291
100
AcDbEntity
  8
0
100
AcDbSpline
 62
7
  6
CONTINUOUS
 70
0
 71
3
 72
11
 73
7
 74
0
 42
0.0000001
 43
0.0000001
 44
0.0000000001
 40
0.0
 40
0.0
 40
0.0
 40
0.0
 40
0.2902314489
 40
0.5564788173
 40
0.7930525202
 40
1.0
 40
1.0
 40
1.0
 40
1.0
 10
11.2174246165
 20
8.8717201123
 30
0.0
 10
11.2171451721
 20
8.8754755127
 30
0.0
 10
11.2162197272
 20
8.8826543825
 30
0.0
 10
11.2137447217
 20
8.892666298
 30
0.0
 10
11.210453552
 20
8.9012925844
 30
0.0
 10
11.2076885116
 20
8.9063660547
 30
0.0
 10
11.2062186096
 20
8.9086131636
 30
0.0
  0
SPLINE
  5
292
100
AcDbEntity
  8
0
100
AcDbSpline
 62
7
  6
CONTINUOUS
 70
0
 71
3
 72
11
 73
7
 74
0
 42
0.0000001
 43
0.0000001
 44
0.0000000001
 40
0.0
 40
0.0
 40
0.0
 40
0.0
 40
0.2947567091
 40
0.5630622101
 40
0.7983073933
 40
1.0
 40
1.0
 40
1.0
 40
1.0
 10
11.1964845755
 20
8.8717201123
 30
0.0
 10
11.1962618398
 20
8.8754677937
 30
0.0
 10
11.1955277492
 20
8.8826132705
 30
0.0
 10
11.1935600869
 20
8.8926047496
 30
0.0
 10
11.1909443671
 20
8.9012144168
 30
0.0
 10
11.1887238455
 20
8.9063362494
 30
0.0
 10
11.1875342514
 20
8.9086131636
 30
0.0
  0
SPLINE
  5
293
100
AcDbEntity
  8
0
100
AcDbSpline
 62
7
  6
CONTINUOUS
 70
0
 71
3
 72
11
 73
7
 74
0
 42
0.0000001
 43
0.0000001
 44
0.0000000001
 40
0.0
 40
0.0
 40
0.0
 40
0.0
 40
0.2986175531
 40
0.5687158697
 40
0.8028646967
 40
1.0
 40
1.0
 40
1.0
 40
1.0
 10
11.1716272963
 20
8.8717201123
 30
0.0
 10
11.1714627606
 20
8.8754616059
 30
0.0
 10
11.1709226017
 20
8.8825799111
 30
0.0
 10
11.1694725086
 20
8.8925528464
 30
0.0
 10
11.1675459609
 20
8.9011446393
 30
0.0
 10
11.165896198
 20
8.9063071091
 30
0.0
 10
11.1650047217
 20
8.9086131636
 30
0.0
  0
SPLINE
  5
294
100
AcDbEntity
  8
0
100
AcDbSpline
 62
7
  6
CONTINUOUS
 70
0
 71
3
 72
11
 73
7
 74
0
 42
0.0000001
 43
0.0000001
 44
0.0000000001
 40
0.0
 40
0.0
 40
0.0
 40
0.0
 40
0.301526306
 40
0.5729977514
 40
0.8063444724
 40
1.0
 40
1.0
 40
1.0
 40
1.0
 10
11.1430529272
 20
8.8717200779
 30
0.0
 10
11.142947674
 20
8.8754571408
 30
0.0
 10
11.1426031036
 20
8.8825557742
 30
0.0
 10
11.1416772197
 20
8.8925141265
 30
0.0
 10
11.1404478583
 20
8.9010902803
 30
0.0
 10
11.1393884853
 20
8.9062824546
 30
0.0
 10
11.1388114253
 20
8.9086131636
 30
0.0
  0
SPLINE
  5
295
100
AcDbEntity
  8
0
100
AcDbSpline
 62
7
  6
CONTINUOUS
 70
0
 71
3
 72
11
 73
7
 74
0
 42
0.0000001
 43
0.0000001
 44
0.0000000001
 40
0.0
 40
0.0
 40
0.0
 40
0.0
 40
0.302178353
 40
0.5780937252
 40
0.8121809886
 40
1.0
 40
1.0
 40
1.0
 40
1.0
 10
11.1110388068
 20
8.863891804
 30
0.0
 10
11.1110388068
 20
8.8684020824
 30
0.0
 10
11.1109503889
 20
8.8770309224
 30
0.0
 10
11.1105685123
 20
8.8891484613
 30
0.0
 10
11.1099920882
 20
8.8995490737
 30
0.0
 10
11.109462437
 20
8.9058255945
 30
0.0
 10
11.1091652668
 20
8.9086131636
 30
0.0
  0
SPLINE
  5
296
100
AcDbEntity
  8
0
100
AcDbSpline
 62
7
  6
CONTINUOUS
 70
0
 71
3
 72
9
 73
5
 74
0
 42
0.0000001
 43
0.0000001
 44
0.0000000001
 40
0.0
 40
0.0
 40
0.0
 40
0.0
 40
0.5136165805
 40
1.0
 40
1.0
 40
1.0
 40
1.0
 10
10.1608321494
 20
8.8560619295
 30
0.0
 10
10.1613589931
 20
8.8519200606
 30
0.0
 10
10.1632080547
 20
8.843937459
 30
0.0
 10
10.1666195453
 20
8.8364930705
 30
0.0
 10
10.1686184625
 20
8.8330817155
 30
0.0
  0
SPLINE
  5
297
100
AcDbEntity
  8
0
100
AcDbSpline
 62
7
  6
CONTINUOUS
 70
0
 71
3
 72
9
 73
5
 74
0
 42
0.0000001
 43
0.0000001
 44
0.0000000001
 40
0.0
 40
0.0
 40
0.0
 40
0.0
 40
0.5135807016
 40
1.0
 40
1.0
 40
1.0
 40
1.0
 10
10.1608283989
 20
8.8716921488
 30
0.0
 10
10.1613526996
 20
8.8758299313
 30
0.0
 10
10.163195289
 20
8.8838056352
 30
0.0
 10
10.1665972049
 20
8.8912454858
 30
0.0
 10
10.1685913061
 20
8.8946555176
 30
0.0
  0
SPLINE
  5
298
100
AcDbEntity
  8
0
100
AcDbSpline
 62
7
  6
CONTINUOUS
 70
0
 71
3
 72
9
 73
5
 74
0
 42
0.0000001
 43
0.0000001
 44
0.0000000001
 40
0.0
 40
0.0
 40
0.0
 40
0.0
 40
0.5135721978
 40
1.0
 40
1.0
 40
1.0
 40
1.0
 10
11.2591404345
 20
8.8560928895
 30
0.0
 10
11.2586163026
 20
8.8519559897
 30
0.0
 10
11.2567740266
 20
8.8439819723
 30
0.0
 10
11.2533738296
 20
8.8365430729
 30
0.0
 10
11.2513799672
 20
8.8331337298
 30
0.0
  0
SPLINE
  5
299
100
AcDbEntity
  8
0
100
AcDbSpline
 62
7
  6
CONTINUOUS
 70
0
 71
3
 72
11
 73
7
 74
0
 42
0.0000001
 43
0.0000001
 44
0.0000000001
 40
0.0
 40
0.0
 40
0.0
 40
0.0
 40
0.2753663574
 40
0.5351893474
 40
0.7764211441
 40
1.0
 40
1.0
 40
1.0
 40
1.0
 10
10.1647606368
 20
8.8716907185
 30
0.0
 10
10.1651955328
 20
8.8754784358
 30
0.0
 10
10.1666641191
 20
8.8827851741
 30
0.0
 10
10.1705543922
 20
8.8928602608
 30
0.0
 10
10.175718245
 20
8.9015162882
 30
0.0
 10
10.1799181682
 20
8.9064386649
 30
0.0
 10
10.1821213798
 20
8.9086131636
 30
0.0
  0
SPLINE
  5
29A
100
AcDbEntity
  8
0
100
AcDbSpline
 62
7
  6
CONTINUOUS
 70
0
 71
3
 72
11
 73
7
 74
0
 42
0.0000001
 43
0.0000001
 44
0.0000000001
 40
0.0
 40
0.0
 40
0.0
 40
0.0
 40
0.2803147663
 40
0.5422236224
 40
0.7818589017
 40
1.0
 40
1.0
 40
1.0
 40
1.0
 10
10.1730831136
 20
8.8716907185
 30
0.0
 10
10.1734684809
 20
8.8754679189
 30
0.0
 10
10.1747618456
 20
8.8827319191
 30
0.0
 10
10.1782022429
 20
8.8927911468
 30
0.0
 10
10.1827747433
 20
8.9014447668
 30
0.0
 10
10.1865325833
 20
8.9064173117
 30
0.0
 10
10.1885095398
 20
8.9086131636
 30
0.0
  0
SPLINE
  5
29B
100
AcDbEntity
  8
0
100
AcDbSpline
 62
7
  6
CONTINUOUS
 70
0
 71
3
 72
10
 73
6
 74
0
 42
0.0000001
 43
0.0000001
 44
0.0000000001
 40
0.0
 40
0.0
 40
0.0
 40
0.0
 40
0.2857070376
 40
0.550129064
 40
1.0
 40
1.0
 40
1.0
 40
1.0
 10
10.1857286365
 20
8.8716907185
 30
0.0
 10
10.1860617037
 20
8.8754580107
 30
0.0
 10
10.1871750358
 20
8.8826851417
 30
0.0
 10
10.1909262837
 20
8.8953963338
 30
0.0
 10
10.1954334659
 20
8.9039179735
 30
0.0
 10
10.1990965345
 20
8.9086131636
 30
0.0
  0
SPLINE
  5
29C
100
AcDbEntity
  8
0
100
AcDbSpline
 62
7
  6
CONTINUOUS
 70
0
 71
3
 72
11
 73
7
 74
0
 42
0.0000001
 43
0.0000001
 44
0.0000000001
 40
0.0
 40
0.0
 40
0.0
 40
0.0
 40
0.2902480835
 40
0.5565134974
 40
0.7930835437
 40
1.0
 40
1.0
 40
1.0
 40
1.0
 10
10.2025953855
 20
8.8716907185
 30
0.0
 10
10.2028738178
 20
8.8754490481
 30
0.0
 10
10.2037976403
 20
8.8826336781
 30
0.0
 10
10.2062711758
 20
8.8926537932
 30
0.0
 10
10.2095617713
 20
8.9012869718
 30
0.0
 10
10.2123270042
 20
8.9063644341
 30
0.0
 10
10.2137971189
 20
8.9086131636
 30
0.0
  0
SPLINE
  5
29D
100
AcDbEntity
  8
0
100
AcDbSpline
 62
7
  6
CONTINUOUS
 70
0
 71
3
 72
11
 73
7
 74
0
 42
0.0000001
 43
0.0000001
 44
0.0000000001
 40
0.0
 40
0.0
 40
0.0
 40
0.0
 40
0.2947712815
 40
0.5630951337
 40
0.7983377365
 40
1.0
 40
1.0
 40
1.0
 40
1.0
 10
10.2235475521
 20
8.8716907185
 30
0.0
 10
10.223769444
 20
8.8754413428
 30
0.0
 10
10.224502124
 20
8.8825925786
 30
0.0
 10
10.2264682715
 20
8.8925922141
 30
0.0
 10
10.2290830711
 20
8.9012087286
 30
0.0
 10
10.2313033542
 20
8.9063345881
 30
0.0
 10
10.232492926
 20
8.9086131636
 30
0.0
  0
SPLINE
  5
29E
100
AcDbEntity
  8
0
100
AcDbSpline
 62
7
  6
CONTINUOUS
 70
0
 71
3
 72
11
 73
7
 74
0
 42
0.0000001
 43
0.0000001
 44
0.0000000001
 40
0.0
 40
0.0
 40
0.0
 40
0.0
 40
0.2986291178
 40
0.5687454269
 40
0.8028929423
 40
1.0
 40
1.0
 40
1.0
 40
1.0
 10
10.2484164322
 20
8.8716907185
 30
0.0
 10
10.2485802978
 20
8.8754351677
 30
0.0
 10
10.2491192641
 20
8.8825592398
 30
0.0
 10
10.2505678167
 20
8.892540303
 30
0.0
 10
10.2524931216
 20
8.9011389096
 30
0.0
 10
10.2541422159
 20
8.9063054176
 30
0.0
 10
10.2550334198
 20
8.9086131636
 30
0.0
  0
SPLINE
  5
29F
100
AcDbEntity
  8
0
100
AcDbSpline
 62
7
  6
CONTINUOUS
 70
0
 71
3
 72
11
 73
7
 74
0
 42
0.0000001
 43
0.0000001
 44
0.0000000001
 40
0.0
 40
0.0
 40
0.0
 40
0.0
 40
0.3015341351
 40
0.5730226014
 40
0.8063693613
 40
1.0
 40
1.0
 40
1.0
 40
1.0
 10
10.277001781
 20
8.8716905693
 30
0.0
 10
10.2771065407
 20
8.8754306109
 30
0.0
 10
10.2774501391
 20
8.8825350497
 30
0.0
 10
10.2783744722
 20
8.8925015491
 30
0.0
 10
10.279602289
 20
8.9010845275
 30
0.0
 10
10.2806605777
 20
8.9062807451
 30
0.0
 10
10.2812371074
 20
8.9086131636
 30
0.0
  0
SPLINE
  5
2A0
100
AcDbEntity
  8
0
100
AcDbSpline
 62
7
  6
CONTINUOUS
 70
0
 71
3
 72
11
 73
7
 74
0
 42
0.0000001
 43
0.0000001
 44
0.0000000001
 40
0.0
 40
0.0
 40
0.0
 40
0.0
 40
0.3021780153
 40
0.5780954007
 40
0.8121830529
 40
1.0
 40
1.0
 40
1.0
 40
1.0
 10
10.3090267187
 20
8.863891804
 30
0.0
 10
10.3090267187
 20
8.8684020336
 30
0.0
 10
10.3091147916
 20
8.8770308127
 30
0.0
 10
10.3094951849
 20
8.8891483033
 30
0.0
 10
10.3100693728
 20
8.8995489356
 30
0.0
 10
10.3105969748
 20
8.9058255311
 30
0.0
 10
10.3108930005
 20
8.9086131636
 30
0.0
  0
SPLINE
  5
2A1
100
AcDbEntity
  8
0
100
AcDbSpline
 62
7
  6
CONTINUOUS
 70
0
 71
3
 72
11
 73
7
 74
0
 42
0.0000001
 43
0.0000001
 44
0.0000000001
 40
0.0
 40
0.0
 40
0.0
 40
0.0
 40
0.3021752125
 40
0.5780910398
 40
0.812179362
 40
1.0
 40
1.0
 40
1.0
 40
1.0
 10
11.1110388068
 20
8.863891804
 30
0.0
 10
11.1110388068
 20
8.8593815726
 30
0.0
 10
11.1109503911
 20
8.8507527726
 30
0.0
 10
11.1105685168
 20
8.8386352579
 30
0.0
 10
11.109992093
 20
8.8282345986
 30
0.0
 10
11.1094624395
 20
8.8219580377
 30
0.0
 10
11.1091652668
 20
8.8191704445
 30
0.0
  0
SPLINE
  5
2A2
100
AcDbEntity
  8
0
100
AcDbSpline
 62
7
  6
CONTINUOUS
 70
0
 71
3
 72
11
 73
7
 74
0
 42
0.0000001
 43
0.0000001
 44
0.0000000001
 40
0.0
 40
0.0
 40
0.0
 40
0.0
 40
0.3015272729
 40
0.5730124058
 40
0.8063610254
 40
1.0
 40
1.0
 40
1.0
 40
1.0
 10
11.1430537519
 20
8.8560928544
 30
0.0
 10
11.142948817
 20
8.8523528216
 30
0.0
 10
11.142604644
 20
8.8452483742
 30
0.0
 10
11.1416787755
 20
8.8352818911
 30
0.0
 10
11.1404489201
 20
8.8266989164
 30
0.0
 10
11.1393888909
 20
8.8215027918
 30
0.0
 10
11.1388114253
 20
8.8191704445
 30
0.0
  0
SPLINE
  5
2A3
100
AcDbEntity
  8
0
100
AcDbSpline
 62
7
  6
CONTINUOUS
 70
0
 71
3
 72
11
 73
7
 74
0
 42
0.0000001
 43
0.0000001
 44
0.0000000001
 40
0.0
 40
0.0
 40
0.0
 40
0.0
 40
0.2986191167
 40
0.5687307355
 40
0.8028810439
 40
1.0
 40
1.0
 40
1.0
 40
1.0
 10
11.171628587
 20
8.8560928896
 30
0.0
 10
11.1714645504
 20
8.8523484249
 30
0.0
 10
11.1709250162
 20
8.8452242839
 30
0.0
 10
11.1694749428
 20
8.8352431713
 30
0.0
 10
11.167547613
 20
8.826644514
 30
0.0
 10
11.1658968207
 20
8.8214781098
 30
0.0
 10
11.1650047217
 20
8.8191704445
 30
0.0
  0
SPLINE
  5
2A4
100
AcDbEntity
  8
0
100
AcDbSpline
 62
7
  6
CONTINUOUS
 70
0
 71
3
 72
11
 73
7
 74
0
 42
0.0000001
 43
0.0000001
 44
0.0000000001
 40
0.0
 40
0.0
 40
0.0
 40
0.0
 40
0.2947589135
 40
0.5630770739
 40
0.7983232438
 40
1.0
 40
1.0
 40
1.0
 40
1.0
 10
11.1964863199
 20
8.8560928896
 30
0.0
 10
11.1962642607
 20
8.8523422449
 30
0.0
 10
11.1955310189
 20
8.8451909201
 30
0.0
 10
11.1935633748
 20
8.8351912266
 30
0.0
 10
11.1909465811
 20
8.8265746602
 30
0.0
 10
11.1887246676
 20
8.8214489324
 30
0.0
 10
11.1875342514
 20
8.8191704445
 30
0.0
  0
SPLINE
  5
2A5
100
AcDbEntity
  8
0
100
AcDbSpline
 62
7
  6
CONTINUOUS
 70
0
 71
3
 72
11
 73
7
 74
0
 42
0.0000001
 43
0.0000001
 44
0.0000000001
 40
0.0
 40
0.0
 40
0.0
 40
0.0
 40
0.2902342019
 40
0.5564933704
 40
0.7930675599
 40
1.0
 40
1.0
 40
1.0
 40
1.0
 10
11.2174268005
 20
8.8560928896
 30
0.0
 10
11.217148206
 20
8.8523345355
 30
0.0
 10
11.2162238307
 20
8.8451498005
 30
0.0
 10
11.2137488344
 20
8.8351296248
 30
0.0
 10
11.2104562945
 20
8.8264964023
 30
0.0
 10
11.2076895159
 20
8.8214190888
 30
0.0
 10
11.2062186096
 20
8.8191704445
 30
0.0
  0
SPLINE
  5
2A6
100
AcDbEntity
  8
0
100
AcDbSpline
 62
7
  6
CONTINUOUS
 70
0
 71
3
 72
10
 73
6
 74
0
 42
0.0000001
 43
0.0000001
 44
0.0000000001
 40
0.0
 40
0.0
 40
0.0
 40
0.0
 40
0.2856926137
 40
0.5501084066
 40
1.0
 40
1.0
 40
1.0
 40
1.0
 10
11.2342814192
 20
8.8560928896
 30
0.0
 10
11.2339481959
 20
8.8523255697
 30
0.0
 10
11.2328343209
 20
8.8450983226
 30
0.0
 10
11.2290812225
 20
8.8323867977
 30
0.0
 10
11.2245718649
 20
8.8238653187
 30
0.0
 10
11.2209073526
 20
8.8191704445
 30
0.0
  0
SPLINE
  5
2A7
100
AcDbEntity
  8
0
100
AcDbSpline
 62
7
  6
CONTINUOUS
 70
0
 71
3
 72
11
 73
7
 74
0
 42
0.0000001
 43
0.0000001
 44
0.0000000001
 40
0.0
 40
0.0
 40
0.0
 40
0.0
 40
0.2803001258
 40
0.5422027277
 40
0.781842666
 40
1.0
 40
1.0
 40
1.0
 40
1.0
 10
11.2469144649
 20
8.8560928896
 30
0.0
 10
11.246528949
 20
8.8523156592
 30
0.0
 10
11.2452350621
 20
8.8450515358
 30
0.0
 10
11.2417933154
 20
8.8349922572
 30
0.0
 10
11.2372190354
 20
8.8263386229
 30
0.0
 10
11.2334598515
 20
8.8213662289
 30
0.0
 10
11.2314822086
 20
8.8191704445
 30
0.0
  0
SPLINE
  5
2A8
100
AcDbEntity
  8
0
100
AcDbSpline
 62
7
  6
CONTINUOUS
 70
0
 71
3
 72
11
 73
7
 74
0
 42
0.0000001
 43
0.0000001
 44
0.0000000001
 40
0.0
 40
0.0
 40
0.0
 40
0.0
 40
0.2753522114
 40
0.5351693194
 40
0.7764057414
 40
1.0
 40
1.0
 40
1.0
 40
1.0
 10
11.255224218
 20
8.8560928896
 30
0.0
 10
11.2547891822
 20
8.8523051411
 30
0.0
 10
11.2533200966
 20
8.8449982775
 30
0.0
 10
11.2494285515
 20
8.8349231494
 30
0.0
 10
11.2442630323
 20
8.826267122
 30
0.0
 10
11.2400618752
 20
8.8213448861
 30
0.0
 10
11.2378580305
 20
8.8191704445
 30
0.0
  0
SPLINE
  5
2A9
100
AcDbEntity
  8
0
100
AcDbSpline
 62
7
  6
CONTINUOUS
 70
0
 71
3
 72
9
 73
5
 74
0
 42
0.0000001
 43
0.0000001
 44
0.0000000001
 40
0.0
 40
0.0
 40
0.0
 40
0.0
 40
0.5136076418
 40
1.0
 40
1.0
 40
1.0
 40
1.0
 10
11.2591367017
 20
8.8717201122
 30
0.0
 10
11.2586100372
 20
8.8758611014
 30
0.0
 10
11.2567612349
 20
8.883841995
 30
0.0
 10
11.2533516437
 20
8.8912855465
 30
0.0
 10
11.251352867
 20
8.8946961651
 30
0.0
  0
SPLINE
  5
2AA
100
AcDbEntity
  8
0
100
AcDbSpline
 62
7
  6
CONTINUOUS
 70
0
 71
3
 72
11
 73
7
 74
0
 42
0.0000001
 43
0.0000001
 44
0.0000000001
 40
0.0
 40
0.0
 40
0.0
 40
0.0
 40
0.2753633756
 40
0.5351781309
 40
0.7764104035
 40
1.0
 40
1.0
 40
1.0
 40
1.0
 10
10.1647640159
 20
8.8560635285
 30
0.0
 10
10.1652002437
 20
8.8522787274
 30
0.0
 10
10.166670517
 20
8.8449779332
 30
0.0
 10
10.1705607178
 20
8.8349112578
 30
0.0
 10
10.1757223279
 20
8.8262622373
 30
0.0
 10
10.1799196248
 20
8.8213435056
 30
0.0
 10
10.1821213798
 20
8.8191704445
 30
0.0
  0
SPLINE
  5
2AB
100
AcDbEntity
  8
0
100
AcDbSpline
 62
7
  6
CONTINUOUS
 70
0
 71
3
 72
11
 73
7
 74
0
 42
0.0000001
 43
0.0000001
 44
0.0000000001
 40
0.0
 40
0.0
 40
0.0
 40
0.0
 40
0.280311592
 40
0.5422109146
 40
0.7818464718
 40
1.0
 40
1.0
 40
1.0
 40
1.0
 10
10.1730861162
 20
8.8560635285
 30
0.0
 10
10.1734726616
 20
8.8522892561
 30
0.0
 10
10.1747675163
 20
8.845031166
 30
0.0
 10
10.1782078778
 20
8.8349802952
 30
0.0
 10
10.1827784194
 20
8.8263336641
 30
0.0
 10
10.1865339027
 20
8.8213648309
 30
0.0
 10
10.1885095398
 20
8.8191704445
 30
0.0
  0
SPLINE
  5
2AC
100
AcDbEntity
  8
0
100
AcDbSpline
 62
7
  6
CONTINUOUS
 70
0
 71
3
 72
10
 73
6
 74
0
 42
0.0000001
 43
0.0000001
 44
0.0000000001
 40
0.0
 40
0.0
 40
0.0
 40
0.0
 40
0.2857035219
 40
0.5501144093
 40
1.0
 40
1.0
 40
1.0
 40
1.0
 10
10.1857312384
 20
8.8560635285
 30
0.0
 10
10.1860653222
 20
8.8522991759
 30
0.0
 10
10.1871799335
 20
8.8450779361
 30
0.0
 10
10.1909312608
 20
8.8323769802
 30
0.0
 10
10.1954360508
 20
8.8238623214
 30
0.0
 10
10.1990965345
 20
8.8191704445
 30
0.0
  0
SPLINE
  5
2AD
100
AcDbEntity
  8
0
100
AcDbSpline
 62
7
  6
CONTINUOUS
 70
0
 71
3
 72
11
 73
7
 74
0
 42
0.0000001
 43
0.0000001
 44
0.0000000001
 40
0.0
 40
0.0
 40
0.0
 40
0.0
 40
0.290245337
 40
0.556498962
 40
0.7930685198
 40
1.0
 40
1.0
 40
1.0
 40
1.0
 10
10.2025975658
 20
8.8560635285
 30
0.0
 10
10.2028768466
 20
8.8523081493
 30
0.0
 10
10.2038017369
 20
8.845129378
 30
0.0
 10
10.2062752816
 20
8.8351175136
 30
0.0
 10
10.2095645093
 20
8.8264912633
 30
0.0
 10
10.212328007
 20
8.8214176402
 30
0.0
 10
10.2137971189
 20
8.8191704445
 30
0.0
  0
SPLINE
  5
2AE
100
AcDbEntity
  8
0
100
AcDbSpline
 62
7
  6
CONTINUOUS
 70
0
 71
3
 72
11
 73
7
 74
0
 42
0.0000001
 43
0.0000001
 44
0.0000000001
 40
0.0
 40
0.0
 40
0.0
 40
0.0
 40
0.3021811531
 40
0.5780980856
 40
0.8121846795
 40
1.0
 40
1.0
 40
1.0
 40
1.0
 10
10.3090267187
 20
8.863891804
 30
0.0
 10
10.3090267187
 20
8.8593815277
 30
0.0
 10
10.3091147938
 20
8.8507527085
 30
0.0
 10
10.3094951893
 20
8.8386351937
 30
0.0
 10
10.3100693776
 20
8.8282346083
 30
0.0
 10
10.3105969773
 20
8.8219580529
 30
0.0
 10
10.3108930005
 20
8.8191704445
 30
0.0
  0
SPLINE
  5
2AF
100
AcDbEntity
  8
0
100
AcDbSpline
 62
7
  6
CONTINUOUS
 70
0
 71
3
 72
11
 73
7
 74
0
 42
0.0000001
 43
0.0000001
 44
0.0000000001
 40
0.0
 40
0.0
 40
0.0
 40
0.0
 40
0.2947690833
 40
0.5630802889
 40
0.7983219037
 40
1.0
 40
1.0
 40
1.0
 40
1.0
 10
10.2235492932
 20
8.8560635285
 30
0.0
 10
10.2237718604
 20
8.8523158642
 30
0.0
 10
10.2245053876
 20
8.8451704698
 30
0.0
 10
10.2264715534
 20
8.8351790394
 30
0.0
 10
10.2290852811
 20
8.8265694164
 30
0.0
 10
10.2313041749
 20
8.821447448
 30
0.0
 10
10.232492926
 20
8.8191704445
 30
0.0
  0
SPLINE
  5
2B0
100
AcDbEntity
  8
0
100
AcDbSpline
 62
7
  6
CONTINUOUS
 70
0
 71
3
 72
11
 73
7
 74
0
 42
0.0000001
 43
0.0000001
 44
0.0000000001
 40
0.0
 40
0.0
 40
0.0
 40
0.0
 40
0.2986275599
 40
0.5687305809
 40
0.8028766141
 40
1.0
 40
1.0
 40
1.0
 40
1.0
 10
10.2484177201
 20
8.8560635285
 30
0.0
 10
10.2485820838
 20
8.8523220472
 30
0.0
 10
10.2491216734
 20
8.8452038043
 30
0.0
 10
10.2505702457
 20
8.8352309091
 30
0.0
 10
10.2524947702
 20
8.8266391593
 30
0.0
 10
10.2541428373
 20
8.8214765813
 30
0.0
 10
10.2550334198
 20
8.8191704445
 30
0.0
  0
SPLINE
  5
2B1
100
AcDbEntity
  8
0
100
AcDbSpline
 62
7
  6
CONTINUOUS
 70
0
 71
3
 72
11
 73
7
 74
0
 42
0.0000001
 43
0.0000001
 44
0.0000000001
 40
0.0
 40
0.0
 40
0.0
 40
0.0
 40
0.3015331655
 40
0.5730079725
 40
0.8063528268
 40
1.0
 40
1.0
 40
1.0
 40
1.0
 10
10.2770026037
 20
8.8560637374
 30
0.0
 10
10.2771076809
 20
8.8523266634
 30
0.0
 10
10.2774516757
 20
8.8452280339
 30
0.0
 10
10.2783760243
 20
8.8352696589
 30
0.0
 10
10.2796033483
 20
8.826693496
 30
0.0
 10
10.2806609824
 20
8.8215012258
 30
0.0
 10
10.2812371074
 20
8.8191704445
 30
0.0
  0
SPLINE
  5
2B2
100
AcDbEntity
  8
0
100
AcDbSpline
 62
7
  6
CONTINUOUS
 70
0
 71
3
 72
13
 73
9
 74
0
 42
0.0000001
 43
0.0000001
 44
0.0000000001
 40
0.0
 40
0.0
 40
0.0
 40
0.0
 40
0.1258484488
 40
0.2516005244
 40
0.3771252695
 40
0.5023982329
 40
0.75164983
 40
1.0
 40
1.0
 40
1.0
 40
1.0
 10
11.0292477489
 20
8.863891804
 30
0.0
 10
11.0292477489
 20
8.8616031383
 30
0.0
 10
11.0288948906
 20
8.8570199332
 30
0.0
 10
11.0273368502
 20
8.8503161734
 30
0.0
 10
11.0248273305
 20
8.8439193437
 30
0.0
 10
11.0203745801
 20
8.8359629044
 30
0.0
 10
11.0130127012
 20
8.8272087523
 30
0.0
 10
11.0058184435
 20
8.8216200039
 30
0.0
 10
11.0020239548
 20
8.8191704445
 30
0.0
  0
SPLINE
  5
2B3
100
AcDbEntity
  8
0
100
AcDbSpline
 62
7
  6
CONTINUOUS
 70
0
 71
3
 72
11
 73
7
 74
0
 42
0.0000001
 43
0.0000001
 44
0.0000000001
 40
0.0
 40
0.0
 40
0.0
 40
0.0
 40
0.2993943846
 40
0.5737721826
 40
0.8085369215
 40
1.0
 40
1.0
 40
1.0
 40
1.0
 10
10.9964540312
 20
8.863891804
 30
0.0
 10
10.9964540312
 20
8.8684040437
 30
0.0
 10
10.9967178813
 20
8.8770540211
 30
0.0
 10
10.9978578356
 20
8.889195229
 30
0.0
 10
10.9995795152
 20
8.8996217299
 30
0.0
 10
11.0011521583
 20
8.9058624256
 30
0.0
 10
11.0020239548
 20
8.9086131636
 30
0.0
  0
SPLINE
  5
2B4
100
AcDbEntity
  8
0
100
AcDbSpline
 62
7
  6
CONTINUOUS
 70
0
 71
3
 72
13
 73
9
 74
0
 42
0.0000001
 43
0.0000001
 44
0.0000000001
 40
0.0
 40
0.0
 40
0.0
 40
0.0
 40
0.1267011954
 40
0.2531793576
 40
0.3792004371
 40
0.5046751567
 40
0.7533743348
 40
1.0
 40
1.0
 40
1.0
 40
1.0
 10
10.9878162659
 20
8.863891804
 30
0.0
 10
10.9878162659
 20
8.861603434
 30
0.0
 10
10.9874717101
 20
8.8570234219
 30
0.0
 10
10.9859498725
 20
8.8503221921
 30
0.0
 10
10.9834980567
 20
8.843926656
 30
0.0
 10
10.9791522009
 20
8.8359803081
 30
0.0
 10
10.9719679258
 20
8.8272313191
 30
0.0
 10
10.9649184509
 20
8.8216249304
 30
0.0
 10
10.9612013708
 20
8.8191704445
 30
0.0
  0
SPLINE
  5
2B5
100
AcDbEntity
  8
0
100
AcDbSpline
 62
7
  6
CONTINUOUS
 70
0
 71
3
 72
11
 73
7
 74
0
 42
0.0000001
 43
0.0000001
 44
0.0000000001
 40
0.0
 40
0.0
 40
0.0
 40
0.0
 40
0.2962196706
 40
0.5688651311
 40
0.8044316707
 40
1.0
 40
1.0
 40
1.0
 40
1.0
 10
10.9532134817
 20
8.863891804
 30
0.0
 10
10.9532134817
 20
8.8684063795
 30
0.0
 10
10.9535936209
 20
8.877081506
 30
0.0
 10
10.9552359968
 20
8.889249271
 30
0.0
 10
10.9577180298
 20
8.899702664
 30
0.0
 10
10.9599680632
 20
8.905899708
 30
0.0
 10
10.9612013708
 20
8.9086131636
 30
0.0
  0
SPLINE
  5
2B6
100
AcDbEntity
  8
0
100
AcDbSpline
 62
7
  6
CONTINUOUS
 70
0
 71
3
 72
13
 73
9
 74
0
 42
0.0000001
 43
0.0000001
 44
0.0000000001
 40
0.0
 40
0.0
 40
0.0
 40
0.0
 40
0.1278561962
 40
0.2553196976
 40
0.3820173623
 40
0.5077708916
 40
0.7557274877
 40
1.0
 40
1.0
 40
1.0
 40
1.0
 10
10.9441477125
 20
8.863891804
 30
0.0
 10
10.9441477125
 20
8.8616038232
 30
0.0
 10
10.9438143368
 20
8.8570280191
 30
0.0
 10
10.9423413127
 20
8.8503301798
 30
0.0
 10
10.9399674014
 20
8.8439364589
 30
0.0
 10
10.9357656019
 20
8.8360039505
 30
0.0
 10
10.9288212928
 20
8.8272627602
 30
0.0
 10
10.9219683579
 20
8.8216319019
 30
0.0
 10
10.9183560158
 20
8.8191704445
 30
0.0
  0
SPLINE
  5
2B7
100
AcDbEntity
  8
0
100
AcDbSpline
 62
7
  6
CONTINUOUS
 70
0
 71
3
 72
11
 73
7
 74
0
 42
0.0000001
 43
0.0000001
 44
0.0000000001
 40
0.0
 40
0.0
 40
0.0
 40
0.0
 40
0.292255537
 40
0.5627694409
 40
0.7993788632
 40
1.0
 40
1.0
 40
1.0
 40
1.0
 10
10.9080144785
 20
8.863891804
 30
0.0
 10
10.9080144785
 20
8.8684094515
 30
0.0
 10
10.9085096781
 20
8.8771175547
 30
0.0
 10
10.9106482107
 20
8.8893178604
 30
0.0
 10
10.9138817925
 20
8.8998004047
 30
0.0
 10
10.9167832524
 20
8.9059403932
 30
0.0
 10
10.9183560158
 20
8.9086131636
 30
0.0
  0
SPLINE
  5
2B8
100
AcDbEntity
  8
0
100
AcDbSpline
 62
7
  6
CONTINUOUS
 70
0
 71
3
 72
13
 73
9
 74
0
 42
0.0000001
 43
0.0000001
 44
0.0000000001
 40
0.0
 40
0.0
 40
0.0
 40
0.0
 40
0.1293042258
 40
0.2580060776
 40
0.3855589597
 40
0.5116710913
 40
0.7587062824
 40
1.0
 40
1.0
 40
1.0
 40
1.0
 10
10.8985937025
 20
8.863891804
 30
0.0
 10
10.8985937025
 20
8.8616042936
 30
0.0
 10
10.8982742569
 20
8.8570335817
 30
0.0
 10
10.8968621514
 20
8.8503399322
 30
0.0
 10
10.8945856169
 20
8.8439485821
 30
0.0
 10
10.8905634339
 20
8.8360336884
 30
0.0
 10
10.8839192851
 20
8.8273036397
 30
0.0
 10
10.8773138823
 20
8.8216411627
 30
0.0
 10
10.8738328746
 20
8.8191704445
 30
0.0
  0
SPLINE
  5
2B9
100
AcDbEntity
  8
0
100
AcDbSpline
 62
7
  6
CONTINUOUS
 70
0
 71
3
 72
11
 73
7
 74
0
 42
0.0000001
 43
0.0000001
 44
0.0000000001
 40
0.0
 40
0.0
 40
0.0
 40
0.0
 40
0.2877559706
 40
0.5558929814
 40
0.7937392109
 40
1.0
 40
1.0
 40
1.0
 40
1.0
 10
10.8612209599
 20
8.863891804
 30
0.0
 10
10.8612209599
 20
8.8684131597
 30
0.0
 10
10.8618294378
 20
8.8771608664
 30
0.0
 10
10.8644545535
 20
8.8893971749
 30
0.0
 10
10.8684242453
 20
8.8999064619
 30
0.0
 10
10.8719433419
 20
8.9059801283
 30
0.0
 10
10.8738328746
 20
8.9086131636
 30
0.0
  0
SPLINE
  5
2BA
100
AcDbEntity
  8
0
100
AcDbSpline
 62
7
  6
CONTINUOUS
 70
0
 71
3
 72
13
 73
9
 74
0
 42
0.0000001
 43
0.0000001
 44
0.0000000001
 40
0.0
 40
0.0
 40
0.0
 40
0.0
 40
0.1310311276
 40
0.2612141198
 40
0.389796933
 40
0.5163498986
 40
0.7623009243
 40
1.0
 40
1.0
 40
1.0
 40
1.0
 10
10.8515210283
 20
8.863891804
 30
0.0
 10
10.8515210283
 20
8.8616048296
 30
0.0
 10
10.8512181113
 20
8.8570399345
 30
0.0
 10
10.8498784067
 20
8.8503511881
 30
0.0
 10
10.8477178082
 20
8.8439627921
 30
0.0
 10
10.8439087809
 20
8.8360692631
 30
0.0
 10
10.8376221255
 20
8.8273545898
 30
0.0
 10
10.8313143907
 20
8.8216530346
 30
0.0
 10
10.8279904413
 20
8.8191704445
 30
0.0
  0
SPLINE
  5
2BB
100
AcDbEntity
  8
0
100
AcDbSpline
 62
7
  6
CONTINUOUS
 70
0
 71
3
 72
11
 73
7
 74
0
 42
0.0000001
 43
0.0000001
 44
0.0000000001
 40
0.0
 40
0.0
 40
0.0
 40
0.0
 40
0.2829655811
 40
0.5486220287
 40
0.7878431263
 40
1.0
 40
1.0
 40
1.0
 40
1.0
 10
10.8132096943
 20
8.863891804
 30
0.0
 10
10.8132096943
 20
8.8684173833
 30
0.0
 10
10.8139289724
 20
8.8772098978
 30
0.0
 10
10.8170271423
 20
8.8894831781
 30
0.0
 10
10.8217092402
 20
8.9000133944
 30
0.0
 10
10.8258064488
 20
8.9060163659
 30
0.0
 10
10.8279904413
 20
8.9086131636
 30
0.0
  0
SPLINE
  5
2BC
100
AcDbEntity
  8
0
100
AcDbSpline
 62
7
  6
CONTINUOUS
 70
0
 71
3
 72
11
 73
7
 74
0
 42
0.0000001
 43
0.0000001
 44
0.0000000001
 40
0.0
 40
0.0
 40
0.0
 40
0.0
 40
0.2646534344
 40
0.5213079778
 40
0.7662673431
 40
1.0
 40
1.0
 40
1.0
 40
1.0
 10
10.8033087145
 20
8.863891804
 30
0.0
 10
10.8033087145
 20
8.8593470495
 30
0.0
 10
10.8021901377
 20
8.8503554517
 30
0.0
 10
10.7974290696
 20
8.8379613576
 30
0.0
 10
10.790301453
 20
8.8274179348
 30
0.0
 10
10.7843399592
 20
8.8216679185
 30
0.0
 10
10.7811978326
 20
8.8191704445
 30
0.0
  0
SPLINE
  5
2BD
100
AcDbEntity
  8
0
100
AcDbSpline
 62
7
  6
CONTINUOUS
 70
0
 71
3
 72
11
 73
7
 74
0
 42
0.0000001
 43
0.0000001
 44
0.0000000001
 40
0.0
 40
0.0
 40
0.0
 40
0.0
 40
0.2781005561
 40
0.5412908126
 40
0.7819654129
 40
1.0
 40
1.0
 40
1.0
 40
1.0
 10
10.7643672679
 20
8.863891804
 30
0.0
 10
10.7643672679
 20
8.8684219854
 30
0.0
 10
10.765193997
 20
8.8772629426
 30
0.0
 10
10.7687471751
 20
8.889571936
 30
0.0
 10
10.7741091115
 20
8.9001156086
 30
0.0
 10
10.7787412649
 20
8.9060480098
 30
0.0
 10
10.7811978326
 20
8.9086131636
 30
0.0
  0
SPLINE
  5
2BE
100
AcDbEntity
  8
0
100
AcDbSpline
 62
7
  6
CONTINUOUS
 70
0
 71
3
 72
11
 73
7
 74
0
 42
0.0000001
 43
0.0000001
 44
0.0000000001
 40
0.0
 40
0.0
 40
0.0
 40
0.0
 40
0.2688131952
 40
0.5274451164
 40
0.7710400715
 40
1.0
 40
1.0
 40
1.0
 40
1.0
 10
10.7543449591
 20
8.863891804
 30
0.0
 10
10.7543449591
 20
8.8593518709
 30
0.0
 10
10.7533172426
 20
8.8504096315
 30
0.0
 10
10.7489269508
 20
8.8380393264
 30
0.0
 10
10.7423344179
 20
8.8274903611
 30
0.0
 10
10.7367683328
 20
8.8216862881
 30
0.0
 10
10.7338318161
 20
8.8191704445
 30
0.0
  0
SPLINE
  5
2BF
100
AcDbEntity
  8
0
100
AcDbSpline
 62
7
  6
CONTINUOUS
 70
0
 71
3
 72
11
 73
7
 74
0
 42
0.0000001
 43
0.0000001
 44
0.0000000001
 40
0.0
 40
0.0
 40
0.0
 40
0.0
 40
0.2733401641
 40
0.5341693183
 40
0.7763180779
 40
1.0
 40
1.0
 40
1.0
 40
1.0
 10
10.715086951
 20
8.863891804
 30
0.0
 10
10.715086951
 20
8.8684268172
 30
0.0
 10
10.7160167796
 20
8.8773181946
 30
0.0
 10
10.7200019866
 20
8.8896598904
 30
0.0
 10
10.726002697
 20
8.9002094739
 30
0.0
 10
10.7311244966
 20
8.9060748776
 30
0.0
 10
10.7338318161
 20
8.9086131636
 30
0.0
  0
SPLINE
  5
2C0
100
AcDbEntity
  8
0
100
AcDbSpline
 62
7
  6
CONTINUOUS
 70
0
 71
3
 72
11
 73
7
 74
0
 42
0.0000001
 43
0.0000001
 44
0.0000000001
 40
0.0
 40
0.0
 40
0.0
 40
0.0
 40
0.2733265774
 40
0.5341490705
 40
0.7763021068
 40
1.0
 40
1.0
 40
1.0
 40
1.0
 10
10.7050240113
 20
8.863891804
 30
0.0
 10
10.7050240113
 20
8.8593567766
 30
0.0
 10
10.7040938888
 20
8.850465251
 30
0.0
 10
10.7001074607
 20
8.8381234655
 30
0.0
 10
10.6941049548
 20
8.8275738749
 30
0.0
 10
10.6889817948
 20
8.8217086589
 30
0.0
 10
10.6862737762
 20
8.8191704445
 30
0.0
  0
SPLINE
  5
2C1
100
AcDbEntity
  8
0
100
AcDbSpline
 62
7
  6
CONTINUOUS
 70
0
 71
3
 72
11
 73
7
 74
0
 42
0.0000001
 43
0.0000001
 44
0.0000000001
 40
0.0
 40
0.0
 40
0.0
 40
0.0
 40
0.2688258916
 40
0.5274639059
 40
0.7710547481
 40
1.0
 40
1.0
 40
1.0
 40
1.0
 10
10.6657655417
 20
8.863891804
 30
0.0
 10
10.6657655417
 20
8.868431723
 30
0.0
 10
10.666792982
 20
8.8773738157
 30
0.0
 10
10.671182142
 20
8.8897440443
 30
0.0
 10
10.677773031
 20
8.9002930194
 30
0.0
 10
10.683337893
 20
8.9060972608
 30
0.0
 10
10.6862737762
 20
8.9086131636
 30
0.0
  0
SPLINE
  5
2C2
100
AcDbEntity
  8
0
100
AcDbSpline
 62
7
  6
CONTINUOUS
 70
0
 71
3
 72
9
 73
5
 74
0
 42
0.0000001
 43
0.0000001
 44
0.0000000001
 40
0.0
 40
0.0
 40
0.0
 40
0.0
 40
0.5103638037
 40
1.0
 40
1.0
 40
1.0
 40
1.0
 10
10.1697482811
 20
8.8331337298
 30
0.0
 10
10.1714548676
 20
8.8304459358
 30
0.0
 10
10.1752403608
 20
8.8254472466
 30
0.0
 10
10.1797638589
 20
8.8211126391
 30
0.0
 10
10.1821213798
 20
8.8191704445
 30
0.0
  0
SPLINE
  5
2C3
100
AcDbEntity
  8
0
100
AcDbSpline
 62
7
  6
CONTINUOUS
 70
0
 71
3
 72
9
 73
5
 74
0
 42
0.0000001
 43
0.0000001
 44
0.0000000001
 40
0.0
 40
0.0
 40
0.0
 40
0.0
 40
0.5084052324
 40
1.0
 40
1.0
 40
1.0
 40
1.0
 10
10.1662384264
 20
8.8560928896
 30
0.0
 10
10.1668515081
 20
8.851930555
 30
0.0
 10
10.1690352534
 20
8.8438584061
 30
0.0
 10
10.1729731384
 20
8.8364979433
 30
0.0
 10
10.1752604414
 20
8.8331337298
 30
0.0
  0
SPLINE
  5
2C4
100
AcDbEntity
  8
0
100
AcDbSpline
 62
7
  6
CONTINUOUS
 70
0
 71
3
 72
9
 73
5
 74
0
 42
0.0000001
 43
0.0000001
 44
0.0000000001
 40
0.0
 40
0.0
 40
0.0
 40
0.0
 40
0.5076735528
 40
1.0
 40
1.0
 40
1.0
 40
1.0
 10
10.1752604414
 20
8.8331337298
 30
0.0
 10
10.1770976852
 20
8.8304314729
 30
0.0
 10
10.1811779189
 20
8.8254091921
 30
0.0
 10
10.185997961
 20
8.8211027516
 30
0.0
 10
10.1885095398
 20
8.8191704445
 30
0.0
  0
SPLINE
  5
2C5
100
AcDbEntity
  8
0
100
AcDbSpline
 62
7
  6
CONTINUOUS
 70
0
 71
3
 72
9
 73
5
 74
0
 42
0.0000001
 43
0.0000001
 44
0.0000000001
 40
0.0
 40
0.0
 40
0.0
 40
0.0
 40
0.5061588168
 40
1.0
 40
1.0
 40
1.0
 40
1.0
 10
10.1755322306
 20
8.8560928896
 30
0.0
 10
10.1761827098
 20
8.8519190147
 30
0.0
 10
10.1785129825
 20
8.8438042219
 30
0.0
 10
10.1826713151
 20
8.8364794327
 30
0.0
 10
10.1850781162
 20
8.8331337298
 30
0.0
  0
SPLINE
  5
2C6
100
AcDbEntity
  8
0
100
AcDbSpline
 62
7
  6
CONTINUOUS
 70
0
 71
3
 72
9
 73
5
 74
0
 42
0.0000001
 43
0.0000001
 44
0.0000000001
 40
0.0
 40
0.0
 40
0.0
 40
0.0
 40
0.5054386266
 40
1.0
 40
1.0
 40
1.0
 40
1.0
 10
10.1850781162
 20
8.8331337298
 30
0.0
 10
10.1870309876
 20
8.8304190363
 30
0.0
 10
10.1913713827
 20
8.8253776738
 30
0.0
 10
10.1964500408
 20
8.8210948097
 30
0.0
 10
10.1990965345
 20
8.8191704445
 30
0.0
  0
SPLINE
  5
2C7
100
AcDbEntity
  8
0
100
AcDbSpline
 62
7
  6
CONTINUOUS
 70
0
 71
3
 72
11
 73
7
 74
0
 42
0.0000001
 43
0.0000001
 44
0.0000000001
 40
0.0
 40
0.0
 40
0.0
 40
0.0
 40
0.2530464638
 40
0.5042999894
 40
0.7533617506
 40
1.0
 40
1.0
 40
1.0
 40
1.0
 10
10.1891293609
 20
8.8560928896
 30
0.0
 10
10.1894725778
 20
8.8539891126
 30
0.0
 10
10.1904337436
 20
8.8498366428
 30
0.0
 10
10.1926452785
 20
8.8438715463
 30
0.0
 10
10.1955383403
 20
8.8382678136
 30
0.0
 10
10.1978724449
 20
8.8347933785
 30
0.0
 10
10.1991222551
 20
8.8331337298
 30
0.0
  0
SPLINE
  5
2C8
100
AcDbEntity
  8
0
100
AcDbSpline
 62
7
  6
CONTINUOUS
 70
0
 71
3
 72
9
 73
5
 74
0
 42
0.0000001
 43
0.0000001
 44
0.0000000001
 40
0.0
 40
0.0
 40
0.0
 40
0.0
 40
0.5036267637
 40
1.0
 40
1.0
 40
1.0
 40
1.0
 10
10.1991222551
 20
8.8331337298
 30
0.0
 10
10.2011743881
 20
8.8304086602
 30
0.0
 10
10.2057375502
 20
8.8253522
 30
0.0
 10
10.211035716
 20
8.8210885449
 30
0.0
 10
10.2137971189
 20
8.8191704445
 30
0.0
  0
SPLINE
  5
2C9
100
AcDbEntity
  8
0
100
AcDbSpline
 62
7
  6
CONTINUOUS
 70
0
 71
3
 72
11
 73
7
 74
0
 42
0.0000001
 43
0.0000001
 44
0.0000000001
 40
0.0
 40
0.0
 40
0.0
 40
0.0
 40
0.2519154275
 40
0.502693675
 40
0.75210588
 40
1.0
 40
1.0
 40
1.0
 40
1.0
 10
10.2069203352
 20
8.8560928895
 30
0.0
 10
10.2072764689
 20
8.8539871778
 30
0.0
 10
10.2082749782
 20
8.8498285949
 30
0.0
 10
10.2105695921
 20
8.8438619207
 30
0.0
 10
10.213570513
 20
8.8382578397
 30
0.0
 10
10.2159865721
 20
8.8347902406
 30
0.0
 10
10.2172797767
 20
8.8331337298
 30
0.0
  0
SPLINE
  5
2CA
100
AcDbEntity
  8
0
100
AcDbSpline
 62
7
  6
CONTINUOUS
 70
0
 71
3
 72
9
 73
5
 74
0
 42
0.0000001
 43
0.0000001
 44
0.0000000001
 40
0.0
 40
0.0
 40
0.0
 40
0.0
 40
0.5022059228
 40
1.0
 40
1.0
 40
1.0
 40
1.0
 10
10.2172797767
 20
8.8331337298
 30
0.0
 10
10.2194136847
 20
8.8304003327
 30
0.0
 10
10.2241599485
 20
8.8253322801
 30
0.0
 10
10.2296374079
 20
8.8210837373
 30
0.0
 10
10.232492926
 20
8.8191704445
 30
0.0
  0
SPLINE
  5
2CB
100
AcDbEntity
  8
0
100
AcDbSpline
 62
7
  6
CONTINUOUS
 70
0
 71
3
 72
11
 73
7
 74
0
 42
0.0000001
 43
0.0000001
 44
0.0000000001
 40
0.0
 40
0.0
 40
0.0
 40
0.0
 40
0.2510328787
 40
0.5014424137
 40
0.7511295465
 40
1.0
 40
1.0
 40
1.0
 40
1.0
 10
10.2287619031
 20
8.8560928896
 30
0.0
 10
10.2291280371
 20
8.8539856424
 30
0.0
 10
10.2301555297
 20
8.849822246
 30
0.0
 10
10.2325144076
 20
8.8438544117
 30
0.0
 10
10.2355986796
 20
8.8382501573
 30
0.0
 10
10.2380778461
 20
8.8347878514
 30
0.0
 10
10.239404479
 20
8.8331337298
 30
0.0
  0
SPLINE
  5
2CC
100
AcDbEntity
  8
0
100
AcDbSpline
 62
7
  6
CONTINUOUS
 70
0
 71
3
 72
9
 73
5
 74
0
 42
0.0000001
 43
0.0000001
 44
0.0000000001
 40
0.0
 40
0.0
 40
0.0
 40
0.0
 40
0.5011478821
 40
1.0
 40
1.0
 40
1.0
 40
1.0
 10
10.239404479
 20
8.8331337298
 30
0.0
 10
10.2416017724
 20
8.8303940193
 30
0.0
 10
10.2464896919
 20
8.8253174822
 30
0.0
 10
10.2521052567
 20
8.8210802158
 30
0.0
 10
10.2550334198
 20
8.8191704445
 30
0.0
  0
SPLINE
  5
2CD
100
AcDbEntity
  8
0
100
AcDbSpline
 62
7
  6
CONTINUOUS
 70
0
 71
3
 72
11
 73
7
 74
0
 42
0.0000001
 43
0.0000001
 44
0.0000000001
 40
0.0
 40
0.0
 40
0.0
 40
0.0
 40
0.2504133345
 40
0.5005651627
 40
0.7504460494
 40
1.0
 40
1.0
 40
1.0
 40
1.0
 10
10.2544782051
 20
8.8560928572
 30
0.0
 10
10.2548513246
 20
8.8539845225
 30
0.0
 10
10.2558991017
 20
8.8498177335
 30
0.0
 10
10.2583028361
 20
8.8438491355
 30
0.0
 10
10.2614452417
 20
8.8382448212
 30
0.0
 10
10.2639683097
 20
8.8347862155
 30
0.0
 10
10.2653182058
 20
8.8331337439
 30
0.0
  0
SPLINE
  5
2CE
100
AcDbEntity
  8
0
100
AcDbSpline
 62
7
  6
CONTINUOUS
 70
0
 71
3
 72
9
 73
5
 74
0
 42
0.0000001
 43
0.0000001
 44
0.0000000001
 40
0.0
 40
0.0
 40
0.0
 40
0.0
 40
0.5004301253
 40
1.0
 40
1.0
 40
1.0
 40
1.0
 10
10.2653182058
 20
8.8331337439
 30
0.0
 10
10.2675598088
 20
8.8303896917
 30
0.0
 10
10.2725466119
 20
8.8253074677
 30
0.0
 10
10.2782583056
 20
8.8210778563
 30
0.0
 10
10.2812371074
 20
8.8191704445
 30
0.0
  0
SPLINE
  5
2CF
100
AcDbEntity
  8
0
100
AcDbSpline
 62
7
  6
CONTINUOUS
 70
0
 71
3
 72
13
 73
9
 74
0
 42
0.0000001
 43
0.0000001
 44
0.0000000001
 40
0.0
 40
0.0
 40
0.0
 40
0.0
 40
0.1251420159
 40
0.2502516013
 40
0.3753581667
 40
0.5004334887
 40
0.750221157
 40
1.0
 40
1.0
 40
1.0
 40
1.0
 10
10.28386216
 20
8.8560928895
 30
0.0
 10
10.2842076265
 20
8.8541604452
 30
0.0
 10
10.2851545363
 20
8.8503372562
 30
0.0
 10
10.2872854152
 20
8.8448331247
 30
0.0
 10
10.2900570037
 20
8.8396237352
 30
0.0
 10
10.2944985887
 20
8.8331430617
 30
0.0
 10
10.3012640864
 20
8.8259654157
 30
0.0
 10
10.3075836266
 20
8.8212682129
 30
0.0
 10
10.3108930005
 20
8.8191704445
 30
0.0
  0
SPLINE
  5
2D0
100
AcDbEntity
  8
0
100
AcDbSpline
 62
7
  6
CONTINUOUS
 70
0
 71
3
 72
13
 73
9
 74
0
 42
0.0000001
 43
0.0000001
 44
0.0000000001
 40
0.0
 40
0.0
 40
0.0
 40
0.0
 40
0.1250692126
 40
0.250157924
 40
0.375231941
 40
0.5003240317
 40
0.7500834556
 40
1.0
 40
1.0
 40
1.0
 40
1.0
 10
10.3159816296
 20
8.863891804
 30
0.0
 10
10.3159816296
 20
8.8616028795
 30
0.0
 10
10.3163420921
 20
8.8570167435
 30
0.0
 10
10.3179332866
 20
8.8503107014
 30
0.0
 10
10.3204956223
 20
8.8439127531
 30
0.0
 10
10.325046358
 20
8.8359471722
 30
0.0
 10
10.3325707418
 20
8.8271886786
 30
0.0
 10
10.339897038
 20
8.8216156813
 30
0.0
 10
10.3437623138
 20
8.8191704445
 30
0.0
  0
SPLINE
  5
2D1
100
AcDbEntity
  8
0
100
AcDbSpline
 62
7
  6
CONTINUOUS
 70
0
 71
3
 72
10
 73
6
 74
0
 42
0.0000001
 43
0.0000001
 44
0.0000000001
 40
0.0
 40
0.0
 40
0.0
 40
0.0
 40
0.5785915628
 40
0.8126038436
 40
1.0
 40
1.0
 40
1.0
 40
1.0
 10
10.3443888649
 20
8.863891804
 30
0.0
 10
10.3443888649
 20
8.8725181199
 30
0.0
 10
10.344314588
 20
8.8846337577
 30
0.0
 10
10.3440390859
 20
8.8995404952
 30
0.0
 10
10.343861857
 20
8.9058210176
 30
0.0
 10
10.3437623138
 20
8.9086131636
 30
0.0
  0
SPLINE
  5
2D2
100
AcDbEntity
  8
0
100
AcDbSpline
 62
7
  6
CONTINUOUS
 70
0
 71
3
 72
13
 73
9
 74
0
 42
0.0000001
 43
0.0000001
 44
0.0000000001
 40
0.0
 40
0.0
 40
0.0
 40
0.0
 40
0.1253038244
 40
0.2505918766
 40
0.3758014897
 40
0.5009478758
 40
0.7505541253
 40
1.0
 40
1.0
 40
1.0
 40
1.0
 10
10.3519677125
 20
8.863891804
 30
0.0
 10
10.3519677125
 20
8.8616029634
 30
0.0
 10
10.3523258741
 20
8.8570177324
 30
0.0
 10
10.3539070504
 20
8.850312394
 30
0.0
 10
10.3564534413
 20
8.8439147867
 30
0.0
 10
10.3609745855
 20
8.835951943
 30
0.0
 10
10.3684499446
 20
8.8271946996
 30
0.0
 10
10.3757364561
 20
8.8216169748
 30
0.0
 10
10.3795803885
 20
8.8191704445
 30
0.0
  0
SPLINE
  5
2D3
100
AcDbEntity
  8
0
100
AcDbSpline
 62
7
  6
CONTINUOUS
 70
0
 71
3
 72
11
 73
7
 74
0
 42
0.0000001
 43
0.0000001
 44
0.0000000001
 40
0.0
 40
0.0
 40
0.0
 40
0.0
 40
0.3015389685
 40
0.5771018764
 40
0.8113428575
 40
1.0
 40
1.0
 40
1.0
 40
1.0
 10
10.3826947275
 20
8.863891804
 30
0.0
 10
10.3826947275
 20
8.8684024767
 30
0.0
 10
10.3825476338
 20
8.8770360316
 30
0.0
 10
10.3819122553
 20
8.8891589899
 30
0.0
 10
10.3809530583
 20
8.8995657375
 30
0.0
 10
10.3800728129
 20
8.9058343653
 30
0.0
 10
10.3795803885
 20
8.9086131636
 30
0.0
  0
SPLINE
  5
2D4
100
AcDbEntity
  8
0
100
AcDbSpline
 62
7
  6
CONTINUOUS
 70
0
 71
3
 72
13
 73
9
 74
0
 42
0.0000001
 43
0.0000001
 44
0.0000000001
 40
0.0
 40
0.0
 40
0.0
 40
0.0
 40
0.1258495292
 40
0.2516016011
 40
0.3771274125
 40
0.5024011025
 40
0.7516520511
 40
1.0
 40
1.0
 40
1.0
 40
1.0
 10
10.390836488
 20
8.863891804
 30
0.0
 10
10.390836488
 20
8.8616031565
 30
0.0
 10
10.3911893123
 20
8.8570200081
 30
0.0
 10
10.3927472373
 20
8.8503163002
 30
0.0
 10
10.3952566021
 20
8.8439194987
 30
0.0
 10
10.3997090745
 20
8.835963055
 30
0.0
 10
10.4070705455
 20
8.8272088597
 30
0.0
 10
10.4142644901
 20
8.8216200342
 30
0.0
 10
10.4180588224
 20
8.8191704445
 30
0.0
  0
SPLINE
  5
2D5
100
AcDbEntity
  8
0
100
AcDbSpline
 62
7
  6
CONTINUOUS
 70
0
 71
3
 72
11
 73
7
 74
0
 42
0.0000001
 43
0.0000001
 44
0.0000000001
 40
0.0
 40
0.0
 40
0.0
 40
0.0
 40
0.2993833931
 40
0.5737573057
 40
0.8085250314
 40
1.0
 40
1.0
 40
1.0
 40
1.0
 10
10.423635873
 20
8.863891804
 30
0.0
 10
10.423635873
 20
8.8684040024
 30
0.0
 10
10.4233716888
 20
8.8770540005
 30
0.0
 10
10.4222302697
 20
8.8891952507
 30
0.0
 10
10.4205063653
 20
8.8996218696
 30
0.0
 10
10.4189317106
 20
8.9058625004
 30
0.0
 10
10.4180588224
 20
8.9086131636
 30
0.0
  0
SPLINE
  5
2D6
100
AcDbEntity
  8
0
100
AcDbSpline
 62
7
  6
CONTINUOUS
 70
0
 71
3
 72
13
 73
9
 74
0
 42
0.0000001
 43
0.0000001
 44
0.0000000001
 40
0.0
 40
0.0
 40
0.0
 40
0.0
 40
0.1267031613
 40
0.253182075
 40
0.3792047505
 40
0.5046804253
 40
0.7533783986
 40
1.0
 40
1.0
 40
1.0
 40
1.0
 10
10.4322749901
 20
8.863891804
 30
0.0
 10
10.4322749901
 20
8.8616034524
 30
0.0
 10
10.4326195037
 20
8.8570235002
 30
0.0
 10
10.4341411892
 20
8.8503223248
 30
0.0
 10
10.4365927906
 20
8.8439268183
 30
0.0
 10
10.4409382585
 20
8.8359804772
 30
0.0
 10
10.4481219407
 20
8.827231452
 30
0.0
 10
10.4551709499
 20
8.8216249664
 30
0.0
 10
10.4588877925
 20
8.8191704445
 30
0.0
  0
SPLINE
  5
2D7
100
AcDbEntity
  8
0
100
AcDbSpline
 62
7
  6
CONTINUOUS
 70
0
 71
3
 72
11
 73
7
 74
0
 42
0.0000001
 43
0.0000001
 44
0.0000000001
 40
0.0
 40
0.0
 40
0.0
 40
0.0
 40
0.2962060477
 40
0.5688462179
 40
0.8044164786
 40
1.0
 40
1.0
 40
1.0
 40
1.0
 10
10.4668826492
 20
8.863891804
 30
0.0
 10
10.4668826492
 20
8.8684063404
 30
0.0
 10
10.4665021816
 20
8.8770815117
 30
0.0
 10
10.4648583581
 20
8.88924934
 30
0.0
 10
10.4623741186
 20
8.8997028657
 30
0.0
 10
10.4601221333
 20
8.9058998013
 30
0.0
 10
10.4588877925
 20
8.9086131636
 30
0.0
  0
SPLINE
  5
2D8
100
AcDbEntity
  8
0
100
AcDbSpline
 62
7
  6
CONTINUOUS
 70
0
 71
3
 72
13
 73
9
 74
0
 42
0.0000001
 43
0.0000001
 44
0.0000000001
 40
0.0
 40
0.0
 40
0.0
 40
0.0
 40
0.1278590243
 40
0.2553240161
 40
0.3820238051
 40
0.5077785287
 40
0.7557333944
 40
1.0
 40
1.0
 40
1.0
 40
1.0
 10
10.4759495619
 20
8.863891804
 30
0.0
 10
10.4759495619
 20
8.8616038419
 30
0.0
 10
10.4762828876
 20
8.8570281002
 30
0.0
 10
10.4777557244
 20
8.850330318
 30
0.0
 10
10.4801293639
 20
8.8439366282
 30
0.0
 10
10.4843306699
 20
8.8360041379
 30
0.0
 10
10.4912742062
 20
8.8272629201
 30
0.0
 10
10.4981265247
 20
8.8216319443
 30
0.0
 10
10.5017385497
 20
8.8191704445
 30
0.0
  0
SPLINE
  5
2D9
100
AcDbEntity
  8
0
100
AcDbSpline
 62
7
  6
CONTINUOUS
 70
0
 71
3
 72
11
 73
7
 74
0
 42
0.0000001
 43
0.0000001
 44
0.0000000001
 40
0.0
 40
0.0
 40
0.0
 40
0.0
 40
0.292240017
 40
0.5627476695
 40
0.7993614205
 40
1.0
 40
1.0
 40
1.0
 40
1.0
 10
10.5120868391
 20
8.863891804
 30
0.0
 10
10.5120868391
 20
8.8684094143
 30
0.0
 10
10.5115913181
 20
8.8771175831
 30
0.0
 10
10.5094513638
 20
8.8893179662
 30
0.0
 10
10.50621561
 20
8.8998006435
 30
0.0
 10
10.5033122831
 20
8.9059404898
 30
0.0
 10
10.5017385497
 20
8.9086131636
 30
0.0
  0
SPLINE
  5
2DA
100
AcDbEntity
  8
0
100
AcDbSpline
 62
7
  6
CONTINUOUS
 70
0
 71
3
 72
13
 73
9
 74
0
 42
0.0000001
 43
0.0000001
 44
0.0000000001
 40
0.0
 40
0.0
 40
0.0
 40
0.0
 40
0.1293078915
 40
0.2580119486
 40
0.3855674717
 40
0.5116810282
 40
0.7587140063
 40
1.0
 40
1.0
 40
1.0
 40
1.0
 10
10.5215085461
 20
8.863891804
 30
0.0
 10
10.5215085461
 20
8.8616043123
 30
0.0
 10
10.5218279288
 20
8.8570336646
 30
0.0
 10
10.5232398142
 20
8.8503400741
 30
0.0
 10
10.5255160228
 20
8.8439487575
 30
0.0
 10
10.5295376111
 20
8.8360338934
 30
0.0
 10
10.5361808147
 20
8.8273038289
 30
0.0
 10
10.5427854523
 20
8.8216412125
 30
0.0
 10
10.5462660659
 20
8.8191704445
 30
0.0
  0
SPLINE
  5
2DB
100
AcDbEntity
  8
0
100
AcDbSpline
 62
7
  6
CONTINUOUS
 70
0
 71
3
 72
11
 73
7
 74
0
 42
0.0000001
 43
0.0000001
 44
0.0000000001
 40
0.0
 40
0.0
 40
0.0
 40
0.0
 40
0.2877392865
 40
0.5558695314
 40
0.7937205338
 40
1.0
 40
1.0
 40
1.0
 40
1.0
 10
10.5588844653
 20
8.863891804
 30
0.0
 10
10.5588844653
 20
8.8684131238
 30
0.0
 10
10.558275671
 20
8.8771609128
 30
0.0
 10
10.5556491718
 20
8.8893973055
 30
0.0
 10
10.5516773639
 20
8.8999067142
 30
0.0
 10
10.5481565052
 20
8.9059802181
 30
0.0
 10
10.5462660659
 20
8.9086131636
 30
0.0
  0
SPLINE
  5
2DC
100
AcDbEntity
  8
0
100
AcDbSpline
 62
7
  6
CONTINUOUS
 70
0
 71
3
 72
13
 73
9
 74
0
 42
0.0000001
 43
0.0000001
 44
0.0000000001
 40
0.0
 40
0.0
 40
0.0
 40
0.0
 40
0.1310355572
 40
0.2612214259
 40
0.3898073919
 40
0.5163620595
 40
0.7623104496
 40
1.0
 40
1.0
 40
1.0
 40
1.0
 10
10.5685850955
 20
8.863891804
 30
0.0
 10
10.5685850955
 20
8.8616048487
 30
0.0
 10
10.5688879487
 20
8.8570400199
 30
0.0
 10
10.5702274014
 20
8.8503513348
 30
0.0
 10
10.5723876215
 20
8.8439629732
 30
0.0
 10
10.5761959615
 20
8.8360694849
 30
0.0
 10
10.5824815077
 20
8.8273548097
 30
0.0
 10
10.5887883312
 20
8.8216530926
 30
0.0
 10
10.5921118116
 20
8.8191704445
 30
0.0
  0
SPLINE
  5
2DD
100
AcDbEntity
  8
0
100
AcDbSpline
 62
7
  6
CONTINUOUS
 70
0
 71
3
 72
11
 73
7
 74
0
 42
0.0000001
 43
0.0000001
 44
0.0000000001
 40
0.0
 40
0.0
 40
0.0
 40
0.0
 40
0.2829484349
 40
0.5485979589
 40
0.7878241148
 40
1.0
 40
1.0
 40
1.0
 40
1.0
 10
10.6068987188
 20
8.863891804
 30
0.0
 10
10.6068987188
 20
8.8684173488
 30
0.0
 10
10.6061791392
 20
8.8772099583
 30
0.0
 10
10.6030796326
 20
8.8894833223
 30
0.0
 10
10.5983955009
 20
8.9000136413
 30
0.0
 10
10.5942966485
 20
8.9060164441
 30
0.0
 10
10.5921118116
 20
8.9086131636
 30
0.0
  0
SPLINE
  5
2DE
100
AcDbEntity
  8
0
100
AcDbSpline
 62
7
  6
CONTINUOUS
 70
0
 71
3
 72
11
 73
7
 74
0
 42
0.0000001
 43
0.0000001
 44
0.0000000001
 40
0.0
 40
0.0
 40
0.0
 40
0.0
 40
0.2646621622
 40
0.5213223557
 40
0.7662786592
 40
1.0
 40
1.0
 40
1.0
 40
1.0
 10
10.6168001692
 20
8.863891804
 30
0.0
 10
10.6168001692
 20
8.8593471114
 30
0.0
 10
10.6179184635
 20
8.8503556976
 30
0.0
 10
10.6226784752
 20
8.8379616872
 30
0.0
 10
10.6298046184
 20
8.827418186
 30
0.0
 10
10.635765058
 20
8.8216679863
 30
0.0
 10
10.6389066435
 20
8.8191704445
 30
0.0
  0
SPLINE
  5
2DF
100
AcDbEntity
  8
0
100
AcDbSpline
 62
7
  6
CONTINUOUS
 70
0
 71
3
 72
11
 73
7
 74
0
 42
0.0000001
 43
0.0000001
 44
0.0000000001
 40
0.0
 40
0.0
 40
0.0
 40
0.0
 40
0.2780835157
 40
0.5412670061
 40
0.7819467699
 40
1.0
 40
1.0
 40
1.0
 40
1.0
 10
10.6557429967
 20
8.863891804
 30
0.0
 10
10.6557429967
 20
8.8684219516
 30
0.0
 10
10.6549159798
 20
8.8772630115
 30
0.0
 10
10.6513615275
 20
8.8895720825
 30
0.0
 10
10.6459976645
 20
8.9001158365
 30
0.0
 10
10.6413639941
 20
8.9060480745
 30
0.0
 10
10.6389066435
 20
8.9086131636
 30
0.0
  0
SPLINE
  5
2E0
100
AcDbEntity
  8
0
100
AcDbSpline
 62
7
  6
CONTINUOUS
 70
0
 71
3
 72
11
 73
7
 74
0
 42
0.0000001
 43
0.0000001
 44
0.0000000001
 40
0.0
 40
0.0
 40
0.0
 40
0.0
 40
0.2688230455
 40
0.5274613107
 40
0.7710529504
 40
1.0
 40
1.0
 40
1.0
 40
1.0
 10
10.6657655417
 20
8.863891804
 30
0.0
 10
10.6657655417
 20
8.8593519331
 30
0.0
 10
10.6667929566
 20
8.8504098835
 30
0.0
 10
10.6711820905
 20
8.8380396768
 30
0.0
 10
10.6777729808
 20
8.8274906458
 30
0.0
 10
10.6833378699
 20
8.8216863671
 30
0.0
 10
10.6862737762
 20
8.8191704445
 30
0.0
  0
SPLINE
  5
2E1
100
AcDbEntity
  8
0
100
AcDbSpline
 62
7
  6
CONTINUOUS
 70
0
 71
3
 72
11
 73
7
 74
0
 42
0.0000001
 43
0.0000001
 44
0.0000000001
 40
0.0
 40
0.0
 40
0.0
 40
0.0
 40
0.2733236951
 40
0.534146466
 40
0.7763003328
 40
1.0
 40
1.0
 40
1.0
 40
1.0
 10
10.7050240113
 20
8.863891804
 30
0.0
 10
10.7050240113
 20
8.8684267837
 30
0.0
 10
10.7040939118
 20
8.8773182666
 30
0.0
 10
10.7001075075
 20
8.8896600297
 30
0.0
 10
10.6941050011
 20
8.900209675
 30
0.0
 10
10.6889818163
 20
8.906074929
 30
0.0
 10
10.6862737762
 20
8.9086131636
 30
0.0
  0
SPLINE
  5
2E2
100
AcDbEntity
  8
0
100
AcDbSpline
 62
7
  6
CONTINUOUS
 70
0
 71
3
 72
11
 73
7
 74
0
 42
0.0000001
 43
0.0000001
 44
0.0000000001
 40
0.0
 40
0.0
 40
0.0
 40
0.0
 40
0.2733372791
 40
0.5341667133
 40
0.776316304
 40
1.0
 40
1.0
 40
1.0
 40
1.0
 10
10.715086951
 20
8.863891804
 30
0.0
 10
10.715086951
 20
8.8593568387
 30
0.0
 10
10.7160167566
 20
8.850465504
 30
0.0
 10
10.7200019398
 20
8.8381238306
 30
0.0
 10
10.7260026507
 20
8.8275741923
 30
0.0
 10
10.7311244751
 20
8.8217087506
 30
0.0
 10
10.7338318161
 20
8.8191704445
 30
0.0
  0
SPLINE
  5
2E3
100
AcDbEntity
  8
0
100
AcDbSpline
 62
7
  6
CONTINUOUS
 70
0
 71
3
 72
11
 73
7
 74
0
 42
0.0000001
 43
0.0000001
 44
0.0000000001
 40
0.0
 40
0.0
 40
0.0
 40
0.0
 40
0.2688103516
 40
0.5274425217
 40
0.7710382737
 40
1.0
 40
1.0
 40
1.0
 40
1.0
 10
10.7543449591
 20
8.863891804
 30
0.0
 10
10.7543449591
 20
8.8684316892
 30
0.0
 10
10.753317268
 20
8.8773738855
 30
0.0
 10
10.7489270023
 20
8.8897441687
 30
0.0
 10
10.7423344681
 20
8.9002931899
 30
0.0
 10
10.7367683559
 20
8.9060973002
 30
0.0
 10
10.7338318161
 20
8.9086131636
 30
0.0
  0
SPLINE
  5
2E4
100
AcDbEntity
  8
0
100
AcDbSpline
 62
7
  6
CONTINUOUS
 70
0
 71
3
 72
11
 73
7
 74
0
 42
0.0000001
 43
0.0000001
 44
0.0000000001
 40
0.0
 40
0.0
 40
0.0
 40
0.0
 40
0.2780976299
 40
0.5412881965
 40
0.781963664
 40
1.0
 40
1.0
 40
1.0
 40
1.0
 10
10.7643672679
 20
8.863891804
 30
0.0
 10
10.7643672679
 20
8.8593616703
 30
0.0
 10
10.7651939766
 20
8.8505207553
 30
0.0
 10
10.7687471333
 20
8.8382117849
 30
0.0
 10
10.7741090695
 20
8.8276680588
 30
0.0
 10
10.7787412452
 20
8.8217356188
 30
0.0
 10
10.7811978326
 20
8.8191704445
 30
0.0
  0
SPLINE
  5
2E5
100
AcDbEntity
  8
0
100
AcDbSpline
 62
7
  6
CONTINUOUS
 70
0
 71
3
 72
11
 73
7
 74
0
 42
0.0000001
 43
0.0000001
 44
0.0000000001
 40
0.0
 40
0.0
 40
0.0
 40
0.0
 40
0.2646506264
 40
0.5213053916
 40
0.7662655234
 40
1.0
 40
1.0
 40
1.0
 40
1.0
 10
10.8033087145
 20
8.863891804
 30
0.0
 10
10.8033087145
 20
8.8684365105
 30
0.0
 10
10.8021901654
 20
8.8774280646
 30
0.0
 10
10.7974291254
 20
8.8898221374
 30
0.0
 10
10.7903015066
 20
8.9003656171
 30
0.0
 10
10.7843399837
 20
8.9061156701
 30
0.0
 10
10.7811978326
 20
8.9086131636
 30
0.0
  0
SPLINE
  5
2E6
100
AcDbEntity
  8
0
100
AcDbSpline
 62
7
  6
CONTINUOUS
 70
0
 71
3
 72
11
 73
7
 74
0
 42
0.0000001
 43
0.0000001
 44
0.0000000001
 40
0.0
 40
0.0
 40
0.0
 40
0.0
 40
0.2829626124
 40
0.5486194005
 40
0.7878414028
 40
1.0
 40
1.0
 40
1.0
 40
1.0
 10
10.8132096943
 20
8.863891804
 30
0.0
 10
10.8132096943
 20
8.8593662723
 30
0.0
 10
10.8139289546
 20
8.8505737995
 30
0.0
 10
10.8170271059
 20
8.8383005425
 30
0.0
 10
10.821709203
 20
8.827770274
 30
0.0
 10
10.8258064311
 20
8.8217672633
 30
0.0
 10
10.8279904413
 20
8.8191704445
 30
0.0
  0
SPLINE
  5
2E7
100
AcDbEntity
  8
0
100
AcDbSpline
 62
7
  6
CONTINUOUS
 70
0
 71
3
 72
13
 73
9
 74
0
 42
0.0000001
 43
0.0000001
 44
0.0000000001
 40
0.0
 40
0.0
 40
0.0
 40
0.0
 40
0.131030131
 40
0.261211339
 40
0.3897940518
 40
0.5163473119
 40
0.7622990818
 40
1.0
 40
1.0
 40
1.0
 40
1.0
 10
10.8515210283
 20
8.863891804
 30
0.0
 10
10.8515210283
 20
8.8661787611
 30
0.0
 10
10.8512181226
 20
8.8707436076
 30
0.0
 10
10.8498784428
 20
8.8774323079
 30
0.0
 10
10.8477178585
 20
8.8838206791
 30
0.0
 10
10.84390885
 20
8.8917142351
 30
0.0
 10
10.8376221806
 20
8.9004289624
 30
0.0
 10
10.8313144165
 20
8.9061305543
 30
0.0
 10
10.8279904413
 20
8.9086131636
 30
0.0
  0
SPLINE
  5
2E8
100
AcDbEntity
  8
0
100
AcDbSpline
 62
7
  6
CONTINUOUS
 70
0
 71
3
 72
11
 73
7
 74
0
 42
0.0000001
 43
0.0000001
 44
0.0000000001
 40
0.0
 40
0.0
 40
0.0
 40
0.0
 40
0.2877529632
 40
0.555890336
 40
0.793737508
 40
1.0
 40
1.0
 40
1.0
 40
1.0
 10
10.8612209599
 20
8.863891804
 30
0.0
 10
10.8612209599
 20
8.8593704957
 30
0.0
 10
10.8618294228
 20
8.8506228303
 30
0.0
 10
10.8644545225
 20
8.8383865455
 30
0.0
 10
10.8684242133
 20
8.8278772077
 30
0.0
 10
10.8719433263
 20
8.8218035015
 30
0.0
 10
10.8738328746
 20
8.8191704445
 30
0.0
  0
SPLINE
  5
2E9
100
AcDbEntity
  8
0
100
AcDbSpline
 62
7
  6
CONTINUOUS
 70
0
 71
3
 72
13
 73
9
 74
0
 42
0.0000001
 43
0.0000001
 44
0.0000000001
 40
0.0
 40
0.0
 40
0.0
 40
0.0
 40
0.1293032431
 40
0.2580033278
 40
0.3855561059
 40
0.5116685058
 40
0.7587044097
 40
1.0
 40
1.0
 40
1.0
 40
1.0
 10
10.8985937025
 20
8.863891804
 30
0.0
 10
10.8985937025
 20
8.8661792972
 30
0.0
 10
10.8982742689
 20
8.8707499604
 30
0.0
 10
10.8968621894
 20
8.877443564
 30
0.0
 10
10.8945856698
 20
8.883834889
 30
0.0
 10
10.8905635069
 20
8.89174981
 30
0.0
 10
10.8839193427
 20
8.9004799128
 30
0.0
 10
10.8773139094
 20
8.9061424262
 30
0.0
 10
10.8738328746
 20
8.9086131636
 30
0.0
  0
SPLINE
  5
2EA
100
AcDbEntity
  8
0
100
AcDbSpline
 62
7
  6
CONTINUOUS
 70
0
 71
3
 72
11
 73
7
 74
0
 42
0.0000001
 43
0.0000001
 44
0.0000000001
 40
0.0
 40
0.0
 40
0.0
 40
0.0
 40
0.292252486
 40
0.562766787
 40
0.7993771875
 40
1.0
 40
1.0
 40
1.0
 40
1.0
 10
10.9080144785
 20
8.863891804
 30
0.0
 10
10.9080144785
 20
8.8593742037
 30
0.0
 10
10.9085096659
 20
8.8506661414
 30
0.0
 10
10.9106481855
 20
8.8384658596
 30
0.0
 10
10.9138817662
 20
8.8279832658
 30
0.0
 10
10.9167832392
 20
8.8218432373
 30
0.0
 10
10.9183560158
 20
8.8191704445
 30
0.0
  0
SPLINE
  5
2EB
100
AcDbEntity
  8
0
100
AcDbSpline
 62
7
  6
CONTINUOUS
 70
0
 71
3
 72
13
 73
9
 74
0
 42
0.0000001
 43
0.0000001
 44
0.0000000001
 40
0.0
 40
0.0
 40
0.0
 40
0.0
 40
0.1278552214
 40
0.2553169658
 40
0.3820145189
 40
0.5077683143
 40
0.7557256134
 40
1.0
 40
1.0
 40
1.0
 40
1.0
 10
10.9441477125
 20
8.863891804
 30
0.0
 10
10.9441477125
 20
8.8661797675
 30
0.0
 10
10.9438143493
 20
8.8707555227
 30
0.0
 10
10.9423413523
 20
8.8774533161
 30
0.0
 10
10.9399674568
 20
8.883847012
 30
0.0
 10
10.9357656777
 20
8.8917795481
 30
0.0
 10
10.9288213523
 20
8.9005207932
 30
0.0
 10
10.9219683856
 20
8.9061516873
 30
0.0
 10
10.9183560158
 20
8.9086131636
 30
0.0
  0
SPLINE
  5
2EC
100
AcDbEntity
  8
0
100
AcDbSpline
 62
7
  6
CONTINUOUS
 70
0
 71
3
 72
11
 73
7
 74
0
 42
0.0000001
 43
0.0000001
 44
0.0000000001
 40
0.0
 40
0.0
 40
0.0
 40
0.0
 40
0.296216584
 40
0.5688624652
 40
0.8044300149
 40
1.0
 40
1.0
 40
1.0
 40
1.0
 10
10.9532134817
 20
8.863891804
 30
0.0
 10
10.9532134817
 20
8.8593772756
 30
0.0
 10
10.9535936115
 20
8.8507021896
 30
0.0
 10
10.9552359774
 20
8.8385344487
 30
0.0
 10
10.9577180094
 20
8.8280810072
 30
0.0
 10
10.9599680528
 20
8.821883923
 30
0.0
 10
10.9612013708
 20
8.8191704445
 30
0.0
  0
SPLINE
  5
2ED
100
AcDbEntity
  8
0
100
AcDbSpline
 62
7
  6
CONTINUOUS
 70
0
 71
3
 72
13
 73
9
 74
0
 42
0.0000001
 43
0.0000001
 44
0.0000000001
 40
0.0
 40
0.0
 40
0.0
 40
0.0
 40
0.1267002284
 40
0.2531766434
 40
0.3791976072
 40
0.5046725825
 40
0.753372449
 40
1.0
 40
1.0
 40
1.0
 40
1.0
 10
10.9878162659
 20
8.863891804
 30
0.0
 10
10.9878162659
 20
8.8661801566
 30
0.0
 10
10.9874717231
 20
8.8707601197
 30
0.0
 10
10.9859499134
 20
8.8774613038
 30
0.0
 10
10.9834981139
 20
8.8838568148
 30
0.0
 10
10.9791522791
 20
8.8918031908
 30
0.0
 10
10.9719679869
 20
8.9005522346
 30
0.0
 10
10.9649184794
 20
8.9061586589
 30
0.0
 10
10.9612013708
 20
8.9086131636
 30
0.0
  0
SPLINE
  5
2EE
100
AcDbEntity
  8
0
100
AcDbSpline
 62
7
  6
CONTINUOUS
 70
0
 71
3
 72
11
 73
7
 74
0
 42
0.0000001
 43
0.0000001
 44
0.0000000001
 40
0.0
 40
0.0
 40
0.0
 40
0.0
 40
0.2993912695
 40
0.5737695065
 40
0.8085352813
 40
1.0
 40
1.0
 40
1.0
 40
1.0
 10
10.9964540312
 20
8.863891804
 30
0.0
 10
10.9964540312
 20
8.8593796113
 30
0.0
 10
10.9967178748
 20
8.8507296742
 30
0.0
 10
10.9978578222
 20
8.8385884905
 30
0.0
 10
10.999579501
 20
8.8281619419
 30
0.0
 10
11.0011521509
 20
8.821921206
 30
0.0
 10
11.0020239548
 20
8.8191704445
 30
0.0
  0
SPLINE
  5
2EF
100
AcDbEntity
  8
0
100
AcDbSpline
 62
7
  6
CONTINUOUS
 70
0
 71
3
 72
13
 73
9
 74
0
 42
0.0000001
 43
0.0000001
 44
0.0000000001
 40
0.0
 40
0.0
 40
0.0
 40
0.0
 40
0.1258474876
 40
0.2515978232
 40
0.3771224495
 40
0.5023956609
 40
0.7516479357
 40
1.0
 40
1.0
 40
1.0
 40
1.0
 10
11.0292477489
 20
8.863891804
 30
0.0
 10
11.0292477489
 20
8.8661804523
 30
0.0
 10
11.0288949039
 20
8.8707636084
 30
0.0
 10
11.0273368921
 20
8.8774673224
 30
0.0
 10
11.0248273891
 20
8.8838641269
 30
0.0
 10
11.0203746601
 20
8.8918205946
 30
0.0
 10
11.0130127634
 20
8.9005748018
 30
0.0
 10
11.0058184724
 20
8.9061635855
 30
0.0
 10
11.0020239548
 20
8.9086131636
 30
0.0
  0
SPLINE
  5
2F0
100
AcDbEntity
  8
0
100
AcDbSpline
 62
7
  6
CONTINUOUS
 70
0
 71
3
 72
11
 73
7
 74
0
 42
0.0000001
 43
0.0000001
 44
0.0000000001
 40
0.0
 40
0.0
 40
0.0
 40
0.0
 40
0.3015435716
 40
0.5771090283
 40
0.8113489006
 40
1.0
 40
1.0
 40
1.0
 40
1.0
 10
11.0373879603
 20
8.863891804
 30
0.0
 10
11.0373879603
 20
8.8593811345
 30
0.0
 10
11.0375347115
 20
8.8507476142
 30
0.0
 10
11.0381686109
 20
8.8386246953
 30
0.0
 10
11.0391255741
 20
8.8282179913
 30
0.0
 10
11.0400037777
 20
8.8219493055
 30
0.0
 10
11.0404950701
 20
8.8191704445
 30
0.0
  0
SPLINE
  5
2F1
100
AcDbEntity
  8
0
100
AcDbSpline
 62
7
  6
CONTINUOUS
 70
0
 71
3
 72
13
 73
9
 74
0
 42
0.0000001
 43
0.0000001
 44
0.0000000001
 40
0.0
 40
0.0
 40
0.0
 40
0.0
 40
0.1253026866
 40
0.2505897724
 40
0.3757987273
 40
0.5009448499
 40
0.750551841
 40
1.0
 40
1.0
 40
1.0
 40
1.0
 10
11.0681085612
 20
8.863891804
 30
0.0
 10
11.0681085612
 20
8.8661806451
 30
0.0
 10
11.0677503877
 20
8.8707658804
 30
0.0
 10
11.0661691629
 20
8.8774712222
 30
0.0
 10
11.0636226948
 20
8.8838688313
 30
0.0
 10
11.0591014072
 20
8.8918316882
 30
0.0
 10
11.0516258105
 20
8.9005889378
 30
0.0
 10
11.044339106
 20
8.9061666396
 30
0.0
 10
11.0404950701
 20
8.9086131636
 30
0.0
  0
SPLINE
  5
2F2
100
AcDbEntity
  8
0
100
AcDbSpline
 62
7
  6
CONTINUOUS
 70
0
 71
3
 72
10
 73
6
 74
0
 42
0.0000001
 43
0.0000001
 44
0.0000000001
 40
0.0
 40
0.0
 40
0.0
 40
0.0
 40
0.5785930638
 40
0.8126051001
 40
1.0
 40
1.0
 40
1.0
 40
1.0
 10
11.0756856748
 20
8.863891804
 30
0.0
 10
11.0756856748
 20
8.8552654931
 30
0.0
 10
11.075759089
 20
8.843149884
 30
0.0
 10
11.076031393
 20
8.8282431377
 30
0.0
 10
11.0762065647
 20
8.8219626038
 30
0.0
 10
11.0763049528
 20
8.8191704445
 30
0.0
  0
SPLINE
  5
2F3
100
AcDbEntity
  8
0
100
AcDbSpline
 62
7
  6
CONTINUOUS
 70
0
 71
3
 72
13
 73
9
 74
0
 42
0.0000001
 43
0.0000001
 44
0.0000000001
 40
0.0
 40
0.0
 40
0.0
 40
0.0
 40
0.1250689848
 40
0.2501575033
 40
0.3752313886
 40
0.5003234271
 40
0.7500829993
 40
1.0
 40
1.0
 40
1.0
 40
1.0
 10
11.1040858008
 20
8.863891804
 30
0.0
 10
11.1040858008
 20
8.8661807287
 30
0.0
 10
11.1037253353
 20
8.8707668655
 30
0.0
 10
11.1021341312
 20
8.8774729083
 30
0.0
 10
11.0995717801
 20
8.883870857
 30
0.0
 10
11.0950210155
 20
8.8918364405
 30
0.0
 10
11.0874965842
 20
8.9005949353
 30
0.0
 10
11.0801702494
 20
8.9061679281
 30
0.0
 10
11.0763049528
 20
8.9086131636
 30
0.0
  0
SPLINE
  5
2F4
100
AcDbEntity
  8
0
100
AcDbSpline
 62
7
  6
CONTINUOUS
 70
0
 71
3
 72
13
 73
9
 74
0
 42
0.0000001
 43
0.0000001
 44
0.0000000001
 40
0.0
 40
0.0
 40
0.0
 40
0.0
 40
0.1251426996
 40
0.2502528087
 40
0.3753596997
 40
0.5004351283
 40
0.7502223611
 40
1.0
 40
1.0
 40
1.0
 40
1.0
 10
11.1361956299
 20
8.8716907185
 30
0.0
 10
11.1358501696
 20
8.8736231619
 30
0.0
 10
11.1349032775
 20
8.8774463481
 30
0.0
 10
11.1327724372
 20
8.8829504791
 30
0.0
 10
11.1300008983
 20
8.8881598684
 30
0.0
 10
11.1255593962
 20
8.8946405367
 30
0.0
 10
11.1187940247
 20
8.9018181803
 30
0.0
 10
11.1124745865
 20
8.9065153925
 30
0.0
 10
11.1091652668
 20
8.9086131636
 30
0.0
  0
SPLINE
  5
2F5
100
AcDbEntity
  8
0
100
AcDbSpline
 62
7
  6
CONTINUOUS
 70
0
 71
3
 72
11
 73
7
 74
0
 42
0.0000001
 43
0.0000001
 44
0.0000000001
 40
0.0
 40
0.0
 40
0.0
 40
0.0
 40
0.2504147496
 40
0.5005671745
 40
0.7504476306
 40
1.0
 40
1.0
 40
1.0
 40
1.0
 10
11.1655692495
 20
8.871690572
 30
0.0
 10
11.1651961498
 20
8.8737989243
 30
0.0
 10
11.1641484245
 20
8.8779657468
 30
0.0
 10
11.1617447825
 20
8.8839344019
 30
0.0
 10
11.1586024846
 20
8.8895387684
 30
0.0
 10
11.1560794927
 20
8.8929974127
 30
0.0
 10
11.1547296362
 20
8.8946499015
 30
0.0
  0
SPLINE
  5
2F6
100
AcDbEntity
  8
0
100
AcDbSpline
 62
7
  6
CONTINUOUS
 70
0
 71
3
 72
9
 73
5
 74
0
 42
0.0000001
 43
0.0000001
 44
0.0000000001
 40
0.0
 40
0.0
 40
0.0
 40
0.0
 40
0.5004317371
 40
1.0
 40
1.0
 40
1.0
 40
1.0
 10
11.1547296362
 20
8.8946499015
 30
0.0
 10
11.152488137
 20
8.8973939358
 30
0.0
 10
11.1475015678
 20
8.9024761326
 30
0.0
 10
11.1417901051
 20
8.9067057508
 30
0.0
 10
11.1388114253
 20
8.9086131636
 30
0.0
  0
SPLINE
  5
2F7
100
AcDbEntity
  8
0
100
AcDbSpline
 62
7
  6
CONTINUOUS
 70
0
 71
3
 72
11
 73
7
 74
0
 42
0.0000001
 43
0.0000001
 44
0.0000000001
 40
0.0
 40
0.0
 40
0.0
 40
0.0
 40
0.2510350765
 40
0.5014455271
 40
0.7511319744
 40
1.0
 40
1.0
 40
1.0
 40
1.0
 10
11.1912745052
 20
8.8716907185
 30
0.0
 10
11.1909083959
 20
8.8737979621
 30
0.0
 10
11.1898809753
 20
8.8779613469
 30
0.0
 10
11.1875222564
 20
8.883929179
 30
0.0
 10
11.1844381906
 20
8.8895334335
 30
0.0
 10
11.18195918
 20
8.8929957529
 30
0.0
 10
11.1806326296
 20
8.8946498804
 30
0.0
  0
SPLINE
  5
2F8
100
AcDbEntity
  8
0
100
AcDbSpline
 62
7
  6
CONTINUOUS
 70
0
 71
3
 72
9
 73
5
 74
0
 42
0.0000001
 43
0.0000001
 44
0.0000000001
 40
0.0
 40
0.0
 40
0.0
 40
0.0
 40
0.5011504636
 40
1.0
 40
1.0
 40
1.0
 40
1.0
 10
11.1806326296
 20
8.8946498804
 30
0.0
 10
11.1784354938
 20
8.8973895749
 30
0.0
 10
11.1735479263
 20
8.9024660906
 30
0.0
 10
11.1679327043
 20
8.906703384
 30
0.0
 10
11.1650047217
 20
8.9086131636
 30
0.0
  0
SPLINE
  5
2F9
100
AcDbEntity
  8
0
100
AcDbSpline
 62
7
  6
CONTINUOUS
 70
0
 71
3
 72
11
 73
7
 74
0
 42
0.0000001
 43
0.0000001
 44
0.0000000001
 40
0.0
 40
0.0
 40
0.0
 40
0.0
 40
0.2519183739
 40
0.5026978552
 40
0.7521091453
 40
1.0
 40
1.0
 40
1.0
 40
1.0
 10
11.2131044994
 20
8.8716907185
 30
0.0
 10
11.212748399
 20
8.8737964253
 30
0.0
 10
11.2117499867
 20
8.8779549926
 30
0.0
 10
11.2094555877
 20
8.8839216635
 30
0.0
 10
11.2064549456
 20
8.8895257443
 30
0.0
 10
11.2040390978
 20
8.8929933614
 30
0.0
 10
11.2027460053
 20
8.8946498804
 30
0.0
  0
SPLINE
  5
2FA
100
AcDbEntity
  8
0
100
AcDbSpline
 62
7
  6
CONTINUOUS
 70
0
 71
3
 72
9
 73
5
 74
0
 42
0.0000001
 43
0.0000001
 44
0.0000000001
 40
0.0
 40
0.0
 40
0.0
 40
0.0
 40
0.5022095264
 40
1.0
 40
1.0
 40
1.0
 40
1.0
 10
11.2027460053
 20
8.8946498804
 30
0.0
 10
11.2006123096
 20
8.8973832558
 30
0.0
 10
11.1958665208
 20
8.9024512784
 30
0.0
 10
11.1903895255
 20
8.9066998589
 30
0.0
 10
11.1875342514
 20
8.9086131636
 30
0.0
  0
SPLINE
  5
2FB
100
AcDbEntity
  8
0
100
AcDbSpline
 62
7
  6
CONTINUOUS
 70
0
 71
3
 72
11
 73
7
 74
0
 42
0.0000001
 43
0.0000001
 44
0.0000000001
 40
0.0
 40
0.0
 40
0.0
 40
0.0
 40
0.2530501083
 40
0.5043051703
 40
0.7533658064
 40
1.0
 40
1.0
 40
1.0
 40
1.0
 10
11.2308834341
 20
8.8716907185
 30
0.0
 10
11.2305402588
 20
8.8737944895
 30
0.0
 10
11.2295792137
 20
8.8779469401
 30
0.0
 10
11.2273679477
 20
8.8839120321
 30
0.0
 10
11.2244752349
 20
8.8895157639
 30
0.0
 10
11.222141396
 20
8.8929902214
 30
0.0
 10
11.2208917266
 20
8.8946498804
 30
0.0
  0
SPLINE
  5
2FC
100
AcDbEntity
  8
0
100
AcDbSpline
 62
7
  6
CONTINUOUS
 70
0
 71
3
 72
9
 73
5
 74
0
 42
0.0000001
 43
0.0000001
 44
0.0000000001
 40
0.0
 40
0.0
 40
0.0
 40
0.0
 40
0.5036314641
 40
1.0
 40
1.0
 40
1.0
 40
1.0
 10
11.2208917266
 20
8.8946498804
 30
0.0
 10
11.2188398583
 20
8.8973749223
 30
0.0
 10
11.2142772897
 20
8.902431343
 30
0.0
 10
11.2089797068
 20
8.9066950474
 30
0.0
 10
11.2062186096
 20
8.9086131636
 30
0.0
  0
SPLINE
  5
2FD
100
AcDbEntity
  8
0
100
AcDbSpline
 62
7
  6
CONTINUOUS
 70
0
 71
3
 72
9
 73
5
 74
0
 42
0.0000001
 43
0.0000001
 44
0.0000000001
 40
0.0
 40
0.0
 40
0.0
 40
0.0
 40
0.5061649648
 40
1.0
 40
1.0
 40
1.0
 40
1.0
 10
11.2444681559
 20
8.8716907185
 30
0.0
 10
11.243817778
 20
8.8758645618
 30
0.0
 10
11.2414879058
 20
8.8839792389
 30
0.0
 10
11.2373301666
 20
8.8913041275
 30
0.0
 10
11.2349236868
 20
8.8946498804
 30
0.0
  0
SPLINE
  5
2FE
100
AcDbEntity
  8
0
100
AcDbSpline
 62
7
  6
CONTINUOUS
 70
0
 71
3
 72
9
 73
5
 74
0
 42
0.0000001
 43
0.0000001
 44
0.0000000001
 40
0.0
 40
0.0
 40
0.0
 40
0.0
 40
0.5054445128
 40
1.0
 40
1.0
 40
1.0
 40
1.0
 10
11.2349236868
 20
8.8946498804
 30
0.0
 10
11.2329711295
 20
8.8973645403
 30
0.0
 10
11.2286314406
 20
8.9024058522
 30
0.0
 10
11.223553481
 20
8.906688778
 30
0.0
 10
11.2209073526
 20
8.9086131636
 30
0.0
  0
SPLINE
  5
2FF
100
AcDbEntity
  8
0
100
AcDbSpline
 62
7
  6
CONTINUOUS
 70
0
 71
3
 72
9
 73
5
 74
0
 42
0.0000001
 43
0.0000001
 44
0.0000000001
 40
0.0
 40
0.0
 40
0.0
 40
0.0
 40
0.5084121694
 40
1.0
 40
1.0
 40
1.0
 40
1.0
 10
11.2537492826
 20
8.8716907185
 30
0.0
 10
11.253136317
 20
8.8758530183
 30
0.0
 10
11.2509530251
 20
8.8839250364
 30
0.0
 10
11.2470158306
 20
8.8912856086
 30
0.0
 10
11.2447289026
 20
8.8946498804
 30
0.0
  0
SPLINE
  5
300
100
AcDbEntity
  8
0
100
AcDbSpline
 62
7
  6
CONTINUOUS
 70
0
 71
3
 72
9
 73
5
 74
0
 42
0.0000001
 43
0.0000001
 44
0.0000000001
 40
0.0
 40
0.0
 40
0.0
 40
0.0
 40
0.5076807209
 40
1.0
 40
1.0
 40
1.0
 40
1.0
 10
11.2447289026
 20
8.8946498804
 30
0.0
 10
11.2428920188
 20
8.8973520977
 30
0.0
 10
11.2388125963
 20
8.9023743156
 30
0.0
 10
11.2339933652
 20
8.9066808309
 30
0.0
 10
11.2314822086
 20
8.9086131636
 30
0.0
  0
SPLINE
  5
301
100
AcDbEntity
  8
0
100
AcDbSpline
 62
7
  6
CONTINUOUS
 70
0
 71
3
 72
9
 73
5
 74
0
 42
0.0000001
 43
0.0000001
 44
0.0000000001
 40
0.0
 40
0.0
 40
0.0
 40
0.0
 40
0.5103723427
 40
1.0
 40
1.0
 40
1.0
 40
1.0
 10
11.2502284236
 20
8.8946498804
 30
0.0
 10
11.2485222389
 20
8.897337629
 30
0.0
 10
11.244737653
 20
8.9023362414
 30
0.0
 10
11.2402150747
 20
8.9066709373
 30
0.0
 10
11.2378580305
 20
8.9086131636
 30
0.0
  0
SPLINE
  5
302
100
AcDbEntity
  8
0
100
AcDbSpline
 62
7
  6
CONTINUOUS
 70
0
 71
3
 72
11
 73
7
 74
0
 42
0.0000001
 43
0.0000001
 44
0.0000000001
 40
0.0
 40
0.0
 40
0.0
 40
0.0
 40
0.2780864393
 40
0.5412696217
 40
0.7819485189
 40
1.0
 40
1.0
 40
1.0
 40
1.0
 10
10.6557429967
 20
8.863891804
 30
0.0
 10
10.6557429967
 20
8.8593616089
 30
0.0
 10
10.6549159594
 20
8.8505205068
 30
0.0
 10
10.6513614857
 20
8.8382114129
 30
0.0
 10
10.6459976225
 20
8.8276677123
 30
0.0
 10
10.6413639743
 20
8.821735513
 30
0.0
 10
10.6389066435
 20
8.8191704445
 30
0.0
  0
SPLINE
  5
303
100
AcDbEntity
  8
0
100
AcDbSpline
 62
7
  6
CONTINUOUS
 70
0
 71
3
 72
11
 73
7
 74
0
 42
0.0000001
 43
0.0000001
 44
0.0000000001
 40
0.0
 40
0.0
 40
0.0
 40
0.0
 40
0.2646649728
 40
0.5213249424
 40
0.7662804788
 40
1.0
 40
1.0
 40
1.0
 40
1.0
 10
10.6168001692
 20
8.863891804
 30
0.0
 10
10.6168001692
 20
8.8684365449
 30
0.0
 10
10.6179184911
 20
8.8774280022
 30
0.0
 10
10.6226785309
 20
8.889822034
 30
0.0
 10
10.629804672
 20
8.9003654783
 30
0.0
 10
10.6357650825
 20
8.9061156413
 30
0.0
 10
10.6389066435
 20
8.9086131636
 30
0.0
  0
SPLINE
  5
304
100
AcDbEntity
  8
0
100
AcDbSpline
 62
7
  6
CONTINUOUS
 70
0
 71
3
 72
11
 73
7
 74
0
 42
0.0000001
 43
0.0000001
 44
0.0000000001
 40
0.0
 40
0.0
 40
0.0
 40
0.0
 40
0.282951401
 40
0.5486005866
 40
0.7878258384
 40
1.0
 40
1.0
 40
1.0
 40
1.0
 10
10.6068987188
 20
8.863891804
 30
0.0
 10
10.6068987188
 20
8.8593662119
 30
0.0
 10
10.6061791214
 20
8.8505735606
 30
0.0
 10
10.6030795961
 20
8.8383001733
 30
0.0
 10
10.5983954637
 20
8.8277699065
 30
0.0
 10
10.5942966308
 20
8.8217671429
 30
0.0
 10
10.5921118116
 20
8.8191704445
 30
0.0
  0
SPLINE
  5
305
100
AcDbEntity
  8
0
100
AcDbSpline
 62
7
  6
CONTINUOUS
 70
0
 71
3
 72
13
 73
9
 74
0
 42
0.0000001
 43
0.0000001
 44
0.0000000001
 40
0.0
 40
0.0
 40
0.0
 40
0.0
 40
0.131036555
 40
0.2612242092
 40
0.3898102747
 40
0.5163646467
 40
0.762312292
 40
1.0
 40
1.0
 40
1.0
 40
1.0
 10
10.5685850955
 20
8.863891804
 30
0.0
 10
10.5685850955
 20
8.8661787769
 30
0.0
 10
10.5688879601
 20
8.8707436542
 30
0.0
 10
10.5702274375
 20
8.8774323854
 30
0.0
 10
10.5723876718
 20
8.8838207718
 30
0.0
 10
10.5761960306
 20
8.8917142331
 30
0.0
 10
10.5824815628
 20
8.9004288543
 30
0.0
 10
10.588788357
 20
8.9061305347
 30
0.0
 10
10.5921118116
 20
8.9086131636
 30
0.0
  0
SPLINE
  5
306
100
AcDbEntity
  8
0
100
AcDbSpline
 62
7
  6
CONTINUOUS
 70
0
 71
3
 72
11
 73
7
 74
0
 42
0.0000001
 43
0.0000001
 44
0.0000000001
 40
0.0
 40
0.0
 40
0.0
 40
0.0
 40
0.2877422901
 40
0.5558721754
 40
0.793722245
 40
1.0
 40
1.0
 40
1.0
 40
1.0
 10
10.5588844653
 20
8.863891804
 30
0.0
 10
10.5588844653
 20
8.8593704371
 30
0.0
 10
10.558275656
 20
8.8506226067
 30
0.0
 10
10.5556491407
 20
8.8383861903
 30
0.0
 10
10.551677332
 20
8.8278768322
 30
0.0
 10
10.5481564896
 20
8.8218033681
 30
0.0
 10
10.5462660659
 20
8.8191704445
 30
0.0
  0
SPLINE
  5
307
100
AcDbEntity
  8
0
100
AcDbSpline
 62
7
  6
CONTINUOUS
 70
0
 71
3
 72
13
 73
9
 74
0
 42
0.0000001
 43
0.0000001
 44
0.0000000001
 40
0.0
 40
0.0
 40
0.0
 40
0.0
 40
0.1293088751
 40
0.2580147018
 40
0.3855703326
 40
0.5116836145
 40
0.7587158704
 40
1.0
 40
1.0
 40
1.0
 40
1.0
 10
10.5215085461
 20
8.863891804
 30
0.0
 10
10.5215085461
 20
8.8661793132
 30
0.0
 10
10.5218279408
 20
8.8707500096
 30
0.0
 10
10.5232398522
 20
8.8774436462
 30
0.0
 10
10.5255160759
 20
8.8838349877
 30
0.0
 10
10.529537684
 20
8.8917498245
 30
0.0
 10
10.5361808723
 20
8.9004798345
 30
0.0
 10
10.5427854792
 20
8.9061424147
 30
0.0
 10
10.5462660659
 20
8.9086131636
 30
0.0
  0
SPLINE
  5
308
100
AcDbEntity
  8
0
100
AcDbSpline
 62
7
  6
CONTINUOUS
 70
0
 71
3
 72
11
 73
7
 74
0
 42
0.0000001
 43
0.0000001
 44
0.0000000001
 40
0.0
 40
0.0
 40
0.0
 40
0.0
 40
0.2922430653
 40
0.5627503229
 40
0.7993630964
 40
1.0
 40
1.0
 40
1.0
 40
1.0
 10
10.5120868391
 20
8.863891804
 30
0.0
 10
10.5120868391
 20
8.8593741467
 30
0.0
 10
10.5115913059
 20
8.850665937
 30
0.0
 10
10.5094513386
 20
8.83846553
 30
0.0
 10
10.5062155837
 20
8.8279829022
 30
0.0
 10
10.50331227
 20
8.821843096
 30
0.0
 10
10.5017385497
 20
8.8191704445
 30
0.0
  0
SPLINE
  5
309
100
AcDbEntity
  8
0
100
AcDbSpline
 62
7
  6
CONTINUOUS
 70
0
 71
3
 72
13
 73
9
 74
0
 42
0.0000001
 43
0.0000001
 44
0.0000000001
 40
0.0
 40
0.0
 40
0.0
 40
0.0
 40
0.1278600003
 40
0.2553267502
 40
0.3820266501
 40
0.5077811065
 40
0.7557352686
 40
1.0
 40
1.0
 40
1.0
 40
1.0
 10
10.4759495619
 20
8.863891804
 30
0.0
 10
10.4759495619
 20
8.8661797837
 30
0.0
 10
10.4762829002
 20
8.8707555742
 30
0.0
 10
10.4777557641
 20
8.8774534024
 30
0.0
 10
10.4801294193
 20
8.8838471172
 30
0.0
 10
10.4843307457
 20
8.8917795796
 30
0.0
 10
10.4912742657
 20
8.9005207427
 30
0.0
 10
10.4981265524
 20
8.9061516826
 30
0.0
 10
10.5017385497
 20
8.9086131636
 30
0.0
  0
SPLINE
  5
30A
100
AcDbEntity
  8
0
100
AcDbSpline
 62
7
  6
CONTINUOUS
 70
0
 71
3
 72
11
 73
7
 74
0
 42
0.0000001
 43
0.0000001
 44
0.0000000001
 40
0.0
 40
0.0
 40
0.0
 40
0.0
 40
0.2587086357
 40
0.4477013502
 40
0.6337153841
 40
1.0
 40
1.0
 40
1.0
 40
1.0
 10
10.0078670932
 20
7.801676495
 30
0.0
 10
10.0109467145
 20
7.7999551014
 30
0.0
 10
10.0164479458
 20
7.7972743581
 30
0.0
 10
10.0245136624
 20
7.7941573625
 30
0.0
 10
10.0341483898
 20
7.7910808439
 30
0.0
 10
10.0414940812
 20
7.7893568324
 30
0.0
 10
10.0463962874
 20
7.7883979497
 30
0.0
  0
SPLINE
  5
30B
100
AcDbEntity
  8
0
100
AcDbSpline
 62
7
  6
CONTINUOUS
 70
0
 71
3
 72
9
 73
5
 74
0
 42
0.0000001
 43
0.0000001
 44
0.0000000001
 40
0.0
 40
0.0
 40
0.0
 40
0.0
 40
0.2508896024
 40
1.0
 40
1.0
 40
1.0
 40
1.0
 10
10.0463962874
 20
7.7883979497
 30
0.0
 10
10.0478281914
 20
7.788117866
 30
0.0
 10
10.0535479451
 20
7.7870651681
 30
0.0
 10
10.059309658
 20
7.7862481578
 30
0.0
 10
10.0636357267
 20
7.7857347733
 30
0.0
  0
SPLINE
  5
30C
100
AcDbEntity
  8
0
100
AcDbSpline
 62
7
  6
CONTINUOUS
 70
0
 71
3
 72
26
 73
22
 74
0
 42
0.0000001
 43
0.0000001
 44
0.0000000001
 40
0.0
 40
0.0
 40
0.0
 40
0.0
 40
0.1121489444
 40
0.1681163545
 40
0.22406254
 40
0.2800102821
 40
0.3359837462
 40
0.3920209663
 40
0.4481921399
 40
0.5046298172
 40
0.561581149
 40
0.6195027174
 40
0.6792419848
 40
0.74240893
 40
0.7762203168
 40
0.8123101289
 40
0.8516306948
 40
0.8954842004
 40
0.9195725557
 40
0.9452084637
 40
1.0
 40
1.0
 40
1.0
 40
1.0
 10
10.0636357267
 20
7.7857347733
 30
0.0
 10
10.0722742084
 20
7.7847096249
 30
0.0
 10
10.0852945725
 20
7.7837567632
 30
0.0
 10
10.1026651339
 20
7.7831919146
 30
0.0
 10
10.1156866348
 20
7.7830740971
 30
0.0
 10
10.1287075481
 20
7.783241857
 30
0.0
 10
10.1417283828
 20
7.7837180503
 30
0.0
 10
10.1547482902
 20
7.7845683155
 30
0.0
 10
10.1677655284
 20
7.7859003499
 30
0.0
 10
10.1807759747
 20
7.7878724017
 30
0.0
 10
10.1937705004
 20
7.790705786
 30
0.0
 10
10.2067311731
 20
7.7947127666
 30
0.0
 10
10.2196153598
 20
7.8003465548
 30
0.0
 10
10.2299641979
 20
7.8068491451
 30
0.0
 10
10.237842214
 20
7.8135442796
 30
0.0
 10
10.2436581047
 20
7.819733357
 30
0.0
 10
10.2490865013
 20
7.8272594662
 30
0.0
 10
10.2529076821
 20
7.8346944919
 30
0.0
 10
10.2553880999
 20
7.841525946
 30
0.0
 10
10.2574388464
 20
7.8493779485
 30
0.0
 10
10.2580913295
 20
7.8556417692
 30
0.0
 10
10.2580913295
 20
7.8598918039
 30
0.0
  0
SPLINE
  5
30D
100
AcDbEntity
  8
0
100
AcDbSpline
 62
7
  6
CONTINUOUS
 70
0
 71
3
 72
20
 73
16
 74
0
 42
0.0000001
 43
0.0000001
 44
0.0000000001
 40
0.0
 40
0.0
 40
0.0
 40
0.0
 40
0.0517855704
 40
0.1014918869
 40
0.1480137378
 40
0.1911925188
 40
0.2689332906
 40
0.3383194915
 40
0.4021467776
 40
0.4622609047
 40
0.5756403095
 40
0.6841546395
 40
0.7903422001
 40
0.8954258061
 40
1.0
 40
1.0
 40
1.0
 40
1.0
 10
10.2580913295
 20
7.8598918039
 30
0.0
 10
10.2580913295
 20
7.8624208304
 30
0.0
 10
10.2577845361
 20
7.8673828224
 30
0.0
 10
10.2564722117
 20
7.8745072015
 30
0.0
 10
10.2544811538
 20
7.8810327262
 30
0.0
 10
10.2512814121
 20
7.8885707785
 30
0.0
 10
10.2464601851
 20
7.8965793835
 30
0.0
 10
10.2397564395
 20
7.9044502411
 30
0.0
 10
10.2326871427
 20
7.9107470716
 30
0.0
 10
10.223177566
 20
7.9174080503
 30
0.0
 10
10.210800243
 20
7.9236155308
 30
0.0
 10
10.1955618499
 20
7.9286796716
 30
0.0
 10
10.1802921469
 20
7.9320515143
 30
0.0
 10
10.1650150989
 20
7.934249106
 30
0.0
 10
10.1548131023
 20
7.9351640751
 30
0.0
 10
10.1497185703
 20
7.9355212704
 30
0.0
  0
SPLINE
  5
30E
100
AcDbEntity
  8
0
100
AcDbSpline
 62
7
  6
CONTINUOUS
 70
0
 71
3
 72
24
 73
20
 74
0
 42
0.0000001
 43
0.0000001
 44
0.0000000001
 40
0.0
 40
0.0
 40
0.0
 40
0.0
 40
0.1110322711
 40
0.2219870561
 40
0.2774893616
 40
0.3330427086
 40
0.388699096
 40
0.4445521656
 40
0.5007691688
 40
0.5576456221
 40
0.6157024244
 40
0.6758680713
 40
0.7398433343
 40
0.7742224127
 40
0.810981862
 40
0.8510300976
 40
0.8955349715
 40
0.9454945851
 40
1.0
 40
1.0
 40
1.0
 40
1.0
 10
10.1497185703
 20
7.9355212704
 30
0.0
 10
10.1417140676
 20
7.9360824937
 30
0.0
 10
10.12567624
 20
7.9367226614
 30
0.0
 10
10.1056173758
 20
7.9366942959
 30
0.0
 10
10.0895805987
 20
7.9361579165
 30
0.0
 10
10.0775519133
 20
7.9354470677
 30
0.0
 10
10.0655258535
 20
7.9343501648
 30
0.0
 10
10.0535056204
 20
7.932754462
 30
0.0
 10
10.0414975697
 20
7.930505089
 30
0.0
 10
10.0295142322
 20
7.9273917423
 30
0.0
 10
10.0175789344
 20
7.9231220557
 30
0.0
 10
10.0057428996
 20
7.9172736324
 30
0.0
 10
9.9962925756
 20
7.9106903382
 30
0.0
 10
9.9891332106
 20
7.9040279785
 30
0.0
 10
9.9838701851
 20
7.8979317112
 30
0.0
 10
9.9789984628
 20
7.8906120066
 30
0.0
 10
9.9748068002
 20
7.8817981264
 30
0.0
 10
9.9718215101
 20
7.8714007017
 30
0.0
 10
9.9710884068
 20
7.8638308385
 30
0.0
 10
9.9710884068
 20
7.8598918053
 30
0.0
  0
SPLINE
  5
30F
100
AcDbEntity
  8
0
100
AcDbSpline
 62
7
  6
CONTINUOUS
 70
0
 71
3
 72
14
 73
10
 74
0
 42
0.0000001
 43
0.0000001
 44
0.0000000001
 40
0.0
 40
0.0
 40
0.0
 40
0.0
 40
0.1693897987
 40
0.3238885968
 40
0.4609550612
 40
0.5840803024
 40
0.6970832828
 40
0.8028450359
 40
1.0
 40
1.0
 40
1.0
 40
1.0
 10
9.9710884068
 20
7.8598918053
 30
0.0
 10
9.9710884068
 20
7.8558122343
 30
0.0
 10
9.9718725761
 20
7.847989067
 30
0.0
 10
9.975054767
 20
7.8372943228
 30
0.0
 10
9.9794888022
 20
7.8282985971
 30
0.0
 10
9.9846115637
 20
7.8208803448
 30
0.0
 10
9.9901248967
 20
7.8147378478
 30
0.0
 10
9.9976080745
 20
7.8080572074
 30
0.0
 10
10.003722372
 20
7.8039932398
 30
0.0
 10
10.0078670932
 20
7.801676495
 30
0.0
  0
SPLINE
  5
310
100
AcDbEntity
  8
0
100
AcDbSpline
 62
7
  6
CONTINUOUS
 70
0
 71
3
 72
34
 73
30
 74
0
 42
0.0000001
 43
0.0000001
 44
0.0000000001
 40
0.0
 40
0.0
 40
0.0
 40
0.0
 40
0.062499877
 40
0.0937567811
 40
0.1250102975
 40
0.1875117172
 40
0.218764794
 40
0.2500161258
 40
0.3125172482
 40
0.3750176883
 40
0.4375179585
 40
0.5000180977
 40
0.5625180724
 40
0.6250175282
 40
0.6875156063
 40
0.7187665863
 40
0.7500176951
 40
0.7812686698
 40
0.8125192694
 40
0.8437689343
 40
0.8750160419
 40
0.8906440578
 40
0.9062721713
 40
0.9219010897
 40
0.9375298514
 40
0.9531567707
 40
0.9687798535
 40
0.9843932174
 40
1.0
 40
1.0
 40
1.0
 40
1.0
 10
10.4965356276
 20
7.801676495
 30
0.0
 10
10.5071584285
 20
7.79870762
 30
0.0
 10
10.5233591938
 20
7.795186153
 30
0.0
 10
10.5451446891
 20
7.791705978
 30
0.0
 10
10.567032126
 20
7.7889079648
 30
0.0
 10
10.5890118813
 20
7.7869294889
 30
0.0
 10
10.6110282374
 20
7.7855240636
 30
0.0
 10
10.6330626424
 20
7.7844310973
 30
0.0
 10
10.6606265021
 20
7.7835668577
 30
0.0
 10
10.6937143435
 20
7.7830989132
 30
0.0
 10
10.7268052683
 20
7.7831026847
 30
0.0
 10
10.7598928383
 20
7.7835780846
 30
0.0
 10
10.7929680663
 20
7.7846304847
 30
0.0
 10
10.8260095584
 20
7.7864771417
 30
0.0
 10
10.8534811002
 20
7.7889642859
 30
0.0
 10
10.875362462
 20
7.7917859175
 30
0.0
 10
10.8917016743
 20
7.7944103769
 30
0.0
 10
10.9079307282
 20
7.7976543396
 30
0.0
 10
10.9239913136
 20
7.8016618536
 30
0.0
 10
10.9397859183
 20
7.8066237437
 30
0.0
 10
10.9525985473
 20
7.8117746821
 30
0.0
 10
10.9624772242
 20
7.8166951715
 30
0.0
 10
10.9696383786
 20
7.8208536603
 30
0.0
 10
10.9764586368
 20
7.8255563769
 30
0.0
 10
10.9827987382
 20
7.8308976623
 30
0.0
 10
10.9884462315
 20
7.836978606
 30
0.0
 10
10.993076849
 20
7.8438853398
 30
0.0
 10
10.9962236283
 20
7.8516030579
 30
0.0
 10
10.9969846555
 20
7.8571375453
 30
0.0
 10
10.9969846555
 20
7.8598918042
 30
0.0
  0
SPLINE
  5
311
100
AcDbEntity
  8
0
100
AcDbSpline
 62
7
  6
CONTINUOUS
 70
0
 71
3
 72
17
 73
13
 74
0
 42
0.0000001
 43
0.0000001
 44
0.0000000001
 40
0.0
 40
0.0
 40
0.0
 40
0.0
 40
0.125016076
 40
0.2500348234
 40
0.375046996
 40
0.5000499536
 40
0.625026257
 40
0.7499381301
 40
0.8124649982
 40
0.8749851225
 40
0.9374973607
 40
1.0
 40
1.0
 40
1.0
 40
1.0
 10
10.49257891
 20
7.9169688002
 30
0.0
 10
10.488755492
 20
7.9158366378
 30
0.0
 10
10.4811587894
 20
7.9133965001
 30
0.0
 10
10.4699838013
 20
7.9091071797
 30
0.0
 10
10.4591280958
 20
7.9040550895
 30
0.0
 10
10.4487528619
 20
7.8980621486
 30
0.0
 10
10.4391392147
 20
7.890898122
 30
0.0
 10
10.4321606255
 20
7.8836825016
 30
0.0
 10
10.4276915995
 20
7.8770550501
 30
0.0
 10
10.4250683477
 20
7.8716512771
 30
0.0
 10
10.4233777749
 20
7.8658826467
 30
0.0
 10
10.4229803959
 20
7.8618853922
 30
0.0
 10
10.4229803959
 20
7.8598918043
 30
0.0
  0
SPLINE
  5
312
100
AcDbEntity
  8
0
100
AcDbSpline
 62
7
  6
CONTINUOUS
 70
0
 71
3
 72
17
 73
13
 74
0
 42
0.0000001
 43
0.0000001
 44
0.0000000001
 40
0.0
 40
0.0
 40
0.0
 40
0.0
 40
0.0625002411
 40
0.1250108828
 40
0.18753165
 40
0.2500588046
 40
0.3749703568
 40
0.4999476705
 40
0.6249515855
 40
0.7499643862
 40
0.8749836318
 40
1.0
 40
1.0
 40
1.0
 40
1.0
 10
10.4229803959
 20
7.8598918043
 30
0.0
 10
10.4229803959
 20
7.8578126081
 30
0.0
 10
10.4234127624
 20
7.853642818
 30
0.0
 10
10.425247114
 20
7.8476453132
 30
0.0
 10
10.4280775599
 20
7.8420547488
 30
0.0
 10
10.4328725766
 20
7.835233828
 30
0.0
 10
10.4403082111
 20
7.8278623941
 30
0.0
 10
10.4504847733
 20
7.8205969498
 30
0.0
 10
10.4614238112
 20
7.8145558222
 30
0.0
 10
10.4728388578
 20
7.8094914371
 30
0.0
 10
10.4845677925
 20
7.8052151249
 30
0.0
 10
10.4925301974
 20
7.8027959381
 30
0.0
 10
10.4965356276
 20
7.801676495
 30
0.0
  0
SPLINE
  5
313
100
AcDbEntity
  8
0
100
AcDbSpline
 62
7
  6
CONTINUOUS
 70
0
 71
3
 72
19
 73
15
 74
0
 42
0.0000001
 43
0.0000001
 44
0.0000000001
 40
0.0
 40
0.0
 40
0.0
 40
0.0
 40
0.0666757147
 40
0.0992135489
 40
0.1313616502
 40
0.194801875
 40
0.2575104903
 40
0.3197846425
 40
0.381802435
 40
0.5054443606
 40
0.6288996075
 40
0.7523414881
 40
0.8759233891
 40
1.0
 40
1.0
 40
1.0
 40
1.0
 10
11.1986520235
 20
7.801676495
 30
0.0
 10
11.2019628362
 20
7.799825874
 30
0.0
 10
11.2070610497
 20
7.7973683252
 30
0.0
 10
11.214024254
 20
7.7946526811
 30
0.0
 10
11.2209267082
 20
7.792304661
 30
0.0
 10
11.2296196232
 20
7.7899219158
 30
0.0
 10
11.2401220836
 20
7.7877529814
 30
0.0
 10
11.2506402351
 20
7.7861374229
 30
0.0
 10
11.264658907
 20
7.7845623203
 30
0.0
 10
11.2822171886
 20
7.783445159
 30
0.0
 10
11.3032949455
 20
7.7830018945
 30
0.0
 10
11.324373045
 20
7.7832951826
 30
0.0
 10
11.3454585663
 20
7.7844348097
 30
0.0
 10
11.3594737432
 20
7.7860207885
 30
0.0
 10
11.3664434043
 20
7.7871355044
 30
0.0
  0
SPLINE
  5
314
100
AcDbEntity
  8
0
100
AcDbSpline
 62
7
  6
CONTINUOUS
 70
0
 71
3
 72
18
 73
14
 74
0
 42
0.0000001
 43
0.0000001
 44
0.0000000001
 40
0.0
 40
0.0
 40
0.0
 40
0.0
 40
0.1012080626
 40
0.2036042183
 40
0.3081266088
 40
0.4164471547
 40
0.5316283876
 40
0.5935248926
 40
0.6597072646
 40
0.7318102679
 40
0.8119361746
 40
0.9018774046
 40
1.0
 40
1.0
 40
1.0
 40
1.0
 10
11.3664434043
 20
7.7871355044
 30
0.0
 10
11.3704542227
 20
7.7877769879
 30
0.0
 10
11.3784912168
 20
7.7892834318
 30
0.0
 10
11.3904712037
 20
7.7923976672
 30
0.0
 10
11.4024034203
 20
7.7966683232
 30
0.0
 10
11.414236418
 20
7.8025171025
 30
0.0
 10
11.4236837377
 20
7.8091010141
 30
0.0
 10
11.4308409153
 20
7.8157631952
 30
0.0
 10
11.4361021401
 20
7.821859156
 30
0.0
 10
11.4409720956
 20
7.8291781695
 30
0.0
 10
11.4451617277
 20
7.8379906286
 30
0.0
 10
11.448147169
 20
7.8483855746
 30
0.0
 10
11.4488760095
 20
7.8559538401
 30
0.0
 10
11.4488760095
 20
7.8598918041
 30
0.0
  0
SPLINE
  5
315
100
AcDbEntity
  8
0
100
AcDbSpline
 62
7
  6
CONTINUOUS
 70
0
 71
3
 72
24
 73
20
 74
0
 42
0.0000001
 43
0.0000001
 44
0.0000000001
 40
0.0
 40
0.0
 40
0.0
 40
0.0
 40
0.0545030032
 40
0.1044646573
 40
0.1489756897
 40
0.1890310262
 40
0.2257971682
 40
0.2601820145
 40
0.3241656596
 40
0.3843359218
 40
0.4423943669
 40
0.4992702579
 40
0.5554851265
 40
0.6113349772
 40
0.6669874291
 40
0.7225363841
 40
0.7780340025
 40
0.8889788286
 40
1.0
 40
1.0
 40
1.0
 40
1.0
 10
11.4488760095
 20
7.8598918041
 30
0.0
 10
11.4488760095
 20
7.863827835
 30
0.0
 10
11.4481478286
 20
7.871392581
 30
0.0
 10
11.445165142
 20
7.8817833093
 30
0.0
 10
11.4409789722
 20
7.8905930957
 30
0.0
 10
11.4361126276
 20
7.8979105466
 30
0.0
 10
11.4308550316
 20
7.9040057039
 30
0.0
 10
11.4237027121
 20
7.9106675301
 30
0.0
 10
11.4142612288
 20
7.917251404
 30
0.0
 10
11.4024355262
 20
7.9231017557
 30
0.0
 10
11.3905103307
 20
7.9273739221
 30
0.0
 10
11.3785369464
 20
7.9304899765
 30
0.0
 10
11.3665387557
 20
7.9327420821
 30
0.0
 10
11.3545283226
 20
7.9343404118
 30
0.0
 10
11.3425120273
 20
7.9354397926
 30
0.0
 10
11.3304930846
 20
7.9361529746
 30
0.0
 10
11.3144693099
 20
7.9366923836
 30
0.0
 10
11.2944267117
 20
7.9367248028
 30
0.0
 10
11.2784017916
 20
7.9360896948
 30
0.0
 10
11.2704036125
 20
7.9355321212
 30
0.0
  0
SPLINE
  5
316
100
AcDbEntity
  8
0
100
AcDbSpline
 62
7
  6
CONTINUOUS
 70
0
 71
3
 72
19
 73
15
 74
0
 42
0.0000001
 43
0.0000001
 44
0.0000000001
 40
0.0
 40
0.0
 40
0.0
 40
0.0
 40
0.1046120939
 40
0.2097308994
 40
0.3159492178
 40
0.4244874425
 40
0.5378808533
 40
0.5979974707
 40
0.6618242274
 40
0.731207801
 40
0.8089469121
 40
0.8521281781
 40
0.8986578321
 40
1.0
 40
1.0
 40
1.0
 40
1.0
 10
11.2704036125
 20
7.9355321212
 30
0.0
 10
11.2653026151
 20
7.9351765175
 30
0.0
 10
11.2550877141
 20
7.9342648636
 30
0.0
 10
11.2397910965
 20
7.9320726435
 30
0.0
 10
11.2245016412
 20
7.9287063608
 30
0.0
 10
11.2092431504
 20
7.9236474784
 30
0.0
 10
11.1968484774
 20
7.9174430917
 30
0.0
 10
11.1873248827
 20
7.9107829631
 30
0.0
 10
11.1802448322
 20
7.904485779
 30
0.0
 10
11.1735300685
 20
7.8966124408
 30
0.0
 10
11.1687001487
 20
7.8886002069
 30
0.0
 10
11.1654940271
 20
7.8810549233
 30
0.0
 10
11.1627602043
 20
7.8721126758
 30
0.0
 10
11.1618734358
 20
7.8648453494
 30
0.0
 10
11.1618734358
 20
7.8598918042
 30
0.0
  0
SPLINE
  5
317
100
AcDbEntity
  8
0
100
AcDbSpline
 62
7
  6
CONTINUOUS
 70
0
 71
3
 72
14
 73
10
 74
0
 42
0.0000001
 43
0.0000001
 44
0.0000000001
 40
0.0
 40
0.0
 40
0.0
 40
0.0
 40
0.1693900125
 40
0.3238887486
 40
0.4609551493
 40
0.5840803605
 40
0.6970833176
 40
0.8028450556
 40
1.0
 40
1.0
 40
1.0
 40
1.0
 10
11.1618734358
 20
7.8598918042
 30
0.0
 10
11.1618734358
 20
7.8558122287
 30
0.0
 10
11.162657469
 20
7.8479890451
 30
0.0
 10
11.1658397119
 20
7.8372943059
 30
0.0
 10
11.1702737376
 20
7.8282985858
 30
0.0
 10
11.1753965001
 20
7.820880338
 30
0.0
 10
11.1809098312
 20
7.8147378436
 30
0.0
 10
11.1883930074
 20
7.8080572057
 30
0.0
 10
11.1945073032
 20
7.8039932392
 30
0.0
 10
11.1986520235
 20
7.801676495
 30
0.0
  0
SPLINE
  5
318
100
AcDbEntity
  8
0
100
AcDbSpline
 62
7
  6
CONTINUOUS
 70
0
 71
3
 72
9
 73
5
 74
0
 42
0.0000001
 43
0.0000001
 44
0.0000000001
 40
0.0
 40
0.0
 40
0.0
 40
0.0
 40
0.5103415164
 40
1.0
 40
1.0
 40
1.0
 40
1.0
 10
11.2501990097
 20
8.8330874445
 30
0.0
 10
11.2484953805
 20
8.8304093179
 30
0.0
 10
11.2447185192
 20
8.8254280792
 30
0.0
 10
11.2402083372
 20
8.821107119
 30
0.0
 10
11.2378580305
 20
8.8191704445
 30
0.0
  0
SPLINE
  5
319
100
AcDbEntity
  8
0
100
AcDbSpline
 62
7
  6
CONTINUOUS
 70
0
 71
3
 72
9
 73
5
 74
0
 42
0.0000001
 43
0.0000001
 44
0.0000000001
 40
0.0
 40
0.0
 40
0.0
 40
0.0
 40
0.5084335545
 40
1.0
 40
1.0
 40
1.0
 40
1.0
 10
11.2537449485
 20
8.8560635285
 30
0.0
 10
11.2531290083
 20
8.8518970087
 30
0.0
 10
11.2509378861
 20
8.843817794
 30
0.0
 10
11.2469899111
 20
8.8364528895
 30
0.0
 10
11.244697405
 20
8.8330874445
 30
0.0
  0
SPLINE
  5
31A
100
AcDbEntity
  8
0
100
AcDbSpline
 62
7
  6
CONTINUOUS
 70
0
 71
3
 72
9
 73
5
 74
0
 42
0.0000001
 43
0.0000001
 44
0.0000000001
 40
0.0
 40
0.0
 40
0.0
 40
0.0
 40
0.5076577627
 40
1.0
 40
1.0
 40
1.0
 40
1.0
 10
11.244697405
 20
8.8330874445
 30
0.0
 10
11.2428632977
 20
8.830394938
 30
0.0
 10
11.2387923059
 20
8.8253902459
 30
0.0
 10
11.2339862247
 20
8.8210972825
 30
0.0
 10
11.2314822086
 20
8.8191704445
 30
0.0
  0
SPLINE
  5
31B
100
AcDbEntity
  8
0
100
AcDbSpline
 62
7
  6
CONTINUOUS
 70
0
 71
3
 72
9
 73
5
 74
0
 42
0.0000001
 43
0.0000001
 44
0.0000000001
 40
0.0
 40
0.0
 40
0.0
 40
0.0
 40
0.5061806922
 40
1.0
 40
1.0
 40
1.0
 40
1.0
 10
11.24446357
 20
8.8560635285
 30
0.0
 10
11.243810029
 20
8.8518854091
 30
0.0
 10
11.2414717605
 20
8.843763412
 30
0.0
 10
11.2373026864
 20
8.8364343332
 30
0.0
 10
11.2348903592
 20
8.8330874445
 30
0.0
  0
SPLINE
  5
31C
100
AcDbEntity
  8
0
100
AcDbSpline
 62
7
  6
CONTINUOUS
 70
0
 71
3
 72
9
 73
5
 74
0
 42
0.0000001
 43
0.0000001
 44
0.0000000001
 40
0.0
 40
0.0
 40
0.0
 40
0.0
 40
0.5054283454
 40
1.0
 40
1.0
 40
1.0
 40
1.0
 10
11.2348903592
 20
8.8330874445
 30
0.0
 10
11.2329407779
 20
8.8303825744
 30
0.0
 10
11.2286101506
 20
8.8253589122
 30
0.0
 10
11.2235459889
 20
8.8210893814
 30
0.0
 10
11.2209073526
 20
8.8191704445
 30
0.0
  0
SPLINE
  5
31D
100
AcDbEntity
  8
0
100
AcDbSpline
 62
7
  6
CONTINUOUS
 70
0
 71
3
 72
11
 73
7
 74
0
 42
0.0000001
 43
0.0000001
 44
0.0000000001
 40
0.0
 40
0.0
 40
0.0
 40
0.0
 40
0.2962091314
 40
0.5688488833
 40
0.8044181346
 40
1.0
 40
1.0
 40
1.0
 40
1.0
 10
10.4668826492
 20
8.863891804
 30
0.0
 10
10.4668826492
 20
8.8593772207
 30
0.0
 10
10.4665021722
 20
8.8507020089
 30
0.0
 10
10.4648583387
 20
8.8385341565
 30
0.0
 10
10.4623740982
 20
8.8280806793
 30
0.0
 10
10.4601221229
 20
8.8218837838
 30
0.0
 10
10.4588877925
 20
8.8191704445
 30
0.0
  0
SPLINE
  5
31E
100
AcDbEntity
  8
0
100
AcDbSpline
 62
7
  6
CONTINUOUS
 70
0
 71
3
 72
13
 73
9
 74
0
 42
0.0000001
 43
0.0000001
 44
0.0000000001
 40
0.0
 40
0.0
 40
0.0
 40
0.0
 40
0.1267041293
 40
0.2531847915
 40
0.379207582
 40
0.504683
 40
0.7533802843
 40
1.0
 40
1.0
 40
1.0
 40
1.0
 10
10.4322749901
 20
8.863891804
 30
0.0
 10
10.4322749901
 20
8.8661801731
 30
0.0
 10
10.4326195167
 20
8.8707601744
 30
0.0
 10
10.4341412301
 20
8.8774613957
 30
0.0
 10
10.4365928478
 20
8.8838569272
 30
0.0
 10
10.4409383368
 20
8.8918032401
 30
0.0
 10
10.4481220018
 20
8.9005522104
 30
0.0
 10
10.4551709784
 20
8.9061586605
 30
0.0
 10
10.4588877925
 20
8.9086131636
 30
0.0
  0
SPLINE
  5
31F
100
AcDbEntity
  8
0
100
AcDbSpline
 62
7
  6
CONTINUOUS
 70
0
 71
3
 72
11
 73
7
 74
0
 42
0.0000001
 43
0.0000001
 44
0.0000000001
 40
0.0
 40
0.0
 40
0.0
 40
0.0
 40
0.2530598201
 40
0.5043166133
 40
0.7533731164
 40
1.0
 40
1.0
 40
1.0
 40
1.0
 10
11.2308786333
 20
8.8560635285
 30
0.0
 10
11.230533779
 20
8.8539575415
 30
0.0
 10
11.2295687994
 20
8.8498009973
 30
0.0
 10
11.2273502688
 20
8.8438309434
 30
0.0
 10
11.2244493089
 20
8.8382236293
 30
0.0
 10
11.2221095291
 20
8.834747648
 30
0.0
 10
11.2208568373
 20
8.8330874445
 30
0.0
  0
SPLINE
  5
320
100
AcDbEntity
  8
0
100
AcDbSpline
 62
7
  6
CONTINUOUS
 70
0
 71
3
 72
9
 73
5
 74
0
 42
0.0000001
 43
0.0000001
 44
0.0000000001
 40
0.0
 40
0.0
 40
0.0
 40
0.0
 40
0.5036209727
 40
1.0
 40
1.0
 40
1.0
 40
1.0
 10
11.2208568373
 20
8.8330874445
 30
0.0
 10
11.2188081193
 20
8.8303722601
 30
0.0
 10
11.2142551571
 20
8.8253335875
 30
0.0
 10
11.2089719159
 20
8.8210831484
 30
0.0
 10
11.2062186096
 20
8.8191704445
 30
0.0
  0
SPLINE
  5
321
100
AcDbEntity
  8
0
100
AcDbSpline
 62
7
  6
CONTINUOUS
 70
0
 71
3
 72
11
 73
7
 74
0
 42
0.0000001
 43
0.0000001
 44
0.0000000001
 40
0.0
 40
0.0
 40
0.0
 40
0.0
 40
0.2993865056
 40
0.5737599813
 40
0.8085266716
 40
1.0
 40
1.0
 40
1.0
 40
1.0
 10
10.423635873
 20
8.863891804
 30
0.0
 10
10.423635873
 20
8.8593795588
 30
0.0
 10
10.4233716822
 20
8.8507295204
 30
0.0
 10
10.4222302563
 20
8.838588246
 30
0.0
 10
10.420506351
 20
8.8281616748
 30
0.0
 10
10.4189317031
 20
8.8219210841
 30
0.0
 10
10.4180588224
 20
8.8191704445
 30
0.0
  0
SPLINE
  5
322
100
AcDbEntity
  8
0
100
AcDbSpline
 62
7
  6
CONTINUOUS
 70
0
 71
3
 72
11
 73
7
 74
0
 42
0.0000001
 43
0.0000001
 44
0.0000000001
 40
0.0
 40
0.0
 40
0.0
 40
0.0
 40
0.2519251979
 40
0.5027056187
 40
0.7521138938
 40
1.0
 40
1.0
 40
1.0
 40
1.0
 10
11.2130995224
 20
8.8560635285
 30
0.0
 10
11.2127416784
 20
8.8539555956
 30
0.0
 10
11.2117391733
 20
8.849792912
 30
0.0
 10
11.209437236
 20
8.8438212825
 30
0.0
 10
11.2064280413
 20
8.8382136273
 30
0.0
 10
11.2040060522
 20
8.8347445032
 30
0.0
 10
11.2027098353
 20
8.8330874445
 30
0.0
  0
SPLINE
  5
323
100
AcDbEntity
  8
0
100
AcDbSpline
 62
7
  6
CONTINUOUS
 70
0
 71
3
 72
9
 73
5
 74
0
 42
0.0000001
 43
0.0000001
 44
0.0000000001
 40
0.0
 40
0.0
 40
0.0
 40
0.0
 40
0.5022035941
 40
1.0
 40
1.0
 40
1.0
 40
1.0
 10
11.2027098353
 20
8.8330874445
 30
0.0
 10
11.2005794353
 20
8.8303639822
 30
0.0
 10
11.1958437036
 20
8.8253137832
 30
0.0
 10
11.1903814903
 20
8.8210783648
 30
0.0
 10
11.1875342514
 20
8.8191704445
 30
0.0
  0
SPLINE
  5
324
100
AcDbEntity
  8
0
100
AcDbSpline
 62
7
  6
CONTINUOUS
 70
0
 71
3
 72
13
 73
9
 74
0
 42
0.0000001
 43
0.0000001
 44
0.0000000001
 40
0.0
 40
0.0
 40
0.0
 40
0.0
 40
0.1258504914
 40
0.2516043046
 40
0.3771302341
 40
0.5024036749
 40
0.7516539454
 40
1.0
 40
1.0
 40
1.0
 40
1.0
 10
10.390836488
 20
8.863891804
 30
0.0
 10
10.390836488
 20
8.8661804691
 30
0.0
 10
10.3911893256
 20
8.8707636666
 30
0.0
 10
10.3927472792
 20
8.8774674203
 30
0.0
 10
10.3952566607
 20
8.8838642469
 30
0.0
 10
10.3997091546
 20
8.8918206621
 30
0.0
 10
10.4070706078
 20
8.9005748024
 30
0.0
 10
10.4142645191
 20
8.9061635926
 30
0.0
 10
10.4180588224
 20
8.9086131636
 30
0.0
  0
SPLINE
  5
325
100
AcDbEntity
  8
0
100
AcDbSpline
 62
7
  6
CONTINUOUS
 70
0
 71
3
 72
11
 73
7
 74
0
 42
0.0000001
 43
0.0000001
 44
0.0000000001
 40
0.0
 40
0.0
 40
0.0
 40
0.0
 40
0.2510397128
 40
0.501450523
 40
0.7511348126
 40
1.0
 40
1.0
 40
1.0
 40
1.0
 10
11.191269392
 20
8.8560635285
 30
0.0
 10
11.190901489
 20
8.8539540508
 30
0.0
 10
11.1898698526
 20
8.8497865323
 30
0.0
 10
11.1875033839
 20
8.8438137447
 30
0.0
 10
11.1844105297
 20
8.8382059224
 30
0.0
 10
11.1819252236
 20
8.8347421084
 30
0.0
 10
11.1805954701
 20
8.8330874445
 30
0.0
  0
SPLINE
  5
326
100
AcDbEntity
  8
0
100
AcDbSpline
 62
7
  6
CONTINUOUS
 70
0
 71
3
 72
9
 73
5
 74
0
 42
0.0000001
 43
0.0000001
 44
0.0000000001
 40
0.0
 40
0.0
 40
0.0
 40
0.0
 40
0.5011479885
 40
1.0
 40
1.0
 40
1.0
 40
1.0
 10
11.1805954701
 20
8.8330874445
 30
0.0
 10
11.1784017441
 20
8.8303577059
 30
0.0
 10
11.1735245839
 20
8.8252990691
 30
0.0
 10
11.1679244806
 20
8.8210748602
 30
0.0
 10
11.1650047217
 20
8.8191704445
 30
0.0
  0
SPLINE
  5
327
100
AcDbEntity
  8
0
100
AcDbSpline
 62
7
  6
CONTINUOUS
 70
0
 71
3
 72
11
 73
7
 74
0
 42
0.0000001
 43
0.0000001
 44
0.0000000001
 40
0.0
 40
0.0
 40
0.0
 40
0.0
 40
0.3015421005
 40
0.5771045592
 40
0.8113444872
 40
1.0
 40
1.0
 40
1.0
 40
1.0
 10
10.3826947275
 20
8.863891804
 30
0.0
 10
10.3826947275
 20
8.8593810845
 30
0.0
 10
10.3825476302
 20
8.8507474895
 30
0.0
 10
10.3819122478
 20
8.8386245071
 30
0.0
 10
10.3809530503
 20
8.8282178065
 30
0.0
 10
10.3800728086
 20
8.8219492188
 30
0.0
 10
10.3795803885
 20
8.8191704445
 30
0.0
  0
SPLINE
  5
328
100
AcDbEntity
  8
0
100
AcDbSpline
 62
7
  6
CONTINUOUS
 70
0
 71
3
 72
11
 73
7
 74
0
 42
0.0000001
 43
0.0000001
 44
0.0000000001
 40
0.0
 40
0.0
 40
0.0
 40
0.0
 40
0.2504178763
 40
0.5005702598
 40
0.7504491519
 40
1.0
 40
1.0
 40
1.0
 40
1.0
 10
11.1655640531
 20
8.8560637403
 30
0.0
 10
11.1651891176
 20
8.8539530913
 30
0.0
 10
11.1641370599
 20
8.8497820108
 30
0.0
 10
11.1617254316
 20
8.8438082517
 30
0.0
 10
11.1585740563
 20
8.8382001938
 30
0.0
 10
11.1560445602
 20
8.8347399944
 30
0.0
 10
11.1546913917
 20
8.8330869412
 30
0.0
  0
SPLINE
  5
329
100
AcDbEntity
  8
0
100
AcDbSpline
 62
7
  6
CONTINUOUS
 70
0
 71
3
 72
9
 73
5
 74
0
 42
0.0000001
 43
0.0000001
 44
0.0000000001
 40
0.0
 40
0.0
 40
0.0
 40
0.0
 40
0.5004316085
 40
1.0
 40
1.0
 40
1.0
 40
1.0
 10
11.1546913917
 20
8.8330869412
 30
0.0
 10
11.1524534193
 20
8.8303529969
 30
0.0
 10
11.1474776136
 20
8.8252889026
 30
0.0
 10
11.1417816632
 20
8.8210724515
 30
0.0
 10
11.1388114253
 20
8.8191704445
 30
0.0
  0
SPLINE
  5
32A
100
AcDbEntity
  8
0
100
AcDbSpline
 62
7
  6
CONTINUOUS
 70
0
 71
3
 72
33
 73
29
 74
0
 42
0.0000001
 43
0.0000001
 44
0.0000000001
 40
0.0
 40
0.0
 40
0.0
 40
0.0
 40
0.0624986606
 40
0.0937550824
 40
0.1250085868
 40
0.1875102668
 40
0.250012788
 40
0.3125142676
 40
0.3750150028
 40
0.437515421
 40
0.5000157292
 40
0.5625158853
 40
0.6250155425
 40
0.6875139106
 40
0.7187649374
 40
0.7500161571
 40
0.7812672722
 40
0.8125180189
 40
0.8437678359
 40
0.8750150965
 40
0.8906432714
 40
0.9062714317
 40
0.9219004642
 40
0.9375294349
 40
0.9531565746
 40
0.9687798864
 40
0.9843933122
 40
1.0
 40
1.0
 40
1.0
 40
1.0
 10
10.49257891
 20
7.9169688002
 30
0.0
 10
10.5032368118
 20
7.9201247397
 30
0.0
 10
10.5195268801
 20
7.9238568303
 30
0.0
 10
10.5414524837
 20
7.9275390035
 30
0.0
 10
10.5634922955
 20
7.93049734
 30
0.0
 10
10.5911693732
 20
7.9331080987
 30
0.0
 10
10.6244651049
 20
7.9350467349
 30
0.0
 10
10.6577967323
 20
7.9361551924
 30
0.0
 10
10.691141327
 20
7.9366665854
 30
0.0
 10
10.7244893931
 20
7.9366971097
 30
0.0
 10
10.7578345518
 20
7.9362516857
 30
0.0
 10
10.7911679915
 20
7.9352303486
 30
0.0
 10
10.8244688471
 20
7.933417512
 30
0.0
 10
10.8521581911
 20
7.9309607081
 30
0.0
 10
10.8742153857
 20
7.9281625455
 30
0.0
 10
10.8906874856
 20
7.925554981
 30
0.0
 10
10.9070506503
 20
7.9223261648
 30
0.0
 10
10.9232467839
 20
7.918330944
 30
0.0
 10
10.9391786152
 20
7.9133769967
 30
0.0
 10
10.95210714
 20
7.9082270884
 30
0.0
 10
10.9620794852
 20
7.9033024238
 30
0.0
 10
10.9693111078
 20
7.8991372303
 30
0.0
 10
10.9762019104
 20
7.8944235008
 30
0.0
 10
10.9826118562
 20
7.8890651459
 30
0.0
 10
10.9883267563
 20
7.8829587045
 30
0.0
 10
10.9930183772
 20
7.8760147786
 30
0.0
 10
10.9962115045
 20
7.8682452468
 30
0.0
 10
10.9969846555
 20
7.8626674424
 30
0.0
 10
10.9969846555
 20
7.8598918042
 30
0.0
  0
SPLINE
  5
32B
100
AcDbEntity
  8
0
100
AcDbSpline
 62
7
  6
CONTINUOUS
 70
0
 71
3
 72
13
 73
9
 74
0
 42
0.0000001
 43
0.0000001
 44
0.0000000001
 40
0.0
 40
0.0
 40
0.0
 40
0.0
 40
0.1253047829
 40
0.2505945718
 40
0.375804305
 40
0.5009504469
 40
0.7505560249
 40
1.0
 40
1.0
 40
1.0
 40
1.0
 10
10.3519677125
 20
8.863891804
 30
0.0
 10
10.3519677125
 20
8.8661806622
 30
0.0
 10
10.3523258876
 20
8.8707659423
 30
0.0
 10
10.3539070929
 20
8.8774713265
 30
0.0
 10
10.3564535008
 20
8.883868959
 30
0.0
 10
10.3609746667
 20
8.8918317741
 30
0.0
 10
10.3684500075
 20
8.9005889624
 30
0.0
 10
10.3757364854
 20
8.9061666519
 30
0.0
 10
10.3795803885
 20
8.9086131636
 30
0.0
  0
SPLINE
  5
32C
100
AcDbEntity
  8
0
100
AcDbSpline
 62
7
  6
CONTINUOUS
 70
0
 71
3
 72
9
 73
5
 74
0
 42
0.0000001
 43
0.0000001
 44
0.0000000001
 40
0.0
 40
0.0
 40
0.0
 40
0.0
 40
0.5103329989
 40
1.0
 40
1.0
 40
1.0
 40
1.0
 10
10.1697777037
 20
8.8946961651
 30
0.0
 10
10.1714817338
 20
8.8973743361
 30
0.0
 10
10.1752594997
 20
8.9023556497
 30
0.0
 10
10.1797705981
 20
8.906676521
 30
0.0
 10
10.1821213798
 20
8.9086131636
 30
0.0
  0
SPLINE
  5
32D
100
AcDbEntity
  8
0
100
AcDbSpline
 62
7
  6
CONTINUOUS
 70
0
 71
3
 72
13
 73
9
 74
0
 42
0.0000001
 43
0.0000001
 44
0.0000000001
 40
0.0
 40
0.0
 40
0.0
 40
0.0
 40
0.1251442776
 40
0.2502548134
 40
0.375361462
 40
0.500436758
 40
0.7502237003
 40
1.0
 40
1.0
 40
1.0
 40
1.0
 10
11.1361903687
 20
8.8560635285
 30
0.0
 10
11.1358438394
 20
8.8541325114
 30
0.0
 10
11.1348951842
 20
8.8503123155
 30
0.0
 10
11.1327629161
 20
8.8448127335
 30
0.0
 10
11.1299910254
 20
8.8396077794
 30
0.0
 10
11.1255503601
 20
8.8331325981
 30
0.0
 10
11.118788083
 20
8.8259607823
 30
0.0
 10
11.112472478
 20
8.8212668791
 30
0.0
 10
11.1091652668
 20
8.8191704445
 30
0.0
  0
SPLINE
  5
32E
100
AcDbEntity
  8
0
100
AcDbSpline
 62
7
  6
CONTINUOUS
 70
0
 71
3
 72
9
 73
5
 74
0
 42
0.0000001
 43
0.0000001
 44
0.0000000001
 40
0.0
 40
0.0
 40
0.0
 40
0.0
 40
0.5084265968
 40
1.0
 40
1.0
 40
1.0
 40
1.0
 10
10.1662427662
 20
8.8717201123
 30
0.0
 10
10.1668588249
 20
8.8758866619
 30
0.0
 10
10.1690504034
 20
8.8839659973
 30
0.0
 10
10.1729990676
 20
8.8913307827
 30
0.0
 10
10.1752919471
 20
8.8946961651
 30
0.0
  0
SPLINE
  5
32F
100
AcDbEntity
  8
0
100
AcDbSpline
 62
7
  6
CONTINUOUS
 70
0
 71
3
 72
9
 73
5
 74
0
 42
0.0000001
 43
0.0000001
 44
0.0000000001
 40
0.0
 40
0.0
 40
0.0
 40
0.0
 40
0.5076506136
 40
1.0
 40
1.0
 40
1.0
 40
1.0
 10
10.1752919471
 20
8.8946961651
 30
0.0
 10
10.1771264137
 20
8.8973887103
 30
0.0
 10
10.181198214
 20
8.9023934634
 30
0.0
 10
10.1860051032
 20
8.9066863515
 30
0.0
 10
10.1885095398
 20
8.9086131636
 30
0.0
  0
SPLINE
  5
330
100
AcDbEntity
  8
0
100
AcDbSpline
 62
7
  6
CONTINUOUS
 70
0
 71
3
 72
10
 73
6
 74
0
 42
0.0000001
 43
0.0000001
 44
0.0000000001
 40
0.0
 40
0.0
 40
0.0
 40
0.0
 40
0.5785942488
 40
0.8126054687
 40
1.0
 40
1.0
 40
1.0
 40
1.0
 10
10.3443888649
 20
8.863891804
 30
0.0
 10
10.3443888649
 20
8.8552654481
 30
0.0
 10
10.3443145877
 20
8.8431497861
 30
0.0
 10
10.3440390843
 20
8.8282430487
 30
0.0
 10
10.3438618561
 20
8.8219625663
 30
0.0
 10
10.3437623138
 20
8.8191704445
 30
0.0
  0
SPLINE
  5
331
100
AcDbEntity
  8
0
100
AcDbSpline
 62
7
  6
CONTINUOUS
 70
0
 71
3
 72
9
 73
5
 74
0
 42
0.0000001
 43
0.0000001
 44
0.0000000001
 40
0.0
 40
0.0
 40
0.0
 40
0.0
 40
0.5061745274
 40
1.0
 40
1.0
 40
1.0
 40
1.0
 10
10.1755368223
 20
8.8717201123
 30
0.0
 10
10.1761904671
 20
8.8758982583
 30
0.0
 10
10.1785291389
 20
8.8840203608
 30
0.0
 10
10.1826988046
 20
8.8913493305
 30
0.0
 10
10.1851114514
 20
8.8946961651
 30
0.0
  0
SPLINE
  5
332
100
AcDbEntity
  8
0
100
AcDbSpline
 62
7
  6
CONTINUOUS
 70
0
 71
3
 72
9
 73
5
 74
0
 42
0.0000001
 43
0.0000001
 44
0.0000000001
 40
0.0
 40
0.0
 40
0.0
 40
0.0
 40
0.5054224755
 40
1.0
 40
1.0
 40
1.0
 40
1.0
 10
10.1851114514
 20
8.8946961651
 30
0.0
 10
10.1870613461
 20
8.897401068
 30
0.0
 10
10.191392677
 20
8.9024247789
 30
0.0
 10
10.1964575345
 20
8.9066942474
 30
0.0
 10
10.1990965345
 20
8.9086131636
 30
0.0
  0
SPLINE
  5
333
100
AcDbEntity
  8
0
100
AcDbSpline
 62
7
  6
CONTINUOUS
 70
0
 71
3
 72
13
 73
9
 74
0
 42
0.0000001
 43
0.0000001
 44
0.0000000001
 40
0.0
 40
0.0
 40
0.0
 40
0.0
 40
0.1250701695
 40
0.2501606157
 40
0.3752347535
 40
0.5003266021
 40
0.7500853576
 40
1.0
 40
1.0
 40
1.0
 40
1.0
 10
10.3159816296
 20
8.863891804
 30
0.0
 10
10.3159816296
 20
8.8661807461
 30
0.0
 10
10.3163421057
 20
8.8707669313
 30
0.0
 10
10.3179333294
 20
8.8774730191
 30
0.0
 10
10.3204956822
 20
8.8838709927
 30
0.0
 10
10.3250464397
 20
8.8918365449
 30
0.0
 10
10.332570805
 20
8.9005949832
 30
0.0
 10
10.3398970674
 20
8.9061679455
 30
0.0
 10
10.3437623138
 20
8.9086131636
 30
0.0
  0
SPLINE
  5
334
100
AcDbEntity
  8
0
100
AcDbSpline
 62
7
  6
CONTINUOUS
 70
0
 71
3
 72
11
 73
7
 74
0
 42
0.0000001
 43
0.0000001
 44
0.0000000001
 40
0.0
 40
0.0
 40
0.0
 40
0.0
 40
0.2530561674
 40
0.5043114194
 40
0.7533690496
 40
1.0
 40
1.0
 40
1.0
 40
1.0
 10
10.1891341676
 20
8.8717201123
 30
0.0
 10
10.1894790648
 20
8.8738261027
 30
0.0
 10
10.1904441671
 20
8.8779826608
 30
0.0
 10
10.1926629675
 20
8.8839527115
 30
0.0
 10
10.1955642757
 20
8.8895600193
 30
0.0
 10
10.1979043198
 20
8.893035974
 30
0.0
 10
10.1991571513
 20
8.8946961651
 30
0.0
  0
SPLINE
  5
335
100
AcDbEntity
  8
0
100
AcDbSpline
 62
7
  6
CONTINUOUS
 70
0
 71
3
 72
9
 73
5
 74
0
 42
0.0000001
 43
0.0000001
 44
0.0000000001
 40
0.0
 40
0.0
 40
0.0
 40
0.0
 40
0.5036162859
 40
1.0
 40
1.0
 40
1.0
 40
1.0
 10
10.1991571513
 20
8.8946961651
 30
0.0
 10
10.2012061334
 20
8.8974113763
 30
0.0
 10
10.2057596868
 20
8.9024500868
 30
0.0
 10
10.2110435084
 20
8.9067004758
 30
0.0
 10
10.2137971189
 20
8.9086131636
 30
0.0
  0
SPLINE
  5
336
100
AcDbEntity
  8
0
100
AcDbSpline
 62
7
  6
CONTINUOUS
 70
0
 71
3
 72
13
 73
9
 74
0
 42
0.0000001
 43
0.0000001
 44
0.0000000001
 40
0.0
 40
0.0
 40
0.0
 40
0.0
 40
0.1250699406
 40
0.2501601926
 40
0.3752341996
 40
0.5003259971
 40
0.7500849013
 40
1.0
 40
1.0
 40
1.0
 40
1.0
 10
11.1040858008
 20
8.863891804
 30
0.0
 10
11.1040858008
 20
8.8616028619
 30
0.0
 10
11.1037253217
 20
8.8570166759
 30
0.0
 10
11.1021340884
 20
8.8503105875
 30
0.0
 10
11.0995717202
 20
8.8439126135
 30
0.0
 10
11.0950209339
 20
8.8359470587
 30
0.0
 10
11.087496521
 20
8.827188619
 30
0.0
 10
11.08017022
 20
8.8216156614
 30
0.0
 10
11.0763049528
 20
8.8191704445
 30
0.0
  0
SPLINE
  5
337
100
AcDbEntity
  8
0
100
AcDbSpline
 62
7
  6
CONTINUOUS
 70
0
 71
3
 72
10
 73
6
 74
0
 42
0.0000001
 43
0.0000001
 44
0.0000000001
 40
0.0
 40
0.0
 40
0.0
 40
0.0
 40
0.5785957503
 40
0.8126067252
 40
1.0
 40
1.0
 40
1.0
 40
1.0
 10
11.0756856748
 20
8.863891804
 30
0.0
 10
11.0756856748
 20
8.8725181551
 30
0.0
 10
11.0757590893
 20
8.8846337884
 30
0.0
 10
11.0760313946
 20
8.8995405347
 30
0.0
 10
11.0762065656
 20
8.9058210285
 30
0.0
 10
11.0763049528
 20
8.9086131636
 30
0.0
  0
SPLINE
  5
338
100
AcDbEntity
  8
0
100
AcDbSpline
 62
7
  6
CONTINUOUS
 70
0
 71
3
 72
11
 73
7
 74
0
 42
0.0000001
 43
0.0000001
 44
0.0000000001
 40
0.0
 40
0.0
 40
0.0
 40
0.0
 40
0.2519222458
 40
0.502701429
 40
0.7521106204
 40
1.0
 40
1.0
 40
1.0
 40
1.0
 10
10.2069253182
 20
8.8717201122
 30
0.0
 10
10.2072831967
 20
8.8738280474
 30
0.0
 10
10.2082858006
 20
8.8779907412
 30
0.0
 10
10.2105879536
 20
8.8839623664
 30
0.0
 10
10.2135974261
 20
8.8895700146
 30
0.0
 10
10.2160196249
 20
8.8930391165
 30
0.0
 10
10.2173159528
 20
8.8946961651
 30
0.0
  0
SPLINE
  5
339
100
AcDbEntity
  8
0
100
AcDbSpline
 62
7
  6
CONTINUOUS
 70
0
 71
3
 72
9
 73
5
 74
0
 42
0.0000001
 43
0.0000001
 44
0.0000000001
 40
0.0
 40
0.0
 40
0.0
 40
0.0
 40
0.5022000012
 40
1.0
 40
1.0
 40
1.0
 40
1.0
 10
10.2173159528
 20
8.8946961651
 30
0.0
 10
10.2194465644
 20
8.8974196482
 30
0.0
 10
10.2241827691
 20
8.9024698756
 30
0.0
 10
10.2296454444
 20
8.9067052555
 30
0.0
 10
10.232492926
 20
8.9086131636
 30
0.0
  0
SPLINE
  5
33A
100
AcDbEntity
  8
0
100
AcDbSpline
 62
7
  6
CONTINUOUS
 70
0
 71
3
 72
13
 73
9
 74
0
 42
0.0000001
 43
0.0000001
 44
0.0000000001
 40
0.0
 40
0.0
 40
0.0
 40
0.0
 40
0.125143595
 40
0.2502536069
 40
0.375359929
 40
0.5004351183
 40
0.7502224963
 40
1.0
 40
1.0
 40
1.0
 40
1.0
 10
10.2838674272
 20
8.8717201122
 30
0.0
 10
10.2842139638
 20
8.8736511287
 30
0.0
 10
10.2851626387
 20
8.8774713239
 30
0.0
 10
10.287294947
 20
8.8829709014
 30
0.0
 10
10.2900668877
 20
8.8881758507
 30
0.0
 10
10.2945076349
 20
8.8946510311
 30
0.0
 10
10.3012700347
 20
8.9018228429
 30
0.0
 10
10.3075857374
 20
8.9065167332
 30
0.0
 10
10.3108930005
 20
8.9086131636
 30
0.0
  0
SPLINE
  5
33B
100
AcDbEntity
  8
0
100
AcDbSpline
 62
7
  6
CONTINUOUS
 70
0
 71
3
 72
11
 73
7
 74
0
 42
0.0000001
 43
0.0000001
 44
0.0000000001
 40
0.0
 40
0.0
 40
0.0
 40
0.0
 40
0.2510375115
 40
0.5014474035
 40
0.7511323791
 40
1.0
 40
1.0
 40
1.0
 40
1.0
 10
10.2287670223
 20
8.8717201123
 30
0.0
 10
10.2291349512
 20
8.8738295911
 30
0.0
 10
10.2301666615
 20
8.8779971159
 30
0.0
 10
10.2325332899
 20
8.8839698979
 30
0.0
 10
10.235626349
 20
8.8895777128
 30
0.0
 10
10.238111809
 20
8.8930415091
 30
0.0
 10
10.2394416439
 20
8.8946961651
 30
0.0
  0
SPLINE
  5
33C
100
AcDbEntity
  8
0
100
AcDbSpline
 62
7
  6
CONTINUOUS
 70
0
 71
3
 72
9
 73
5
 74
0
 42
0.0000001
 43
0.0000001
 44
0.0000000001
 40
0.0
 40
0.0
 40
0.0
 40
0.0
 40
0.5011454148
 40
1.0
 40
1.0
 40
1.0
 40
1.0
 10
10.2394416439
 20
8.8946961651
 30
0.0
 10
10.241635527
 20
8.8974259188
 30
0.0
 10
10.2465130375
 20
8.9024845754
 30
0.0
 10
10.2521134815
 20
8.9067087566
 30
0.0
 10
10.2550334198
 20
8.9086131636
 30
0.0
  0
SPLINE
  5
33D
100
AcDbEntity
  8
0
100
AcDbSpline
 62
7
  6
CONTINUOUS
 70
0
 71
3
 72
13
 73
9
 74
0
 42
0.0000001
 43
0.0000001
 44
0.0000000001
 40
0.0
 40
0.0
 40
0.0
 40
0.0
 40
0.125303644
 40
0.2505924653
 40
0.375801541
 40
0.5009474205
 40
0.7505537407
 40
1.0
 40
1.0
 40
1.0
 40
1.0
 10
11.0681085612
 20
8.863891804
 30
0.0
 10
11.0681085612
 20
8.8616029455
 30
0.0
 10
11.0677503742
 20
8.8570176611
 30
0.0
 10
11.0661691204
 20
8.8503122735
 30
0.0
 10
11.0636226353
 20
8.8439146393
 30
0.0
 10
11.059101326
 20
8.8359518109
 30
0.0
 10
11.0516257475
 20
8.8271946164
 30
0.0
 10
11.0443390767
 20
8.8216169499
 30
0.0
 10
11.0404950701
 20
8.8191704445
 30
0.0
  0
SPLINE
  5
33E
100
AcDbEntity
  8
0
100
AcDbSpline
 62
7
  6
CONTINUOUS
 70
0
 71
3
 72
11
 73
7
 74
0
 42
0.0000001
 43
0.0000001
 44
0.0000000001
 40
0.0
 40
0.0
 40
0.0
 40
0.0
 40
0.3015467063
 40
0.5771117115
 40
0.8113505302
 40
1.0
 40
1.0
 40
1.0
 40
1.0
 10
11.0373879603
 20
8.863891804
 30
0.0
 10
11.0373879603
 20
8.8684025204
 30
0.0
 10
11.0375347152
 20
8.8770360809
 30
0.0
 10
11.0381686184
 20
8.889159024
 30
0.0
 10
11.039125582
 20
8.8995656809
 30
0.0
 10
11.0400037819
 20
8.9058343266
 30
0.0
 10
11.0404950701
 20
8.9086131636
 30
0.0
  0
SPLINE
  5
33F
100
AcDbEntity
  8
0
100
AcDbSpline
 62
7
  6
CONTINUOUS
 70
0
 71
3
 72
11
 73
7
 74
0
 42
0.0000001
 43
0.0000001
 44
0.0000000001
 40
0.0
 40
0.0
 40
0.0
 40
0.0
 40
0.2504164651
 40
0.5005682634
 40
0.7504475878
 40
1.0
 40
1.0
 40
1.0
 40
1.0
 10
10.2544834074
 20
8.8717200779
 30
0.0
 10
10.2548583583
 20
8.8738306759
 30
0.0
 10
10.2559104496
 20
8.8780016573
 30
0.0
 10
10.2583221175
 20
8.8839752709
 30
0.0
 10
10.2614735266
 20
8.8895832014
 30
0.0
 10
10.2640030389
 20
8.893043322
 30
0.0
 10
10.2653562151
 20
8.8946963404
 30
0.0
  0
SPLINE
  5
340
100
AcDbEntity
  8
0
100
AcDbSpline
 62
7
  6
CONTINUOUS
 70
0
 71
3
 72
9
 73
5
 74
0
 42
0.0000001
 43
0.0000001
 44
0.0000000001
 40
0.0
 40
0.0
 40
0.0
 40
0.0
 40
0.5004300184
 40
1.0
 40
1.0
 40
1.0
 40
1.0
 10
10.2653562151
 20
8.8946963404
 30
0.0
 10
10.2675943131
 20
8.8974303649
 30
0.0
 10
10.2725704187
 20
8.9024945983
 30
0.0
 10
10.2782666957
 20
8.9067111241
 30
0.0
 10
10.2812371074
 20
8.9086131636
 30
0.0
  0
ENDSEC
  0
SECTION
  2
OBJECTS
  0
DICTIONARY
  5
C
100
AcDbDictionary
280
0
281
1
  3
ACAD_GROUP
350
D
  3
ACAD_MLINESTYLE
350
17
  3
ACAD_LAYOUT
350
1A
  3
ACAD_PLOTSETTINGS
350
19
  3
ACAD_PLOTSTYLENAME
350
E
  0
DICTIONARY
  5
D
102
{ACAD_REACTORS
330
C
102
}
100
AcDbDictionary
280
0
281
1
  0
ACDBDICTIONARYWDFLT
  5
E
102
{ACAD_REACTORS
330
C
102
}
100
AcDbDictionary
281
1
  3
Normal
350
F
100
AcDbDictionaryWithDefault
340
F
  0
DICTIONARY
  5
17
102
{ACAD_REACTORS
330
C
102
}
100
AcDbDictionary
280
0
281
1
  3
Standard
350
18
  0
DICTIONARY
  5
19
102
{ACAD_REACTORS
330
C
102
}
100
AcDbDictionary
281
1
  0
DICTIONARY
  5
1A
102
{ACAD_REACTORS
330
C
102
}
100
AcDbDictionary
281
1
  3
Model
350
341
  3
Layout1
350
342
  0
ACDBPLACEHOLDER
  5
F
102
{ACAD_REACTORS
330
E
102
}
  0
MLINESTYLE
  5
18
102
{ACAD_REACTORS
330
17
102
}
100
AcDbMlineStyle
  2
STANDARD
 70
0
  3

 62
256
 51
90.0
 52
90.0
 71
2
 49
0.5
 62
256
  6
BYLAYER
 49
-0.5
 62
256
  6
BYLAYER
  0
LAYOUT
  5
341
102
{ACAD_REACTORS
330
1A
102
}
100
AcDbPlotSettings
  1

  2
none_device
  4
ANSI_C_(22.00_x_17.00_Inches)
  6

 40
0.0
 41
0.0
 42
0.0
 43
0.0
 44
558.8
 45
431.8
 46
0.0
 47
0.0
 48
0.0
 49
0.0
140
0.0
141
0.0
142
1.0
143
1.0
 70
1024
 72
0
 73
0
 74
0
  7

 75
0
147
1.0
148
0.0
149
0.0
100
AcDbLayout
  1
Model
 70
0
 71
0
 10
0.0
 20
0.0
 11
22.0
 21
17.0
 12
0.0
 22
0.0
 32
0.0
 14
0.0
 24
0.0
 34
0.0
 15
0.0
 25
0.0
 35
0.0
146
0.0
 13
0.0
 23
0.0
 33
0.0
 16
1.0
 26
0.0
 36
0.0
 17
0.0
 27
1.0
 37
0.0
 76
0
330
202
345
0
346
0
  0
LAYOUT
  5
342
102
{ACAD_REACTORS
330
1A
102
}
100
AcDbPlotSettings
  1

  2
none_device
  4
ANSI_C_(22.00_x_17.00_Inches)
  6

 40
0.0
 41
0.0
 42
0.0
 43
0.0
 44
558.8
 45
431.8
 46
0.0
 47
0.0
 48
0.0
 49
0.0
140
0.0
141
0.0
142
1.0
143
1.0
 70
0
 72
0
 73
0
 74
0
  7

 75
0
147
1.0
148
0.0
149
0.0
100
AcDbLayout
  1
Layout1
 70
0
 71
1
 10
0.0
 20
0.0
 11
22.0
 21
17.0
 12
0.0
 22
0.0
 32
0.0
 14
0.0
 24
0.0
 34
0.0
 15
0.0
 25
0.0
 35
0.0
146
0.0
 13
0.0
 23
0.0
 33
0.0
 16
1.0
 26
0.0
 36
0.0
 17
0.0
 27
1.0
 37
0.0
 76
0
330
203
345
0
346
0
  0
ENDSEC
  0
EOF
