999
DXF file: E:\BT Custom\CADOUTPUT\_TOP.dxf
999
Pro/ENGINEER 2018400 by Parametric Technology Corporation
  0
SECTION
  2
HEADER
  9
$ACADVER
  1
AC1018
  9
$DWGCODEPAGE
  3
ANSI_1252
  9
$EXTMAX
 10
22.0
 20
17.0
 30
0.0
  9
$EXTMIN
 10
0.0
 20
0.0
 30
0.0
  9
$LIMMIN
 10
0.0
 20
0.0
  9
$LIMMAX
 10
22.0
 20
17.0
  9
$VIEWCTR
 10
11.0
 20
8.5
  9
$VIEWSIZE
 40
17.0
  9
$CLAYER
  8
0
  9
$LTSCALE
 40
1.21
  9
$CELTYPE
  6
BYLAYER
  9
$DIMSCALE
 40
1.0
  9
$DIMASZ
 40
0.1
  9
$DIMEXO
 40
0.0625
  9
$DIMDLI
 40
0.836
  9
$DIMEXE
 40
0.125
  9
$DIMCEN
 40
0.198
  9
$DIMLFAC
 40
1.0
  9
$DIMBLK
  1
_FILLED
  9
$DIMALT
 70
1
  9
$DIMALTD
 70
2
  9
$DIMALTTD
 70
2
  9
$DIMALTF
 40
25.4
  9
$DIMTXT
 40
0.08
  9
$DIMTOL
 70
1
  9
$DIMLIM
 70
0
  9
$DIMTFAC
 40
1.0
  9
$DIMTP
 40
0.001
  9
$DIMTM
 40
0.001
  9
$DIMGAP
 40
0.09
  9
$DIMDSEP
 70
46
  9
$AUNITS
 70
0
  9
$PDMODE
 70
3
  9
$PDSIZE
 40
0.06
  9
$HANDSEED
  5
5BA
  9
$TILEMODE
 70
1
  9
$MEASUREMENT
 70
0
  9
$INSUNITS
 70
1
  0
ENDSEC
  0
SECTION
  2
CLASSES
  0
CLASS
  1
ACDBDICTIONARYWDFLT
  2
AcDbDictionaryWithDefault
  3
AutoCAD 2000
 90
0
 91
1
280
0
281
0
  0
CLASS
  1
ACDBPLACEHOLDER
  2
AcDbPlaceHolder
  3
AutoCAD 2000
 90
0
 91
1
280
0
281
0
  0
CLASS
  1
LAYOUT
  2
AcDbLayout
  3
AutoCAD 2000
 90
0
 91
0
280
0
281
0
  0
ENDSEC
  0
SECTION
  2
TABLES
  0
TABLE
  2
VPORT
  5
8
100
AcDbSymbolTable
 70
2
  0
VPORT
  5
1F4
100
AcDbSymbolTableRecord
100
AcDbViewportTableRecord
  2
*ACTIVE
 70
0
 10
0.0
 20
0.0
 11
1.0
 21
1.0
 12
11.0
 22
8.5
 13
0.0
 23
0.0
 14
1.0
 24
1.0
 15
0.0
 25
0.0
 16
0.0
 26
0.0
 36
1.0
 17
0.0
 27
0.0
 37
0.0
 40
17.0
 41
1.2941176471
 42
50.0
 43
0.0
 44
0.0
 50
0.0
 51
0.0
 71
0
 72
100
 73
1
 74
1
 75
0
 76
0
 77
0
 78
0
  0
ENDTAB
  0
TABLE
  2
LTYPE
  5
5
100
AcDbSymbolTable
 70
6
  0
LTYPE
  5
14
100
AcDbSymbolTableRecord
100
AcDbLinetypeTableRecord
  2
BYBLOCK
 70
0
  3

 72
65
 73
0
 40
0.0
  0
LTYPE
  5
15
100
AcDbSymbolTableRecord
100
AcDbLinetypeTableRecord
  2
BYLAYER
 70
0
  3

 72
65
 73
0
 40
0.0
  0
LTYPE
  5
16
100
AcDbSymbolTableRecord
100
AcDbLinetypeTableRecord
  2
CONTINUOUS
 70
64
  3
Solid line
 72
65
 73
0
 40
0.0
  0
LTYPE
  5
1F5
100
AcDbSymbolTableRecord
100
AcDbLinetypeTableRecord
  2
CENTER
 70
64
  3
____ _ ____ _ ____ _ ____ _ ____ _ ____ _ ____
 72
65
 73
4
 40
0.6
 49
0.375
 74
0
 49
-0.075
 74
0
 49
0.075
 74
0
 49
-0.075
 74
0
  0
LTYPE
  5
1F6
100
AcDbSymbolTableRecord
100
AcDbLinetypeTableRecord
  2
HIDDEN
 70
64
  3
- - - - - - - - - - - - - - - - - - - -
 72
65
 73
2
 40
0.2
 49
0.1
 74
0
 49
-0.1
 74
0
  0
LTYPE
  5
1F7
100
AcDbSymbolTableRecord
100
AcDbLinetypeTableRecord
  2
PHANTOM
 70
64
  3
_____ _ _ _____ _ _ _____ _ _ _____
 72
65
 73
6
 40
0.8
 49
0.45
 74
0
 49
-0.05
 74
0
 49
0.1
 74
0
 49
-0.05
 74
0
 49
0.1
 74
0
 49
-0.05
 74
0
  0
LTYPE
  5
1F8
100
AcDbSymbolTableRecord
100
AcDbLinetypeTableRecord
  2
DOT
 70
64
  3
. . . . . . . . . . . . . . . . . . . .
 72
65
 73
2
 40
0.2
 49
0.1
 74
0
 49
-0.1
 74
0
  0
LTYPE
  5
1F9
100
AcDbSymbolTableRecord
100
AcDbLinetypeTableRecord
  2
DASHED
 70
64
  3
- - - - - - - - - - - - - - - - - - - -
 72
65
 73
2
 40
0.2
 49
0.1
 74
0
 49
-0.1
 74
0
  0
ENDTAB
  0
TABLE
  2
LAYER
  5
2
100
AcDbSymbolTable
 70
36
  0
LAYER
  5
10
100
AcDbSymbolTableRecord
100
AcDbLayerTableRecord
  2
0
 70
0
 62
7
  6
CONTINUOUS
370
-3
390
F
  0
LAYER
  5
1FA
100
AcDbSymbolTableRecord
100
AcDbLayerTableRecord
  2
DEFAULT_1
 70
0
 62
7
  6
CENTER
370
-3
390
F
  0
LAYER
  5
1FB
100
AcDbSymbolTableRecord
100
AcDbLayerTableRecord
  2
DEFAULT_2
 70
0
 62
8
  6
HIDDEN
370
-3
390
F
  0
LAYER
  5
1FC
100
AcDbSymbolTableRecord
100
AcDbLayerTableRecord
  2
DEFAULT_3
 70
0
 62
7
  6
PHANTOM
370
-3
390
F
  0
LAYER
  5
1FD
100
AcDbSymbolTableRecord
100
AcDbLayerTableRecord
  2
ALL_FEATURES
 70
0
 62
7
  6
CONTINUOUS
370
-3
390
F
  0
LAYER
  5
1FE
100
AcDbSymbolTableRecord
100
AcDbLayerTableRecord
  2
AXES_FEATURES
 70
0
 62
7
  6
CONTINUOUS
370
-3
390
F
  0
LAYER
  5
1FF
100
AcDbSymbolTableRecord
100
AcDbLayerTableRecord
  2
DEFAULT_COORDINATE_SYSTEM
 70
0
 62
7
  6
CONTINUOUS
370
-3
390
F
  0
LAYER
  5
200
100
AcDbSymbolTableRecord
100
AcDbLayerTableRecord
  2
DEFAULT_DATUM_AXES
 70
0
 62
7
  6
CONTINUOUS
370
-3
390
F
  0
LAYER
  5
201
100
AcDbSymbolTableRecord
100
AcDbLayerTableRecord
  2
DEFAULT_DATUM_PLANES
 70
0
 62
7
  6
CONTINUOUS
370
-3
390
F
  0
LAYER
  5
202
100
AcDbSymbolTableRecord
100
AcDbLayerTableRecord
  2
DIMENSIONS
 70
0
 62
7
  6
CONTINUOUS
370
-3
390
F
  0
ENDTAB
  0
TABLE
  2
STYLE
  5
3
100
AcDbSymbolTable
 70
1
  0
STYLE
  5
11
100
AcDbSymbolTableRecord
100
AcDbTextStyleTableRecord
  2
STANDARD
 70
0
 40
0.0
 41
0.8
 50
0.0
 71
0
 42
0.2
  3
txt
  4

  0
STYLE
  5
203
100
AcDbSymbolTableRecord
100
AcDbTextStyleTableRecord
  2
TEXTSTYLE_1
 70
0
 40
0.0
 41
0.8
 50
0.0
 71
0
 42
0.2
  3
gdt
  4

  0
ENDTAB
  0
TABLE
  2
VIEW
  5
6
100
AcDbSymbolTable
 70
0
  0
ENDTAB
  0
TABLE
  2
UCS
  5
7
100
AcDbSymbolTable
 70
0
  0
ENDTAB
  0
TABLE
  2
APPID
  5
9
100
AcDbSymbolTable
 70
1
  0
APPID
  5
204
100
AcDbSymbolTableRecord
100
AcDbRegAppTableRecord
  2
ACAD
 70
0
  0
ENDTAB
  0
TABLE
  2
BLOCK_RECORD
  5
1
100
AcDbSymbolTable
 70
0
  0
BLOCK_RECORD
  5
205
100
AcDbSymbolTableRecord
100
AcDbBlockTableRecord
  2
*Model_Space
  0
BLOCK_RECORD
  5
206
100
AcDbSymbolTableRecord
100
AcDbBlockTableRecord
  2
*Paper_Space
  0
BLOCK_RECORD
  5
207
100
AcDbSymbolTableRecord
100
AcDbBlockTableRecord
  2
_FILLED
  0
ENDTAB
  0
TABLE
  2
DIMSTYLE
  5
A
100
AcDbSymbolTable
 70
1
100
AcDbDimStyleTable
 71
0
  0
DIMSTYLE
105
208
100
AcDbSymbolTableRecord
100
AcDbDimStyleTableRecord
  2
STANDARD
 70
0
  3

  4

 40
1.0
 41
0.1
 42
0.0625
 43
0.38
 44
0.125
 45
0.0
 46
0.0
 47
0.001
 48
0.001
140
0.08
141
0.09
142
0.0
143
25.4
144
1.0
145
0.0
146
1.0
147
0.09
 71
1.0
 72
0.0
 73
1
 74
1
 75
0
 76
0
 77
0
 78
4
 79
1
170
1
171
2
172
0
173
0
174
0
175
0
176
0
177
0
178
0
270
2
179
3
271
3
272
3
273
2
274
2
275
0
280
0
281
0
282
0
283
1
284
4
285
0
286
0
287
3
288
0
340
11
278
46
341
207
342
207
343
207
344
207
  0
ENDTAB
  0
ENDSEC
  0
SECTION
  2
BLOCKS
  0
BLOCK
  5
20
100
AcDbEntity
  8
0
100
AcDbBlockBegin
  2
*Model_Space
 70
0
 10
0.0
 20
0.0
 30
0.0
  3
*Model_Space
  1

  0
ENDBLK
  5
21
100
AcDbEntity
  8
0
100
AcDbBlockEnd
  0
BLOCK
  5
1C
100
AcDbEntity
  8
0
100
AcDbBlockBegin
  2
*Paper_Space
 70
0
 10
0.0
 20
0.0
 30
0.0
  3
*Paper_Space
  1

  0
ENDBLK
  5
1D
100
AcDbEntity
  8
0
100
AcDbBlockEnd
  0
BLOCK
  5
209
100
AcDbEntity
  8
0
100
AcDbBlockBegin
  2
_FILLED
 70
64
 10
0.0
 20
0.0
  3
_FILLED
  1

  0
SOLID
  5
20A
100
AcDbEntity
  8
0
  6
BYBLOCK
 62
0
100
AcDbTrace
 10
0.0
 20
0.0
 11
-1.0
 21
0.2
 12
-1.0
 22
-0.2
 13
-1.0
 23
-0.2
  0
ENDBLK
  5
20B
100
AcDbEntity
  8
0
  6
BYBLOCK
 62
0
100
AcDbBlockEnd
  0
ENDSEC
  0
SECTION
  2
ENTITIES
  0
LINE
  5
20C
100
AcDbEntity
  8
0
100
AcDbLine
 62
7
  6
CONTINUOUS
 10
0.7348183383
 20
11.2122537232
 11
0.7348183383
 21
11.0022537232
  0
LINE
  5
20D
100
AcDbEntity
  8
0
100
AcDbLine
 62
9
  6
CONTINUOUS
 10
0.7548183383
 20
10.9822537232
 11
0.7548183383
 21
11.2322537232
  0
LINE
  5
20E
100
AcDbEntity
  8
0
100
AcDbLine
 62
7
  6
CONTINUOUS
 10
1.9273834663
 20
11.5015680642
 11
1.9271713416
 21
11.4821226733
  0
LINE
  5
20F
100
AcDbEntity
  8
0
100
AcDbLine
 62
7
  6
CONTINUOUS
 10
1.8919091635
 20
10.7643445484
 11
1.8902142852
 21
10.7449720005
  0
LINE
  5
210
100
AcDbEntity
  8
0
100
AcDbLine
 62
7
  6
CONTINUOUS
 10
1.9675134133
 20
11.5298032198
 11
1.9653963285
 21
11.5104722557
  0
LINE
  5
211
100
AcDbEntity
  8
0
100
AcDbLine
 62
7
  6
CONTINUOUS
 10
1.8599493882
 20
10.7996067265
 11
1.8563638294
 21
10.7804935899
  0
LINE
  5
212
100
AcDbEntity
  8
0
100
AcDbLine
 62
7
  6
CONTINUOUS
 10
2.0102176529
 20
11.5539689928
 11
2.0062159966
 21
11.5349386232
  0
LINE
  5
213
100
AcDbEntity
  8
0
100
AcDbLine
 62
7
  6
CONTINUOUS
 10
1.8315998058
 20
10.8378317134
 11
1.8261580975
 21
10.8191620579
  0
LINE
  5
214
100
AcDbEntity
  8
0
100
AcDbLine
 62
7
  6
CONTINUOUS
 10
2.6380368708
 20
11.376675733
 11
2.6434785791
 21
11.3953453884
  0
LINE
  5
215
100
AcDbEntity
  8
0
100
AcDbLine
 62
7
  6
CONTINUOUS
 10
2.0550849199
 20
11.5738326536
 11
2.0492372302
 21
11.5552861513
  0
LINE
  5
216
100
AcDbEntity
  8
0
100
AcDbLine
 62
7
  6
CONTINUOUS
 10
2.4145517567
 20
10.6406747928
 11
2.4203994464
 21
10.6592212951
  0
LINE
  5
217
100
AcDbEntity
  8
0
100
AcDbLine
 62
7
  6
CONTINUOUS
 10
1.8071334383
 20
10.8786513815
 11
1.7998879871
 21
10.8606050062
  0
LINE
  5
218
100
AcDbEntity
  8
0
100
AcDbLine
 62
7
  6
CONTINUOUS
 10
2.6625032383
 20
11.3358560649
 11
2.6697486895
 21
11.3539024402
  0
LINE
  5
219
100
AcDbEntity
  8
0
100
AcDbLine
 62
7
  6
CONTINUOUS
 10
2.1016831179
 20
11.5892029042
 11
2.0940457113
 21
11.5713188822
  0
LINE
  5
21A
100
AcDbEntity
  8
0
100
AcDbLine
 62
7
  6
CONTINUOUS
 10
2.3679235103
 20
10.6252341799
 11
2.3755909653
 21
10.6431885642
  0
LINE
  5
21B
100
AcDbEntity
  8
0
100
AcDbLine
 62
7
  6
CONTINUOUS
 10
1.7867859102
 20
10.9216726151
 11
1.7778064937
 21
10.9044233165
  0
LINE
  5
21C
100
AcDbEntity
  8
0
100
AcDbLine
 62
7
  6
CONTINUOUS
 10
2.6828507664
 20
11.2928348313
 11
2.6918301829
 21
11.3100841299
  0
LINE
  5
21D
100
AcDbEntity
  8
0
100
AcDbLine
 62
7
  6
CONTINUOUS
 10
2.1495634809
 20
11.5999317208
 11
2.1402099098
 21
11.582882412
  0
LINE
  5
21E
100
AcDbEntity
  8
0
100
AcDbLine
 62
7
  6
CONTINUOUS
 10
2.3200731957
 20
10.6145757256
 11
2.3294267668
 21
10.6316250344
  0
LINE
  5
21F
100
AcDbEntity
  8
0
100
AcDbLine
 62
7
  6
CONTINUOUS
 10
1.7707531793
 20
10.9664810962
 11
1.7601262742
 21
10.9501949944
  0
LINE
  5
220
100
AcDbEntity
  8
0
100
AcDbLine
 62
7
  6
CONTINUOUS
 10
2.1982648948
 20
11.6059157789
 11
2.1872852392
 21
11.5898653774
  0
LINE
  5
221
100
AcDbEntity
  8
0
100
AcDbLine
 62
7
  6
CONTINUOUS
 10
1.7591896495
 20
11.0126452947
 11
1.7470175988
 21
10.9974792338
  0
LINE
  5
222
100
AcDbEntity
  8
0
100
AcDbLine
 62
7
  6
CONTINUOUS
 10
2.2473183383
 20
11.6070974488
 11
2.2348183383
 21
11.5922005289
  0
LINE
  5
223
100
AcDbEntity
  8
0
100
AcDbLine
 62
7
  6
CONTINUOUS
 10
1.752206684
 20
11.0597206241
 11
1.7386067111
 21
11.0458206615
  0
LINE
  5
224
100
AcDbEntity
  8
0
100
AcDbLine
 62
7
  6
CONTINUOUS
 10
1.9653963285
 20
10.7040351907
 11
1.9675134133
 21
10.6847042266
  0
LINE
  5
225
100
AcDbEntity
  8
0
100
AcDbLine
 62
7
  6
CONTINUOUS
 10
1.8902142852
 20
11.4695354458
 11
1.8919091635
 21
11.450162898
  0
LINE
  5
226
100
AcDbEntity
  8
0
100
AcDbLine
 62
7
  6
CONTINUOUS
 10
1.9271713416
 20
10.7323847731
 11
1.9273834663
 21
10.7129393822
  0
LINE
  5
227
100
AcDbEntity
  8
0
100
AcDbLine
 62
7
  6
CONTINUOUS
 10
2.542465335
 20
11.4821226733
 11
2.5422532103
 21
11.5015680642
  0
LINE
  5
228
100
AcDbEntity
  8
0
100
AcDbLine
 62
7
  6
CONTINUOUS
 10
2.1098183383
 20
12.5872537232
 11
2.1098183383
 21
11.5913735521
  0
LINE
  5
229
100
AcDbEntity
  8
0
100
AcDbLine
 62
7
  6
CONTINUOUS
 10
2.1098183383
 20
10.6231338943
 11
2.1098183383
 21
9.6272537232
  0
LINE
  5
22A
100
AcDbEntity
  8
0
100
AcDbLine
 62
9
  6
CONTINUOUS
 10
2.1298183383
 20
10.6232849165
 11
2.1298183383
 21
9.6072537232
  0
LINE
  5
22B
100
AcDbEntity
  8
0
100
AcDbLine
 62
9
  6
CONTINUOUS
 10
2.1298183383
 20
11.5912225299
 11
2.1298183383
 21
12.6072537232
  0
LINE
  5
22C
100
AcDbEntity
  8
0
100
AcDbLine
 62
9
  6
CONTINUOUS
 10
2.3398183383
 20
9.6072537232
 11
2.3398183383
 21
10.6232849165
  0
LINE
  5
22D
100
AcDbEntity
  8
0
100
AcDbLine
 62
9
  6
CONTINUOUS
 10
2.3398183383
 20
11.5912225299
 11
2.3398183383
 21
12.6072537232
  0
LINE
  5
22E
100
AcDbEntity
  8
0
100
AcDbLine
 62
7
  6
CONTINUOUS
 10
2.3598183383
 20
9.6272537232
 11
2.3598183383
 21
10.6231338943
  0
LINE
  5
22F
100
AcDbEntity
  8
0
100
AcDbLine
 62
7
  6
CONTINUOUS
 10
2.3598183383
 20
11.5913735521
 11
2.3598183383
 21
12.5872537232
  0
LINE
  5
230
100
AcDbEntity
  8
0
100
AcDbLine
 62
7
  6
CONTINUOUS
 10
2.5422532103
 20
10.7129393822
 11
2.542465335
 21
10.7323847731
  0
LINE
  5
231
100
AcDbEntity
  8
0
100
AcDbLine
 62
7
  6
CONTINUOUS
 10
2.5777275131
 20
11.450162898
 11
2.5794223914
 21
11.4695354458
  0
LINE
  5
232
100
AcDbEntity
  8
0
100
AcDbLine
 62
7
  6
CONTINUOUS
 10
2.5021232632
 20
10.6847042266
 11
2.5042403481
 21
10.7040351907
  0
LINE
  5
233
100
AcDbEntity
  8
0
100
AcDbLine
 62
7
  6
CONTINUOUS
 10
2.6096872884
 20
11.4149007199
 11
2.6132728472
 21
11.4340138565
  0
LINE
  5
234
100
AcDbEntity
  8
0
100
AcDbLine
 62
7
  6
CONTINUOUS
 10
2.4594190236
 20
10.6605384535
 11
2.46342068
 21
10.6795688232
  0
LINE
  5
235
100
AcDbEntity
  8
0
100
AcDbLine
 62
7
  6
CONTINUOUS
 10
2.6988834973
 20
11.2480263502
 11
2.7095104024
 21
11.2643124519
  0
LINE
  5
236
100
AcDbEntity
  8
0
100
AcDbLine
 62
7
  6
CONTINUOUS
 10
2.2713717818
 20
10.6085916675
 11
2.2823514374
 21
10.6246420689
  0
LINE
  5
237
100
AcDbEntity
  8
0
100
AcDbLine
 62
7
  6
CONTINUOUS
 10
2.7104470271
 20
11.2018621517
 11
2.7226190778
 21
11.2170282126
  0
LINE
  5
238
100
AcDbEntity
  8
0
100
AcDbLine
 62
7
  6
CONTINUOUS
 10
2.2223183383
 20
10.6074099976
 11
2.2348183383
 21
10.6223069175
  0
LINE
  5
239
100
AcDbEntity
  8
0
100
AcDbLine
 62
7
  6
CONTINUOUS
 10
2.7174299925
 20
11.1547868223
 11
2.7310299654
 21
11.1686867849
  0
LINE
  5
23A
100
AcDbEntity
  8
0
100
AcDbLine
 62
7
  6
CONTINUOUS
 10
2.2962514
 20
11.6034653504
 11
2.2823514374
 21
11.5898653774
  0
LINE
  5
23B
100
AcDbEntity
  8
0
100
AcDbLine
 62
7
  6
CONTINUOUS
 10
2.1733852766
 20
10.611042096
 11
2.1872852392
 21
10.6246420689
  0
LINE
  5
23C
100
AcDbEntity
  8
0
100
AcDbLine
 62
7
  6
CONTINUOUS
 10
1.7498715326
 20
11.1072537232
 11
1.7349746127
 21
11.0947537232
  0
LINE
  5
23D
100
AcDbEntity
  8
0
100
AcDbLine
 62
7
  6
CONTINUOUS
 10
2.3445928277
 20
11.5950544627
 11
2.3294267668
 21
11.582882412
  0
LINE
  5
23E
100
AcDbEntity
  8
0
100
AcDbLine
 62
7
  6
CONTINUOUS
 10
2.5042403481
 20
11.5104722557
 11
2.5021232632
 21
11.5298032198
  0
LINE
  5
23F
100
AcDbEntity
  8
0
100
AcDbLine
 62
7
  6
CONTINUOUS
 10
2.5794223914
 20
10.7449720005
 11
2.5777275131
 21
10.7643445484
  0
LINE
  5
240
100
AcDbEntity
  8
0
100
AcDbLine
 62
7
  6
CONTINUOUS
 10
2.719765144
 20
11.1072537232
 11
2.7346620639
 21
11.1197537232
  0
LINE
  5
241
100
AcDbEntity
  8
0
100
AcDbLine
 62
7
  6
CONTINUOUS
 10
2.1250438489
 20
10.6194529837
 11
2.1402099098
 21
10.6316250344
  0
LINE
  5
242
100
AcDbEntity
  8
0
100
AcDbLine
 62
7
  6
CONTINUOUS
 10
1.752206684
 20
11.1547868223
 11
1.7361562826
 21
11.1438071667
  0
LINE
  5
243
100
AcDbEntity
  8
0
100
AcDbLine
 62
7
  6
CONTINUOUS
 10
2.7174299925
 20
11.0597206241
 11
2.733480394
 21
11.0707002797
  0
LINE
  5
244
100
AcDbEntity
  8
0
100
AcDbLine
 62
7
  6
CONTINUOUS
 10
2.391877067
 20
11.5819457873
 11
2.3755909653
 21
11.5713188822
  0
LINE
  5
245
100
AcDbEntity
  8
0
100
AcDbLine
 62
7
  6
CONTINUOUS
 10
1.7591896495
 20
11.2018621517
 11
1.7421403407
 21
11.1925085806
  0
LINE
  5
246
100
AcDbEntity
  8
0
100
AcDbLine
 62
7
  6
CONTINUOUS
 10
2.437648745
 20
11.5642655678
 11
2.4203994464
 21
11.5552861513
  0
LINE
  5
247
100
AcDbEntity
  8
0
100
AcDbLine
 62
7
  6
CONTINUOUS
 10
2.0492372302
 20
10.6592212951
 11
2.0550849199
 21
10.6406747928
  0
LINE
  5
248
100
AcDbEntity
  8
0
100
AcDbLine
 62
7
  6
CONTINUOUS
 10
1.8261580975
 20
11.3953453884
 11
1.8315998058
 21
11.376675733
  0
LINE
  5
249
100
AcDbEntity
  8
0
100
AcDbLine
 62
7
  6
CONTINUOUS
 10
2.0062159966
 20
10.6795688232
 11
2.0102176529
 21
10.6605384535
  0
LINE
  5
24A
100
AcDbEntity
  8
0
100
AcDbLine
 62
7
  6
CONTINUOUS
 10
1.8563638294
 20
11.4340138565
 11
1.8599493882
 21
11.4149007199
  0
LINE
  5
24B
100
AcDbEntity
  8
0
100
AcDbLine
 62
7
  6
CONTINUOUS
 10
2.6132728472
 20
10.7804935899
 11
2.6096872884
 21
10.7996067265
  0
LINE
  5
24C
100
AcDbEntity
  8
0
100
AcDbLine
 62
9
  6
CONTINUOUS
 10
3.7148183383
 20
10.9822537232
 11
3.7148183383
 21
11.2322537232
  0
LINE
  5
24D
100
AcDbEntity
  8
0
100
AcDbLine
 62
7
  6
CONTINUOUS
 10
3.7348183383
 20
11.0022537232
 11
3.7348183383
 21
11.2122537232
  0
LINE
  5
24E
100
AcDbEntity
  8
0
100
AcDbLine
 62
7
  6
CONTINUOUS
 10
2.0777596095
 20
10.6325616591
 11
2.0940457113
 21
10.6431885642
  0
LINE
  5
24F
100
AcDbEntity
  8
0
100
AcDbLine
 62
7
  6
CONTINUOUS
 10
2.7104470271
 20
11.0126452947
 11
2.7274963359
 21
11.0219988658
  0
LINE
  5
250
100
AcDbEntity
  8
0
100
AcDbLine
 62
7
  6
CONTINUOUS
 10
2.0319879316
 20
10.6502418786
 11
2.0492372302
 21
10.6592212951
  0
LINE
  5
251
100
AcDbEntity
  8
0
100
AcDbLine
 62
7
  6
CONTINUOUS
 10
1.7707531793
 20
11.2480263502
 11
1.7528691572
 21
11.2403889436
  0
LINE
  5
252
100
AcDbEntity
  8
0
100
AcDbLine
 62
7
  6
CONTINUOUS
 10
2.4814670552
 20
11.5421840744
 11
2.46342068
 21
11.5349386232
  0
LINE
  5
253
100
AcDbEntity
  8
0
100
AcDbLine
 62
7
  6
CONTINUOUS
 10
6.3755909653
 20
2.3931885642
 11
6.391877067
 21
2.3825616591
  0
LINE
  5
254
100
AcDbEntity
  8
0
100
AcDbLine
 62
7
  6
CONTINUOUS
 10
5.7361562826
 20
2.8207002797
 11
5.752206684
 21
2.8097206241
  0
LINE
  5
255
100
AcDbEntity
  8
0
100
AcDbLine
 62
7
  6
CONTINUOUS
 10
6.3294267668
 20
2.3816250344
 11
6.3445928277
 21
2.3694529837
  0
LINE
  5
256
100
AcDbEntity
  8
0
100
AcDbLine
 62
7
  6
CONTINUOUS
 10
5.7349746127
 20
2.8697537232
 11
5.7498715326
 21
2.8572537232
  0
LINE
  5
257
100
AcDbEntity
  8
0
100
AcDbLine
 62
7
  6
CONTINUOUS
 10
6.2823514374
 20
2.3746420689
 11
6.2962514
 21
2.361042096
  0
LINE
  5
258
100
AcDbEntity
  8
0
100
AcDbLine
 62
7
  6
CONTINUOUS
 10
5.7386067111
 20
2.9186867849
 11
5.752206684
 21
2.9047868223
  0
LINE
  5
259
100
AcDbEntity
  8
0
100
AcDbLine
 62
7
  6
CONTINUOUS
 10
6.2348183383
 20
2.3723069175
 11
6.2473183383
 21
2.3574099976
  0
LINE
  5
25A
100
AcDbEntity
  8
0
100
AcDbLine
 62
7
  6
CONTINUOUS
 10
5.7470175988
 20
2.9670282126
 11
5.7591896495
 21
2.9518621517
  0
LINE
  5
25B
100
AcDbEntity
  8
0
100
AcDbLine
 62
7
  6
CONTINUOUS
 10
6.1872852392
 20
2.3746420689
 11
6.1982648948
 21
2.3585916675
  0
LINE
  5
25C
100
AcDbEntity
  8
0
100
AcDbLine
 62
7
  6
CONTINUOUS
 10
5.7601262742
 20
3.0143124519
 11
5.7707531793
 21
2.9980263502
  0
LINE
  5
25D
100
AcDbEntity
  8
0
100
AcDbLine
 62
7
  6
CONTINUOUS
 10
2.0940457113
 20
10.6431885642
 11
2.1016831179
 21
10.6253045422
  0
LINE
  5
25E
100
AcDbEntity
  8
0
100
AcDbLine
 62
7
  6
CONTINUOUS
 10
1.7998879871
 20
11.3539024402
 11
1.8071334383
 21
11.3358560649
  0
LINE
  5
25F
100
AcDbEntity
  8
0
100
AcDbLine
 62
7
  6
CONTINUOUS
 10
2.4203994464
 20
11.5552861513
 11
2.4145517567
 21
11.5738326536
  0
LINE
  5
260
100
AcDbEntity
  8
0
100
AcDbLine
 62
7
  6
CONTINUOUS
 10
2.6434785791
 20
10.8191620579
 11
2.6380368708
 21
10.8378317134
  0
LINE
  5
261
100
AcDbEntity
  8
0
100
AcDbLine
 62
7
  6
CONTINUOUS
 10
2.46342068
 20
11.5349386232
 11
2.4594190236
 21
11.5539689928
  0
LINE
  5
262
100
AcDbEntity
  8
0
100
AcDbLine
 62
7
  6
CONTINUOUS
 10
6.0621647837
 20
11.597754233
 11
6.0557596013
 21
11.5793928098
  0
LINE
  5
263
100
AcDbEntity
  8
0
100
AcDbLine
 62
7
  6
CONTINUOUS
 10
5.7973183383
 20
10.844933948
 11
5.793060631
 21
10.8329361552
  0
LINE
  5
264
100
AcDbEntity
  8
0
100
AcDbLine
 62
7
  6
CONTINUOUS
 10
6.110310921
 20
11.6121278689
 11
6.1021635074
 21
11.5944703529
  0
LINE
  5
265
100
AcDbEntity
  8
0
100
AcDbLine
 62
7
  6
CONTINUOUS
 10
5.7768895742
 20
10.8944660463
 11
5.7686474533
 21
10.8768525383
  0
LINE
  5
266
100
AcDbEntity
  8
0
100
AcDbLine
 62
7
  6
CONTINUOUS
 10
6.1596195505
 20
11.621787631
 11
6.1498059758
 21
11.6049988855
  0
LINE
  5
267
100
AcDbEntity
  8
0
100
AcDbLine
 62
7
  6
CONTINUOUS
 10
5.7584903799
 20
10.9396559174
 11
5.7485867876
 21
10.9229201151
  0
LINE
  5
268
100
AcDbEntity
  8
0
100
AcDbLine
 62
7
  6
CONTINUOUS
 10
6.2096302908
 20
11.6266433287
 11
6.1982421818
 21
11.6108801057
  0
LINE
  5
269
100
AcDbEntity
  8
0
100
AcDbLine
 62
7
  6
CONTINUOUS
 10
5.7445385315
 20
10.9864106041
 11
5.7330659348
 21
10.9707087651
  0
LINE
  5
26A
100
AcDbEntity
  8
0
100
AcDbLine
 62
7
  6
CONTINUOUS
 10
6.2598762051
 20
11.6266496255
 11
6.2470198895
 21
11.6120591021
  0
LINE
  5
26B
100
AcDbEntity
  8
0
100
AcDbLine
 62
7
  6
CONTINUOUS
 10
5.7351642935
 20
11.0342935704
 11
5.722229809
 21
11.0197722987
  0
LINE
  5
26C
100
AcDbEntity
  8
0
100
AcDbLine
 62
7
  6
CONTINUOUS
 10
6.3098881608
 20
11.6218064627
 11
6.2956836746
 21
11.6085248666
  0
LINE
  5
26D
100
AcDbEntity
  8
0
100
AcDbLine
 62
7
  6
CONTINUOUS
 10
5.7304551906
 20
11.0828577461
 11
5.7161795842
 21
11.0696526227
  0
LINE
  5
26E
100
AcDbEntity
  8
0
100
AcDbLine
 62
7
  6
CONTINUOUS
 10
6.3591992099
 20
11.6121590596
 11
6.3437791765
 21
11.6003103976
  0
LINE
  5
26F
100
AcDbEntity
  8
0
100
AcDbLine
 62
7
  6
CONTINUOUS
 10
5.7304551906
 20
11.1316497003
 11
5.7149717497
 21
11.119884018
  0
LINE
  5
270
100
AcDbEntity
  8
0
100
AcDbLine
 62
7
  6
CONTINUOUS
 10
2.6988834973
 20
10.9664810962
 11
2.7167675193
 21
10.9741185028
  0
LINE
  5
271
100
AcDbEntity
  8
0
100
AcDbLine
 62
7
  6
CONTINUOUS
 10
1.9881696213
 20
10.672323372
 11
2.0062159966
 21
10.6795688232
  0
LINE
  5
272
100
AcDbEntity
  8
0
100
AcDbLine
 62
7
  6
CONTINUOUS
 10
1.7867859102
 20
11.2928348313
 11
1.7682394079
 21
11.2869871416
  0
LINE
  5
273
100
AcDbEntity
  8
0
100
AcDbLine
 62
7
  6
CONTINUOUS
 10
2.5229100035
 20
11.515913964
 11
2.5042403481
 21
11.5104722557
  0
LINE
  5
274
100
AcDbEntity
  8
0
100
AcDbLine
 62
7
  6
CONTINUOUS
 10
6.5042403481
 20
2.4540351907
 11
6.5229100035
 21
2.4485934824
  0
LINE
  5
275
100
AcDbEntity
  8
0
100
AcDbLine
 62
7
  6
CONTINUOUS
 10
5.7682394079
 20
2.6775203048
 11
5.7867859102
 21
2.6716726151
  0
LINE
  5
276
100
AcDbEntity
  8
0
100
AcDbLine
 62
7
  6
CONTINUOUS
 10
6.46342068
 20
2.4295688232
 11
6.4814670552
 21
2.422323372
  0
LINE
  5
277
100
AcDbEntity
  8
0
100
AcDbLine
 62
7
  6
CONTINUOUS
 10
5.7528691572
 20
2.7241185028
 11
5.7707531793
 21
2.7164810962
  0
LINE
  5
278
100
AcDbEntity
  8
0
100
AcDbLine
 62
7
  6
CONTINUOUS
 10
6.4203994464
 20
2.4092212951
 11
6.437648745
 21
2.4002418786
  0
LINE
  5
279
100
AcDbEntity
  8
0
100
AcDbLine
 62
7
  6
CONTINUOUS
 10
5.7421403407
 20
2.7719988658
 11
5.7591896495
 21
2.7626452947
  0
LINE
  5
27A
100
AcDbEntity
  8
0
100
AcDbLine
 62
7
  6
CONTINUOUS
 10
6.7274963359
 20
2.9425085806
 11
6.7104470271
 21
2.9518621517
  0
LINE
  5
27B
100
AcDbEntity
  8
0
100
AcDbLine
 62
7
  6
CONTINUOUS
 10
6.733480394
 20
2.8938071667
 11
6.7174299925
 21
2.9047868223
  0
LINE
  5
27C
100
AcDbEntity
  8
0
100
AcDbLine
 62
7
  6
CONTINUOUS
 10
6.7346620639
 20
2.8447537232
 11
6.719765144
 21
2.8572537232
  0
LINE
  5
27D
100
AcDbEntity
  8
0
100
AcDbLine
 62
7
  6
CONTINUOUS
 10
6.7310299654
 20
2.7958206615
 11
6.7174299925
 21
2.8097206241
  0
LINE
  5
27E
100
AcDbEntity
  8
0
100
AcDbLine
 62
7
  6
CONTINUOUS
 10
6.7226190778
 20
2.7474792338
 11
6.7104470271
 21
2.7626452947
  0
LINE
  5
27F
100
AcDbEntity
  8
0
100
AcDbLine
 62
7
  6
CONTINUOUS
 10
6.7095104024
 20
2.7001949944
 11
6.6988834973
 21
2.7164810962
  0
LINE
  5
280
100
AcDbEntity
  8
0
100
AcDbLine
 62
7
  6
CONTINUOUS
 10
6.1402099098
 20
2.3816250344
 11
6.1495634809
 21
2.3645757256
  0
LINE
  5
281
100
AcDbEntity
  8
0
100
AcDbLine
 62
7
  6
CONTINUOUS
 10
2.1402099098
 20
10.6316250344
 11
2.1495634809
 21
10.6145757256
  0
LINE
  5
282
100
AcDbEntity
  8
0
100
AcDbLine
 62
7
  6
CONTINUOUS
 10
5.7778064937
 20
3.0600841299
 11
5.7867859102
 21
3.0428348313
  0
LINE
  5
283
100
AcDbEntity
  8
0
100
AcDbLine
 62
7
  6
CONTINUOUS
 10
1.7778064937
 20
11.3100841299
 11
1.7867859102
 21
11.2928348313
  0
LINE
  5
284
100
AcDbEntity
  8
0
100
AcDbLine
 62
7
  6
CONTINUOUS
 10
6.6918301829
 20
2.6544233165
 11
6.6828507664
 21
2.6716726151
  0
LINE
  5
285
100
AcDbEntity
  8
0
100
AcDbLine
 62
7
  6
CONTINUOUS
 10
6.0940457113
 20
2.3931885642
 11
6.1016831179
 21
2.3753045422
  0
LINE
  5
286
100
AcDbEntity
  8
0
100
AcDbLine
 62
7
  6
CONTINUOUS
 10
2.3755909653
 20
11.5713188822
 11
2.3679535586
 21
11.5892029042
  0
LINE
  5
287
100
AcDbEntity
  8
0
100
AcDbLine
 62
7
  6
CONTINUOUS
 10
2.6697486895
 20
10.8606050062
 11
2.6625032383
 21
10.8786513815
  0
LINE
  5
288
100
AcDbEntity
  8
0
100
AcDbLine
 62
7
  6
CONTINUOUS
 10
6.0492372302
 20
2.4092212951
 11
6.0550849199
 21
2.3906747928
  0
LINE
  5
289
100
AcDbEntity
  8
0
100
AcDbLine
 62
7
  6
CONTINUOUS
 10
5.9653963285
 20
2.4540351907
 11
5.9675134133
 21
2.4347042266
  0
LINE
  5
28A
100
AcDbEntity
  8
0
100
AcDbLine
 62
7
  6
CONTINUOUS
 10
5.9291172887
 20
11.5279042531
 11
5.928229919
 21
11.5084779617
  0
LINE
  5
28B
100
AcDbEntity
  8
0
100
AcDbLine
 62
7
  6
CONTINUOUS
 10
5.9711430449
 20
11.5554449097
 11
5.9683849101
 21
11.5361949508
  0
LINE
  5
28C
100
AcDbEntity
  8
0
100
AcDbLine
 62
7
  6
CONTINUOUS
 10
6.0156306662
 20
11.5788009259
 11
6.0110275184
 21
11.5599070313
  0
LINE
  5
28D
100
AcDbEntity
  8
0
100
AcDbLine
 62
7
  6
CONTINUOUS
 10
6.6571962916
 20
11.3839741831
 11
6.662806964
 21
11.4025937582
  0
LINE
  5
28E
100
AcDbEntity
  8
0
100
AcDbLine
 62
7
  6
CONTINUOUS
 10
6.6819318536
 20
11.3419169985
 11
6.6893133815
 21
11.3599081427
  0
LINE
  5
28F
100
AcDbEntity
  8
0
100
AcDbLine
 62
7
  6
CONTINUOUS
 10
6.7024928372
 20
11.2976688262
 11
6.7115763013
 21
11.3148635609
  0
LINE
  5
290
100
AcDbEntity
  8
0
100
AcDbLine
 62
7
  6
CONTINUOUS
 10
6.71868727
 20
11.2516427993
 11
6.7293878604
 21
11.267880582
  0
LINE
  5
291
100
AcDbEntity
  8
0
100
AcDbLine
 62
7
  6
CONTINUOUS
 10
6.730363949
 20
11.2042686505
 11
6.7425817572
 21
11.2193978734
  0
LINE
  5
292
100
AcDbEntity
  8
0
100
AcDbLine
 62
7
  6
CONTINUOUS
 10
6.7374138521
 20
11.1559886995
 11
6.7510348037
 21
11.1698681051
  0
LINE
  5
293
100
AcDbEntity
  8
0
100
AcDbLine
 62
7
  6
CONTINUOUS
 10
6.7397711563
 20
11.1072537232
 11
6.7546680762
 21
11.1197537232
  0
LINE
  5
294
100
AcDbEntity
  8
0
100
AcDbLine
 62
7
  6
CONTINUOUS
 10
6.7374138521
 20
11.0585187469
 11
6.7534476517
 21
11.0695226321
  0
LINE
  5
295
100
AcDbEntity
  8
0
100
AcDbLine
 62
7
  6
CONTINUOUS
 10
6.4073489483
 20
11.5977974915
 11
6.3908573404
 21
11.5874923912
  0
LINE
  5
296
100
AcDbEntity
  8
0
100
AcDbLine
 62
7
  6
CONTINUOUS
 10
5.7351642935
 20
11.1802138759
 11
5.7186175828
 21
11.1699974877
  0
LINE
  5
297
100
AcDbEntity
  8
0
100
AcDbLine
 62
7
  6
CONTINUOUS
 10
6.4538878148
 20
11.5788558483
 11
6.4364786102
 21
11.5701905257
  0
LINE
  5
298
100
AcDbEntity
  8
0
100
AcDbLine
 62
7
  6
CONTINUOUS
 10
5.7445385315
 20
11.2280968423
 11
5.7270830432
 21
11.2195251358
  0
LINE
  5
299
100
AcDbEntity
  8
0
100
AcDbLine
 62
7
  6
CONTINUOUS
 10
6.4983812887
 20
11.5555109832
 11
6.4802170323
 21
11.5485663441
  0
LINE
  5
29A
100
AcDbEntity
  8
0
100
AcDbLine
 62
7
  6
CONTINUOUS
 10
5.7584903799
 20
11.2748515289
 11
5.7402890912
 21
11.268004536
  0
LINE
  5
29B
100
AcDbEntity
  8
0
100
AcDbLine
 62
7
  6
CONTINUOUS
 10
2.6828507664
 20
10.9216726151
 11
2.7013972687
 21
10.9275203048
  0
LINE
  5
29C
100
AcDbEntity
  8
0
100
AcDbLine
 62
7
  6
CONTINUOUS
 10
1.946726673
 20
10.6985934824
 11
1.9653963285
 21
10.7040351907
  0
LINE
  5
29D
100
AcDbEntity
  8
0
100
AcDbLine
 62
7
  6
CONTINUOUS
 10
6.5777275131
 20
2.5143445484
 11
6.5971000609
 21
2.5126496701
  0
LINE
  5
29E
100
AcDbEntity
  8
0
100
AcDbLine
 62
7
  6
CONTINUOUS
 10
5.8122688417
 20
2.5899487983
 11
5.8315998058
 21
2.5878317134
  0
LINE
  5
29F
100
AcDbEntity
  8
0
100
AcDbLine
 62
7
  6
CONTINUOUS
 10
6.542465335
 20
2.4823847731
 11
6.5615784716
 21
2.4787992143
  0
LINE
  5
2A0
100
AcDbEntity
  8
0
100
AcDbLine
 62
7
  6
CONTINUOUS
 10
5.7881030686
 20
2.6326530378
 11
5.8071334383
 21
2.6286513815
  0
LINE
  5
2A1
100
AcDbEntity
  8
0
100
AcDbLine
 62
7
  6
CONTINUOUS
 10
6.7013972687
 20
3.0369871416
 11
6.6828507664
 21
3.0428348313
  0
LINE
  5
2A2
100
AcDbEntity
  8
0
100
AcDbLine
 62
7
  6
CONTINUOUS
 10
6.7167675193
 20
2.9903889436
 11
6.6988834973
 21
2.9980263502
  0
LINE
  5
2A3
100
AcDbEntity
  8
0
100
AcDbLine
 62
7
  6
CONTINUOUS
 10
2.1872852392
 20
10.6246420689
 11
2.1982648948
 21
10.6085916675
  0
LINE
  5
2A4
100
AcDbEntity
  8
0
100
AcDbLine
 62
7
  6
CONTINUOUS
 10
1.7601262742
 20
11.2643124519
 11
1.7707531793
 21
11.2480263502
  0
LINE
  5
2A5
100
AcDbEntity
  8
0
100
AcDbLine
 62
7
  6
CONTINUOUS
 10
2.3294267668
 20
11.582882412
 11
2.3200731957
 21
11.5999317208
  0
LINE
  5
2A6
100
AcDbEntity
  8
0
100
AcDbLine
 62
7
  6
CONTINUOUS
 10
2.6918301829
 20
10.9044233165
 11
2.6828507664
 21
10.9216726151
  0
LINE
  5
2A7
100
AcDbEntity
  8
0
100
AcDbLine
 62
7
  6
CONTINUOUS
 10
6.6697486895
 20
2.6106050062
 11
6.6625032383
 21
2.6286513815
  0
LINE
  5
2A8
100
AcDbEntity
  8
0
100
AcDbLine
 62
7
  6
CONTINUOUS
 10
6.6434785791
 20
2.5691620579
 11
6.6380368708
 21
2.5878317134
  0
LINE
  5
2A9
100
AcDbEntity
  8
0
100
AcDbLine
 62
7
  6
CONTINUOUS
 10
6.0062159966
 20
2.4295688232
 11
6.0102176529
 21
2.4105384535
  0
LINE
  5
2AA
100
AcDbEntity
  8
0
100
AcDbLine
 62
7
  6
CONTINUOUS
 10
6.6132728472
 20
2.5304935899
 11
6.6096872884
 21
2.5496067265
  0
LINE
  5
2AB
100
AcDbEntity
  8
0
100
AcDbLine
 62
7
  6
CONTINUOUS
 10
6.5794223914
 20
2.4949720005
 11
6.5777275131
 21
2.5143445484
  0
LINE
  5
2AC
100
AcDbEntity
  8
0
100
AcDbLine
 62
7
  6
CONTINUOUS
 10
5.8899457809
 20
11.4964360958
 11
5.8909374613
 21
11.4770148499
  0
LINE
  5
2AD
100
AcDbEntity
  8
0
100
AcDbLine
 62
7
  6
CONTINUOUS
 10
5.9271713416
 20
2.4823847731
 11
5.9273834663
 21
2.4629393822
  0
LINE
  5
2AE
100
AcDbEntity
  8
0
100
AcDbLine
 62
7
  6
CONTINUOUS
 10
5.7973183383
 20
11.1072537232
 11
5.7973183383
 21
2.8572537232
  0
LINE
  5
2AF
100
AcDbEntity
  8
0
100
AcDbLine
 62
7
  6
CONTINUOUS
 10
5.8919091635
 20
2.5143445484
 11
5.8902142852
 21
2.4949720005
  0
LINE
  5
2B0
100
AcDbEntity
  8
0
100
AcDbLine
 62
7
  6
CONTINUOUS
 10
6.5961620501
 20
11.4599690055
 11
6.5980908784
 21
11.4793196604
  0
LINE
  5
2B1
100
AcDbEntity
  8
0
100
AcDbLine
 62
7
  6
CONTINUOUS
 10
6.6285171005
 20
11.4234477033
 11
6.6323045319
 21
11.4425218634
  0
LINE
  5
2B2
100
AcDbEntity
  8
0
100
AcDbLine
 62
7
  6
CONTINUOUS
 10
6.730363949
 20
11.0102387959
 11
6.7473849251
 21
11.0196438261
  0
LINE
  5
2B3
100
AcDbEntity
  8
0
100
AcDbLine
 62
7
  6
CONTINUOUS
 10
6.71868727
 20
10.9628646471
 11
6.7365365024
 21
10.9705830101
  0
LINE
  5
2B4
100
AcDbEntity
  8
0
100
AcDbLine
 62
7
  6
CONTINUOUS
 10
6.7024928372
 20
10.9168386202
 11
6.7210036723
 21
10.9227982517
  0
LINE
  5
2B5
100
AcDbEntity
  8
0
100
AcDbLine
 62
7
  6
CONTINUOUS
 10
6.6096872884
 20
2.5496067265
 11
6.6291326793
 21
2.5498188512
  0
LINE
  5
2B6
100
AcDbEntity
  8
0
100
AcDbLine
 62
7
  6
CONTINUOUS
 10
5.8405039973
 20
2.5498188512
 11
5.8599493882
 21
2.5496067265
  0
LINE
  5
2B7
100
AcDbEntity
  8
0
100
AcDbLine
 62
7
  6
CONTINUOUS
 10
6.6815336079
 20
3.0818544085
 11
6.6723183383
 21
3.0837921714
  0
LINE
  5
2B8
100
AcDbEntity
  8
0
100
AcDbLine
 62
7
  6
CONTINUOUS
 10
2.2348183383
 20
10.6223069175
 11
2.2473183383
 21
10.6074099976
  0
LINE
  5
2B9
100
AcDbEntity
  8
0
100
AcDbLine
 62
7
  6
CONTINUOUS
 10
1.7470175988
 20
11.2170282126
 11
1.7591896495
 21
11.2018621517
  0
LINE
  5
2BA
100
AcDbEntity
  8
0
100
AcDbLine
 62
7
  6
CONTINUOUS
 10
2.2823514374
 20
11.5898653774
 11
2.2713717818
 21
11.6059157789
  0
LINE
  5
2BB
100
AcDbEntity
  8
0
100
AcDbLine
 62
7
  6
CONTINUOUS
 10
2.7095104024
 20
10.9501949944
 11
2.6988834973
 21
10.9664810962
  0
LINE
  5
2BC
100
AcDbEntity
  8
0
100
AcDbLine
 62
7
  6
CONTINUOUS
 10
5.8539942553
 20
11.4613342476
 11
5.8568557267
 21
11.4420993782
  0
LINE
  5
2BD
100
AcDbEntity
  8
0
100
AcDbLine
 62
7
  6
CONTINUOUS
 10
6.5216642329
 20
11.5228217454
 11
6.5198393497
 21
11.5421824795
  0
LINE
  5
2BE
100
AcDbEntity
  8
0
100
AcDbLine
 62
7
  6
CONTINUOUS
 10
6.6723183383
 20
11.1072537232
 11
6.6723183383
 21
2.8572537232
  0
LINE
  5
2BF
100
AcDbEntity
  8
0
100
AcDbLine
 62
7
  6
CONTINUOUS
 10
6.5604332308
 20
11.4931971001
 11
6.5604854471
 21
11.5126435779
  0
LINE
  5
2C0
100
AcDbEntity
  8
0
100
AcDbLine
 62
7
  6
CONTINUOUS
 10
6.5422532103
 20
2.4629393822
 11
6.542465335
 21
2.4823847731
  0
LINE
  5
2C1
100
AcDbEntity
  8
0
100
AcDbLine
 62
7
  6
CONTINUOUS
 10
6.5021232632
 20
2.4347042266
 11
6.5042403481
 21
2.4540351907
  0
LINE
  5
2C2
100
AcDbEntity
  8
0
100
AcDbLine
 62
7
  6
CONTINUOUS
 10
5.8599493882
 20
2.5496067265
 11
5.8563638294
 21
2.5304935899
  0
LINE
  5
2C3
100
AcDbEntity
  8
0
100
AcDbLine
 62
7
  6
CONTINUOUS
 10
9.752206684
 20
11.1547868223
 11
9.7361562826
 21
11.1438071667
  0
LINE
  5
2C4
100
AcDbEntity
  8
0
100
AcDbLine
 62
7
  6
CONTINUOUS
 10
10.391877067
 20
11.5819457873
 11
10.3755909653
 21
11.5713188822
  0
LINE
  5
2C5
100
AcDbEntity
  8
0
100
AcDbLine
 62
7
  6
CONTINUOUS
 10
9.7591896495
 20
11.2018621517
 11
9.7421403407
 21
11.1925085806
  0
LINE
  5
2C6
100
AcDbEntity
  8
0
100
AcDbLine
 62
7
  6
CONTINUOUS
 10
10.437648745
 20
11.5642655678
 11
10.4203994464
 21
11.5552861513
  0
LINE
  5
2C7
100
AcDbEntity
  8
0
100
AcDbLine
 62
7
  6
CONTINUOUS
 10
9.7707531793
 20
11.2480263502
 11
9.7528691572
 21
11.2403889436
  0
LINE
  5
2C8
100
AcDbEntity
  8
0
100
AcDbLine
 62
7
  6
CONTINUOUS
 10
10.4814670552
 20
11.5421840744
 11
10.46342068
 21
11.5349386232
  0
LINE
  5
2C9
100
AcDbEntity
  8
0
100
AcDbLine
 62
7
  6
CONTINUOUS
 10
9.7867859102
 20
11.2928348313
 11
9.7682394079
 21
11.2869871416
  0
LINE
  5
2CA
100
AcDbEntity
  8
0
100
AcDbLine
 62
7
  6
CONTINUOUS
 10
10.5229100035
 20
11.515913964
 11
10.5042403481
 21
11.5104722557
  0
LINE
  5
2CB
100
AcDbEntity
  8
0
100
AcDbLine
 62
7
  6
CONTINUOUS
 10
6.6625032383
 20
2.6286513815
 11
6.6815336079
 21
2.6326530378
  0
LINE
  5
2CC
100
AcDbEntity
  8
0
100
AcDbLine
 62
7
  6
CONTINUOUS
 10
5.908058205
 20
2.4787992143
 11
5.9271713416
 21
2.4823847731
  0
LINE
  5
2CD
100
AcDbEntity
  8
0
100
AcDbLine
 62
7
  6
CONTINUOUS
 10
6.6380368708
 20
2.5878317134
 11
6.6573678349
 21
2.5899487983
  0
LINE
  5
2CE
100
AcDbEntity
  8
0
100
AcDbLine
 62
7
  6
CONTINUOUS
 10
5.8725366156
 20
2.5126496701
 11
5.8919091635
 21
2.5143445484
  0
LINE
  5
2CF
100
AcDbEntity
  8
0
100
AcDbLine
 62
7
  6
CONTINUOUS
 10
2.2823514374
 20
10.6246420689
 11
2.2962514
 21
10.611042096
  0
LINE
  5
2D0
100
AcDbEntity
  8
0
100
AcDbLine
 62
7
  6
CONTINUOUS
 10
1.7386067111
 20
11.1686867849
 11
1.752206684
 21
11.1547868223
  0
LINE
  5
2D1
100
AcDbEntity
  8
0
100
AcDbLine
 62
7
  6
CONTINUOUS
 10
2.2348183383
 20
11.5922005289
 11
2.2223183383
 21
11.6070974488
  0
LINE
  5
2D2
100
AcDbEntity
  8
0
100
AcDbLine
 62
7
  6
CONTINUOUS
 10
2.7226190778
 20
10.9974792338
 11
2.7104470271
 21
11.0126452947
  0
LINE
  5
2D3
100
AcDbEntity
  8
0
100
AcDbLine
 62
7
  6
CONTINUOUS
 10
5.8215983814
 20
11.422926445
 11
5.8263029272
 21
11.4040575427
  0
LINE
  5
2D4
100
AcDbEntity
  8
0
100
AcDbLine
 62
7
  6
CONTINUOUS
 10
6.4594190236
 20
2.4105384535
 11
6.46342068
 21
2.4295688232
  0
LINE
  5
2D5
100
AcDbEntity
  8
0
100
AcDbLine
 62
7
  6
CONTINUOUS
 10
5.8315998058
 20
2.5878317134
 11
5.8261580975
 21
2.5691620579
  0
LINE
  5
2D6
100
AcDbEntity
  8
0
100
AcDbLine
 62
7
  6
CONTINUOUS
 10
5.8071334383
 20
2.6286513815
 11
5.7998879871
 21
2.6106050062
  0
LINE
  5
2D7
100
AcDbEntity
  8
0
100
AcDbLine
 62
7
  6
CONTINUOUS
 10
9.7707531793
 20
10.9664810962
 11
9.7601262742
 21
10.9501949944
  0
LINE
  5
2D8
100
AcDbEntity
  8
0
100
AcDbLine
 62
7
  6
CONTINUOUS
 10
10.1982648948
 20
11.6059157789
 11
10.1872852392
 21
11.5898653774
  0
LINE
  5
2D9
100
AcDbEntity
  8
0
100
AcDbLine
 62
7
  6
CONTINUOUS
 10
9.7591896495
 20
11.0126452947
 11
9.7470175988
 21
10.9974792338
  0
LINE
  5
2DA
100
AcDbEntity
  8
0
100
AcDbLine
 62
7
  6
CONTINUOUS
 10
10.2473183383
 20
11.6070974488
 11
10.2348183383
 21
11.5922005289
  0
LINE
  5
2DB
100
AcDbEntity
  8
0
100
AcDbLine
 62
7
  6
CONTINUOUS
 10
9.752206684
 20
11.0597206241
 11
9.7386067111
 21
11.0458206615
  0
LINE
  5
2DC
100
AcDbEntity
  8
0
100
AcDbLine
 62
7
  6
CONTINUOUS
 10
10.2962514
 20
11.6034653504
 11
10.2823514374
 21
11.5898653774
  0
LINE
  5
2DD
100
AcDbEntity
  8
0
100
AcDbLine
 62
7
  6
CONTINUOUS
 10
9.7498715326
 20
11.1072537232
 11
9.7349746127
 21
11.0947537232
  0
LINE
  5
2DE
100
AcDbEntity
  8
0
100
AcDbLine
 62
7
  6
CONTINUOUS
 10
10.719765144
 20
11.1072537232
 11
10.7346620639
 21
11.1197537232
  0
LINE
  5
2DF
100
AcDbEntity
  8
0
100
AcDbLine
 62
7
  6
CONTINUOUS
 10
10.3445928277
 20
11.5950544627
 11
10.3294267668
 21
11.582882412
  0
LINE
  5
2E0
100
AcDbEntity
  8
0
100
AcDbLine
 62
7
  6
CONTINUOUS
 10
10.1250438489
 20
10.6194529837
 11
10.1402099098
 21
10.6316250344
  0
LINE
  5
2E1
100
AcDbEntity
  8
0
100
AcDbLine
 62
7
  6
CONTINUOUS
 10
10.7174299925
 20
11.0597206241
 11
10.733480394
 21
11.0707002797
  0
LINE
  5
2E2
100
AcDbEntity
  8
0
100
AcDbLine
 62
7
  6
CONTINUOUS
 10
10.0777596095
 20
10.6325616591
 11
10.0940457113
 21
10.6431885642
  0
LINE
  5
2E3
100
AcDbEntity
  8
0
100
AcDbLine
 62
7
  6
CONTINUOUS
 10
10.7104470271
 20
11.0126452947
 11
10.7274963359
 21
11.0219988658
  0
LINE
  5
2E4
100
AcDbEntity
  8
0
100
AcDbLine
 62
7
  6
CONTINUOUS
 10
10.0319879316
 20
10.6502418786
 11
10.0492372302
 21
10.6592212951
  0
LINE
  5
2E5
100
AcDbEntity
  8
0
100
AcDbLine
 62
7
  6
CONTINUOUS
 10
10.6988834973
 20
10.9664810962
 11
10.7167675193
 21
10.9741185028
  0
LINE
  5
2E6
100
AcDbEntity
  8
0
100
AcDbLine
 62
7
  6
CONTINUOUS
 10
9.9881696213
 20
10.672323372
 11
10.0062159966
 21
10.6795688232
  0
LINE
  5
2E7
100
AcDbEntity
  8
0
100
AcDbLine
 62
7
  6
CONTINUOUS
 10
10.6828507664
 20
10.9216726151
 11
10.7013972687
 21
10.9275203048
  0
LINE
  5
2E8
100
AcDbEntity
  8
0
100
AcDbLine
 62
7
  6
CONTINUOUS
 10
9.946726673
 20
10.6985934824
 11
9.9653963285
 21
10.7040351907
  0
LINE
  5
2E9
100
AcDbEntity
  8
0
100
AcDbLine
 62
7
  6
CONTINUOUS
 10
5.7973183383
 20
3.0837921714
 11
5.7881030686
 21
3.0818544085
  0
LINE
  5
2EA
100
AcDbEntity
  8
0
100
AcDbLine
 62
7
  6
CONTINUOUS
 10
2.3294267668
 20
10.6316250344
 11
2.3445928277
 21
10.6194529837
  0
LINE
  5
2EB
100
AcDbEntity
  8
0
100
AcDbLine
 62
7
  6
CONTINUOUS
 10
1.7349746127
 20
11.1197537232
 11
1.7498715326
 21
11.1072537232
  0
LINE
  5
2EC
100
AcDbEntity
  8
0
100
AcDbLine
 62
7
  6
CONTINUOUS
 10
2.1872852392
 20
11.5898653774
 11
2.1733852766
 21
11.6034653504
  0
LINE
  5
2ED
100
AcDbEntity
  8
0
100
AcDbLine
 62
7
  6
CONTINUOUS
 10
2.7310299654
 20
11.0458206615
 11
2.7174299925
 21
11.0597206241
  0
LINE
  5
2EE
100
AcDbEntity
  8
0
100
AcDbLine
 62
7
  6
CONTINUOUS
 10
5.7686474533
 20
11.3376549081
 11
5.7768895742
 21
11.3200414001
  0
LINE
  5
2EF
100
AcDbEntity
  8
0
100
AcDbLine
 62
7
  6
CONTINUOUS
 10
5.793060631
 20
11.3815712912
 11
5.799564326
 21
11.36324453
  0
LINE
  5
2F0
100
AcDbEntity
  8
0
100
AcDbLine
 62
7
  6
CONTINUOUS
 10
6.4364786102
 20
11.5701905257
 11
6.4309680099
 21
11.5888399629
  0
LINE
  5
2F1
100
AcDbEntity
  8
0
100
AcDbLine
 62
7
  6
CONTINUOUS
 10
6.4802170323
 20
11.5485663441
 11
6.4765320879
 21
11.5676605686
  0
LINE
  5
2F2
100
AcDbEntity
  8
0
100
AcDbLine
 62
7
  6
CONTINUOUS
 10
8.7348183383
 20
11.2122537232
 11
8.7348183383
 21
11.0022537232
  0
LINE
  5
2F3
100
AcDbEntity
  8
0
100
AcDbLine
 62
9
  6
CONTINUOUS
 10
8.7548183383
 20
10.9822537232
 11
8.7548183383
 21
11.2322537232
  0
LINE
  5
2F4
100
AcDbEntity
  8
0
100
AcDbLine
 62
7
  6
CONTINUOUS
 10
6.4145517567
 20
2.3906747928
 11
6.4203994464
 21
2.4092212951
  0
LINE
  5
2F5
100
AcDbEntity
  8
0
100
AcDbLine
 62
7
  6
CONTINUOUS
 10
9.8071334383
 20
10.8786513815
 11
9.7998879871
 21
10.8606050062
  0
LINE
  5
2F6
100
AcDbEntity
  8
0
100
AcDbLine
 62
7
  6
CONTINUOUS
 10
10.1016831179
 20
11.5892029042
 11
10.0940457113
 21
11.5713188822
  0
LINE
  5
2F7
100
AcDbEntity
  8
0
100
AcDbLine
 62
7
  6
CONTINUOUS
 10
6.3679535586
 20
2.3753045422
 11
6.3755909653
 21
2.3931885642
  0
LINE
  5
2F8
100
AcDbEntity
  8
0
100
AcDbLine
 62
7
  6
CONTINUOUS
 10
9.7867859102
 20
10.9216726151
 11
9.7778064937
 21
10.9044233165
  0
LINE
  5
2F9
100
AcDbEntity
  8
0
100
AcDbLine
 62
7
  6
CONTINUOUS
 10
5.7867859102
 20
2.6716726151
 11
5.7778064937
 21
2.6544233165
  0
LINE
  5
2FA
100
AcDbEntity
  8
0
100
AcDbLine
 62
7
  6
CONTINUOUS
 10
10.1495634809
 20
11.5999317208
 11
10.1402099098
 21
11.582882412
  0
LINE
  5
2FB
100
AcDbEntity
  8
0
100
AcDbLine
 62
7
  6
CONTINUOUS
 10
10.6988834973
 20
11.2480263502
 11
10.7095104024
 21
11.2643124519
  0
LINE
  5
2FC
100
AcDbEntity
  8
0
100
AcDbLine
 62
7
  6
CONTINUOUS
 10
10.2713717818
 20
10.6085916675
 11
10.2823514374
 21
10.6246420689
  0
LINE
  5
2FD
100
AcDbEntity
  8
0
100
AcDbLine
 62
7
  6
CONTINUOUS
 10
10.7104470271
 20
11.2018621517
 11
10.7226190778
 21
11.2170282126
  0
LINE
  5
2FE
100
AcDbEntity
  8
0
100
AcDbLine
 62
7
  6
CONTINUOUS
 10
10.2223183383
 20
10.6074099976
 11
10.2348183383
 21
10.6223069175
  0
LINE
  5
2FF
100
AcDbEntity
  8
0
100
AcDbLine
 62
7
  6
CONTINUOUS
 10
10.7174299925
 20
11.1547868223
 11
10.7310299654
 21
11.1686867849
  0
LINE
  5
300
100
AcDbEntity
  8
0
100
AcDbLine
 62
7
  6
CONTINUOUS
 10
10.1733852766
 20
10.611042096
 11
10.1872852392
 21
10.6246420689
  0
LINE
  5
301
100
AcDbEntity
  8
0
100
AcDbLine
 62
7
  6
CONTINUOUS
 10
14.7867859102
 20
11.2928348313
 11
14.7682394079
 21
11.2869871416
  0
LINE
  5
302
100
AcDbEntity
  8
0
100
AcDbLine
 62
7
  6
CONTINUOUS
 10
15.5229100035
 20
11.515913964
 11
15.5042403481
 21
11.5104722557
  0
LINE
  5
303
100
AcDbEntity
  8
0
100
AcDbLine
 62
7
  6
CONTINUOUS
 10
1.7361562826
 20
11.0707002797
 11
1.752206684
 21
11.0597206241
  0
LINE
  5
304
100
AcDbEntity
  8
0
100
AcDbLine
 62
7
  6
CONTINUOUS
 10
2.1402099098
 20
11.582882412
 11
2.1250438489
 21
11.5950544627
  0
LINE
  5
305
100
AcDbEntity
  8
0
100
AcDbLine
 62
7
  6
CONTINUOUS
 10
2.7346620639
 20
11.0947537232
 11
2.719765144
 21
11.1072537232
  0
LINE
  5
306
100
AcDbEntity
  8
0
100
AcDbLine
 62
7
  6
CONTINUOUS
 10
5.7485867876
 20
11.2915873313
 11
5.7584903799
 21
11.2748515289
  0
LINE
  5
307
100
AcDbEntity
  8
0
100
AcDbLine
 62
7
  6
CONTINUOUS
 10
6.7115763013
 20
10.8996438855
 11
6.7024928372
 21
10.9168386202
  0
LINE
  5
308
100
AcDbEntity
  8
0
100
AcDbLine
 62
7
  6
CONTINUOUS
 10
6.3437791765
 20
11.6003103976
 11
6.3347881829
 21
11.6175536646
  0
LINE
  5
309
100
AcDbEntity
  8
0
100
AcDbLine
 62
7
  6
CONTINUOUS
 10
6.6893133815
 20
10.8545993037
 11
6.6819318536
 21
10.8725904479
  0
LINE
  5
30A
100
AcDbEntity
  8
0
100
AcDbLine
 62
7
  6
CONTINUOUS
 10
6.3908573404
 20
11.5874923912
 11
6.3835725354
 21
11.6055229164
  0
LINE
  5
30B
100
AcDbEntity
  8
0
100
AcDbLine
 62
7
  6
CONTINUOUS
 10
9.8919091635
 20
10.7643445484
 11
9.8902142852
 21
10.7449720005
  0
LINE
  5
30C
100
AcDbEntity
  8
0
100
AcDbLine
 62
7
  6
CONTINUOUS
 10
9.9675134133
 20
11.5298032198
 11
9.9653963285
 21
11.5104722557
  0
LINE
  5
30D
100
AcDbEntity
  8
0
100
AcDbLine
 62
7
  6
CONTINUOUS
 10
9.8599493882
 20
10.7996067265
 11
9.8563638294
 21
10.7804935899
  0
LINE
  5
30E
100
AcDbEntity
  8
0
100
AcDbLine
 62
7
  6
CONTINUOUS
 10
10.0102176529
 20
11.5539689928
 11
10.0062159966
 21
11.5349386232
  0
LINE
  5
30F
100
AcDbEntity
  8
0
100
AcDbLine
 62
7
  6
CONTINUOUS
 10
9.8315998058
 20
10.8378317134
 11
9.8261580975
 21
10.8191620579
  0
LINE
  5
310
100
AcDbEntity
  8
0
100
AcDbLine
 62
7
  6
CONTINUOUS
 10
10.6380368708
 20
11.376675733
 11
10.6434785791
 21
11.3953453884
  0
LINE
  5
311
100
AcDbEntity
  8
0
100
AcDbLine
 62
7
  6
CONTINUOUS
 10
10.0550849199
 20
11.5738326536
 11
10.0492372302
 21
11.5552861513
  0
LINE
  5
312
100
AcDbEntity
  8
0
100
AcDbLine
 62
7
  6
CONTINUOUS
 10
10.4145517567
 20
10.6406747928
 11
10.4203994464
 21
10.6592212951
  0
LINE
  5
313
100
AcDbEntity
  8
0
100
AcDbLine
 62
7
  6
CONTINUOUS
 10
10.6625032383
 20
11.3358560649
 11
10.6697486895
 21
11.3539024402
  0
LINE
  5
314
100
AcDbEntity
  8
0
100
AcDbLine
 62
7
  6
CONTINUOUS
 10
10.3679235103
 20
10.6252341799
 11
10.3755909653
 21
10.6431885642
  0
LINE
  5
315
100
AcDbEntity
  8
0
100
AcDbLine
 62
7
  6
CONTINUOUS
 10
10.6828507664
 20
11.2928348313
 11
10.6918301829
 21
11.3100841299
  0
LINE
  5
316
100
AcDbEntity
  8
0
100
AcDbLine
 62
7
  6
CONTINUOUS
 10
6.6828507664
 20
3.0428348313
 11
6.6918301829
 21
3.0600841299
  0
LINE
  5
317
100
AcDbEntity
  8
0
100
AcDbLine
 62
7
  6
CONTINUOUS
 10
10.3200731957
 20
10.6145757256
 11
10.3294267668
 21
10.6316250344
  0
LINE
  5
318
100
AcDbEntity
  8
0
100
AcDbLine
 62
7
  6
CONTINUOUS
 10
6.3200731957
 20
2.3645757256
 11
6.3294267668
 21
2.3816250344
  0
LINE
  5
319
100
AcDbEntity
  8
0
100
AcDbLine
 62
7
  6
CONTINUOUS
 10
5.7707531793
 20
2.7164810962
 11
5.7601262742
 21
2.7001949944
  0
LINE
  5
31A
100
AcDbEntity
  8
0
100
AcDbLine
 62
7
  6
CONTINUOUS
 10
14.7591896495
 20
11.2018621517
 11
14.7421403407
 21
11.1925085806
  0
LINE
  5
31B
100
AcDbEntity
  8
0
100
AcDbLine
 62
7
  6
CONTINUOUS
 10
15.437648745
 20
11.5642655678
 11
15.4203994464
 21
11.5552861513
  0
LINE
  5
31C
100
AcDbEntity
  8
0
100
AcDbLine
 62
7
  6
CONTINUOUS
 10
14.7707531793
 20
11.2480263502
 11
14.7528691572
 21
11.2403889436
  0
LINE
  5
31D
100
AcDbEntity
  8
0
100
AcDbLine
 62
7
  6
CONTINUOUS
 10
15.4814670552
 20
11.5421840744
 11
15.46342068
 21
11.5349386232
  0
LINE
  5
31E
100
AcDbEntity
  8
0
100
AcDbLine
 62
7
  6
CONTINUOUS
 10
14.9881696213
 20
10.672323372
 11
15.0062159966
 21
10.6795688232
  0
LINE
  5
31F
100
AcDbEntity
  8
0
100
AcDbLine
 62
7
  6
CONTINUOUS
 10
15.6828507664
 20
10.9216726151
 11
15.7013972687
 21
10.9275203048
  0
LINE
  5
320
100
AcDbEntity
  8
0
100
AcDbLine
 62
7
  6
CONTINUOUS
 10
14.946726673
 20
10.6985934824
 11
14.9653963285
 21
10.7040351907
  0
LINE
  5
321
100
AcDbEntity
  8
0
100
AcDbLine
 62
7
  6
CONTINUOUS
 10
2.3755909653
 20
10.6431885642
 11
2.391877067
 21
10.6325616591
  0
LINE
  5
322
100
AcDbEntity
  8
0
100
AcDbLine
 62
7
  6
CONTINUOUS
 10
2.0940457113
 20
11.5713188822
 11
2.0777596095
 21
11.5819457873
  0
LINE
  5
323
100
AcDbEntity
  8
0
100
AcDbLine
 62
7
  6
CONTINUOUS
 10
2.733480394
 20
11.1438071667
 11
2.7174299925
 21
11.1547868223
  0
LINE
  5
324
100
AcDbEntity
  8
0
100
AcDbLine
 62
7
  6
CONTINUOUS
 10
5.722229809
 20
11.1947351477
 11
5.7351642935
 21
11.1802138759
  0
LINE
  5
325
100
AcDbEntity
  8
0
100
AcDbLine
 62
7
  6
CONTINUOUS
 10
5.7330659348
 20
11.2437986813
 11
5.7445385315
 21
11.2280968423
  0
LINE
  5
326
100
AcDbEntity
  8
0
100
AcDbLine
 62
7
  6
CONTINUOUS
 10
6.7293878604
 20
10.9466268644
 11
6.71868727
 21
10.9628646471
  0
LINE
  5
327
100
AcDbEntity
  8
0
100
AcDbLine
 62
7
  6
CONTINUOUS
 10
6.2956836746
 20
11.6085248666
 11
6.285070439
 21
11.6248198797
  0
LINE
  5
328
100
AcDbEntity
  8
0
100
AcDbLine
 62
7
  6
CONTINUOUS
 10
9.9653963285
 20
10.7040351907
 11
9.9675134133
 21
10.6847042266
  0
LINE
  5
329
100
AcDbEntity
  8
0
100
AcDbLine
 62
7
  6
CONTINUOUS
 10
9.8902142852
 20
11.4695354458
 11
9.8919091635
 21
11.450162898
  0
LINE
  5
32A
100
AcDbEntity
  8
0
100
AcDbLine
 62
7
  6
CONTINUOUS
 10
9.9271713416
 20
10.7323847731
 11
9.9273834663
 21
10.7129393822
  0
LINE
  5
32B
100
AcDbEntity
  8
0
100
AcDbLine
 62
7
  6
CONTINUOUS
 10
10.1098183383
 20
12.5872537232
 11
10.1098183383
 21
11.5913735521
  0
LINE
  5
32C
100
AcDbEntity
  8
0
100
AcDbLine
 62
7
  6
CONTINUOUS
 10
10.1098183383
 20
10.6231338943
 11
10.1098183383
 21
9.6272537232
  0
LINE
  5
32D
100
AcDbEntity
  8
0
100
AcDbLine
 62
9
  6
CONTINUOUS
 10
10.1298183383
 20
10.6232849165
 11
10.1298183383
 21
9.6072537232
  0
LINE
  5
32E
100
AcDbEntity
  8
0
100
AcDbLine
 62
9
  6
CONTINUOUS
 10
10.1298183383
 20
11.5912225299
 11
10.1298183383
 21
12.6072537232
  0
LINE
  5
32F
100
AcDbEntity
  8
0
100
AcDbLine
 62
9
  6
CONTINUOUS
 10
10.3398183383
 20
9.6072537232
 11
10.3398183383
 21
10.6232849165
  0
LINE
  5
330
100
AcDbEntity
  8
0
100
AcDbLine
 62
9
  6
CONTINUOUS
 10
10.3398183383
 20
11.5912225299
 11
10.3398183383
 21
12.6072537232
  0
LINE
  5
331
100
AcDbEntity
  8
0
100
AcDbLine
 62
7
  6
CONTINUOUS
 10
10.3598183383
 20
9.6272537232
 11
10.3598183383
 21
10.6231338943
  0
LINE
  5
332
100
AcDbEntity
  8
0
100
AcDbLine
 62
7
  6
CONTINUOUS
 10
10.3598183383
 20
11.5913735521
 11
10.3598183383
 21
12.5872537232
  0
LINE
  5
333
100
AcDbEntity
  8
0
100
AcDbLine
 62
7
  6
CONTINUOUS
 10
9.9273834663
 20
11.5015680642
 11
9.9271713416
 21
11.4821226733
  0
LINE
  5
334
100
AcDbEntity
  8
0
100
AcDbLine
 62
7
  6
CONTINUOUS
 10
10.5777275131
 20
11.450162898
 11
10.5794223914
 21
11.4695354458
  0
LINE
  5
335
100
AcDbEntity
  8
0
100
AcDbLine
 62
7
  6
CONTINUOUS
 10
10.5021232632
 20
10.6847042266
 11
10.5042403481
 21
10.7040351907
  0
LINE
  5
336
100
AcDbEntity
  8
0
100
AcDbLine
 62
7
  6
CONTINUOUS
 10
10.6096872884
 20
11.4149007199
 11
10.6132728472
 21
11.4340138565
  0
LINE
  5
337
100
AcDbEntity
  8
0
100
AcDbLine
 62
7
  6
CONTINUOUS
 10
10.4594190236
 20
10.6605384535
 11
10.46342068
 21
10.6795688232
  0
LINE
  5
338
100
AcDbEntity
  8
0
100
AcDbLine
 62
7
  6
CONTINUOUS
 10
6.6988834973
 20
2.9980263502
 11
6.7095104024
 21
3.0143124519
  0
LINE
  5
339
100
AcDbEntity
  8
0
100
AcDbLine
 62
7
  6
CONTINUOUS
 10
6.2713717818
 20
2.3585916675
 11
6.2823514374
 21
2.3746420689
  0
LINE
  5
33A
100
AcDbEntity
  8
0
100
AcDbLine
 62
7
  6
CONTINUOUS
 10
5.7591896495
 20
2.7626452947
 11
5.7470175988
 21
2.7474792338
  0
LINE
  5
33B
100
AcDbEntity
  8
0
100
AcDbLine
 62
7
  6
CONTINUOUS
 10
14.752206684
 20
11.1547868223
 11
14.7361562826
 21
11.1438071667
  0
LINE
  5
33C
100
AcDbEntity
  8
0
100
AcDbLine
 62
7
  6
CONTINUOUS
 10
15.391877067
 20
11.5819457873
 11
15.3755909653
 21
11.5713188822
  0
LINE
  5
33D
100
AcDbEntity
  8
0
100
AcDbLine
 62
7
  6
CONTINUOUS
 10
15.7104470271
 20
11.0126452947
 11
15.7274963359
 21
11.0219988658
  0
LINE
  5
33E
100
AcDbEntity
  8
0
100
AcDbLine
 62
7
  6
CONTINUOUS
 10
15.0319879316
 20
10.6502418786
 11
15.0492372302
 21
10.6592212951
  0
LINE
  5
33F
100
AcDbEntity
  8
0
100
AcDbLine
 62
7
  6
CONTINUOUS
 10
15.6988834973
 20
10.9664810962
 11
15.7167675193
 21
10.9741185028
  0
LINE
  5
340
100
AcDbEntity
  8
0
100
AcDbLine
 62
7
  6
CONTINUOUS
 10
2.4203994464
 20
10.6592212951
 11
2.437648745
 21
10.6502418786
  0
LINE
  5
341
100
AcDbEntity
  8
0
100
AcDbLine
 62
7
  6
CONTINUOUS
 10
1.7421403407
 20
11.0219988658
 11
1.7591896495
 21
11.0126452947
  0
LINE
  5
342
100
AcDbEntity
  8
0
100
AcDbLine
 62
7
  6
CONTINUOUS
 10
2.7274963359
 20
11.1925085806
 11
2.7104470271
 21
11.2018621517
  0
LINE
  5
343
100
AcDbEntity
  8
0
100
AcDbLine
 62
7
  6
CONTINUOUS
 10
5.7161795842
 20
11.1448548237
 11
5.7304551906
 21
11.1316497003
  0
LINE
  5
344
100
AcDbEntity
  8
0
100
AcDbLine
 62
7
  6
CONTINUOUS
 10
6.7425817572
 20
10.995109573
 11
6.730363949
 21
11.0102387959
  0
LINE
  5
345
100
AcDbEntity
  8
0
100
AcDbLine
 62
7
  6
CONTINUOUS
 10
6.2470198895
 20
11.6120591021
 11
6.2348835047
 21
11.6272537191
  0
LINE
  5
346
100
AcDbEntity
  8
0
100
AcDbLine
 62
7
  6
CONTINUOUS
 10
10.5042403481
 20
11.5104722557
 11
10.5021232632
 21
11.5298032198
  0
LINE
  5
347
100
AcDbEntity
  8
0
100
AcDbLine
 62
7
  6
CONTINUOUS
 10
10.5794223914
 20
10.7449720005
 11
10.5777275131
 21
10.7643445484
  0
LINE
  5
348
100
AcDbEntity
  8
0
100
AcDbLine
 62
7
  6
CONTINUOUS
 10
10.542465335
 20
11.4821226733
 11
10.5422532103
 21
11.5015680642
  0
LINE
  5
349
100
AcDbEntity
  8
0
100
AcDbLine
 62
7
  6
CONTINUOUS
 10
10.5422532103
 20
10.7129393822
 11
10.542465335
 21
10.7323847731
  0
LINE
  5
34A
100
AcDbEntity
  8
0
100
AcDbLine
 62
7
  6
CONTINUOUS
 10
6.7104470271
 20
2.9518621517
 11
6.7226190778
 21
2.9670282126
  0
LINE
  5
34B
100
AcDbEntity
  8
0
100
AcDbLine
 62
7
  6
CONTINUOUS
 10
6.2223183383
 20
2.3574099976
 11
6.2348183383
 21
2.3723069175
  0
LINE
  5
34C
100
AcDbEntity
  8
0
100
AcDbLine
 62
7
  6
CONTINUOUS
 10
5.752206684
 20
2.8097206241
 11
5.7386067111
 21
2.7958206615
  0
LINE
  5
34D
100
AcDbEntity
  8
0
100
AcDbLine
 62
7
  6
CONTINUOUS
 10
15.2962514
 20
11.6034653504
 11
15.2823514374
 21
11.5898653774
  0
LINE
  5
34E
100
AcDbEntity
  8
0
100
AcDbLine
 62
7
  6
CONTINUOUS
 10
14.7498715326
 20
11.1072537232
 11
14.7349746127
 21
11.0947537232
  0
LINE
  5
34F
100
AcDbEntity
  8
0
100
AcDbLine
 62
7
  6
CONTINUOUS
 10
15.3445928277
 20
11.5950544627
 11
15.3294267668
 21
11.582882412
  0
LINE
  5
350
100
AcDbEntity
  8
0
100
AcDbLine
 62
7
  6
CONTINUOUS
 10
15.7174299925
 20
11.0597206241
 11
15.733480394
 21
11.0707002797
  0
LINE
  5
351
100
AcDbEntity
  8
0
100
AcDbLine
 62
7
  6
CONTINUOUS
 10
15.0777596095
 20
10.6325616591
 11
15.0940457113
 21
10.6431885642
  0
LINE
  5
352
100
AcDbEntity
  8
0
100
AcDbLine
 62
7
  6
CONTINUOUS
 10
2.46342068
 20
10.6795688232
 11
2.4814670552
 21
10.672323372
  0
LINE
  5
353
100
AcDbEntity
  8
0
100
AcDbLine
 62
7
  6
CONTINUOUS
 10
1.7528691572
 20
10.9741185028
 11
1.7707531793
 21
10.9664810962
  0
LINE
  5
354
100
AcDbEntity
  8
0
100
AcDbLine
 62
7
  6
CONTINUOUS
 10
2.0492372302
 20
11.5552861513
 11
2.0319879316
 21
11.5642655678
  0
LINE
  5
355
100
AcDbEntity
  8
0
100
AcDbLine
 62
7
  6
CONTINUOUS
 10
5.7149717497
 20
11.0946234283
 11
5.7304551906
 21
11.0828577461
  0
LINE
  5
356
100
AcDbEntity
  8
0
100
AcDbLine
 62
7
  6
CONTINUOUS
 10
6.7546680762
 20
11.0947537232
 11
6.7397711563
 21
11.1072537232
  0
LINE
  5
357
100
AcDbEntity
  8
0
100
AcDbLine
 62
7
  6
CONTINUOUS
 10
6.1498059758
 20
11.6049988855
 11
6.1349763985
 21
11.617578705
  0
LINE
  5
358
100
AcDbEntity
  8
0
100
AcDbLine
 62
7
  6
CONTINUOUS
 10
6.7510348037
 20
11.0446393413
 11
6.7374138521
 21
11.0585187469
  0
LINE
  5
359
100
AcDbEntity
  8
0
100
AcDbLine
 62
7
  6
CONTINUOUS
 10
6.1982421818
 20
11.6108801057
 11
6.184695962
 21
11.6248324587
  0
LINE
  5
35A
100
AcDbEntity
  8
0
100
AcDbLine
 62
7
  6
CONTINUOUS
 10
10.0492372302
 20
10.6592212951
 11
10.0550849199
 21
10.6406747928
  0
LINE
  5
35B
100
AcDbEntity
  8
0
100
AcDbLine
 62
7
  6
CONTINUOUS
 10
9.8261580975
 20
11.3953453884
 11
9.8315998058
 21
11.376675733
  0
LINE
  5
35C
100
AcDbEntity
  8
0
100
AcDbLine
 62
7
  6
CONTINUOUS
 10
10.0062159966
 20
10.6795688232
 11
10.0102176529
 21
10.6605384535
  0
LINE
  5
35D
100
AcDbEntity
  8
0
100
AcDbLine
 62
7
  6
CONTINUOUS
 10
9.8563638294
 20
11.4340138565
 11
9.8599493882
 21
11.4149007199
  0
LINE
  5
35E
100
AcDbEntity
  8
0
100
AcDbLine
 62
9
  6
CONTINUOUS
 10
11.7148183383
 20
10.9822537232
 11
11.7148183383
 21
11.2322537232
  0
LINE
  5
35F
100
AcDbEntity
  8
0
100
AcDbLine
 62
7
  6
CONTINUOUS
 10
11.7348183383
 20
11.0022537232
 11
11.7348183383
 21
11.2122537232
  0
LINE
  5
360
100
AcDbEntity
  8
0
100
AcDbLine
 62
7
  6
CONTINUOUS
 10
14.7591896495
 20
11.0126452947
 11
14.7470175988
 21
10.9974792338
  0
LINE
  5
361
100
AcDbEntity
  8
0
100
AcDbLine
 62
7
  6
CONTINUOUS
 10
15.2473183383
 20
11.6070974488
 11
15.2348183383
 21
11.5922005289
  0
LINE
  5
362
100
AcDbEntity
  8
0
100
AcDbLine
 62
7
  6
CONTINUOUS
 10
6.7174299925
 20
2.9047868223
 11
6.7310299654
 21
2.9186867849
  0
LINE
  5
363
100
AcDbEntity
  8
0
100
AcDbLine
 62
7
  6
CONTINUOUS
 10
14.752206684
 20
11.0597206241
 11
14.7386067111
 21
11.0458206615
  0
LINE
  5
364
100
AcDbEntity
  8
0
100
AcDbLine
 62
7
  6
CONTINUOUS
 10
15.7174299925
 20
11.1547868223
 11
15.7310299654
 21
11.1686867849
  0
LINE
  5
365
100
AcDbEntity
  8
0
100
AcDbLine
 62
7
  6
CONTINUOUS
 10
6.1733852766
 20
2.361042096
 11
6.1872852392
 21
2.3746420689
  0
LINE
  5
366
100
AcDbEntity
  8
0
100
AcDbLine
 62
7
  6
CONTINUOUS
 10
15.1733852766
 20
10.611042096
 11
15.1872852392
 21
10.6246420689
  0
LINE
  5
367
100
AcDbEntity
  8
0
100
AcDbLine
 62
7
  6
CONTINUOUS
 10
5.7498715326
 20
2.8572537232
 11
5.7349746127
 21
2.8447537232
  0
LINE
  5
368
100
AcDbEntity
  8
0
100
AcDbLine
 62
7
  6
CONTINUOUS
 10
15.719765144
 20
11.1072537232
 11
15.7346620639
 21
11.1197537232
  0
LINE
  5
369
100
AcDbEntity
  8
0
100
AcDbLine
 62
7
  6
CONTINUOUS
 10
6.719765144
 20
2.8572537232
 11
6.7346620639
 21
2.8697537232
  0
LINE
  5
36A
100
AcDbEntity
  8
0
100
AcDbLine
 62
7
  6
CONTINUOUS
 10
15.1250438489
 20
10.6194529837
 11
15.1402099098
 21
10.6316250344
  0
LINE
  5
36B
100
AcDbEntity
  8
0
100
AcDbLine
 62
7
  6
CONTINUOUS
 10
5.752206684
 20
2.9047868223
 11
5.7361562826
 21
2.8938071667
  0
LINE
  5
36C
100
AcDbEntity
  8
0
100
AcDbLine
 62
7
  6
CONTINUOUS
 10
2.5042403481
 20
10.7040351907
 11
2.5229100035
 21
10.6985934824
  0
LINE
  5
36D
100
AcDbEntity
  8
0
100
AcDbLine
 62
7
  6
CONTINUOUS
 10
1.7682394079
 20
10.9275203048
 11
1.7867859102
 21
10.9216726151
  0
LINE
  5
36E
100
AcDbEntity
  8
0
100
AcDbLine
 62
7
  6
CONTINUOUS
 10
2.0062159966
 20
11.5349386232
 11
1.9881696213
 21
11.5421840744
  0
LINE
  5
36F
100
AcDbEntity
  8
0
100
AcDbLine
 62
7
  6
CONTINUOUS
 10
2.7168378816
 20
11.2403588952
 11
2.6988834973
 21
11.2480263502
  0
LINE
  5
370
100
AcDbEntity
  8
0
100
AcDbLine
 62
7
  6
CONTINUOUS
 10
5.7270830432
 20
10.9949823106
 11
5.7445385315
 21
10.9864106041
  0
LINE
  5
371
100
AcDbEntity
  8
0
100
AcDbLine
 62
7
  6
CONTINUOUS
 10
5.7186175828
 20
11.0445099586
 11
5.7351642935
 21
11.0342935704
  0
LINE
  5
372
100
AcDbEntity
  8
0
100
AcDbLine
 62
7
  6
CONTINUOUS
 10
6.7534476517
 20
11.1449848143
 11
6.7374138521
 21
11.1559886995
  0
LINE
  5
373
100
AcDbEntity
  8
0
100
AcDbLine
 62
7
  6
CONTINUOUS
 10
6.1021635074
 20
11.5944703529
 11
6.0861890322
 21
11.6055601845
  0
LINE
  5
374
100
AcDbEntity
  8
0
100
AcDbLine
 62
7
  6
CONTINUOUS
 10
10.1402099098
 20
10.6316250344
 11
10.1495634809
 21
10.6145757256
  0
LINE
  5
375
100
AcDbEntity
  8
0
100
AcDbLine
 62
7
  6
CONTINUOUS
 10
9.7778064937
 20
11.3100841299
 11
9.7867859102
 21
11.2928348313
  0
LINE
  5
376
100
AcDbEntity
  8
0
100
AcDbLine
 62
7
  6
CONTINUOUS
 10
10.0940457113
 20
10.6431885642
 11
10.1016831179
 21
10.6253045422
  0
LINE
  5
377
100
AcDbEntity
  8
0
100
AcDbLine
 62
7
  6
CONTINUOUS
 10
9.7998879871
 20
11.3539024402
 11
9.8071334383
 21
11.3358560649
  0
LINE
  5
378
100
AcDbEntity
  8
0
100
AcDbLine
 62
7
  6
CONTINUOUS
 10
10.4203994464
 20
11.5552861513
 11
10.4145517567
 21
11.5738326536
  0
LINE
  5
379
100
AcDbEntity
  8
0
100
AcDbLine
 62
7
  6
CONTINUOUS
 10
10.6434785791
 20
10.8191620579
 11
10.6380368708
 21
10.8378317134
  0
LINE
  5
37A
100
AcDbEntity
  8
0
100
AcDbLine
 62
7
  6
CONTINUOUS
 10
10.46342068
 20
11.5349386232
 11
10.4594190236
 21
11.5539689928
  0
LINE
  5
37B
100
AcDbEntity
  8
0
100
AcDbLine
 62
7
  6
CONTINUOUS
 10
10.6132728472
 20
10.7804935899
 11
10.6096872884
 21
10.7996067265
  0
LINE
  5
37C
100
AcDbEntity
  8
0
100
AcDbLine
 62
7
  6
CONTINUOUS
 10
15.1495634809
 20
11.5999317208
 11
15.1402099098
 21
11.582882412
  0
LINE
  5
37D
100
AcDbEntity
  8
0
100
AcDbLine
 62
7
  6
CONTINUOUS
 10
14.7707531793
 20
10.9664810962
 11
14.7601262742
 21
10.9501949944
  0
LINE
  5
37E
100
AcDbEntity
  8
0
100
AcDbLine
 62
7
  6
CONTINUOUS
 10
15.1982648948
 20
11.6059157789
 11
15.1872852392
 21
11.5898653774
  0
LINE
  5
37F
100
AcDbEntity
  8
0
100
AcDbLine
 62
7
  6
CONTINUOUS
 10
15.7104470271
 20
11.2018621517
 11
15.7226190778
 21
11.2170282126
  0
LINE
  5
380
100
AcDbEntity
  8
0
100
AcDbLine
 62
7
  6
CONTINUOUS
 10
15.2223183383
 20
10.6074099976
 11
15.2348183383
 21
10.6223069175
  0
LINE
  5
381
100
AcDbEntity
  8
0
100
AcDbLine
 62
7
  6
CONTINUOUS
 10
6.1250438489
 20
2.3694529837
 11
6.1402099098
 21
2.3816250344
  0
LINE
  5
382
100
AcDbEntity
  8
0
100
AcDbLine
 62
7
  6
CONTINUOUS
 10
6.7174299925
 20
2.8097206241
 11
6.733480394
 21
2.8207002797
  0
LINE
  5
383
100
AcDbEntity
  8
0
100
AcDbLine
 62
7
  6
CONTINUOUS
 10
6.0777596095
 20
2.3825616591
 11
6.0940457113
 21
2.3931885642
  0
LINE
  5
384
100
AcDbEntity
  8
0
100
AcDbLine
 62
7
  6
CONTINUOUS
 10
5.7591896495
 20
2.9518621517
 11
5.7421403407
 21
2.9425085806
  0
LINE
  5
385
100
AcDbEntity
  8
0
100
AcDbLine
 62
7
  6
CONTINUOUS
 10
2.542465335
 20
10.7323847731
 11
2.5615784716
 21
10.7287992143
  0
LINE
  5
386
100
AcDbEntity
  8
0
100
AcDbLine
 62
7
  6
CONTINUOUS
 10
1.7881030686
 20
10.8826530378
 11
1.8071334383
 21
10.8786513815
  0
LINE
  5
387
100
AcDbEntity
  8
0
100
AcDbLine
 62
7
  6
CONTINUOUS
 10
1.9653963285
 20
11.5104722557
 11
1.946726673
 21
11.515913964
  0
LINE
  5
388
100
AcDbEntity
  8
0
100
AcDbLine
 62
7
  6
CONTINUOUS
 10
2.7013972687
 20
11.2869871416
 11
2.6828507664
 21
11.2928348313
  0
LINE
  5
389
100
AcDbEntity
  8
0
100
AcDbLine
 62
7
  6
CONTINUOUS
 10
5.7402890912
 20
10.9465029104
 11
5.7584903799
 21
10.9396559174
  0
LINE
  5
38A
100
AcDbEntity
  8
0
100
AcDbLine
 62
7
  6
CONTINUOUS
 10
6.7473849251
 20
11.1948636203
 11
6.730363949
 21
11.2042686505
  0
LINE
  5
38B
100
AcDbEntity
  8
0
100
AcDbLine
 62
7
  6
CONTINUOUS
 10
6.0557596013
 20
11.5793928098
 11
6.0387893777
 21
11.5888891108
  0
LINE
  5
38C
100
AcDbEntity
  8
0
100
AcDbLine
 62
7
  6
CONTINUOUS
 10
10.2348183383
 20
10.6223069175
 11
10.2473183383
 21
10.6074099976
  0
LINE
  5
38D
100
AcDbEntity
  8
0
100
AcDbLine
 62
7
  6
CONTINUOUS
 10
9.7470175988
 20
11.2170282126
 11
9.7591896495
 21
11.2018621517
  0
LINE
  5
38E
100
AcDbEntity
  8
0
100
AcDbLine
 62
7
  6
CONTINUOUS
 10
10.1872852392
 20
10.6246420689
 11
10.1982648948
 21
10.6085916675
  0
LINE
  5
38F
100
AcDbEntity
  8
0
100
AcDbLine
 62
7
  6
CONTINUOUS
 10
9.7601262742
 20
11.2643124519
 11
9.7707531793
 21
11.2480263502
  0
LINE
  5
390
100
AcDbEntity
  8
0
100
AcDbLine
 62
7
  6
CONTINUOUS
 10
10.7095104024
 20
10.9501949944
 11
10.6988834973
 21
10.9664810962
  0
LINE
  5
391
100
AcDbEntity
  8
0
100
AcDbLine
 62
7
  6
CONTINUOUS
 10
10.3294267668
 20
11.582882412
 11
10.3200731957
 21
11.5999317208
  0
LINE
  5
392
100
AcDbEntity
  8
0
100
AcDbLine
 62
7
  6
CONTINUOUS
 10
10.6918301829
 20
10.9044233165
 11
10.6828507664
 21
10.9216726151
  0
LINE
  5
393
100
AcDbEntity
  8
0
100
AcDbLine
 62
7
  6
CONTINUOUS
 10
10.3755909653
 20
11.5713188822
 11
10.3679535586
 21
11.5892029042
  0
LINE
  5
394
100
AcDbEntity
  8
0
100
AcDbLine
 62
7
  6
CONTINUOUS
 10
10.6697486895
 20
10.8606050062
 11
10.6625032383
 21
10.8786513815
  0
LINE
  5
395
100
AcDbEntity
  8
0
100
AcDbLine
 62
7
  6
CONTINUOUS
 10
14.8071334383
 20
10.8786513815
 11
14.7998879871
 21
10.8606050062
  0
LINE
  5
396
100
AcDbEntity
  8
0
100
AcDbLine
 62
7
  6
CONTINUOUS
 10
15.1016831179
 20
11.5892029042
 11
15.0940457113
 21
11.5713188822
  0
LINE
  5
397
100
AcDbEntity
  8
0
100
AcDbLine
 62
7
  6
CONTINUOUS
 10
14.7867859102
 20
10.9216726151
 11
14.7778064937
 21
10.9044233165
  0
LINE
  5
398
100
AcDbEntity
  8
0
100
AcDbLine
 62
7
  6
CONTINUOUS
 10
15.6828507664
 20
11.2928348313
 11
15.6918301829
 21
11.3100841299
  0
LINE
  5
399
100
AcDbEntity
  8
0
100
AcDbLine
 62
7
  6
CONTINUOUS
 10
15.3200731957
 20
10.6145757256
 11
15.3294267668
 21
10.6316250344
  0
LINE
  5
39A
100
AcDbEntity
  8
0
100
AcDbLine
 62
7
  6
CONTINUOUS
 10
15.6988834973
 20
11.2480263502
 11
15.7095104024
 21
11.2643124519
  0
LINE
  5
39B
100
AcDbEntity
  8
0
100
AcDbLine
 62
7
  6
CONTINUOUS
 10
15.2713717818
 20
10.6085916675
 11
15.2823514374
 21
10.6246420689
  0
LINE
  5
39C
100
AcDbEntity
  8
0
100
AcDbLine
 62
7
  6
CONTINUOUS
 10
6.7104470271
 20
2.7626452947
 11
6.7274963359
 21
2.7719988658
  0
LINE
  5
39D
100
AcDbEntity
  8
0
100
AcDbLine
 62
7
  6
CONTINUOUS
 10
6.0319879316
 20
2.4002418786
 11
6.0492372302
 21
2.4092212951
  0
LINE
  5
39E
100
AcDbEntity
  8
0
100
AcDbLine
 62
7
  6
CONTINUOUS
 10
5.7707531793
 20
2.9980263502
 11
5.7528691572
 21
2.9903889436
  0
LINE
  5
39F
100
AcDbEntity
  8
0
100
AcDbLine
 62
7
  6
CONTINUOUS
 10
15.6625032383
 20
10.8786513815
 11
15.6815336079
 21
10.8826530378
  0
LINE
  5
3A0
100
AcDbEntity
  8
0
100
AcDbLine
 62
7
  6
CONTINUOUS
 10
2.1298183383
 20
9.6072537232
 11
2.3398183383
 21
9.6072537232
  0
LINE
  5
3A1
100
AcDbEntity
  8
0
100
AcDbLine
 62
7
  6
CONTINUOUS
 10
10.1298183383
 20
9.6072537232
 11
10.3398183383
 21
9.6072537232
  0
LINE
  5
3A2
100
AcDbEntity
  8
0
100
AcDbLine
 62
7
  6
CONTINUOUS
 10
15.1298183383
 20
9.6072537232
 11
15.3398183383
 21
9.6072537232
  0
LINE
  5
3A3
100
AcDbEntity
  8
0
100
AcDbLine
 62
9
  6
CONTINUOUS
 10
2.1098183383
 20
9.6272537232
 11
2.3598183383
 21
9.6272537232
  0
LINE
  5
3A4
100
AcDbEntity
  8
0
100
AcDbLine
 62
9
  6
CONTINUOUS
 10
10.1098183383
 20
9.6272537232
 11
10.3598183383
 21
9.6272537232
  0
LINE
  5
3A5
100
AcDbEntity
  8
0
100
AcDbLine
 62
9
  6
CONTINUOUS
 10
15.1098183383
 20
9.6272537232
 11
15.3598183383
 21
9.6272537232
  0
LINE
  5
3A6
100
AcDbEntity
  8
0
100
AcDbLine
 62
7
  6
CONTINUOUS
 10
1.8122688417
 20
10.8399487983
 11
1.8315998058
 21
10.8378317134
  0
LINE
  5
3A7
100
AcDbEntity
  8
0
100
AcDbLine
 62
7
  6
CONTINUOUS
 10
1.9271713416
 20
11.4821226733
 11
1.908058205
 21
11.4857082321
  0
LINE
  5
3A8
100
AcDbEntity
  8
0
100
AcDbLine
 62
7
  6
CONTINUOUS
 10
2.6815336079
 20
11.3318544085
 11
2.6625032383
 21
11.3358560649
  0
LINE
  5
3A9
100
AcDbEntity
  8
0
100
AcDbLine
 62
7
  6
CONTINUOUS
 10
5.7581124256
 20
10.8995243973
 11
5.7768895742
 21
10.8944660463
  0
LINE
  5
3AA
100
AcDbEntity
  8
0
100
AcDbLine
 62
7
  6
CONTINUOUS
 10
6.7210036723
 20
11.2917091947
 11
6.7024928372
 21
11.2976688262
  0
LINE
  5
3AB
100
AcDbEntity
  8
0
100
AcDbLine
 62
7
  6
CONTINUOUS
 10
5.9683849101
 20
11.5361949508
 11
5.9499063465
 21
11.5422539036
  0
LINE
  5
3AC
100
AcDbEntity
  8
0
100
AcDbLine
 62
7
  6
CONTINUOUS
 10
6.7365365024
 20
11.2439244363
 11
6.71868727
 21
11.2516427993
  0
LINE
  5
3AD
100
AcDbEntity
  8
0
100
AcDbLine
 62
7
  6
CONTINUOUS
 10
6.0110275184
 20
11.5599070313
 11
5.9932199927
 21
11.5677211373
  0
LINE
  5
3AE
100
AcDbEntity
  8
0
100
AcDbLine
 62
7
  6
CONTINUOUS
 10
10.3755909653
 20
10.6431885642
 11
10.391877067
 21
10.6325616591
  0
LINE
  5
3AF
100
AcDbEntity
  8
0
100
AcDbLine
 62
7
  6
CONTINUOUS
 10
9.7361562826
 20
11.0707002797
 11
9.752206684
 21
11.0597206241
  0
LINE
  5
3B0
100
AcDbEntity
  8
0
100
AcDbLine
 62
7
  6
CONTINUOUS
 10
10.3294267668
 20
10.6316250344
 11
10.3445928277
 21
10.6194529837
  0
LINE
  5
3B1
100
AcDbEntity
  8
0
100
AcDbLine
 62
7
  6
CONTINUOUS
 10
9.7349746127
 20
11.1197537232
 11
9.7498715326
 21
11.1072537232
  0
LINE
  5
3B2
100
AcDbEntity
  8
0
100
AcDbLine
 62
7
  6
CONTINUOUS
 10
10.2823514374
 20
10.6246420689
 11
10.2962514
 21
10.611042096
  0
LINE
  5
3B3
100
AcDbEntity
  8
0
100
AcDbLine
 62
7
  6
CONTINUOUS
 10
10.1872852392
 20
11.5898653774
 11
10.1733852766
 21
11.6034653504
  0
LINE
  5
3B4
100
AcDbEntity
  8
0
100
AcDbLine
 62
7
  6
CONTINUOUS
 10
9.7386067111
 20
11.1686867849
 11
9.752206684
 21
11.1547868223
  0
LINE
  5
3B5
100
AcDbEntity
  8
0
100
AcDbLine
 62
7
  6
CONTINUOUS
 10
10.7310299654
 20
11.0458206615
 11
10.7174299925
 21
11.0597206241
  0
LINE
  5
3B6
100
AcDbEntity
  8
0
100
AcDbLine
 62
7
  6
CONTINUOUS
 10
10.2348183383
 20
11.5922005289
 11
10.2223183383
 21
11.6070974488
  0
LINE
  5
3B7
100
AcDbEntity
  8
0
100
AcDbLine
 62
7
  6
CONTINUOUS
 10
10.7226190778
 20
10.9974792338
 11
10.7104470271
 21
11.0126452947
  0
LINE
  5
3B8
100
AcDbEntity
  8
0
100
AcDbLine
 62
7
  6
CONTINUOUS
 10
10.2823514374
 20
11.5898653774
 11
10.2713717818
 21
11.6059157789
  0
LINE
  5
3B9
100
AcDbEntity
  8
0
100
AcDbLine
 62
7
  6
CONTINUOUS
 10
13.7348183383
 20
11.2122537232
 11
13.7348183383
 21
11.0022537232
  0
LINE
  5
3BA
100
AcDbEntity
  8
0
100
AcDbLine
 62
9
  6
CONTINUOUS
 10
13.7548183383
 20
10.9822537232
 11
13.7548183383
 21
11.2322537232
  0
LINE
  5
3BB
100
AcDbEntity
  8
0
100
AcDbLine
 62
7
  6
CONTINUOUS
 10
14.8599493882
 20
10.7996067265
 11
14.8563638294
 21
10.7804935899
  0
LINE
  5
3BC
100
AcDbEntity
  8
0
100
AcDbLine
 62
7
  6
CONTINUOUS
 10
15.0102176529
 20
11.5539689928
 11
15.0062159966
 21
11.5349386232
  0
LINE
  5
3BD
100
AcDbEntity
  8
0
100
AcDbLine
 62
7
  6
CONTINUOUS
 10
14.8315998058
 20
10.8378317134
 11
14.8261580975
 21
10.8191620579
  0
LINE
  5
3BE
100
AcDbEntity
  8
0
100
AcDbLine
 62
7
  6
CONTINUOUS
 10
15.0550849199
 20
11.5738326536
 11
15.0492372302
 21
11.5552861513
  0
LINE
  5
3BF
100
AcDbEntity
  8
0
100
AcDbLine
 62
7
  6
CONTINUOUS
 10
15.6625032383
 20
11.3358560649
 11
15.6697486895
 21
11.3539024402
  0
LINE
  5
3C0
100
AcDbEntity
  8
0
100
AcDbLine
 62
7
  6
CONTINUOUS
 10
15.3679535586
 20
10.6253045422
 11
15.3755909653
 21
10.6431885642
  0
LINE
  5
3C1
100
AcDbEntity
  8
0
100
AcDbLine
 62
7
  6
CONTINUOUS
 10
6.6988834973
 20
2.7164810962
 11
6.7167675193
 21
2.7241185028
  0
LINE
  5
3C2
100
AcDbEntity
  8
0
100
AcDbLine
 62
7
  6
CONTINUOUS
 10
5.9881696213
 20
2.422323372
 11
6.0062159966
 21
2.4295688232
  0
LINE
  5
3C3
100
AcDbEntity
  8
0
100
AcDbLine
 62
7
  6
CONTINUOUS
 10
5.7867859102
 20
3.0428348313
 11
5.7682394079
 21
3.0369871416
  0
LINE
  5
3C4
100
AcDbEntity
  8
0
100
AcDbLine
 62
7
  6
CONTINUOUS
 10
14.8071334383
 20
11.3358560649
 11
14.7881030686
 21
11.3318544085
  0
LINE
  5
3C5
100
AcDbEntity
  8
0
100
AcDbLine
 62
7
  6
CONTINUOUS
 10
14.908058205
 20
10.7287992143
 11
14.9271713416
 21
10.7323847731
  0
LINE
  5
3C6
100
AcDbEntity
  8
0
100
AcDbLine
 62
7
  6
CONTINUOUS
 10
15.5615784716
 20
11.4857082321
 11
15.542465335
 21
11.4821226733
  0
LINE
  5
3C7
100
AcDbEntity
  8
0
100
AcDbLine
 62
7
  6
CONTINUOUS
 10
15.6380368708
 20
10.8378317134
 11
15.6573678349
 21
10.8399487983
  0
LINE
  5
3C8
100
AcDbEntity
  8
0
100
AcDbLine
 62
7
  6
CONTINUOUS
 10
14.8725366156
 20
10.7626496701
 11
14.8919091635
 21
10.7643445484
  0
LINE
  5
3C9
100
AcDbEntity
  8
0
100
AcDbLine
 62
7
  6
CONTINUOUS
 10
2.5777275131
 20
10.7643445484
 11
2.5971000609
 21
10.7626496701
  0
LINE
  5
3CA
100
AcDbEntity
  8
0
100
AcDbLine
 62
7
  6
CONTINUOUS
 10
1.8919091635
 20
11.450162898
 11
1.8725366156
 21
11.4518577763
  0
LINE
  5
3CB
100
AcDbEntity
  8
0
100
AcDbLine
 62
7
  6
CONTINUOUS
 10
2.6573678349
 20
11.3745586481
 11
2.6380368708
 21
11.376675733
  0
LINE
  5
3CC
100
AcDbEntity
  8
0
100
AcDbLine
 62
7
  6
CONTINUOUS
 10
5.7803866347
 20
10.8544853969
 11
5.7973183383
 21
10.8516403159
  0
LINE
  5
3CD
100
AcDbEntity
  8
0
100
AcDbLine
 62
7
  6
CONTINUOUS
 10
10.542465335
 20
10.7323847731
 11
10.5615784716
 21
10.7287992143
  0
LINE
  5
3CE
100
AcDbEntity
  8
0
100
AcDbLine
 62
7
  6
CONTINUOUS
 10
9.7881030686
 20
10.8826530378
 11
9.8071334383
 21
10.8786513815
  0
LINE
  5
3CF
100
AcDbEntity
  8
0
100
AcDbLine
 62
7
  6
CONTINUOUS
 10
6.7009314608
 20
11.3377717421
 11
6.6819318536
 21
11.3419169985
  0
LINE
  5
3D0
100
AcDbEntity
  8
0
100
AcDbLine
 62
7
  6
CONTINUOUS
 10
5.928229919
 20
11.5084779617
 11
5.9092528467
 21
11.5127251904
  0
LINE
  5
3D1
100
AcDbEntity
  8
0
100
AcDbLine
 62
7
  6
CONTINUOUS
 10
10.5042403481
 20
10.7040351907
 11
10.5229100035
 21
10.6985934824
  0
LINE
  5
3D2
100
AcDbEntity
  8
0
100
AcDbLine
 62
7
  6
CONTINUOUS
 10
9.7682394079
 20
10.9275203048
 11
9.7867859102
 21
10.9216726151
  0
LINE
  5
3D3
100
AcDbEntity
  8
0
100
AcDbLine
 62
7
  6
CONTINUOUS
 10
10.46342068
 20
10.6795688232
 11
10.4814670552
 21
10.672323372
  0
LINE
  5
3D4
100
AcDbEntity
  8
0
100
AcDbLine
 62
7
  6
CONTINUOUS
 10
9.752798795
 20
10.9741485512
 11
9.7707531793
 21
10.9664810962
  0
LINE
  5
3D5
100
AcDbEntity
  8
0
100
AcDbLine
 62
7
  6
CONTINUOUS
 10
10.4203994464
 20
10.6592212951
 11
10.437648745
 21
10.6502418786
  0
LINE
  5
3D6
100
AcDbEntity
  8
0
100
AcDbLine
 62
7
  6
CONTINUOUS
 10
10.0492372302
 20
11.5552861513
 11
10.0319879316
 21
11.5642655678
  0
LINE
  5
3D7
100
AcDbEntity
  8
0
100
AcDbLine
 62
7
  6
CONTINUOUS
 10
9.7421403407
 20
11.0219988658
 11
9.7591896495
 21
11.0126452947
  0
LINE
  5
3D8
100
AcDbEntity
  8
0
100
AcDbLine
 62
7
  6
CONTINUOUS
 10
10.7274963359
 20
11.1925085806
 11
10.7104470271
 21
11.2018621517
  0
LINE
  5
3D9
100
AcDbEntity
  8
0
100
AcDbLine
 62
7
  6
CONTINUOUS
 10
10.0940457113
 20
11.5713188822
 11
10.0777596095
 21
11.5819457873
  0
LINE
  5
3DA
100
AcDbEntity
  8
0
100
AcDbLine
 62
7
  6
CONTINUOUS
 10
10.733480394
 20
11.1438071667
 11
10.7174299925
 21
11.1547868223
  0
LINE
  5
3DB
100
AcDbEntity
  8
0
100
AcDbLine
 62
7
  6
CONTINUOUS
 10
10.1402099098
 20
11.582882412
 11
10.1250438489
 21
11.5950544627
  0
LINE
  5
3DC
100
AcDbEntity
  8
0
100
AcDbLine
 62
7
  6
CONTINUOUS
 10
10.7346620639
 20
11.0947537232
 11
10.719765144
 21
11.1072537232
  0
LINE
  5
3DD
100
AcDbEntity
  8
0
100
AcDbLine
 62
7
  6
CONTINUOUS
 10
14.9271713416
 20
10.7323847731
 11
14.9273834663
 21
10.7129393822
  0
LINE
  5
3DE
100
AcDbEntity
  8
0
100
AcDbLine
 62
7
  6
CONTINUOUS
 10
14.9273834663
 20
11.5015680642
 11
14.9271713416
 21
11.4821226733
  0
LINE
  5
3DF
100
AcDbEntity
  8
0
100
AcDbLine
 62
7
  6
CONTINUOUS
 10
14.8919091635
 20
10.7643445484
 11
14.8902142852
 21
10.7449720005
  0
LINE
  5
3E0
100
AcDbEntity
  8
0
100
AcDbLine
 62
7
  6
CONTINUOUS
 10
14.9675134133
 20
11.5298032198
 11
14.9653963285
 21
11.5104722557
  0
LINE
  5
3E1
100
AcDbEntity
  8
0
100
AcDbLine
 62
7
  6
CONTINUOUS
 10
15.6096872884
 20
11.4149007199
 11
15.6132728472
 21
11.4340138565
  0
LINE
  5
3E2
100
AcDbEntity
  8
0
100
AcDbLine
 62
7
  6
CONTINUOUS
 10
15.4594190236
 20
10.6605384535
 11
15.46342068
 21
10.6795688232
  0
LINE
  5
3E3
100
AcDbEntity
  8
0
100
AcDbLine
 62
7
  6
CONTINUOUS
 10
15.6380368708
 20
11.376675733
 11
15.6434785791
 21
11.3953453884
  0
LINE
  5
3E4
100
AcDbEntity
  8
0
100
AcDbLine
 62
7
  6
CONTINUOUS
 10
15.4145517567
 20
10.6406747928
 11
15.4203994464
 21
10.6592212951
  0
LINE
  5
3E5
100
AcDbEntity
  8
0
100
AcDbLine
 62
7
  6
CONTINUOUS
 10
6.6828507664
 20
2.6716726151
 11
6.7013972687
 21
2.6775203048
  0
LINE
  5
3E6
100
AcDbEntity
  8
0
100
AcDbLine
 62
7
  6
CONTINUOUS
 10
5.946726673
 20
2.4485934824
 11
5.9653963285
 21
2.4540351907
  0
LINE
  5
3E7
100
AcDbEntity
  8
0
100
AcDbLine
 62
7
  6
CONTINUOUS
 10
10.6625032383
 20
10.8786513815
 11
10.6815336079
 21
10.8826530378
  0
LINE
  5
3E8
100
AcDbEntity
  8
0
100
AcDbLine
 62
7
  6
CONTINUOUS
 10
9.908058205
 20
10.7287992143
 11
9.9271713416
 21
10.7323847731
  0
LINE
  5
3E9
100
AcDbEntity
  8
0
100
AcDbLine
 62
7
  6
CONTINUOUS
 10
6.6723183383
 20
10.8323282223
 11
6.6765072766
 21
10.8328254416
  0
LINE
  5
3EA
100
AcDbEntity
  8
0
100
AcDbLine
 62
7
  6
CONTINUOUS
 10
10.6380368708
 20
10.8378317134
 11
10.6573678349
 21
10.8399487983
  0
LINE
  5
3EB
100
AcDbEntity
  8
0
100
AcDbLine
 62
7
  6
CONTINUOUS
 10
14.8315998058
 20
11.376675733
 11
14.8122688417
 21
11.3745586481
  0
LINE
  5
3EC
100
AcDbEntity
  8
0
100
AcDbLine
 62
7
  6
CONTINUOUS
 10
9.8725366156
 20
10.7626496701
 11
9.8919091635
 21
10.7643445484
  0
LINE
  5
3ED
100
AcDbEntity
  8
0
100
AcDbLine
 62
7
  6
CONTINUOUS
 10
15.5971000609
 20
11.4518577763
 11
15.5777275131
 21
11.450162898
  0
LINE
  5
3EE
100
AcDbEntity
  8
0
100
AcDbLine
 62
7
  6
CONTINUOUS
 10
15.6096872884
 20
10.7996067265
 11
15.6291326793
 21
10.7998188512
  0
LINE
  5
3EF
100
AcDbEntity
  8
0
100
AcDbLine
 62
7
  6
CONTINUOUS
 10
10.6096872884
 20
10.7996067265
 11
10.6291326793
 21
10.7998188512
  0
LINE
  5
3F0
100
AcDbEntity
  8
0
100
AcDbLine
 62
7
  6
CONTINUOUS
 10
2.6096872884
 20
10.7996067265
 11
2.6291326793
 21
10.7998188512
  0
LINE
  5
3F1
100
AcDbEntity
  8
0
100
AcDbLine
 62
7
  6
CONTINUOUS
 10
14.8599493882
 20
11.4149007199
 11
14.8405039973
 21
11.4146885952
  0
LINE
  5
3F2
100
AcDbEntity
  8
0
100
AcDbLine
 62
7
  6
CONTINUOUS
 10
0.7548183383
 20
10.9822537232
 11
1.7506985093
 21
10.9822537232
  0
LINE
  5
3F3
100
AcDbEntity
  8
0
100
AcDbLine
 62
7
  6
CONTINUOUS
 10
2.7189381672
 20
10.9822537232
 11
3.7148183383
 21
10.9822537232
  0
LINE
  5
3F4
100
AcDbEntity
  8
0
100
AcDbLine
 62
7
  6
CONTINUOUS
 10
8.7548183383
 20
10.9822537232
 11
9.7506985093
 21
10.9822537232
  0
LINE
  5
3F5
100
AcDbEntity
  8
0
100
AcDbLine
 62
7
  6
CONTINUOUS
 10
10.7189381672
 20
10.9822537232
 11
11.7148183383
 21
10.9822537232
  0
LINE
  5
3F6
100
AcDbEntity
  8
0
100
AcDbLine
 62
7
  6
CONTINUOUS
 10
13.7548183383
 20
10.9822537232
 11
14.7506985093
 21
10.9822537232
  0
LINE
  5
3F7
100
AcDbEntity
  8
0
100
AcDbLine
 62
7
  6
CONTINUOUS
 10
15.7189381672
 20
10.9822537232
 11
16.7148183383
 21
10.9822537232
  0
LINE
  5
3F8
100
AcDbEntity
  8
0
100
AcDbLine
 62
9
  6
CONTINUOUS
 10
0.7348183383
 20
11.0022537232
 11
1.7508495316
 21
11.0022537232
  0
LINE
  5
3F9
100
AcDbEntity
  8
0
100
AcDbLine
 62
9
  6
CONTINUOUS
 10
2.718787145
 20
11.0022537232
 11
3.7348183383
 21
11.0022537232
  0
LINE
  5
3FA
100
AcDbEntity
  8
0
100
AcDbLine
 62
9
  6
CONTINUOUS
 10
8.7348183383
 20
11.0022537232
 11
9.7508495316
 21
11.0022537232
  0
LINE
  5
3FB
100
AcDbEntity
  8
0
100
AcDbLine
 62
9
  6
CONTINUOUS
 10
10.718787145
 20
11.0022537232
 11
11.7348183383
 21
11.0022537232
  0
LINE
  5
3FC
100
AcDbEntity
  8
0
100
AcDbLine
 62
9
  6
CONTINUOUS
 10
13.7348183383
 20
11.0022537232
 11
14.7508495316
 21
11.0022537232
  0
LINE
  5
3FD
100
AcDbEntity
  8
0
100
AcDbLine
 62
9
  6
CONTINUOUS
 10
15.718787145
 20
11.0022537232
 11
16.7348183383
 21
11.0022537232
  0
LINE
  5
3FE
100
AcDbEntity
  8
0
100
AcDbLine
 62
9
  6
CONTINUOUS
 10
14.7508495316
 20
11.2122537232
 11
13.7348183383
 21
11.2122537232
  0
LINE
  5
3FF
100
AcDbEntity
  8
0
100
AcDbLine
 62
9
  6
CONTINUOUS
 10
9.7508495316
 20
11.2122537232
 11
8.7348183383
 21
11.2122537232
  0
LINE
  5
400
100
AcDbEntity
  8
0
100
AcDbLine
 62
9
  6
CONTINUOUS
 10
1.7508495316
 20
11.2122537232
 11
0.7348183383
 21
11.2122537232
  0
LINE
  5
401
100
AcDbEntity
  8
0
100
AcDbLine
 62
9
  6
CONTINUOUS
 10
2.718787145
 20
11.2122537232
 11
3.7348183383
 21
11.2122537232
  0
LINE
  5
402
100
AcDbEntity
  8
0
100
AcDbLine
 62
9
  6
CONTINUOUS
 10
10.718787145
 20
11.2122537232
 11
11.7348183383
 21
11.2122537232
  0
LINE
  5
403
100
AcDbEntity
  8
0
100
AcDbLine
 62
9
  6
CONTINUOUS
 10
15.718787145
 20
11.2122537232
 11
16.7348183383
 21
11.2122537232
  0
LINE
  5
404
100
AcDbEntity
  8
0
100
AcDbLine
 62
7
  6
CONTINUOUS
 10
16.7148183383
 20
11.2322537232
 11
15.7189381672
 21
11.2322537232
  0
LINE
  5
405
100
AcDbEntity
  8
0
100
AcDbLine
 62
7
  6
CONTINUOUS
 10
14.7506985093
 20
11.2322537232
 11
13.7548183383
 21
11.2322537232
  0
LINE
  5
406
100
AcDbEntity
  8
0
100
AcDbLine
 62
7
  6
CONTINUOUS
 10
11.7148183383
 20
11.2322537232
 11
10.7189381672
 21
11.2322537232
  0
LINE
  5
407
100
AcDbEntity
  8
0
100
AcDbLine
 62
7
  6
CONTINUOUS
 10
9.7506985093
 20
11.2322537232
 11
8.7548183383
 21
11.2322537232
  0
LINE
  5
408
100
AcDbEntity
  8
0
100
AcDbLine
 62
7
  6
CONTINUOUS
 10
3.7148183383
 20
11.2322537232
 11
2.7189381672
 21
11.2322537232
  0
LINE
  5
409
100
AcDbEntity
  8
0
100
AcDbLine
 62
7
  6
CONTINUOUS
 10
1.7506985093
 20
11.2322537232
 11
0.7548183383
 21
11.2322537232
  0
LINE
  5
40A
100
AcDbEntity
  8
0
100
AcDbLine
 62
7
  6
CONTINUOUS
 10
1.8405039973
 20
10.7998188512
 11
1.8599493882
 21
10.7996067265
  0
LINE
  5
40B
100
AcDbEntity
  8
0
100
AcDbLine
 62
7
  6
CONTINUOUS
 10
9.8405039973
 20
10.7998188512
 11
9.8599493882
 21
10.7996067265
  0
LINE
  5
40C
100
AcDbEntity
  8
0
100
AcDbLine
 62
7
  6
CONTINUOUS
 10
14.8405039973
 20
10.7998188512
 11
14.8599493882
 21
10.7996067265
  0
LINE
  5
40D
100
AcDbEntity
  8
0
100
AcDbLine
 62
7
  6
CONTINUOUS
 10
2.6291326793
 20
11.4146885952
 11
2.6096872884
 21
11.4149007199
  0
LINE
  5
40E
100
AcDbEntity
  8
0
100
AcDbLine
 62
7
  6
CONTINUOUS
 10
10.6291326793
 20
11.4146885952
 11
10.6096872884
 21
11.4149007199
  0
LINE
  5
40F
100
AcDbEntity
  8
0
100
AcDbLine
 62
7
  6
CONTINUOUS
 10
6.6479591619
 20
11.4230300046
 11
6.6285171005
 21
11.4234477033
  0
LINE
  5
410
100
AcDbEntity
  8
0
100
AcDbLine
 62
7
  6
CONTINUOUS
 10
5.8568557267
 20
11.4420993782
 11
5.8374161888
 21
11.4426214789
  0
LINE
  5
411
100
AcDbEntity
  8
0
100
AcDbLine
 62
7
  6
CONTINUOUS
 10
10.5777275131
 20
10.7643445484
 11
10.5971000609
 21
10.7626496701
  0
LINE
  5
412
100
AcDbEntity
  8
0
100
AcDbLine
 62
7
  6
CONTINUOUS
 10
15.5777275131
 20
10.7643445484
 11
15.5971000609
 21
10.7626496701
  0
LINE
  5
413
100
AcDbEntity
  8
0
100
AcDbLine
 62
7
  6
CONTINUOUS
 10
9.8919091635
 20
11.450162898
 11
9.8725366156
 21
11.4518577763
  0
LINE
  5
414
100
AcDbEntity
  8
0
100
AcDbLine
 62
7
  6
CONTINUOUS
 10
9.8122688417
 20
10.8399487983
 11
9.8315998058
 21
10.8378317134
  0
LINE
  5
415
100
AcDbEntity
  8
0
100
AcDbLine
 62
7
  6
CONTINUOUS
 10
14.8122688417
 20
10.8399487983
 11
14.8315998058
 21
10.8378317134
  0
LINE
  5
416
100
AcDbEntity
  8
0
100
AcDbLine
 62
7
  6
CONTINUOUS
 10
10.6573678349
 20
11.3745586481
 11
10.6380368708
 21
11.376675733
  0
LINE
  5
417
100
AcDbEntity
  8
0
100
AcDbLine
 62
7
  6
CONTINUOUS
 10
6.6765072766
 20
11.3816820048
 11
6.6571962916
 21
11.3839741831
  0
LINE
  5
418
100
AcDbEntity
  8
0
100
AcDbLine
 62
7
  6
CONTINUOUS
 10
5.8909374613
 20
11.4770148499
 11
5.8716390643
 21
11.4794106994
  0
LINE
  5
419
100
AcDbEntity
  8
0
100
AcDbLine
 62
7
  6
CONTINUOUS
 10
9.9271713416
 20
11.4821226733
 11
9.908058205
 21
11.4857082321
  0
LINE
  5
41A
100
AcDbEntity
  8
0
100
AcDbLine
 62
7
  6
CONTINUOUS
 10
10.6815336079
 20
11.3318544085
 11
10.6625032383
 21
11.3358560649
  0
LINE
  5
41B
100
AcDbEntity
  8
0
100
AcDbLine
 62
7
  6
CONTINUOUS
 10
9.9653963285
 20
11.5104722557
 11
9.946726673
 21
11.515913964
  0
LINE
  5
41C
100
AcDbEntity
  8
0
100
AcDbLine
 62
7
  6
CONTINUOUS
 10
10.7013972687
 20
11.2869871416
 11
10.6828507664
 21
11.2928348313
  0
LINE
  5
41D
100
AcDbEntity
  8
0
100
AcDbLine
 62
7
  6
CONTINUOUS
 10
10.0062159966
 20
11.5349386232
 11
9.9881696213
 21
11.5421840744
  0
LINE
  5
41E
100
AcDbEntity
  8
0
100
AcDbLine
 62
7
  6
CONTINUOUS
 10
10.7167675193
 20
11.2403889436
 11
10.6988834973
 21
11.2480263502
  0
LINE
  5
41F
100
AcDbEntity
  8
0
100
AcDbLine
 62
7
  6
CONTINUOUS
 10
14.9653963285
 20
10.7040351907
 11
14.9675134133
 21
10.6847042266
  0
LINE
  5
420
100
AcDbEntity
  8
0
100
AcDbLine
 62
7
  6
CONTINUOUS
 10
14.8902142852
 20
11.4695354458
 11
14.8919091635
 21
11.450162898
  0
LINE
  5
421
100
AcDbEntity
  8
0
100
AcDbLine
 62
7
  6
CONTINUOUS
 10
15.542465335
 20
11.4821226733
 11
15.5422532103
 21
11.5015680642
  0
LINE
  5
422
100
AcDbEntity
  8
0
100
AcDbLine
 62
7
  6
CONTINUOUS
 10
15.1098183383
 20
12.5872537232
 11
15.1098183383
 21
11.5913735521
  0
LINE
  5
423
100
AcDbEntity
  8
0
100
AcDbLine
 62
7
  6
CONTINUOUS
 10
15.1098183383
 20
10.6231338943
 11
15.1098183383
 21
9.6272537232
  0
LINE
  5
424
100
AcDbEntity
  8
0
100
AcDbLine
 62
9
  6
CONTINUOUS
 10
15.1298183383
 20
10.6232849165
 11
15.1298183383
 21
9.6072537232
  0
LINE
  5
425
100
AcDbEntity
  8
0
100
AcDbLine
 62
9
  6
CONTINUOUS
 10
15.1298183383
 20
11.5912225299
 11
15.1298183383
 21
12.6072537232
  0
LINE
  5
426
100
AcDbEntity
  8
0
100
AcDbLine
 62
9
  6
CONTINUOUS
 10
15.3398183383
 20
9.6072537232
 11
15.3398183383
 21
10.6232849165
  0
LINE
  5
427
100
AcDbEntity
  8
0
100
AcDbLine
 62
9
  6
CONTINUOUS
 10
15.3398183383
 20
11.5912225299
 11
15.3398183383
 21
12.6072537232
  0
LINE
  5
428
100
AcDbEntity
  8
0
100
AcDbLine
 62
7
  6
CONTINUOUS
 10
15.3598183383
 20
9.6272537232
 11
15.3598183383
 21
10.6231338943
  0
LINE
  5
429
100
AcDbEntity
  8
0
100
AcDbLine
 62
7
  6
CONTINUOUS
 10
15.3598183383
 20
11.5913735521
 11
15.3598183383
 21
12.5872537232
  0
LINE
  5
42A
100
AcDbEntity
  8
0
100
AcDbLine
 62
7
  6
CONTINUOUS
 10
15.5422532103
 20
10.7129393822
 11
15.542465335
 21
10.7323847731
  0
LINE
  5
42B
100
AcDbEntity
  8
0
100
AcDbLine
 62
7
  6
CONTINUOUS
 10
15.5777275131
 20
11.450162898
 11
15.5794223914
 21
11.4695354458
  0
LINE
  5
42C
100
AcDbEntity
  8
0
100
AcDbLine
 62
7
  6
CONTINUOUS
 10
15.5021232632
 20
10.6847042266
 11
15.5042403481
 21
10.7040351907
  0
LINE
  5
42D
100
AcDbEntity
  8
0
100
AcDbLine
 62
7
  6
CONTINUOUS
 10
6.6819318536
 20
10.8725904479
 11
6.7009314608
 21
10.8767357043
  0
LINE
  5
42E
100
AcDbEntity
  8
0
100
AcDbLine
 62
7
  6
CONTINUOUS
 10
9.8071334383
 20
11.3358560649
 11
9.7881030686
 21
11.3318544085
  0
LINE
  5
42F
100
AcDbEntity
  8
0
100
AcDbLine
 62
7
  6
CONTINUOUS
 10
10.5615784716
 20
11.4857082321
 11
10.542465335
 21
11.4821226733
  0
LINE
  5
430
100
AcDbEntity
  8
0
100
AcDbLine
 62
7
  6
CONTINUOUS
 10
5.799564326
 20
11.36324453
 11
5.7803866347
 21
11.3600220495
  0
LINE
  5
431
100
AcDbEntity
  8
0
100
AcDbLine
 62
7
  6
CONTINUOUS
 10
9.8315998058
 20
11.376675733
 11
9.8122688417
 21
11.3745586481
  0
LINE
  5
432
100
AcDbEntity
  8
0
100
AcDbLine
 62
7
  6
CONTINUOUS
 10
2.6380368708
 20
10.8378317134
 11
2.6573678349
 21
10.8399487983
  0
LINE
  5
433
100
AcDbEntity
  8
0
100
AcDbLine
 62
7
  6
CONTINUOUS
 10
10.5971000609
 20
11.4518577763
 11
10.5777275131
 21
11.450162898
  0
LINE
  5
434
100
AcDbEntity
  8
0
100
AcDbLine
 62
7
  6
CONTINUOUS
 10
1.8725366156
 20
10.7626496701
 11
1.8919091635
 21
10.7643445484
  0
LINE
  5
435
100
AcDbEntity
  8
0
100
AcDbLine
 62
7
  6
CONTINUOUS
 10
2.5971000609
 20
11.4518577763
 11
2.5777275131
 21
11.450162898
  0
LINE
  5
436
100
AcDbEntity
  8
0
100
AcDbLine
 62
7
  6
CONTINUOUS
 10
6.6155536625
 20
11.4614296863
 11
6.5961620501
 21
11.4599690055
  0
LINE
  5
437
100
AcDbEntity
  8
0
100
AcDbLine
 62
7
  6
CONTINUOUS
 10
5.8263029272
 20
11.4040575427
 11
5.8069037501
 21
11.4027010201
  0
LINE
  5
438
100
AcDbEntity
  8
0
100
AcDbLine
 62
7
  6
CONTINUOUS
 10
9.8599493882
 20
11.4149007199
 11
9.8405039973
 21
11.4146885952
  0
LINE
  5
439
100
AcDbEntity
  8
0
100
AcDbLine
 62
7
  6
CONTINUOUS
 10
1.8599493882
 20
11.4149007199
 11
1.8405039973
 21
11.4146885952
  0
LINE
  5
43A
100
AcDbEntity
  8
0
100
AcDbLine
 62
7
  6
CONTINUOUS
 10
15.6291326793
 20
11.4146885952
 11
15.6096872884
 21
11.4149007199
  0
LINE
  5
43B
100
AcDbEntity
  8
0
100
AcDbLine
 62
7
  6
CONTINUOUS
 10
14.8919091635
 20
11.450162898
 11
14.8725366156
 21
11.4518577763
  0
LINE
  5
43C
100
AcDbEntity
  8
0
100
AcDbLine
 62
7
  6
CONTINUOUS
 10
15.6573678349
 20
11.3745586481
 11
15.6380368708
 21
11.376675733
  0
LINE
  5
43D
100
AcDbEntity
  8
0
100
AcDbLine
 62
7
  6
CONTINUOUS
 10
15.542465335
 20
10.7323847731
 11
15.5615784716
 21
10.7287992143
  0
LINE
  5
43E
100
AcDbEntity
  8
0
100
AcDbLine
 62
7
  6
CONTINUOUS
 10
14.9271713416
 20
11.4821226733
 11
14.908058205
 21
11.4857082321
  0
LINE
  5
43F
100
AcDbEntity
  8
0
100
AcDbLine
 62
7
  6
CONTINUOUS
 10
14.7881030686
 20
10.8826530378
 11
14.8071334383
 21
10.8786513815
  0
LINE
  5
440
100
AcDbEntity
  8
0
100
AcDbLine
 62
7
  6
CONTINUOUS
 10
15.5042403481
 20
10.7040351907
 11
15.5229100035
 21
10.6985934824
  0
LINE
  5
441
100
AcDbEntity
  8
0
100
AcDbLine
 62
7
  6
CONTINUOUS
 10
14.7682394079
 20
10.9275203048
 11
14.7867859102
 21
10.9216726151
  0
LINE
  5
442
100
AcDbEntity
  8
0
100
AcDbLine
 62
7
  6
CONTINUOUS
 10
15.46342068
 20
10.6795688232
 11
15.4814670552
 21
10.672323372
  0
LINE
  5
443
100
AcDbEntity
  8
0
100
AcDbLine
 62
7
  6
CONTINUOUS
 10
14.752798795
 20
10.9741485512
 11
14.7707531793
 21
10.9664810962
  0
LINE
  5
444
100
AcDbEntity
  8
0
100
AcDbLine
 62
7
  6
CONTINUOUS
 10
15.0062159966
 20
10.6795688232
 11
15.0102176529
 21
10.6605384535
  0
LINE
  5
445
100
AcDbEntity
  8
0
100
AcDbLine
 62
7
  6
CONTINUOUS
 10
14.8563638294
 20
11.4340138565
 11
14.8599493882
 21
11.4149007199
  0
LINE
  5
446
100
AcDbEntity
  8
0
100
AcDbLine
 62
7
  6
CONTINUOUS
 10
15.5042403481
 20
11.5104722557
 11
15.5021232632
 21
11.5298032198
  0
LINE
  5
447
100
AcDbEntity
  8
0
100
AcDbLine
 62
7
  6
CONTINUOUS
 10
15.5794223914
 20
10.7449720005
 11
15.5777275131
 21
10.7643445484
  0
LINE
  5
448
100
AcDbEntity
  8
0
100
AcDbLine
 62
7
  6
CONTINUOUS
 10
6.5404139463
 20
11.5279808608
 11
6.5216642329
 21
11.5228217454
  0
LINE
  5
449
100
AcDbEntity
  8
0
100
AcDbLine
 62
7
  6
CONTINUOUS
 10
5.7768895742
 20
11.3200414001
 11
5.7581124256
 21
11.3149830491
  0
LINE
  5
44A
100
AcDbEntity
  8
0
100
AcDbLine
 62
7
  6
CONTINUOUS
 10
2.6625032383
 20
10.8786513815
 11
2.6815336079
 21
10.8826530378
  0
LINE
  5
44B
100
AcDbEntity
  8
0
100
AcDbLine
 62
7
  6
CONTINUOUS
 10
1.908058205
 20
10.7287992143
 11
1.9271713416
 21
10.7323847731
  0
LINE
  5
44C
100
AcDbEntity
  8
0
100
AcDbLine
 62
7
  6
CONTINUOUS
 10
6.5795933401
 20
11.4965225225
 11
6.5604332308
 21
11.4931971001
  0
LINE
  5
44D
100
AcDbEntity
  8
0
100
AcDbLine
 62
7
  6
CONTINUOUS
 10
1.8315998058
 20
11.376675733
 11
1.8122688417
 21
11.3745586481
  0
LINE
  5
44E
100
AcDbEntity
  8
0
100
AcDbLine
 62
9
  6
CONTINUOUS
 10
2.1098183383
 20
12.5872537232
 11
2.3598183383
 21
12.5872537232
  0
LINE
  5
44F
100
AcDbEntity
  8
0
100
AcDbLine
 62
9
  6
CONTINUOUS
 10
10.1098183383
 20
12.5872537232
 11
10.3598183383
 21
12.5872537232
  0
LINE
  5
450
100
AcDbEntity
  8
0
100
AcDbLine
 62
9
  6
CONTINUOUS
 10
15.1098183383
 20
12.5872537232
 11
15.3598183383
 21
12.5872537232
  0
LINE
  5
451
100
AcDbEntity
  8
0
100
AcDbLine
 62
7
  6
CONTINUOUS
 10
15.3398183383
 20
12.6072537232
 11
15.1298183383
 21
12.6072537232
  0
LINE
  5
452
100
AcDbEntity
  8
0
100
AcDbLine
 62
7
  6
CONTINUOUS
 10
10.3398183383
 20
12.6072537232
 11
10.1298183383
 21
12.6072537232
  0
LINE
  5
453
100
AcDbEntity
  8
0
100
AcDbLine
 62
7
  6
CONTINUOUS
 10
2.3398183383
 20
12.6072537232
 11
2.1298183383
 21
12.6072537232
  0
LINE
  5
454
100
AcDbEntity
  8
0
100
AcDbLine
 62
7
  6
CONTINUOUS
 10
15.6815336079
 20
11.3318544085
 11
15.6625032383
 21
11.3358560649
  0
LINE
  5
455
100
AcDbEntity
  8
0
100
AcDbLine
 62
7
  6
CONTINUOUS
 10
14.9653963285
 20
11.5104722557
 11
14.946726673
 21
11.515913964
  0
LINE
  5
456
100
AcDbEntity
  8
0
100
AcDbLine
 62
7
  6
CONTINUOUS
 10
15.7013972687
 20
11.2869871416
 11
15.6828507664
 21
11.2928348313
  0
LINE
  5
457
100
AcDbEntity
  8
0
100
AcDbLine
 62
7
  6
CONTINUOUS
 10
15.0062159966
 20
11.5349386232
 11
14.9881696213
 21
11.5421840744
  0
LINE
  5
458
100
AcDbEntity
  8
0
100
AcDbLine
 62
7
  6
CONTINUOUS
 10
15.7167675193
 20
11.2403889436
 11
15.6988834973
 21
11.2480263502
  0
LINE
  5
459
100
AcDbEntity
  8
0
100
AcDbLine
 62
7
  6
CONTINUOUS
 10
15.4203994464
 20
10.6592212951
 11
15.437648745
 21
10.6502418786
  0
LINE
  5
45A
100
AcDbEntity
  8
0
100
AcDbLine
 62
7
  6
CONTINUOUS
 10
15.0492372302
 20
11.5552861513
 11
15.0319879316
 21
11.5642655678
  0
LINE
  5
45B
100
AcDbEntity
  8
0
100
AcDbLine
 62
7
  6
CONTINUOUS
 10
14.7421403407
 20
11.0219988658
 11
14.7591896495
 21
11.0126452947
  0
LINE
  5
45C
100
AcDbEntity
  8
0
100
AcDbLine
 62
7
  6
CONTINUOUS
 10
15.3755909653
 20
10.6431885642
 11
15.391877067
 21
10.6325616591
  0
LINE
  5
45D
100
AcDbEntity
  8
0
100
AcDbLine
 62
7
  6
CONTINUOUS
 10
14.7361562826
 20
11.0707002797
 11
14.752206684
 21
11.0597206241
  0
LINE
  5
45E
100
AcDbEntity
  8
0
100
AcDbLine
 62
7
  6
CONTINUOUS
 10
15.3294267668
 20
10.6316250344
 11
15.3445928277
 21
10.6194529837
  0
LINE
  5
45F
100
AcDbEntity
  8
0
100
AcDbLine
 62
7
  6
CONTINUOUS
 10
14.7349746127
 20
11.1197537232
 11
14.7498715326
 21
11.1072537232
  0
LINE
  5
460
100
AcDbEntity
  8
0
100
AcDbLine
 62
7
  6
CONTINUOUS
 10
15.2823514374
 20
10.6246420689
 11
15.2962514
 21
10.611042096
  0
LINE
  5
461
100
AcDbEntity
  8
0
100
AcDbLine
 62
7
  6
CONTINUOUS
 10
14.7386067111
 20
11.1686867849
 11
14.752206684
 21
11.1547868223
  0
LINE
  5
462
100
AcDbEntity
  8
0
100
AcDbLine
 62
7
  6
CONTINUOUS
 10
15.2348183383
 20
10.6223069175
 11
15.2473183383
 21
10.6074099976
  0
LINE
  5
463
100
AcDbEntity
  8
0
100
AcDbLine
 62
7
  6
CONTINUOUS
 10
14.7470175988
 20
11.2170282126
 11
14.7591896495
 21
11.2018621517
  0
LINE
  5
464
100
AcDbEntity
  8
0
100
AcDbLine
 62
7
  6
CONTINUOUS
 10
15.1872852392
 20
10.6246420689
 11
15.1982648948
 21
10.6085916675
  0
LINE
  5
465
100
AcDbEntity
  8
0
100
AcDbLine
 62
7
  6
CONTINUOUS
 10
14.7601262742
 20
11.2643124519
 11
14.7707531793
 21
11.2480263502
  0
LINE
  5
466
100
AcDbEntity
  8
0
100
AcDbLine
 62
7
  6
CONTINUOUS
 10
15.1402099098
 20
10.6316250344
 11
15.1495634809
 21
10.6145757256
  0
LINE
  5
467
100
AcDbEntity
  8
0
100
AcDbLine
 62
7
  6
CONTINUOUS
 10
14.7778064937
 20
11.3100841299
 11
14.7867859102
 21
11.2928348313
  0
LINE
  5
468
100
AcDbEntity
  8
0
100
AcDbLine
 62
7
  6
CONTINUOUS
 10
15.0940457113
 20
10.6431885642
 11
15.1016831179
 21
10.6253045422
  0
LINE
  5
469
100
AcDbEntity
  8
0
100
AcDbLine
 62
7
  6
CONTINUOUS
 10
14.7998879871
 20
11.3539024402
 11
14.8071334383
 21
11.3358560649
  0
LINE
  5
46A
100
AcDbEntity
  8
0
100
AcDbLine
 62
7
  6
CONTINUOUS
 10
15.0492372302
 20
10.6592212951
 11
15.0550849199
 21
10.6406747928
  0
LINE
  5
46B
100
AcDbEntity
  8
0
100
AcDbLine
 62
7
  6
CONTINUOUS
 10
15.4203994464
 20
11.5552861513
 11
15.4145517567
 21
11.5738326536
  0
LINE
  5
46C
100
AcDbEntity
  8
0
100
AcDbLine
 62
7
  6
CONTINUOUS
 10
14.8261580975
 20
11.3953453884
 11
14.8315998058
 21
11.376675733
  0
LINE
  5
46D
100
AcDbEntity
  8
0
100
AcDbLine
 62
7
  6
CONTINUOUS
 10
15.6434785791
 20
10.8191620579
 11
15.6380368708
 21
10.8378317134
  0
LINE
  5
46E
100
AcDbEntity
  8
0
100
AcDbLine
 62
7
  6
CONTINUOUS
 10
15.46342068
 20
11.5349386232
 11
15.4594190236
 21
11.5539689928
  0
LINE
  5
46F
100
AcDbEntity
  8
0
100
AcDbLine
 62
7
  6
CONTINUOUS
 10
15.6132728472
 20
10.7804935899
 11
15.6096872884
 21
10.7996067265
  0
LINE
  5
470
100
AcDbEntity
  8
0
100
AcDbLine
 62
9
  6
CONTINUOUS
 10
16.7148183383
 20
10.9822537232
 11
16.7148183383
 21
11.2322537232
  0
LINE
  5
471
100
AcDbEntity
  8
0
100
AcDbLine
 62
7
  6
CONTINUOUS
 10
16.7348183383
 20
11.0022537232
 11
16.7348183383
 21
11.2122537232
  0
LINE
  5
472
100
AcDbEntity
  8
0
100
AcDbLine
 62
7
  6
CONTINUOUS
 10
1.8071334383
 20
11.3358560649
 11
1.7881030686
 21
11.3318544085
  0
LINE
  5
473
100
AcDbEntity
  8
0
100
AcDbLine
 62
7
  6
CONTINUOUS
 10
2.5615784716
 20
11.4857082321
 11
2.542465335
 21
11.4821226733
  0
LINE
  5
474
100
AcDbEntity
  8
0
100
AcDbLine
 62
7
  6
CONTINUOUS
 10
15.7274963359
 20
11.1925085806
 11
15.7104470271
 21
11.2018621517
  0
LINE
  5
475
100
AcDbEntity
  8
0
100
AcDbLine
 62
7
  6
CONTINUOUS
 10
15.0940457113
 20
11.5713188822
 11
15.0777596095
 21
11.5819457873
  0
LINE
  5
476
100
AcDbEntity
  8
0
100
AcDbLine
 62
7
  6
CONTINUOUS
 10
15.733480394
 20
11.1438071667
 11
15.7174299925
 21
11.1547868223
  0
LINE
  5
477
100
AcDbEntity
  8
0
100
AcDbLine
 62
7
  6
CONTINUOUS
 10
15.1402099098
 20
11.582882412
 11
15.1250438489
 21
11.5950544627
  0
LINE
  5
478
100
AcDbEntity
  8
0
100
AcDbLine
 62
7
  6
CONTINUOUS
 10
15.7346620639
 20
11.0947537232
 11
15.719765144
 21
11.1072537232
  0
LINE
  5
479
100
AcDbEntity
  8
0
100
AcDbLine
 62
7
  6
CONTINUOUS
 10
15.1872852392
 20
11.5898653774
 11
15.1733852766
 21
11.6034653504
  0
LINE
  5
47A
100
AcDbEntity
  8
0
100
AcDbLine
 62
7
  6
CONTINUOUS
 10
15.7310299654
 20
11.0458206615
 11
15.7174299925
 21
11.0597206241
  0
LINE
  5
47B
100
AcDbEntity
  8
0
100
AcDbLine
 62
7
  6
CONTINUOUS
 10
15.2348183383
 20
11.5922005289
 11
15.2223183383
 21
11.6070974488
  0
LINE
  5
47C
100
AcDbEntity
  8
0
100
AcDbLine
 62
7
  6
CONTINUOUS
 10
15.7226190778
 20
10.9974792338
 11
15.7104470271
 21
11.0126452947
  0
LINE
  5
47D
100
AcDbEntity
  8
0
100
AcDbLine
 62
7
  6
CONTINUOUS
 10
15.2823514374
 20
11.5898653774
 11
15.2713717818
 21
11.6059157789
  0
LINE
  5
47E
100
AcDbEntity
  8
0
100
AcDbLine
 62
7
  6
CONTINUOUS
 10
15.7095104024
 20
10.9501949944
 11
15.6988834973
 21
10.9664810962
  0
LINE
  5
47F
100
AcDbEntity
  8
0
100
AcDbLine
 62
7
  6
CONTINUOUS
 10
15.3294267668
 20
11.582882412
 11
15.3200731957
 21
11.5999317208
  0
LINE
  5
480
100
AcDbEntity
  8
0
100
AcDbLine
 62
7
  6
CONTINUOUS
 10
15.6918301829
 20
10.9044233165
 11
15.6828507664
 21
10.9216726151
  0
LINE
  5
481
100
AcDbEntity
  8
0
100
AcDbLine
 62
7
  6
CONTINUOUS
 10
15.3755909653
 20
11.5713188822
 11
15.3679535586
 21
11.5892029042
  0
LINE
  5
482
100
AcDbEntity
  8
0
100
AcDbLine
 62
7
  6
CONTINUOUS
 10
15.6697486895
 20
10.8606050062
 11
15.6625032383
 21
10.8786513815
  0
LINE
  5
483
100
AcDbEntity
  8
0
100
AcDbLine
 62
7
  6
CONTINUOUS
 10
19.7348183383
 20
10.5018923685
 11
19.7348183383
 21
5.0510534383
  0
LINE
  5
484
100
AcDbEntity
  8
0
100
AcDbLine
 62
7
  6
CONTINUOUS
 10
19.7448183383
 20
10.7268680319
 11
19.7448183383
 21
10.8104304211
  0
LINE
  5
485
100
AcDbEntity
  8
0
100
AcDbLine
 62
7
  6
CONTINUOUS
 10
19.7473183383
 20
11.1072537232
 11
19.7473183383
 21
10.8402900438
  0
LINE
  5
486
100
AcDbEntity
  8
0
100
AcDbLine
 62
7
  6
CONTINUOUS
 10
19.7648183383
 20
10.8330142636
 11
19.7648183383
 21
10.6317722016
  0
LINE
  5
487
100
AcDbEntity
  8
0
100
AcDbLine
 62
7
  6
CONTINUOUS
 10
20.7048183383
 20
10.8330142636
 11
20.7048183383
 21
10.6317592329
  0
LINE
  5
488
100
AcDbEntity
  8
0
100
AcDbLine
 62
7
  6
CONTINUOUS
 10
20.7223183383
 20
11.1072537232
 11
20.7223183383
 21
10.8402763771
  0
LINE
  5
489
100
AcDbEntity
  8
0
100
AcDbLine
 62
7
  6
CONTINUOUS
 10
20.7248183383
 20
10.7268680319
 11
20.7248183383
 21
10.8104304211
  0
LINE
  5
48A
100
AcDbEntity
  8
0
100
AcDbLine
 62
7
  6
CONTINUOUS
 10
20.7348183383
 20
10.5018923685
 11
20.7348183383
 21
5.0510534383
  0
ARC
  5
48B
100
AcDbEntity
  8
0
100
AcDbCircle
 62
7
  6
CONTINUOUS
 10
6.2348183383
 20
2.8572537232
 40
0.5
100
AcDbArc
 50
153.3075437376
 51
156.0674562624
  0
ARC
  5
48C
100
AcDbEntity
  8
0
100
AcDbCircle
 62
7
  6
CONTINUOUS
 10
6.2348183383
 20
2.8572537232
 40
0.5
100
AcDbArc
 50
158.9325437376
 51
161.6924562624
  0
ARC
  5
48D
100
AcDbEntity
  8
0
100
AcDbCircle
 62
7
  6
CONTINUOUS
 10
6.2348183383
 20
2.8572537232
 40
0.5
100
AcDbArc
 50
164.5575437376
 51
167.3174562624
  0
ARC
  5
48E
100
AcDbEntity
  8
0
100
AcDbCircle
 62
7
  6
CONTINUOUS
 10
6.2348183383
 20
2.8572537232
 40
0.5
100
AcDbArc
 50
170.1825437376
 51
172.9424562624
  0
ARC
  5
48F
100
AcDbEntity
  8
0
100
AcDbCircle
 62
7
  6
CONTINUOUS
 10
6.2348183383
 20
2.8572537232
 40
0.5
100
AcDbArc
 50
175.8075437376
 51
178.5674562624
  0
ARC
  5
490
100
AcDbEntity
  8
0
100
AcDbCircle
 62
7
  6
CONTINUOUS
 10
6.2348183383
 20
2.8572537232
 40
0.5
100
AcDbArc
 50
181.4325437376
 51
184.1924562624
  0
ARC
  5
491
100
AcDbEntity
  8
0
100
AcDbCircle
 62
7
  6
CONTINUOUS
 10
6.2348183383
 20
2.8572537232
 40
0.5
100
AcDbArc
 50
187.0575437376
 51
189.8174562624
  0
ARC
  5
492
100
AcDbEntity
  8
0
100
AcDbCircle
 62
7
  6
CONTINUOUS
 10
6.2348183383
 20
2.8572537232
 40
0.5
100
AcDbArc
 50
192.6825437376
 51
195.4424562624
  0
ARC
  5
493
100
AcDbEntity
  8
0
100
AcDbCircle
 62
7
  6
CONTINUOUS
 10
6.2348183383
 20
2.8572537232
 40
0.5
100
AcDbArc
 50
198.3075437376
 51
201.0674562624
  0
ARC
  5
494
100
AcDbEntity
  8
0
100
AcDbCircle
 62
7
  6
CONTINUOUS
 10
6.2348183383
 20
2.8572537232
 40
0.5
100
AcDbArc
 50
203.9325437376
 51
206.6924562624
  0
ARC
  5
495
100
AcDbEntity
  8
0
100
AcDbCircle
 62
7
  6
CONTINUOUS
 10
6.2348183383
 20
2.8572537232
 40
0.5
100
AcDbArc
 50
209.5575437376
 51
212.3174562624
  0
ARC
  5
496
100
AcDbEntity
  8
0
100
AcDbCircle
 62
7
  6
CONTINUOUS
 10
6.2348183383
 20
2.8572537232
 40
0.5
100
AcDbArc
 50
215.1825437376
 51
217.9424562624
  0
ARC
  5
497
100
AcDbEntity
  8
0
100
AcDbCircle
 62
7
  6
CONTINUOUS
 10
6.2348183383
 20
2.8572537232
 40
0.5
100
AcDbArc
 50
220.8075437376
 51
223.5674562624
  0
ARC
  5
498
100
AcDbEntity
  8
0
100
AcDbCircle
 62
7
  6
CONTINUOUS
 10
6.2348183383
 20
2.8572537232
 40
0.5
100
AcDbArc
 50
226.4325437376
 51
229.1924562624
  0
ARC
  5
499
100
AcDbEntity
  8
0
100
AcDbCircle
 62
7
  6
CONTINUOUS
 10
6.2348183383
 20
2.8572537232
 40
0.5
100
AcDbArc
 50
232.0575437376
 51
234.8174562624
  0
ARC
  5
49A
100
AcDbEntity
  8
0
100
AcDbCircle
 62
7
  6
CONTINUOUS
 10
6.2348183383
 20
2.8572537232
 40
0.5
100
AcDbArc
 50
237.6825437376
 51
240.4424562624
  0
ARC
  5
49B
100
AcDbEntity
  8
0
100
AcDbCircle
 62
7
  6
CONTINUOUS
 10
6.2348183383
 20
2.8572537232
 40
0.5
100
AcDbArc
 50
243.3075437376
 51
246.0674562624
  0
ARC
  5
49C
100
AcDbEntity
  8
0
100
AcDbCircle
 62
7
  6
CONTINUOUS
 10
6.2348183383
 20
2.8572537232
 40
0.5
100
AcDbArc
 50
248.9325437376
 51
251.6924562624
  0
ARC
  5
49D
100
AcDbEntity
  8
0
100
AcDbCircle
 62
7
  6
CONTINUOUS
 10
6.2348183383
 20
2.8572537232
 40
0.5
100
AcDbArc
 50
254.5575437376
 51
257.3174562624
  0
ARC
  5
49E
100
AcDbEntity
  8
0
100
AcDbCircle
 62
7
  6
CONTINUOUS
 10
6.2348183383
 20
2.8572537232
 40
0.5
100
AcDbArc
 50
260.1825437376
 51
262.9424562624
  0
ARC
  5
49F
100
AcDbEntity
  8
0
100
AcDbCircle
 62
7
  6
CONTINUOUS
 10
6.2348183383
 20
2.8572537232
 40
0.5
100
AcDbArc
 50
265.8075437376
 51
268.5674562624
  0
ARC
  5
4A0
100
AcDbEntity
  8
0
100
AcDbCircle
 62
7
  6
CONTINUOUS
 10
6.2348183383
 20
2.8572537232
 40
0.5
100
AcDbArc
 50
271.4325437376
 51
274.1924562624
  0
ARC
  5
4A1
100
AcDbEntity
  8
0
100
AcDbCircle
 62
7
  6
CONTINUOUS
 10
6.2348183383
 20
2.8572537232
 40
0.5
100
AcDbArc
 50
277.0575437376
 51
279.8174562624
  0
ARC
  5
4A2
100
AcDbEntity
  8
0
100
AcDbCircle
 62
7
  6
CONTINUOUS
 10
6.2348183383
 20
2.8572537232
 40
0.5
100
AcDbArc
 50
282.6825437376
 51
285.4424562624
  0
ARC
  5
4A3
100
AcDbEntity
  8
0
100
AcDbCircle
 62
7
  6
CONTINUOUS
 10
6.2348183383
 20
2.8572537232
 40
0.5
100
AcDbArc
 50
288.3075437376
 51
291.0674562624
  0
ARC
  5
4A4
100
AcDbEntity
  8
0
100
AcDbCircle
 62
7
  6
CONTINUOUS
 10
6.2348183383
 20
2.8572537232
 40
0.5
100
AcDbArc
 50
293.9325437376
 51
296.6924562624
  0
ARC
  5
4A5
100
AcDbEntity
  8
0
100
AcDbCircle
 62
7
  6
CONTINUOUS
 10
6.2348183383
 20
2.8572537232
 40
0.5
100
AcDbArc
 50
299.5575437376
 51
302.3174562624
  0
ARC
  5
4A6
100
AcDbEntity
  8
0
100
AcDbCircle
 62
7
  6
CONTINUOUS
 10
6.2348183383
 20
2.8572537232
 40
0.5
100
AcDbArc
 50
305.1825437376
 51
307.9424562624
  0
ARC
  5
4A7
100
AcDbEntity
  8
0
100
AcDbCircle
 62
7
  6
CONTINUOUS
 10
6.2348183383
 20
2.8572537232
 40
0.5
100
AcDbArc
 50
310.8075437376
 51
313.5674562624
  0
ARC
  5
4A8
100
AcDbEntity
  8
0
100
AcDbCircle
 62
7
  6
CONTINUOUS
 10
6.2348183383
 20
2.8572537232
 40
0.5
100
AcDbArc
 50
316.4325437376
 51
319.1924562624
  0
ARC
  5
4A9
100
AcDbEntity
  8
0
100
AcDbCircle
 62
7
  6
CONTINUOUS
 10
6.2348183383
 20
2.8572537232
 40
0.5
100
AcDbArc
 50
322.0575437376
 51
324.8174562624
  0
ARC
  5
4AA
100
AcDbEntity
  8
0
100
AcDbCircle
 62
7
  6
CONTINUOUS
 10
6.2348183383
 20
2.8572537232
 40
0.5
100
AcDbArc
 50
327.6825437376
 51
330.4424562624
  0
ARC
  5
4AB
100
AcDbEntity
  8
0
100
AcDbCircle
 62
7
  6
CONTINUOUS
 10
6.2348183383
 20
2.8572537232
 40
0.5
100
AcDbArc
 50
333.3075437376
 51
336.0674562624
  0
ARC
  5
4AC
100
AcDbEntity
  8
0
100
AcDbCircle
 62
7
  6
CONTINUOUS
 10
6.2348183383
 20
2.8572537232
 40
0.5
100
AcDbArc
 50
338.9325437376
 51
341.6924562624
  0
ARC
  5
4AD
100
AcDbEntity
  8
0
100
AcDbCircle
 62
7
  6
CONTINUOUS
 10
6.2348183383
 20
2.8572537232
 40
0.5
100
AcDbArc
 50
344.5575437376
 51
347.3174562624
  0
ARC
  5
4AE
100
AcDbEntity
  8
0
100
AcDbCircle
 62
7
  6
CONTINUOUS
 10
6.2348183383
 20
2.8572537232
 40
0.5
100
AcDbArc
 50
350.1825437376
 51
352.9424562624
  0
ARC
  5
4AF
100
AcDbEntity
  8
0
100
AcDbCircle
 62
7
  6
CONTINUOUS
 10
6.2348183383
 20
2.8572537232
 40
0.5
100
AcDbArc
 50
355.8075437376
 51
358.5674562624
  0
ARC
  5
4B0
100
AcDbEntity
  8
0
100
AcDbCircle
 62
7
  6
CONTINUOUS
 10
6.2348183383
 20
2.8572537232
 40
0.5
100
AcDbArc
 50
1.4325437376
 51
4.1924562624
  0
ARC
  5
4B1
100
AcDbEntity
  8
0
100
AcDbCircle
 62
7
  6
CONTINUOUS
 10
6.2348183383
 20
2.8572537232
 40
0.5
100
AcDbArc
 50
7.0575437376
 51
9.8174562624
  0
ARC
  5
4B2
100
AcDbEntity
  8
0
100
AcDbCircle
 62
7
  6
CONTINUOUS
 10
6.2348183383
 20
2.8572537232
 40
0.5
100
AcDbArc
 50
12.6825437376
 51
15.4424562624
  0
ARC
  5
4B3
100
AcDbEntity
  8
0
100
AcDbCircle
 62
7
  6
CONTINUOUS
 10
6.2348183383
 20
2.8572537232
 40
0.5
100
AcDbArc
 50
18.3075437376
 51
21.0674562624
  0
ARC
  5
4B4
100
AcDbEntity
  8
0
100
AcDbCircle
 62
7
  6
CONTINUOUS
 10
6.2348183383
 20
2.8572537232
 40
0.5
100
AcDbArc
 50
23.9325437376
 51
26.6924562624
  0
ARC
  5
4B5
100
AcDbEntity
  8
0
100
AcDbCircle
 62
9
  6
CONTINUOUS
 10
6.2348183383
 20
2.8572537232
 40
0.47
100
AcDbArc
 50
158.9775268186
 51
21.0224731764
  0
ARC
  5
4B6
100
AcDbEntity
  8
0
100
AcDbCircle
 62
7
  6
CONTINUOUS
 10
6.2348183383
 20
2.8572537232
 40
0.4375
100
AcDbArc
 50
180.0
 51
360.0
  0
ARC
  5
4B7
100
AcDbEntity
  8
0
100
AcDbCircle
 62
7
  6
CONTINUOUS
 10
3.7148183383
 20
11.0022537232
 40
0.02
100
AcDbArc
 50
270.0
 51
360.0
  0
ARC
  5
4B8
100
AcDbEntity
  8
0
100
AcDbCircle
 62
7
  6
CONTINUOUS
 10
0.7548183383
 20
11.0022537232
 40
0.02
100
AcDbArc
 50
180.0
 51
270.0
  0
ARC
  5
4B9
100
AcDbEntity
  8
0
100
AcDbCircle
 62
7
  6
CONTINUOUS
 10
2.3398183383
 20
9.6272537232
 40
0.02
100
AcDbArc
 50
270.0
 51
360.0
  0
ARC
  5
4BA
100
AcDbEntity
  8
0
100
AcDbCircle
 62
7
  6
CONTINUOUS
 10
2.1298183383
 20
9.6272537232
 40
0.02
100
AcDbArc
 50
180.0
 51
270.0
  0
ARC
  5
4BB
100
AcDbEntity
  8
0
100
AcDbCircle
 62
7
  6
CONTINUOUS
 10
0.7548183383
 20
11.2122537232
 40
0.02
100
AcDbArc
 50
90.0
 51
180.0
  0
ARC
  5
4BC
100
AcDbEntity
  8
0
100
AcDbCircle
 62
7
  6
CONTINUOUS
 10
2.1298183383
 20
12.5872537232
 40
0.02
100
AcDbArc
 50
90.0
 51
180.0
  0
ARC
  5
4BD
100
AcDbEntity
  8
0
100
AcDbCircle
 62
7
  6
CONTINUOUS
 10
2.2348183383
 20
11.1072537232
 40
1.125
100
AcDbArc
 50
186.3805852954
 51
263.6095384376
  0
ARC
  5
4BE
100
AcDbEntity
  8
0
100
AcDbCircle
 62
7
  6
CONTINUOUS
 10
2.2348183383
 20
11.1072537232
 40
1.125
100
AcDbArc
 50
276.3904615624
 51
353.6194147046
  0
ARC
  5
4BF
100
AcDbEntity
  8
0
100
AcDbCircle
 62
7
  6
CONTINUOUS
 10
2.2348183383
 20
11.1072537232
 40
1.125
100
AcDbArc
 50
6.3805852954
 51
83.6095384376
  0
ARC
  5
4C0
100
AcDbEntity
  8
0
100
AcDbCircle
 62
7
  6
CONTINUOUS
 10
2.2348183383
 20
11.1072537232
 40
1.125
100
AcDbArc
 50
96.3904615624
 51
173.6194147046
  0
ARC
  5
4C1
100
AcDbEntity
  8
0
100
AcDbCircle
 62
9
  6
CONTINUOUS
 10
2.2348183383
 20
11.1072537232
 40
1.0971773741
100
AcDbArc
 50
186.5423865151
 51
263.4469113336
  0
ARC
  5
4C2
100
AcDbEntity
  8
0
100
AcDbCircle
 62
9
  6
CONTINUOUS
 10
2.2348183383
 20
11.1072537232
 40
1.0971773741
100
AcDbArc
 50
276.5530886664
 51
353.4576134849
  0
ARC
  5
4C3
100
AcDbEntity
  8
0
100
AcDbCircle
 62
9
  6
CONTINUOUS
 10
2.2348183383
 20
11.1072537232
 40
1.0971773741
100
AcDbArc
 50
6.5423865151
 51
83.4469113336
  0
ARC
  5
4C4
100
AcDbEntity
  8
0
100
AcDbCircle
 62
9
  6
CONTINUOUS
 10
2.2348183383
 20
11.1072537232
 40
1.0971773741
100
AcDbArc
 50
96.5530886664
 51
173.4576134849
  0
ARC
  5
4C5
100
AcDbEntity
  8
0
100
AcDbCircle
 62
9
  6
CONTINUOUS
 10
2.2348183383
 20
11.1072537232
 40
0.6295658437
100
AcDbArc
 50
281.4551457419
 51
348.5204417044
  0
ARC
  5
4C6
100
AcDbEntity
  8
0
100
AcDbCircle
 62
9
  6
CONTINUOUS
 10
2.2348183383
 20
11.1072537232
 40
0.6295658437
100
AcDbArc
 50
191.4795582956
 51
258.5448542581
  0
ARC
  5
4C7
100
AcDbEntity
  8
0
100
AcDbCircle
 62
9
  6
CONTINUOUS
 10
2.2348183383
 20
11.1072537232
 40
0.6295658437
100
AcDbArc
 50
11.4795582956
 51
78.5448542581
  0
ARC
  5
4C8
100
AcDbEntity
  8
0
100
AcDbCircle
 62
9
  6
CONTINUOUS
 10
2.2348183383
 20
11.1072537232
 40
0.6295658437
100
AcDbArc
 50
101.4551457419
 51
168.5204417044
  0
ARC
  5
4C9
100
AcDbEntity
  8
0
100
AcDbCircle
 62
9
  6
CONTINUOUS
 10
2.2348183383
 20
11.1072537232
 40
0.5018840262
100
AcDbArc
 50
194.446315809
 51
255.553684189
  0
ARC
  5
4CA
100
AcDbEntity
  8
0
100
AcDbCircle
 62
9
  6
CONTINUOUS
 10
2.2348183383
 20
11.1072537232
 40
0.5018840262
100
AcDbArc
 50
284.446315811
 51
345.553684191
  0
ARC
  5
4CB
100
AcDbEntity
  8
0
100
AcDbCircle
 62
9
  6
CONTINUOUS
 10
2.2348183383
 20
11.1072537232
 40
0.5018840262
100
AcDbArc
 50
14.446315809
 51
75.553684189
  0
ARC
  5
4CC
100
AcDbEntity
  8
0
100
AcDbCircle
 62
9
  6
CONTINUOUS
 10
2.2348183383
 20
11.1072537232
 40
0.5018840262
100
AcDbArc
 50
104.446315811
 51
165.553684191
  0
ARC
  5
4CD
100
AcDbEntity
  8
0
100
AcDbCircle
 62
7
  6
CONTINUOUS
 10
2.2348183383
 20
11.1072537232
 40
0.5
100
AcDbArc
 50
85.8075437376
 51
88.5674562624
  0
ARC
  5
4CE
100
AcDbEntity
  8
0
100
AcDbCircle
 62
7
  6
CONTINUOUS
 10
2.2348183383
 20
11.1072537232
 40
0.5
100
AcDbArc
 50
80.1825437376
 51
82.9424562624
  0
ARC
  5
4CF
100
AcDbEntity
  8
0
100
AcDbCircle
 62
7
  6
CONTINUOUS
 10
2.2348183383
 20
11.1072537232
 40
0.5
100
AcDbArc
 50
71.7718772959
 51
77.3174562624
  0
ARC
  5
4D0
100
AcDbEntity
  8
0
100
AcDbCircle
 62
7
  6
CONTINUOUS
 10
2.2348183383
 20
11.1072537232
 40
0.5
100
AcDbArc
 50
63.3075437376
 51
71.6924562624
  0
ARC
  5
4D1
100
AcDbEntity
  8
0
100
AcDbCircle
 62
7
  6
CONTINUOUS
 10
2.2348183383
 20
11.1072537232
 40
0.5
100
AcDbArc
 50
26.7878175461
 51
63.212182454
  0
ARC
  5
4D2
100
AcDbEntity
  8
0
100
AcDbCircle
 62
7
  6
CONTINUOUS
 10
2.2348183383
 20
11.1072537232
 40
0.5
100
AcDbArc
 50
18.3075437376
 51
26.6924562624
  0
ARC
  5
4D3
100
AcDbEntity
  8
0
100
AcDbCircle
 62
7
  6
CONTINUOUS
 10
2.2348183383
 20
11.1072537232
 40
0.5
100
AcDbArc
 50
12.6825437376
 51
18.2281227037
  0
ARC
  5
4D4
100
AcDbEntity
  8
0
100
AcDbCircle
 62
7
  6
CONTINUOUS
 10
2.2348183383
 20
11.1072537232
 40
0.5
100
AcDbArc
 50
7.0575437376
 51
9.8174562624
  0
ARC
  5
4D5
100
AcDbEntity
  8
0
100
AcDbCircle
 62
7
  6
CONTINUOUS
 10
2.2348183383
 20
11.1072537232
 40
0.5
100
AcDbArc
 50
1.4325437376
 51
4.1924562624
  0
ARC
  5
4D6
100
AcDbEntity
  8
0
100
AcDbCircle
 62
7
  6
CONTINUOUS
 10
2.2348183383
 20
11.1072537232
 40
0.5
100
AcDbArc
 50
355.8075437376
 51
358.5674562624
  0
ARC
  5
4D7
100
AcDbEntity
  8
0
100
AcDbCircle
 62
7
  6
CONTINUOUS
 10
2.2348183383
 20
11.1072537232
 40
0.5
100
AcDbArc
 50
350.1825437376
 51
352.9424562624
  0
ARC
  5
4D8
100
AcDbEntity
  8
0
100
AcDbCircle
 62
7
  6
CONTINUOUS
 10
2.2348183383
 20
11.1072537232
 40
0.5
100
AcDbArc
 50
341.7718772963
 51
347.3174562624
  0
ARC
  5
4D9
100
AcDbEntity
  8
0
100
AcDbCircle
 62
7
  6
CONTINUOUS
 10
2.2348183383
 20
11.1072537232
 40
0.5
100
AcDbArc
 50
282.6825437376
 51
341.6924562624
  0
ARC
  5
4DA
100
AcDbEntity
  8
0
100
AcDbCircle
 62
7
  6
CONTINUOUS
 10
2.2348183383
 20
11.1072537232
 40
0.5
100
AcDbArc
 50
277.0575437376
 51
279.8174562624
  0
ARC
  5
4DB
100
AcDbEntity
  8
0
100
AcDbCircle
 62
7
  6
CONTINUOUS
 10
2.2348183383
 20
11.1072537232
 40
0.5
100
AcDbArc
 50
271.4325437376
 51
274.1924562624
  0
ARC
  5
4DC
100
AcDbEntity
  8
0
100
AcDbCircle
 62
7
  6
CONTINUOUS
 10
2.2348183383
 20
11.1072537232
 40
0.5
100
AcDbArc
 50
265.8075437376
 51
268.5674562624
  0
ARC
  5
4DD
100
AcDbEntity
  8
0
100
AcDbCircle
 62
7
  6
CONTINUOUS
 10
2.2348183383
 20
11.1072537232
 40
0.5
100
AcDbArc
 50
260.1825437376
 51
262.9424562624
  0
ARC
  5
4DE
100
AcDbEntity
  8
0
100
AcDbCircle
 62
7
  6
CONTINUOUS
 10
2.2348183383
 20
11.1072537232
 40
0.5
100
AcDbArc
 50
192.6825437376
 51
257.3174562624
  0
ARC
  5
4DF
100
AcDbEntity
  8
0
100
AcDbCircle
 62
7
  6
CONTINUOUS
 10
2.2348183383
 20
11.1072537232
 40
0.5
100
AcDbArc
 50
187.0575437376
 51
189.8174562624
  0
ARC
  5
4E0
100
AcDbEntity
  8
0
100
AcDbCircle
 62
7
  6
CONTINUOUS
 10
2.2348183383
 20
11.1072537232
 40
0.5
100
AcDbArc
 50
181.4325437376
 51
184.1924562624
  0
ARC
  5
4E1
100
AcDbEntity
  8
0
100
AcDbCircle
 62
7
  6
CONTINUOUS
 10
2.2348183383
 20
11.1072537232
 40
0.5
100
AcDbArc
 50
175.8075437376
 51
178.5674562624
  0
ARC
  5
4E2
100
AcDbEntity
  8
0
100
AcDbCircle
 62
7
  6
CONTINUOUS
 10
2.2348183383
 20
11.1072537232
 40
0.5
100
AcDbArc
 50
170.1825437376
 51
172.9424562624
  0
ARC
  5
4E3
100
AcDbEntity
  8
0
100
AcDbCircle
 62
7
  6
CONTINUOUS
 10
2.2348183383
 20
11.1072537232
 40
0.5
100
AcDbArc
 50
125.1825437376
 51
167.3174562624
  0
ARC
  5
4E4
100
AcDbEntity
  8
0
100
AcDbCircle
 62
7
  6
CONTINUOUS
 10
2.2348183383
 20
11.1072537232
 40
0.5
100
AcDbArc
 50
102.6825437376
 51
125.0891112664
  0
ARC
  5
4E5
100
AcDbEntity
  8
0
100
AcDbCircle
 62
7
  6
CONTINUOUS
 10
2.2348183383
 20
11.1072537232
 40
0.5
100
AcDbArc
 50
97.0575437376
 51
99.8174562624
  0
ARC
  5
4E6
100
AcDbEntity
  8
0
100
AcDbCircle
 62
7
  6
CONTINUOUS
 10
2.2348183383
 20
11.1072537232
 40
0.5
100
AcDbArc
 50
91.4325437376
 51
94.1924562624
  0
CIRCLE
  5
4E7
100
AcDbEntity
  8
0
100
AcDbCircle
 62
9
  6
CONTINUOUS
 10
2.2348183383
 20
11.1072537232
 40
0.47
  0
ARC
  5
4E8
100
AcDbEntity
  8
0
100
AcDbCircle
 62
7
  6
CONTINUOUS
 10
3.7148183383
 20
11.2122537232
 40
0.02
100
AcDbArc
 50
0.0
 51
90.0
  0
ARC
  5
4E9
100
AcDbEntity
  8
0
100
AcDbCircle
 62
7
  6
CONTINUOUS
 10
2.3398183383
 20
12.5872537232
 40
0.02
100
AcDbArc
 50
0.0
 51
90.0
  0
ARC
  5
4EA
100
AcDbEntity
  8
0
100
AcDbCircle
 62
7
  6
CONTINUOUS
 10
8.7548183383
 20
11.0022537232
 40
0.02
100
AcDbArc
 50
180.0
 51
270.0
  0
ARC
  5
4EB
100
AcDbEntity
  8
0
100
AcDbCircle
 62
7
  6
CONTINUOUS
 10
10.3398183383
 20
9.6272537232
 40
0.02
100
AcDbArc
 50
270.0
 51
360.0
  0
ARC
  5
4EC
100
AcDbEntity
  8
0
100
AcDbCircle
 62
7
  6
CONTINUOUS
 10
10.1298183383
 20
9.6272537232
 40
0.02
100
AcDbArc
 50
180.0
 51
270.0
  0
ARC
  5
4ED
100
AcDbEntity
  8
0
100
AcDbCircle
 62
7
  6
CONTINUOUS
 10
6.2348183383
 20
11.1072537232
 40
1.125
100
AcDbArc
 50
292.9246473938
 51
247.0753526062
  0
ARC
  5
4EE
100
AcDbEntity
  8
0
100
AcDbCircle
 62
9
  6
CONTINUOUS
 10
6.2348183383
 20
11.1072537232
 40
1.1026381372
100
AcDbArc
 50
293.4204858668
 51
246.5795141331
  0
ARC
  5
4EF
100
AcDbEntity
  8
0
100
AcDbCircle
 62
9
  6
CONTINUOUS
 10
6.2348183383
 20
11.1072537232
 40
0.6901595375
100
AcDbArc
 50
309.4478954431
 51
230.5521045569
  0
ARC
  5
4F0
100
AcDbEntity
  8
0
100
AcDbCircle
 62
9
  6
CONTINUOUS
 10
6.2348183383
 20
11.1072537232
 40
0.5643840262
100
AcDbArc
 50
320.9503279267
 51
219.0496720733
  0
ARC
  5
4F1
100
AcDbEntity
  8
0
100
AcDbCircle
 62
9
  6
CONTINUOUS
 10
6.2348183383
 20
11.1072537232
 40
0.5347070021
100
AcDbArc
 50
325.0715645269
 51
214.9284355186
  0
ARC
  5
4F2
100
AcDbEntity
  8
0
100
AcDbCircle
 62
7
  6
CONTINUOUS
 10
6.2348183383
 20
11.1072537232
 40
0.52
100
AcDbArc
 50
355.8389735333
 51
358.6225649282
  0
ARC
  5
4F3
100
AcDbEntity
  8
0
100
AcDbCircle
 62
7
  6
CONTINUOUS
 10
6.2348183383
 20
11.1072537232
 40
0.52
100
AcDbArc
 50
1.3774350718
 51
4.1610264667
  0
ARC
  5
4F4
100
AcDbEntity
  8
0
100
AcDbCircle
 62
7
  6
CONTINUOUS
 10
6.2348183383
 20
11.1072537232
 40
0.52
100
AcDbArc
 50
6.9158966103
 51
9.6994880051
  0
ARC
  5
4F5
100
AcDbEntity
  8
0
100
AcDbCircle
 62
7
  6
CONTINUOUS
 10
6.2348183383
 20
11.1072537232
 40
0.52
100
AcDbArc
 50
12.4543581487
 51
15.2379495436
  0
ARC
  5
4F6
100
AcDbEntity
  8
0
100
AcDbCircle
 62
7
  6
CONTINUOUS
 10
6.2348183383
 20
11.1072537232
 40
0.52
100
AcDbArc
 50
17.9928196872
 51
20.776411082
  0
ARC
  5
4F7
100
AcDbEntity
  8
0
100
AcDbCircle
 62
7
  6
CONTINUOUS
 10
6.2348183383
 20
11.1072537232
 40
0.52
100
AcDbArc
 50
23.5312812256
 51
26.3148726205
  0
ARC
  5
4F8
100
AcDbEntity
  8
0
100
AcDbCircle
 62
7
  6
CONTINUOUS
 10
6.2348183383
 20
11.1072537232
 40
0.52
100
AcDbArc
 50
29.0697427641
 51
31.853334159
  0
ARC
  5
4F9
100
AcDbEntity
  8
0
100
AcDbCircle
 62
7
  6
CONTINUOUS
 10
6.2348183383
 20
11.1072537232
 40
0.52
100
AcDbArc
 50
34.6082043026
 51
37.3917956974
  0
ARC
  5
4FA
100
AcDbEntity
  8
0
100
AcDbCircle
 62
7
  6
CONTINUOUS
 10
6.2348183383
 20
11.1072537232
 40
0.52
100
AcDbArc
 50
40.146665841
 51
42.9302572359
  0
ARC
  5
4FB
100
AcDbEntity
  8
0
100
AcDbCircle
 62
7
  6
CONTINUOUS
 10
6.2348183383
 20
11.1072537232
 40
0.52
100
AcDbArc
 50
45.6851273795
 51
48.4687187744
  0
ARC
  5
4FC
100
AcDbEntity
  8
0
100
AcDbCircle
 62
7
  6
CONTINUOUS
 10
6.2348183383
 20
11.1072537232
 40
0.52
100
AcDbArc
 50
51.223588918
 51
54.0071803128
  0
ARC
  5
4FD
100
AcDbEntity
  8
0
100
AcDbCircle
 62
7
  6
CONTINUOUS
 10
6.2348183383
 20
11.1072537232
 40
0.52
100
AcDbArc
 50
56.7620504564
 51
59.5456418513
  0
ARC
  5
4FE
100
AcDbEntity
  8
0
100
AcDbCircle
 62
7
  6
CONTINUOUS
 10
6.2348183383
 20
11.1072537232
 40
0.52
100
AcDbArc
 50
62.3005119949
 51
65.0841033897
  0
ARC
  5
4FF
100
AcDbEntity
  8
0
100
AcDbCircle
 62
7
  6
CONTINUOUS
 10
6.2348183383
 20
11.1072537232
 40
0.52
100
AcDbArc
 50
67.8389735333
 51
70.6225649282
  0
ARC
  5
500
100
AcDbEntity
  8
0
100
AcDbCircle
 62
7
  6
CONTINUOUS
 10
6.2348183383
 20
11.1072537232
 40
0.52
100
AcDbArc
 50
73.3774350718
 51
76.1610264667
  0
ARC
  5
501
100
AcDbEntity
  8
0
100
AcDbCircle
 62
7
  6
CONTINUOUS
 10
6.2348183383
 20
11.1072537232
 40
0.52
100
AcDbArc
 50
78.9158966103
 51
81.6994880051
  0
ARC
  5
502
100
AcDbEntity
  8
0
100
AcDbCircle
 62
7
  6
CONTINUOUS
 10
6.2348183383
 20
11.1072537232
 40
0.52
100
AcDbArc
 50
84.4543581487
 51
87.2379495436
  0
ARC
  5
503
100
AcDbEntity
  8
0
100
AcDbCircle
 62
7
  6
CONTINUOUS
 10
6.2348183383
 20
11.1072537232
 40
0.52
100
AcDbArc
 50
89.9928196872
 51
92.776411082
  0
ARC
  5
504
100
AcDbEntity
  8
0
100
AcDbCircle
 62
7
  6
CONTINUOUS
 10
6.2348183383
 20
11.1072537232
 40
0.52
100
AcDbArc
 50
95.5312812256
 51
98.3148726205
  0
ARC
  5
505
100
AcDbEntity
  8
0
100
AcDbCircle
 62
7
  6
CONTINUOUS
 10
6.2348183383
 20
11.1072537232
 40
0.52
100
AcDbArc
 50
101.0697427641
 51
103.853334159
  0
ARC
  5
506
100
AcDbEntity
  8
0
100
AcDbCircle
 62
7
  6
CONTINUOUS
 10
6.2348183383
 20
11.1072537232
 40
0.52
100
AcDbArc
 50
106.6082043026
 51
109.3917956974
  0
ARC
  5
507
100
AcDbEntity
  8
0
100
AcDbCircle
 62
7
  6
CONTINUOUS
 10
6.2348183383
 20
11.1072537232
 40
0.52
100
AcDbArc
 50
112.146665841
 51
114.9302572359
  0
ARC
  5
508
100
AcDbEntity
  8
0
100
AcDbCircle
 62
7
  6
CONTINUOUS
 10
6.2348183383
 20
11.1072537232
 40
0.52
100
AcDbArc
 50
117.6851273795
 51
120.4687187744
  0
ARC
  5
509
100
AcDbEntity
  8
0
100
AcDbCircle
 62
7
  6
CONTINUOUS
 10
6.2348183383
 20
11.1072537232
 40
0.52
100
AcDbArc
 50
123.223588918
 51
126.0071803128
  0
ARC
  5
50A
100
AcDbEntity
  8
0
100
AcDbCircle
 62
7
  6
CONTINUOUS
 10
6.2348183383
 20
11.1072537232
 40
0.52
100
AcDbArc
 50
128.7620504564
 51
131.5456418513
  0
ARC
  5
50B
100
AcDbEntity
  8
0
100
AcDbCircle
 62
7
  6
CONTINUOUS
 10
6.2348183383
 20
11.1072537232
 40
0.52
100
AcDbArc
 50
134.3005119949
 51
137.0841033897
  0
ARC
  5
50C
100
AcDbEntity
  8
0
100
AcDbCircle
 62
7
  6
CONTINUOUS
 10
6.2348183383
 20
11.1072537232
 40
0.52
100
AcDbArc
 50
139.8389735333
 51
142.6225649282
  0
ARC
  5
50D
100
AcDbEntity
  8
0
100
AcDbCircle
 62
7
  6
CONTINUOUS
 10
6.2348183383
 20
11.1072537232
 40
0.52
100
AcDbArc
 50
145.3774350718
 51
148.1610264667
  0
ARC
  5
50E
100
AcDbEntity
  8
0
100
AcDbCircle
 62
7
  6
CONTINUOUS
 10
6.2348183383
 20
11.1072537232
 40
0.52
100
AcDbArc
 50
150.9158966103
 51
153.6994880051
  0
ARC
  5
50F
100
AcDbEntity
  8
0
100
AcDbCircle
 62
7
  6
CONTINUOUS
 10
6.2348183383
 20
11.1072537232
 40
0.52
100
AcDbArc
 50
156.4543581487
 51
159.2379495436
  0
ARC
  5
510
100
AcDbEntity
  8
0
100
AcDbCircle
 62
7
  6
CONTINUOUS
 10
6.2348183383
 20
11.1072537232
 40
0.52
100
AcDbArc
 50
161.9928196872
 51
164.776411082
  0
ARC
  5
511
100
AcDbEntity
  8
0
100
AcDbCircle
 62
7
  6
CONTINUOUS
 10
6.2348183383
 20
11.1072537232
 40
0.52
100
AcDbArc
 50
167.5312812256
 51
170.3148726205
  0
ARC
  5
512
100
AcDbEntity
  8
0
100
AcDbCircle
 62
7
  6
CONTINUOUS
 10
6.2348183383
 20
11.1072537232
 40
0.52
100
AcDbArc
 50
173.0697427641
 51
175.853334159
  0
ARC
  5
513
100
AcDbEntity
  8
0
100
AcDbCircle
 62
7
  6
CONTINUOUS
 10
6.2348183383
 20
11.1072537232
 40
0.52
100
AcDbArc
 50
178.6082043026
 51
181.3917956974
  0
ARC
  5
514
100
AcDbEntity
  8
0
100
AcDbCircle
 62
7
  6
CONTINUOUS
 10
6.2348183383
 20
11.1072537232
 40
0.52
100
AcDbArc
 50
184.146665841
 51
186.9302572359
  0
ARC
  5
515
100
AcDbEntity
  8
0
100
AcDbCircle
 62
7
  6
CONTINUOUS
 10
6.2348183383
 20
11.1072537232
 40
0.52
100
AcDbArc
 50
189.6851273795
 51
192.4687187744
  0
ARC
  5
516
100
AcDbEntity
  8
0
100
AcDbCircle
 62
7
  6
CONTINUOUS
 10
6.2348183383
 20
11.1072537232
 40
0.52
100
AcDbArc
 50
195.223588918
 51
198.0071803128
  0
ARC
  5
517
100
AcDbEntity
  8
0
100
AcDbCircle
 62
7
  6
CONTINUOUS
 10
6.2348183383
 20
11.1072537232
 40
0.52
100
AcDbArc
 50
200.7620504564
 51
203.5456418513
  0
ARC
  5
518
100
AcDbEntity
  8
0
100
AcDbCircle
 62
7
  6
CONTINUOUS
 10
6.2348183383
 20
11.1072537232
 40
0.52
100
AcDbArc
 50
206.3005119949
 51
209.0841033897
  0
ARC
  5
519
100
AcDbEntity
  8
0
100
AcDbCircle
 62
7
  6
CONTINUOUS
 10
6.2348183383
 20
11.1072537232
 40
0.52
100
AcDbArc
 50
211.8389735333
 51
212.7168578133
  0
ARC
  5
51A
100
AcDbEntity
  8
0
100
AcDbCircle
 62
7
  6
CONTINUOUS
 10
6.2348183383
 20
11.1072537232
 40
0.52
100
AcDbArc
 50
328.146665841
 51
330.9302572359
  0
ARC
  5
51B
100
AcDbEntity
  8
0
100
AcDbCircle
 62
7
  6
CONTINUOUS
 10
6.2348183383
 20
11.1072537232
 40
0.52
100
AcDbArc
 50
333.6851273795
 51
336.4687187744
  0
ARC
  5
51C
100
AcDbEntity
  8
0
100
AcDbCircle
 62
7
  6
CONTINUOUS
 10
6.2348183383
 20
11.1072537232
 40
0.52
100
AcDbArc
 50
339.223588918
 51
342.0071803128
  0
ARC
  5
51D
100
AcDbEntity
  8
0
100
AcDbCircle
 62
7
  6
CONTINUOUS
 10
6.2348183383
 20
11.1072537232
 40
0.52
100
AcDbArc
 50
344.7620504564
 51
347.5456418513
  0
ARC
  5
51E
100
AcDbEntity
  8
0
100
AcDbCircle
 62
7
  6
CONTINUOUS
 10
6.2348183383
 20
11.1072537232
 40
0.52
100
AcDbArc
 50
350.3005119949
 51
353.0841033897
  0
ARC
  5
51F
100
AcDbEntity
  8
0
100
AcDbCircle
 62
9
  6
CONTINUOUS
 10
6.2348183383
 20
11.1072537232
 40
0.49
100
AcDbArc
 50
333.3618000416
 51
206.6381995472
  0
ARC
  5
520
100
AcDbEntity
  8
0
100
AcDbCircle
 62
7
  6
CONTINUOUS
 10
6.2348183383
 20
11.1072537232
 40
0.4375
100
AcDbArc
 50
0.0
 51
180.0
  0
ARC
  5
521
100
AcDbEntity
  8
0
100
AcDbCircle
 62
7
  6
CONTINUOUS
 10
8.7548183383
 20
11.2122537232
 40
0.02
100
AcDbArc
 50
90.0
 51
180.0
  0
ARC
  5
522
100
AcDbEntity
  8
0
100
AcDbCircle
 62
7
  6
CONTINUOUS
 10
10.2348183383
 20
11.1072537232
 40
1.125
100
AcDbArc
 50
186.3795744789
 51
263.6204255211
  0
ARC
  5
523
100
AcDbEntity
  8
0
100
AcDbCircle
 62
7
  6
CONTINUOUS
 10
10.2348183383
 20
11.1072537232
 40
1.125
100
AcDbArc
 50
276.3795744789
 51
353.6204255211
  0
ARC
  5
524
100
AcDbEntity
  8
0
100
AcDbCircle
 62
7
  6
CONTINUOUS
 10
10.2348183383
 20
11.1072537232
 40
1.125
100
AcDbArc
 50
6.3795744789
 51
83.6204255211
  0
ARC
  5
525
100
AcDbEntity
  8
0
100
AcDbCircle
 62
7
  6
CONTINUOUS
 10
10.2348183383
 20
11.1072537232
 40
1.125
100
AcDbArc
 50
96.3795744789
 51
173.6204255211
  0
ARC
  5
526
100
AcDbEntity
  8
0
100
AcDbCircle
 62
9
  6
CONTINUOUS
 10
10.2348183383
 20
11.1072537232
 40
1.0971773741
100
AcDbArc
 50
186.5423865151
 51
263.4469113336
  0
ARC
  5
527
100
AcDbEntity
  8
0
100
AcDbCircle
 62
9
  6
CONTINUOUS
 10
10.2348183383
 20
11.1072537232
 40
1.0971773741
100
AcDbArc
 50
276.5530886664
 51
353.4576134849
  0
ARC
  5
528
100
AcDbEntity
  8
0
100
AcDbCircle
 62
9
  6
CONTINUOUS
 10
10.2348183383
 20
11.1072537232
 40
1.0971773741
100
AcDbArc
 50
6.5423865151
 51
83.4469113336
  0
ARC
  5
529
100
AcDbEntity
  8
0
100
AcDbCircle
 62
9
  6
CONTINUOUS
 10
10.2348183383
 20
11.1072537232
 40
1.0971773741
100
AcDbArc
 50
96.5530886664
 51
173.4576134849
  0
ARC
  5
52A
100
AcDbEntity
  8
0
100
AcDbCircle
 62
9
  6
CONTINUOUS
 10
10.2348183383
 20
11.1072537232
 40
0.6295658437
100
AcDbArc
 50
281.4766440106
 51
348.5233559894
  0
ARC
  5
52B
100
AcDbEntity
  8
0
100
AcDbCircle
 62
9
  6
CONTINUOUS
 10
10.2348183383
 20
11.1072537232
 40
0.6295658437
100
AcDbArc
 50
191.4766440106
 51
258.5233559894
  0
ARC
  5
52C
100
AcDbEntity
  8
0
100
AcDbCircle
 62
9
  6
CONTINUOUS
 10
10.2348183383
 20
11.1072537232
 40
0.6295658437
100
AcDbArc
 50
11.4766440106
 51
78.5233559894
  0
ARC
  5
52D
100
AcDbEntity
  8
0
100
AcDbCircle
 62
9
  6
CONTINUOUS
 10
10.2348183383
 20
11.1072537232
 40
0.6295658437
100
AcDbArc
 50
101.4766440106
 51
168.5233559894
  0
ARC
  5
52E
100
AcDbEntity
  8
0
100
AcDbCircle
 62
9
  6
CONTINUOUS
 10
10.2348183383
 20
11.1072537232
 40
0.5018840262
100
AcDbArc
 50
194.4378080837
 51
255.5451268043
  0
ARC
  5
52F
100
AcDbEntity
  8
0
100
AcDbCircle
 62
9
  6
CONTINUOUS
 10
10.2348183383
 20
11.1072537232
 40
0.5018840262
100
AcDbArc
 50
284.4548731957
 51
345.5621919162
  0
ARC
  5
530
100
AcDbEntity
  8
0
100
AcDbCircle
 62
9
  6
CONTINUOUS
 10
10.2348183383
 20
11.1072537232
 40
0.5018840262
100
AcDbArc
 50
14.4378080837
 51
75.5451268043
  0
ARC
  5
531
100
AcDbEntity
  8
0
100
AcDbCircle
 62
9
  6
CONTINUOUS
 10
10.2348183383
 20
11.1072537232
 40
0.5018840262
100
AcDbArc
 50
104.4548731957
 51
165.5621919162
  0
ARC
  5
532
100
AcDbEntity
  8
0
100
AcDbCircle
 62
7
  6
CONTINUOUS
 10
10.2348183383
 20
11.1072537232
 40
0.5
100
AcDbArc
 50
85.8075437376
 51
88.5674562624
  0
ARC
  5
533
100
AcDbEntity
  8
0
100
AcDbCircle
 62
7
  6
CONTINUOUS
 10
10.2348183383
 20
11.1072537232
 40
0.5
100
AcDbArc
 50
80.1825437376
 51
82.9424562624
  0
ARC
  5
534
100
AcDbEntity
  8
0
100
AcDbCircle
 62
7
  6
CONTINUOUS
 10
10.2348183383
 20
11.1072537232
 40
0.5
100
AcDbArc
 50
18.3075437376
 51
21.0674562624
  0
ARC
  5
535
100
AcDbEntity
  8
0
100
AcDbCircle
 62
7
  6
CONTINUOUS
 10
10.2348183383
 20
11.1072537232
 40
0.5
100
AcDbArc
 50
7.0575437376
 51
9.8174562624
  0
ARC
  5
536
100
AcDbEntity
  8
0
100
AcDbCircle
 62
7
  6
CONTINUOUS
 10
10.2348183383
 20
11.1072537232
 40
0.5
100
AcDbArc
 50
1.4325437376
 51
4.1924562624
  0
ARC
  5
537
100
AcDbEntity
  8
0
100
AcDbCircle
 62
7
  6
CONTINUOUS
 10
10.2348183383
 20
11.1072537232
 40
0.5
100
AcDbArc
 50
355.8075437376
 51
358.5674562624
  0
ARC
  5
538
100
AcDbEntity
  8
0
100
AcDbCircle
 62
7
  6
CONTINUOUS
 10
10.2348183383
 20
11.1072537232
 40
0.5
100
AcDbArc
 50
350.1825437376
 51
352.9424562624
  0
ARC
  5
539
100
AcDbEntity
  8
0
100
AcDbCircle
 62
7
  6
CONTINUOUS
 10
10.2348183383
 20
11.1072537232
 40
0.5
100
AcDbArc
 50
277.0575437376
 51
279.8174562624
  0
ARC
  5
53A
100
AcDbEntity
  8
0
100
AcDbCircle
 62
7
  6
CONTINUOUS
 10
10.2348183383
 20
11.1072537232
 40
0.5
100
AcDbArc
 50
271.4325437376
 51
274.1924562624
  0
ARC
  5
53B
100
AcDbEntity
  8
0
100
AcDbCircle
 62
7
  6
CONTINUOUS
 10
10.2348183383
 20
11.1072537232
 40
0.5
100
AcDbArc
 50
265.8075437376
 51
268.5674562624
  0
ARC
  5
53C
100
AcDbEntity
  8
0
100
AcDbCircle
 62
7
  6
CONTINUOUS
 10
10.2348183383
 20
11.1072537232
 40
0.5
100
AcDbArc
 50
260.1825437376
 51
262.9424562624
  0
ARC
  5
53D
100
AcDbEntity
  8
0
100
AcDbCircle
 62
7
  6
CONTINUOUS
 10
10.2348183383
 20
11.1072537232
 40
0.5
100
AcDbArc
 50
187.0575437376
 51
189.8174562624
  0
ARC
  5
53E
100
AcDbEntity
  8
0
100
AcDbCircle
 62
7
  6
CONTINUOUS
 10
10.2348183383
 20
11.1072537232
 40
0.5
100
AcDbArc
 50
181.4325437376
 51
184.1924562624
  0
ARC
  5
53F
100
AcDbEntity
  8
0
100
AcDbCircle
 62
7
  6
CONTINUOUS
 10
10.2348183383
 20
11.1072537232
 40
0.5
100
AcDbArc
 50
175.8075437376
 51
178.5674562624
  0
ARC
  5
540
100
AcDbEntity
  8
0
100
AcDbCircle
 62
7
  6
CONTINUOUS
 10
10.2348183383
 20
11.1072537232
 40
0.5
100
AcDbArc
 50
170.1825437376
 51
172.9424562624
  0
ARC
  5
541
100
AcDbEntity
  8
0
100
AcDbCircle
 62
7
  6
CONTINUOUS
 10
10.2348183383
 20
11.1072537232
 40
0.5
100
AcDbArc
 50
97.0575437376
 51
99.8174562624
  0
ARC
  5
542
100
AcDbEntity
  8
0
100
AcDbCircle
 62
7
  6
CONTINUOUS
 10
10.2348183383
 20
11.1072537232
 40
0.5
100
AcDbArc
 50
91.4325437376
 51
94.1924562624
  0
ARC
  5
543
100
AcDbEntity
  8
0
100
AcDbCircle
 62
7
  6
CONTINUOUS
 10
10.2348183383
 20
11.1072537232
 40
0.5
100
AcDbArc
 50
12.6825437376
 51
18.2153253287
  0
ARC
  5
544
100
AcDbEntity
  8
0
100
AcDbCircle
 62
7
  6
CONTINUOUS
 10
10.2348183383
 20
11.1072537232
 40
0.5
100
AcDbArc
 50
29.5575437376
 51
40.7401720846
  0
ARC
  5
545
100
AcDbEntity
  8
0
100
AcDbCircle
 62
7
  6
CONTINUOUS
 10
10.2348183383
 20
11.1072537232
 40
0.5
100
AcDbArc
 50
40.8075437376
 51
49.1924562624
  0
ARC
  5
546
100
AcDbEntity
  8
0
100
AcDbCircle
 62
7
  6
CONTINUOUS
 10
10.2348183383
 20
11.1072537232
 40
0.5
100
AcDbArc
 50
102.6825437376
 51
167.3174562624
  0
ARC
  5
547
100
AcDbEntity
  8
0
100
AcDbCircle
 62
7
  6
CONTINUOUS
 10
10.2348183383
 20
11.1072537232
 40
0.5
100
AcDbArc
 50
68.9337070161
 51
77.3174562624
  0
ARC
  5
548
100
AcDbEntity
  8
0
100
AcDbCircle
 62
7
  6
CONTINUOUS
 10
10.2348183383
 20
11.1072537232
 40
0.5
100
AcDbArc
 50
57.6825437376
 51
68.8616787775
  0
ARC
  5
549
100
AcDbEntity
  8
0
100
AcDbCircle
 62
7
  6
CONTINUOUS
 10
10.2348183383
 20
11.1072537232
 40
0.5
100
AcDbArc
 50
49.2837428563
 51
57.5859272101
  0
ARC
  5
54A
100
AcDbEntity
  8
0
100
AcDbCircle
 62
7
  6
CONTINUOUS
 10
10.2348183383
 20
11.1072537232
 40
0.5
100
AcDbArc
 50
21.1545353958
 51
29.478886153
  0
ARC
  5
54B
100
AcDbEntity
  8
0
100
AcDbCircle
 62
7
  6
CONTINUOUS
 10
10.2348183383
 20
11.1072537232
 40
0.5
100
AcDbArc
 50
341.7846746713
 51
347.3174562624
  0
ARC
  5
54C
100
AcDbEntity
  8
0
100
AcDbCircle
 62
7
  6
CONTINUOUS
 10
10.2348183383
 20
11.1072537232
 40
0.5
100
AcDbArc
 50
330.521113847
 51
341.6924562624
  0
ARC
  5
54D
100
AcDbEntity
  8
0
100
AcDbCircle
 62
7
  6
CONTINUOUS
 10
10.2348183383
 20
11.1072537232
 40
0.5
100
AcDbArc
 50
302.4140727899
 51
330.441287808
  0
ARC
  5
54E
100
AcDbEntity
  8
0
100
AcDbCircle
 62
7
  6
CONTINUOUS
 10
10.2348183383
 20
11.1072537232
 40
0.5
100
AcDbArc
 50
282.6825437376
 51
302.3181914275
  0
ARC
  5
54F
100
AcDbEntity
  8
0
100
AcDbCircle
 62
7
  6
CONTINUOUS
 10
10.2348183383
 20
11.1072537232
 40
0.5
100
AcDbArc
 50
192.6825437376
 51
257.3174562624
  0
CIRCLE
  5
550
100
AcDbEntity
  8
0
100
AcDbCircle
 62
9
  6
CONTINUOUS
 10
10.2348183383
 20
11.1072537232
 40
0.47
  0
ARC
  5
551
100
AcDbEntity
  8
0
100
AcDbCircle
 62
7
  6
CONTINUOUS
 10
10.1298183383
 20
12.5872537232
 40
0.02
100
AcDbArc
 50
90.0
 51
180.0
  0
ARC
  5
552
100
AcDbEntity
  8
0
100
AcDbCircle
 62
7
  6
CONTINUOUS
 10
10.3398183383
 20
12.5872537232
 40
0.02
100
AcDbArc
 50
0.0
 51
90.0
  0
ARC
  5
553
100
AcDbEntity
  8
0
100
AcDbCircle
 62
7
  6
CONTINUOUS
 10
11.7148183383
 20
11.0022537232
 40
0.02
100
AcDbArc
 50
270.0
 51
360.0
  0
ARC
  5
554
100
AcDbEntity
  8
0
100
AcDbCircle
 62
7
  6
CONTINUOUS
 10
13.7548183383
 20
11.0022537232
 40
0.02
100
AcDbArc
 50
180.0
 51
270.0
  0
ARC
  5
555
100
AcDbEntity
  8
0
100
AcDbCircle
 62
7
  6
CONTINUOUS
 10
15.3398183383
 20
9.6272537232
 40
0.02
100
AcDbArc
 50
270.0
 51
360.0
  0
ARC
  5
556
100
AcDbEntity
  8
0
100
AcDbCircle
 62
7
  6
CONTINUOUS
 10
15.1298183383
 20
9.6272537232
 40
0.02
100
AcDbArc
 50
180.0
 51
270.0
  0
ARC
  5
557
100
AcDbEntity
  8
0
100
AcDbCircle
 62
7
  6
CONTINUOUS
 10
11.7148183383
 20
11.2122537232
 40
0.02
100
AcDbArc
 50
0.0
 51
90.0
  0
ARC
  5
558
100
AcDbEntity
  8
0
100
AcDbCircle
 62
7
  6
CONTINUOUS
 10
13.7548183383
 20
11.2122537232
 40
0.02
100
AcDbArc
 50
90.0
 51
180.0
  0
ARC
  5
559
100
AcDbEntity
  8
0
100
AcDbCircle
 62
7
  6
CONTINUOUS
 10
15.2348183383
 20
11.1072537232
 40
1.125
100
AcDbArc
 50
186.3807043448
 51
263.6114307368
  0
ARC
  5
55A
100
AcDbEntity
  8
0
100
AcDbCircle
 62
7
  6
CONTINUOUS
 10
15.2348183383
 20
11.1072537232
 40
1.125
100
AcDbArc
 50
276.3885692632
 51
353.6192956552
  0
ARC
  5
55B
100
AcDbEntity
  8
0
100
AcDbCircle
 62
7
  6
CONTINUOUS
 10
15.2348183383
 20
11.1072537232
 40
1.125
100
AcDbArc
 50
6.3807043448
 51
83.6114307368
  0
ARC
  5
55C
100
AcDbEntity
  8
0
100
AcDbCircle
 62
7
  6
CONTINUOUS
 10
15.2348183383
 20
11.1072537232
 40
1.125
100
AcDbArc
 50
96.3885692632
 51
173.6192956552
  0
ARC
  5
55D
100
AcDbEntity
  8
0
100
AcDbCircle
 62
9
  6
CONTINUOUS
 10
15.2348183383
 20
11.1072537232
 40
1.0971773741
100
AcDbArc
 50
186.5443758078
 51
263.4489630031
  0
ARC
  5
55E
100
AcDbEntity
  8
0
100
AcDbCircle
 62
9
  6
CONTINUOUS
 10
15.2348183383
 20
11.1072537232
 40
1.0971773741
100
AcDbArc
 50
276.5510369969
 51
353.4556241921
  0
ARC
  5
55F
100
AcDbEntity
  8
0
100
AcDbCircle
 62
9
  6
CONTINUOUS
 10
15.2348183383
 20
11.1072537232
 40
1.0971773741
100
AcDbArc
 50
6.5443758078
 51
83.4489630031
  0
ARC
  5
560
100
AcDbEntity
  8
0
100
AcDbCircle
 62
9
  6
CONTINUOUS
 10
15.2348183383
 20
11.1072537232
 40
1.0971773741
100
AcDbArc
 50
96.5510369969
 51
173.4556241921
  0
ARC
  5
561
100
AcDbEntity
  8
0
100
AcDbCircle
 62
9
  6
CONTINUOUS
 10
15.2348183383
 20
11.1072537232
 40
0.6295658437
100
AcDbArc
 50
281.4610817149
 51
348.5265595997
  0
ARC
  5
562
100
AcDbEntity
  8
0
100
AcDbCircle
 62
9
  6
CONTINUOUS
 10
15.2348183383
 20
11.1072537232
 40
0.6295658437
100
AcDbArc
 50
191.4734404003
 51
258.5389182851
  0
ARC
  5
563
100
AcDbEntity
  8
0
100
AcDbCircle
 62
9
  6
CONTINUOUS
 10
15.2348183383
 20
11.1072537232
 40
0.6295658437
100
AcDbArc
 50
11.4734404003
 51
78.5389182851
  0
ARC
  5
564
100
AcDbEntity
  8
0
100
AcDbCircle
 62
9
  6
CONTINUOUS
 10
15.2348183383
 20
11.1072537232
 40
0.6295658437
100
AcDbArc
 50
101.4610817149
 51
168.5265595997
  0
ARC
  5
565
100
AcDbEntity
  8
0
100
AcDbCircle
 62
9
  6
CONTINUOUS
 10
15.2348183383
 20
11.1072537232
 40
0.5018840262
100
AcDbArc
 50
194.42957528
 51
255.5704247188
  0
ARC
  5
566
100
AcDbEntity
  8
0
100
AcDbCircle
 62
9
  6
CONTINUOUS
 10
15.2348183383
 20
11.1072537232
 40
0.5018840262
100
AcDbArc
 50
284.4295752812
 51
345.57042472
  0
ARC
  5
567
100
AcDbEntity
  8
0
100
AcDbCircle
 62
9
  6
CONTINUOUS
 10
15.2348183383
 20
11.1072537232
 40
0.5018840262
100
AcDbArc
 50
14.42957528
 51
75.5704247188
  0
ARC
  5
568
100
AcDbEntity
  8
0
100
AcDbCircle
 62
9
  6
CONTINUOUS
 10
15.2348183383
 20
11.1072537232
 40
0.5018840262
100
AcDbArc
 50
104.4295752812
 51
165.57042472
  0
ARC
  5
569
100
AcDbEntity
  8
0
100
AcDbCircle
 62
7
  6
CONTINUOUS
 10
15.2348183383
 20
11.1072537232
 40
0.5
100
AcDbArc
 50
85.8075437376
 51
88.5674562624
  0
ARC
  5
56A
100
AcDbEntity
  8
0
100
AcDbCircle
 62
7
  6
CONTINUOUS
 10
15.2348183383
 20
11.1072537232
 40
0.5
100
AcDbArc
 50
80.1825437376
 51
82.9424562624
  0
ARC
  5
56B
100
AcDbEntity
  8
0
100
AcDbCircle
 62
7
  6
CONTINUOUS
 10
15.2348183383
 20
11.1072537232
 40
0.5
100
AcDbArc
 50
7.0575437376
 51
9.8174562624
  0
ARC
  5
56C
100
AcDbEntity
  8
0
100
AcDbCircle
 62
7
  6
CONTINUOUS
 10
15.2348183383
 20
11.1072537232
 40
0.5
100
AcDbArc
 50
1.4325437376
 51
4.1924562624
  0
ARC
  5
56D
100
AcDbEntity
  8
0
100
AcDbCircle
 62
7
  6
CONTINUOUS
 10
15.2348183383
 20
11.1072537232
 40
0.5
100
AcDbArc
 50
355.8075437376
 51
358.5674562624
  0
ARC
  5
56E
100
AcDbEntity
  8
0
100
AcDbCircle
 62
7
  6
CONTINUOUS
 10
15.2348183383
 20
11.1072537232
 40
0.5
100
AcDbArc
 50
350.1825437376
 51
352.9424562624
  0
ARC
  5
56F
100
AcDbEntity
  8
0
100
AcDbCircle
 62
7
  6
CONTINUOUS
 10
15.2348183383
 20
11.1072537232
 40
0.5
100
AcDbArc
 50
277.0575437376
 51
279.8174562624
  0
ARC
  5
570
100
AcDbEntity
  8
0
100
AcDbCircle
 62
7
  6
CONTINUOUS
 10
15.2348183383
 20
11.1072537232
 40
0.5
100
AcDbArc
 50
271.4325437376
 51
274.1924562624
  0
ARC
  5
571
100
AcDbEntity
  8
0
100
AcDbCircle
 62
7
  6
CONTINUOUS
 10
15.2348183383
 20
11.1072537232
 40
0.5
100
AcDbArc
 50
265.8075437376
 51
268.5674562624
  0
ARC
  5
572
100
AcDbEntity
  8
0
100
AcDbCircle
 62
7
  6
CONTINUOUS
 10
15.2348183383
 20
11.1072537232
 40
0.5
100
AcDbArc
 50
260.1825437376
 51
262.9424562624
  0
ARC
  5
573
100
AcDbEntity
  8
0
100
AcDbCircle
 62
7
  6
CONTINUOUS
 10
15.2348183383
 20
11.1072537232
 40
0.5
100
AcDbArc
 50
187.0575437376
 51
189.8174562624
  0
ARC
  5
574
100
AcDbEntity
  8
0
100
AcDbCircle
 62
7
  6
CONTINUOUS
 10
15.2348183383
 20
11.1072537232
 40
0.5
100
AcDbArc
 50
181.4325437376
 51
184.1924562624
  0
ARC
  5
575
100
AcDbEntity
  8
0
100
AcDbCircle
 62
7
  6
CONTINUOUS
 10
15.2348183383
 20
11.1072537232
 40
0.5
100
AcDbArc
 50
175.8075437376
 51
178.5674562624
  0
ARC
  5
576
100
AcDbEntity
  8
0
100
AcDbCircle
 62
7
  6
CONTINUOUS
 10
15.2348183383
 20
11.1072537232
 40
0.5
100
AcDbArc
 50
170.1825437376
 51
172.9424562624
  0
ARC
  5
577
100
AcDbEntity
  8
0
100
AcDbCircle
 62
7
  6
CONTINUOUS
 10
15.2348183383
 20
11.1072537232
 40
0.5
100
AcDbArc
 50
97.0575437376
 51
99.8174562624
  0
ARC
  5
578
100
AcDbEntity
  8
0
100
AcDbCircle
 62
7
  6
CONTINUOUS
 10
15.2348183383
 20
11.1072537232
 40
0.5
100
AcDbArc
 50
91.4325437376
 51
94.1924562624
  0
ARC
  5
579
100
AcDbEntity
  8
0
100
AcDbCircle
 62
7
  6
CONTINUOUS
 10
15.2348183383
 20
11.1072537232
 40
0.5
100
AcDbArc
 50
12.6825437376
 51
26.6924562624
  0
ARC
  5
57A
100
AcDbEntity
  8
0
100
AcDbCircle
 62
7
  6
CONTINUOUS
 10
15.2348183383
 20
11.1072537232
 40
0.5
100
AcDbArc
 50
32.4045550357
 51
35.0954449643
  0
ARC
  5
57B
100
AcDbEntity
  8
0
100
AcDbCircle
 62
7
  6
CONTINUOUS
 10
15.2348183383
 20
11.1072537232
 40
0.5
100
AcDbArc
 50
57.6825437376
 51
63.2122293404
  0
ARC
  5
57C
100
AcDbEntity
  8
0
100
AcDbCircle
 62
7
  6
CONTINUOUS
 10
15.2348183383
 20
11.1072537232
 40
0.5
100
AcDbArc
 50
71.7877706598
 51
77.3174562624
  0
ARC
  5
57D
100
AcDbEntity
  8
0
100
AcDbCircle
 62
7
  6
CONTINUOUS
 10
15.2348183383
 20
11.1072537232
 40
0.5
100
AcDbArc
 50
108.3072320905
 51
167.3174562624
  0
ARC
  5
57E
100
AcDbEntity
  8
0
100
AcDbCircle
 62
7
  6
CONTINUOUS
 10
15.2348183383
 20
11.1072537232
 40
0.5
100
AcDbArc
 50
102.6825437376
 51
108.2122293402
  0
ARC
  5
57F
100
AcDbEntity
  8
0
100
AcDbCircle
 62
7
  6
CONTINUOUS
 10
15.2348183383
 20
11.1072537232
 40
0.5
100
AcDbArc
 50
63.3075437376
 51
71.6927679095
  0
ARC
  5
580
100
AcDbEntity
  8
0
100
AcDbCircle
 62
7
  6
CONTINUOUS
 10
15.2348183383
 20
11.1072537232
 40
0.5
100
AcDbArc
 50
49.2877706598
 51
57.5954449647
  0
ARC
  5
581
100
AcDbEntity
  8
0
100
AcDbCircle
 62
7
  6
CONTINUOUS
 10
15.2348183383
 20
11.1072537232
 40
0.5
100
AcDbArc
 50
35.1834176531
 51
49.1924562624
  0
ARC
  5
582
100
AcDbEntity
  8
0
100
AcDbCircle
 62
7
  6
CONTINUOUS
 10
15.2348183383
 20
11.1072537232
 40
0.5
100
AcDbArc
 50
26.7877706601
 51
32.3174562624
  0
ARC
  5
583
100
AcDbEntity
  8
0
100
AcDbCircle
 62
7
  6
CONTINUOUS
 10
15.2348183383
 20
11.1072537232
 40
0.5
100
AcDbArc
 50
327.683417653
 51
347.3174562624
  0
ARC
  5
584
100
AcDbEntity
  8
0
100
AcDbCircle
 62
7
  6
CONTINUOUS
 10
15.2348183383
 20
11.1072537232
 40
0.5
100
AcDbArc
 50
319.2877706601
 51
327.5954449643
  0
ARC
  5
585
100
AcDbEntity
  8
0
100
AcDbCircle
 62
7
  6
CONTINUOUS
 10
15.2348183383
 20
11.1072537232
 40
0.5
100
AcDbArc
 50
282.6825437376
 51
319.1927679098
  0
ARC
  5
586
100
AcDbEntity
  8
0
100
AcDbCircle
 62
7
  6
CONTINUOUS
 10
15.2348183383
 20
11.1072537232
 40
0.5
100
AcDbArc
 50
192.6825437376
 51
257.3174562624
  0
CIRCLE
  5
587
100
AcDbEntity
  8
0
100
AcDbCircle
 62
9
  6
CONTINUOUS
 10
15.2348183383
 20
11.1072537232
 40
0.47
  0
ARC
  5
588
100
AcDbEntity
  8
0
100
AcDbCircle
 62
7
  6
CONTINUOUS
 10
15.1298183383
 20
12.5872537232
 40
0.02
100
AcDbArc
 50
90.0
 51
180.0
  0
ARC
  5
589
100
AcDbEntity
  8
0
100
AcDbCircle
 62
7
  6
CONTINUOUS
 10
15.3398183383
 20
12.5872537232
 40
0.02
100
AcDbArc
 50
0.0
 51
90.0
  0
ARC
  5
58A
100
AcDbEntity
  8
0
100
AcDbCircle
 62
9
  6
CONTINUOUS
 10
20.3867221292
 20
10.5020126589
 40
0.3420310706
100
AcDbArc
 50
28.4716010302
 51
32.8155489457
  0
ARC
  5
58B
100
AcDbEntity
  8
0
100
AcDbCircle
 62
9
  6
CONTINUOUS
 10
20.0805419948
 20
10.5034163492
 40
0.3392763171
100
AcDbArc
 50
147.2108324596
 51
151.5416968791
  0
ARC
  5
58C
100
AcDbEntity
  8
0
100
AcDbCircle
 62
7
  6
CONTINUOUS
 10
20.0543503123
 20
10.7215814782
 40
0.3102354422
100
AcDbArc
 50
158.949675694
 51
160.6716851934
  0
ARC
  5
58D
100
AcDbEntity
  8
0
100
AcDbCircle
 62
7
  6
CONTINUOUS
 10
20.4158157359
 20
10.721776137
 40
0.3096714791
100
AcDbArc
 50
19.3267466558
 51
21.0518924568
  0
ARC
  5
58E
100
AcDbEntity
  8
0
100
AcDbCircle
 62
7
  6
CONTINUOUS
 10
20.0498542249
 20
10.723154128
 40
0.3054722488
100
AcDbArc
 50
160.6709148479
 51
164.1087415869
  0
ARC
  5
58F
100
AcDbEntity
  8
0
100
AcDbCircle
 62
7
  6
CONTINUOUS
 10
20.4208435708
 20
10.7234909422
 40
0.3043594602
100
AcDbArc
 50
15.884971885
 51
19.3353716802
  0
ARC
  5
590
100
AcDbEntity
  8
0
100
AcDbCircle
 62
7
  6
CONTINUOUS
 10
20.4291461805
 20
10.8104252973
 40
0.2956721578
100
AcDbArc
 50
0.00099291
 51
2.5210354962
  0
ARC
  5
591
100
AcDbEntity
  8
0
100
AcDbCircle
 62
7
  6
CONTINUOUS
 10
20.0404902093
 20
10.8104252932
 40
0.295671871
100
AcDbArc
 50
177.4789693297
 51
179.9990063022
  0
ARC
  5
592
100
AcDbEntity
  8
0
100
AcDbCircle
 62
7
  6
CONTINUOUS
 10
20.433239927
 20
10.7266264659
 40
0.2915785113
100
AcDbArc
 50
0.0474682171
 51
15.9590887529
  0
ARC
  5
593
100
AcDbEntity
  8
0
100
AcDbCircle
 62
7
  6
CONTINUOUS
 10
20.0363967495
 20
10.7266264659
 40
0.2915785113
100
AcDbArc
 50
164.0409112472
 51
179.9525317829
  0
ARC
  5
594
100
AcDbEntity
  8
0
100
AcDbCircle
 62
7
  6
CONTINUOUS
 10
16.7148183383
 20
11.0022537232
 40
0.02
100
AcDbArc
 50
270.0
 51
360.0
  0
ARC
  5
595
100
AcDbEntity
  8
0
100
AcDbCircle
 62
7
  6
CONTINUOUS
 10
20.2348183383
 20
11.1072537232
 40
1.125
100
AcDbArc
 50
296.4258917508
 51
243.5741082492
  0
ARC
  5
596
100
AcDbEntity
  8
0
100
AcDbCircle
 62
9
  6
CONTINUOUS
 10
20.2348183383
 20
11.1072537232
 40
1.105
100
AcDbArc
 50
296.943378594
 51
243.0566214058
  0
ARC
  5
597
100
AcDbEntity
  8
0
100
AcDbCircle
 62
7
  6
CONTINUOUS
 10
20.2348183383
 20
11.1072537232
 40
0.5475
100
AcDbArc
 50
333.0992178144
 51
206.9007821856
  0
ARC
  5
598
100
AcDbEntity
  8
0
100
AcDbCircle
 62
9
  6
CONTINUOUS
 10
20.2348183383
 20
11.1072537232
 40
0.5175
100
AcDbArc
 50
340.6732686248
 51
199.3267313752
  0
ARC
  5
599
100
AcDbEntity
  8
0
100
AcDbCircle
 62
7
  6
CONTINUOUS
 10
20.2348183383
 20
11.1072537232
 40
0.4875
100
AcDbArc
 50
0.0
 51
180.0
  0
ARC
  5
59A
100
AcDbEntity
  8
0
100
AcDbCircle
 62
7
  6
CONTINUOUS
 10
16.7148183383
 20
11.2122537232
 40
0.02
100
AcDbArc
 50
0.0
 51
90.0
  0
SPLINE
  5
59B
100
AcDbEntity
  8
0
100
AcDbSpline
 62
7
  6
CONTINUOUS
 70
0
 71
3
 72
40
 73
36
 74
0
 42
0.0000001
 43
0.0000001
 44
0.0000000001
 40
0.0
 40
0.0
 40
0.0
 40
0.0
 40
0.0274534689
 40
0.0412513869
 40
0.0551153247
 40
0.0830971445
 40
0.1115345011
 40
0.1259616937
 40
0.1405384895
 40
0.1701646567
 40
0.200474802
 40
0.2314927714
 40
0.26321574
 40
0.2956152367
 40
0.3621621993
 40
0.3962031054
 40
0.4306040225
 40
0.4999746677
 40
0.5347462682
 40
0.5693930465
 40
0.6377846577
 40
0.6713617954
 40
0.7043859975
 40
0.7367853359
 40
0.7685081324
 40
0.799525936
 40
0.8298359183
 40
0.8594619318
 40
0.8740386554
 40
0.8884657811
 40
0.9169030206
 40
0.9448847519
 40
0.9587486519
 40
0.972546544
 40
1.0
 40
1.0
 40
1.0
 40
1.0
 10
20.724532169
 20
10.8234307842
 30
0.0
 10
20.7239906315
 20
10.8357337705
 30
0.0
 10
20.7220188816
 20
10.8541955648
 30
0.0
 10
20.7171293604
 20
10.8784415458
 30
0.0
 10
20.7107102929
 20
10.902577164
 30
0.0
 10
20.6998487483
 20
10.9322588722
 30
0.0
 10
20.6854883697
 20
10.9606910535
 30
0.0
 10
20.6719828514
 20
10.9826477005
 30
0.0
 10
20.6569926828
 20
11.0042715494
 30
0.0
 10
20.6357536512
 20
11.0301669489
 30
0.0
 10
20.6067607919
 20
11.0589654132
 30
0.0
 10
20.5743965541
 20
11.0854223099
 30
0.0
 10
20.5389619632
 20
11.1093151555
 30
0.0
 10
20.4876269894
 20
11.1377281272
 30
0.0
 10
20.4319068051
 20
11.1598939663
 30
0.0
 10
20.3733816673
 20
11.1756015873
 30
0.0
 10
20.3125789041
 20
11.187039268
 30
0.0
 10
20.2503300329
 20
11.1916213176
 30
0.0
 10
20.1880692547
 20
11.1893205034
 30
0.0
 10
20.1265880037
 20
11.182470096
 30
0.0
 10
20.0665398081
 20
11.1688753344
 30
0.0
 10
20.0094163614
 20
11.1486301343
 30
0.0
 10
19.9688451489
 20
11.1304412751
 30
0.0
 10
19.9306716861
 20
11.1093135837
 30
0.0
 10
19.895239577
 20
11.0854217413
 30
0.0
 10
19.8628749983
 20
11.0589646583
 30
0.0
 10
19.8338824919
 20
11.0301663626
 30
0.0
 10
19.8126436044
 20
11.0042710279
 30
0.0
 10
19.797653535
 20
10.9826472751
 30
0.0
 10
19.7841481268
 20
10.9606906943
 30
0.0
 10
19.769787814
 20
10.9322586193
 30
0.0
 10
19.7589263321
 20
10.902577004
 30
0.0
 10
19.7525072912
 20
10.8784414496
 30
0.0
 10
19.7476177872
 20
10.8541955001
 30
0.0
 10
19.7456460422
 20
10.8357337232
 30
0.0
 10
19.7451045062
 20
10.8234307426
 30
0.0
  0
SPLINE
  5
59C
100
AcDbEntity
  8
0
100
AcDbSpline
 62
7
  6
CONTINUOUS
 70
0
 71
3
 72
21
 73
17
 74
0
 42
0.0000001
 43
0.0000001
 44
0.0000000001
 40
0.0
 40
0.0
 40
0.0
 40
0.0
 40
0.0545492662
 40
0.1094385495
 40
0.1649685728
 40
0.2214299157
 40
0.2790554033
 40
0.3380255362
 40
0.3984603538
 40
0.4604177394
 40
0.523895351
 40
0.5888338588
 40
0.7224911446
 40
0.7909774817
 40
0.8602376163
 40
1.0
 40
1.0
 40
1.0
 40
1.0
 10
19.7748183383
 20
5.0446255623
 30
0.0
 10
19.7748183383
 20
5.0329479451
 30
0.0
 10
19.7763230781
 20
5.0094927405
 30
0.0
 10
19.7830556526
 20
4.9747339104
 30
0.0
 10
19.7941901557
 20
4.940692332
 30
0.0
 10
19.8095945101
 20
4.907717477
 30
0.0
 10
19.8291010111
 20
4.8761279764
 30
0.0
 10
19.8525005627
 20
4.8462233834
 30
0.0
 10
19.8795531198
 20
4.8182798013
 30
0.0
 10
19.9099883065
 20
4.792552552
 30
0.0
 10
19.9435129633
 20
4.7692729739
 30
0.0
 10
19.9923417235
 20
4.74152413
 30
0.0
 10
20.0455898802
 20
4.71985214
 30
0.0
 10
20.1016666117
 20
4.7044798353
 30
0.0
 10
20.1600532359
 20
4.6932686739
 30
0.0
 10
20.2048987497
 20
4.6899055628
 30
0.0
 10
20.2348183383
 20
4.6899055628
 30
0.0
  0
SPLINE
  5
59D
100
AcDbEntity
  8
0
100
AcDbSpline
 62
7
  6
CONTINUOUS
 70
0
 71
3
 72
21
 73
17
 74
0
 42
0.0000001
 43
0.0000001
 44
0.0000000001
 40
0.0
 40
0.0
 40
0.0
 40
0.0
 40
0.1397624881
 40
0.2090226449
 40
0.2775089943
 40
0.4111662715
 40
0.4761047589
 40
0.539582342
 40
0.6015396945
 40
0.6619744779
 40
0.720944579
 40
0.7785700419
 40
0.8350313708
 40
0.8905613905
 40
0.9454507066
 40
1.0
 40
1.0
 40
1.0
 40
1.0
 10
20.2348183383
 20
4.6899055628
 30
0.0
 10
20.2647379493
 20
4.6899055628
 30
0.0
 10
20.3095834902
 20
4.6932686787
 30
0.0
 10
20.3679701426
 20
4.7044798517
 30
0.0
 10
20.4240468765
 20
4.719852169
 30
0.0
 10
20.4772950263
 20
4.7415241655
 30
0.0
 10
20.5261237723
 20
4.7692730097
 30
0.0
 10
20.5596484102
 20
4.7925525841
 30
0.0
 10
20.5900835787
 20
4.818279823
 30
0.0
 10
20.6171361202
 20
4.8462233906
 30
0.0
 10
20.6405356593
 20
4.8761279686
 30
0.0
 10
20.6600421539
 20
4.9077174552
 30
0.0
 10
20.6754465085
 20
4.9406922999
 30
0.0
 10
20.6865810181
 20
4.9747338799
 30
0.0
 10
20.6933135931
 20
5.0094927221
 30
0.0
 10
20.6948183383
 20
5.0329479393
 30
0.0
 10
20.6948183383
 20
5.0446255623
 30
0.0
  0
SPLINE
  5
59E
100
AcDbEntity
  8
0
100
AcDbSpline
 62
7
  6
CONTINUOUS
 70
0
 71
3
 72
11
 73
7
 74
0
 42
0.0000001
 43
0.0000001
 44
0.0000000001
 40
0.0
 40
0.0
 40
0.0
 40
0.0
 40
0.247311032
 40
0.4957637884
 40
0.7463225347
 40
1.0
 40
1.0
 40
1.0
 40
1.0
 10
20.7348183383
 20
10.5018923685
 30
0.0
 10
20.7348183383
 20
10.5126268333
 30
0.0
 10
20.7336492263
 20
10.5341631209
 30
0.0
 10
20.7284118312
 20
10.5661914067
 30
0.0
 10
20.719730534
 20
10.597747916
 30
0.0
 10
20.711748788
 20
10.6181749968
 30
0.0
 10
20.7072341537
 20
10.6282176931
 30
0.0
  0
SPLINE
  5
59F
100
AcDbEntity
  8
0
100
AcDbSpline
 62
7
  6
CONTINUOUS
 70
0
 71
3
 72
31
 73
27
 74
0
 42
0.0000001
 43
0.0000001
 44
0.0000000001
 40
0.0
 40
0.0
 40
0.0
 40
0.0
 40
0.0274959082
 40
0.0554531146
 40
0.0839251352
 40
0.1129507027
 40
0.1726990715
 40
0.2034709924
 40
0.2348066636
 40
0.2989993641
 40
0.3649447093
 40
0.3984356321
 40
0.4321655394
 40
0.5000003892
 40
0.5678352182
 40
0.6015651018
 40
0.6350559905
 40
0.7010012438
 40
0.7651938249
 40
0.796529431
 40
0.8273012828
 40
0.887049518
 40
0.9160750227
 40
0.9445469854
 40
0.9725041381
 40
1.0
 40
1.0
 40
1.0
 40
1.0
 10
20.7072341537
 20
10.6282176931
 30
0.0
 10
20.7029667299
 20
10.6377104756
 30
0.0
 10
20.6934484503
 20
10.6564585951
 30
0.0
 10
20.6765367102
 20
10.6833971624
 30
0.0
 10
20.6569839978
 20
10.7092180689
 30
0.0
 10
20.6272912438
 20
10.7422575712
 30
0.0
 10
20.5930058591
 20
10.7721214232
 30
0.0
 10
20.5550780146
 20
10.7984202567
 30
0.0
 10
20.5139142108
 20
10.8228074676
 30
0.0
 10
20.4582003632
 20
10.848413955
 30
0.0
 10
20.398897277
 20
10.8668709703
 30
0.0
 10
20.3495698555
 20
10.8773741577
 30
0.0
 10
20.298988059
 20
10.8849738893
 30
0.0
 10
20.2348179634
 20
10.8887767454
 30
0.0
 10
20.1706478864
 20
10.8849737919
 30
0.0
 10
20.1200661213
 20
10.8773740473
 30
0.0
 10
20.0707387739
 20
10.8668707833
 30
0.0
 10
20.0114357869
 20
10.8484137685
 30
0.0
 10
19.9557220626
 20
10.8228072608
 30
0.0
 10
19.914558362
 20
10.7984200651
 30
0.0
 10
19.8766306222
 20
10.7721212585
 30
0.0
 10
19.8423453307
 20
10.7422574557
 30
0.0
 10
19.812652641
 20
10.7092180254
 30
0.0
 10
19.7930999695
 20
10.6833971706
 30
0.0
 10
19.7761882655
 20
10.6564586519
 30
0.0
 10
19.7666699904
 20
10.6377105728
 30
0.0
 10
19.7624025711
 20
10.6282178075
 30
0.0
  0
SPLINE
  5
5A0
100
AcDbEntity
  8
0
100
AcDbSpline
 62
7
  6
CONTINUOUS
 70
0
 71
3
 72
11
 73
7
 74
0
 42
0.0000001
 43
0.0000001
 44
0.0000000001
 40
0.0
 40
0.0
 40
0.0
 40
0.0
 40
0.2536773384
 40
0.5042360073
 40
0.7526888121
 40
1.0
 40
1.0
 40
1.0
 40
1.0
 10
19.7624025711
 20
10.6282178075
 30
0.0
 10
19.7578879318
 20
10.618175108
 30
0.0
 10
19.7499061779
 20
10.5977480175
 30
0.0
 10
19.7412248607
 20
10.5661914883
 30
0.0
 10
19.735987454
 20
10.5341631673
 30
0.0
 10
19.7348183383
 20
10.5126268503
 30
0.0
 10
19.7348183383
 20
10.5018923685
 30
0.0
  0
SPLINE
  5
5A1
100
AcDbEntity
  8
0
100
AcDbSpline
 62
7
  6
CONTINUOUS
 70
0
 71
3
 72
37
 73
33
 74
0
 42
0.0000001
 43
0.0000001
 44
0.0000000001
 40
0.0
 40
0.0
 40
0.0
 40
0.0
 40
0.0272518373
 40
0.0546740533
 40
0.0824193868
 40
0.1106331881
 40
0.139432445
 40
0.1689077629
 40
0.1991190531
 40
0.2300950886
 40
0.2618343755
 40
0.2943069444
 40
0.3274570551
 40
0.36120657
 40
0.430048097
 40
0.4649566852
 40
0.5000003759
 40
0.5350440606
 40
0.5699526291
 40
0.6387940735
 40
0.6725435329
 40
0.7056935799
 40
0.7381660762
 40
0.7699052881
 40
0.8008812506
 40
0.8310924701
 40
0.8605677226
 40
0.889366921
 40
0.9175806751
 40
0.9453259743
 40
0.9727481679
 40
1.0
 40
1.0
 40
1.0
 40
1.0
 10
19.7348183383
 20
5.0510534383
 30
0.0
 10
19.7348183383
 20
5.0383723905
 30
0.0
 10
19.7364525989
 20
5.0129014627
 30
0.0
 10
19.7437660897
 20
4.9751543795
 30
0.0
 10
19.755861669
 20
4.9381837806
 30
0.0
 10
19.7725972545
 20
4.9023682538
 30
0.0
 10
19.7937912174
 20
4.8680536706
 30
0.0
 10
19.819218021
 20
4.835565925
 30
0.0
 10
19.8486172196
 20
4.8052056588
 30
0.0
 10
19.8816961027
 20
4.7772503561
 30
0.0
 10
19.9181322948
 20
4.7519534229
 30
0.0
 10
19.9575741641
 20
4.7295444776
 30
0.0
 10
19.9996491503
 20
4.7102250157
 30
0.0
 10
20.0590863767
 20
4.6886865184
 30
0.0
 10
20.1217316335
 20
4.6742143716
 30
0.0
 10
20.1859469311
 20
4.6669179469
 30
0.0
 10
20.2348188623
 20
4.6650776869
 30
0.0
 10
20.2836907821
 20
4.666918013
 30
0.0
 10
20.3479060174
 20
4.6742145448
 30
0.0
 10
20.410551175
 20
4.6886867853
 30
0.0
 10
20.4699882867
 20
4.7102253216
 30
0.0
 10
20.5120631667
 20
4.7295448022
 30
0.0
 10
20.5515049121
 20
4.751953766
 30
0.0
 10
20.5879409883
 20
4.7772506846
 30
0.0
 10
20.6210197683
 20
4.805205951
 30
0.0
 10
20.6504188747
 20
4.8355661708
 30
0.0
 10
20.6758455946
 20
4.8680538667
 30
0.0
 10
20.6970394926
 20
4.9023683955
 30
0.0
 10
20.7137750405
 20
4.9381838673
 30
0.0
 10
20.7258705977
 20
4.9751544224
 30
0.0
 10
20.7331840788
 20
5.0129014779
 30
0.0
 10
20.7348183383
 20
5.0383723929
 30
0.0
 10
20.7348183383
 20
5.0510534383
 30
0.0
  0
SPLINE
  5
5A2
100
AcDbEntity
  8
0
100
AcDbSpline
 62
7
  6
CONTINUOUS
 70
0
 71
3
 72
11
 73
7
 74
0
 42
0.0000001
 43
0.0000001
 44
0.0000000001
 40
0.0
 40
0.0
 40
0.0
 40
0.0
 40
0.2526914777
 40
0.5030945529
 40
0.7519537548
 40
1.0
 40
1.0
 40
1.0
 40
1.0
 10
20.7071348738
 20
10.6269381084
 30
0.0
 10
20.7100475804
 20
10.6350173323
 30
0.0
 10
20.7151791869
 20
10.6513529869
 30
0.0
 10
20.7207320568
 20
10.6763306355
 30
0.0
 10
20.7240736171
 20
10.7015400886
 30
0.0
 10
20.7248183383
 20
10.7184376781
 30
0.0
 10
20.7248183383
 20
10.7268680319
 30
0.0
  0
SPLINE
  5
5A3
100
AcDbEntity
  8
0
100
AcDbSpline
 62
7
  6
CONTINUOUS
 70
0
 71
3
 72
11
 73
7
 74
0
 42
0.0000001
 43
0.0000001
 44
0.0000000001
 40
0.0
 40
0.0
 40
0.0
 40
0.0
 40
0.2480464549
 40
0.4969057838
 40
0.7473088037
 40
1.0
 40
1.0
 40
1.0
 40
1.0
 10
19.7448183383
 20
10.7268680319
 30
0.0
 10
19.7448183383
 20
10.7184381604
 30
0.0
 10
19.7455629741
 20
10.7015415414
 30
0.0
 10
19.7489041515
 20
10.6763335205
 30
0.0
 10
19.7544563873
 20
10.6513572634
 30
0.0
 10
19.7595874141
 20
10.6350224832
 30
0.0
 10
19.7624997936
 20
10.6269436815
 30
0.0
  0
SPLINE
  5
5A4
100
AcDbEntity
  8
0
100
AcDbSpline
 62
9
  6
CONTINUOUS
 70
0
 71
3
 72
30
 73
26
 74
0
 42
0.0000001
 43
0.0000001
 44
0.0000000001
 40
0.0
 40
0.0
 40
0.0
 40
0.0
 40
0.0104655932
 40
0.0213881526
 40
0.0331679879
 40
0.046117384
 40
0.0604648515
 40
0.0763669385
 40
0.0939234421
 40
0.1131975626
 40
0.1342222243
 40
0.157005046
 40
0.1815399987
 40
0.2078069782
 40
0.2357713993
 40
0.2653926381
 40
0.3293964651
 40
0.3993442026
 40
0.4746664447
 40
0.5547237044
 40
0.6388155622
 40
0.7261875307
 40
0.8160518097
 40
0.9076218747
 40
1.0
 40
1.0
 40
1.0
 40
1.0
 10
6.6723177644
 20
4.6946803047
 30
0.0
 10
6.6723177644
 20
4.6962995312
 30
0.0
 10
6.6719480401
 20
4.6996190407
 30
0.0
 10
6.6703074541
 20
4.7045157655
 30
0.0
 10
6.6676053538
 20
4.7093555529
 30
0.0
 10
6.6638671962
 20
4.7141320066
 30
0.0
 10
6.6591070508
 20
4.7188442124
 30
0.0
 10
6.6533371637
 20
4.7234886639
 30
0.0
 10
6.6465704285
 20
4.7280606515
 30
0.0
 10
6.6388200285
 20
4.7325509635
 30
0.0
 10
6.6301026664
 20
4.7369500891
 30
0.0
 10
6.6204383047
 20
4.7412492119
 30
0.0
 10
6.6098486098
 20
4.7454374565
 30
0.0
 10
6.5983581435
 20
4.7495044777
 30
0.0
 10
6.5859943079
 20
4.7534416296
 30
0.0
 10
6.5679120599
 20
4.7586387469
 30
0.0
 10
6.5433259531
 20
4.7646820803
 30
0.0
 10
6.5115829749
 20
4.7711031681
 30
0.0
 10
6.4771831473
 20
4.7768032713
 30
0.0
 10
6.4404554696
 20
4.7817252097
 30
0.0
 10
6.401751816
 20
4.7858202243
 30
0.0
 10
6.3614443717
 20
4.7890482976
 30
0.0
 10
6.3199163525
 20
4.791377153
 30
0.0
 10
6.2775722879
 20
4.7927828574
 30
0.0
 10
6.2491109931
 20
4.793096391
 30
0.0
 10
6.2348183383
 20
4.793096391
 30
0.0
  0
SPLINE
  5
5A5
100
AcDbEntity
  8
0
100
AcDbSpline
 62
9
  6
CONTINUOUS
 70
0
 71
3
 72
30
 73
26
 74
0
 42
0.0000001
 43
0.0000001
 44
0.0000000001
 40
0.0
 40
0.0
 40
0.0
 40
0.0
 40
0.0104655932
 40
0.0213881526
 40
0.0331679879
 40
0.046117384
 40
0.0604648515
 40
0.0763669385
 40
0.0939234421
 40
0.1131975626
 40
0.1342222243
 40
0.157005046
 40
0.1815399987
 40
0.2078069782
 40
0.2357713993
 40
0.2653926381
 40
0.3293964651
 40
0.3993442026
 40
0.4746664447
 40
0.5547237044
 40
0.6388155622
 40
0.7261875307
 40
0.8160518097
 40
0.9076218747
 40
1.0
 40
1.0
 40
1.0
 40
1.0
 10
6.6723177644
 20
9.9446803047
 30
0.0
 10
6.6723177644
 20
9.9462995312
 30
0.0
 10
6.6719480401
 20
9.9496190407
 30
0.0
 10
6.6703074541
 20
9.9545157655
 30
0.0
 10
6.6676053538
 20
9.9593555529
 30
0.0
 10
6.6638671962
 20
9.9641320066
 30
0.0
 10
6.6591070508
 20
9.9688442124
 30
0.0
 10
6.6533371637
 20
9.9734886639
 30
0.0
 10
6.6465704285
 20
9.9780606515
 30
0.0
 10
6.6388200285
 20
9.9825509635
 30
0.0
 10
6.6301026664
 20
9.9869500891
 30
0.0
 10
6.6204383047
 20
9.9912492119
 30
0.0
 10
6.6098486098
 20
9.9954374565
 30
0.0
 10
6.5983581435
 20
9.9995044777
 30
0.0
 10
6.5859943079
 20
10.0034416296
 30
0.0
 10
6.5679120599
 20
10.0086387469
 30
0.0
 10
6.5433259531
 20
10.0146820803
 30
0.0
 10
6.5115829749
 20
10.0211031681
 30
0.0
 10
6.4771831473
 20
10.0268032713
 30
0.0
 10
6.4404554696
 20
10.0317252097
 30
0.0
 10
6.401751816
 20
10.0358202243
 30
0.0
 10
6.3614443717
 20
10.0390482976
 30
0.0
 10
6.3199163525
 20
10.041377153
 30
0.0
 10
6.2775722879
 20
10.0427828574
 30
0.0
 10
6.2491109931
 20
10.043096391
 30
0.0
 10
6.2348183383
 20
10.043096391
 30
0.0
  0
SPLINE
  5
5A6
100
AcDbEntity
  8
0
100
AcDbSpline
 62
9
  6
CONTINUOUS
 70
0
 71
3
 72
37
 73
33
 74
0
 42
0.0000001
 43
0.0000001
 44
0.0000000001
 40
0.0
 40
0.0
 40
0.0
 40
0.0
 40
0.0270151869
 40
0.0542166759
 40
0.0817651585
 40
0.109817706
 40
0.1384969055
 40
0.1678959519
 40
0.1980748558
 40
0.2290601678
 40
0.2608467048
 40
0.2933998099
 40
0.3266588367
 40
0.3605406798
 40
0.4296970922
 40
0.4647787493
 40
0.5
 40
0.5352212507
 40
0.5703029078
 40
0.6394593202
 40
0.6733411633
 40
0.7066001901
 40
0.7391532952
 40
0.7709398322
 40
0.8019251442
 40
0.8321040481
 40
0.8615030945
 40
0.890182294
 40
0.9182348415
 40
0.9457833241
 40
0.9729848131
 40
1.0
 40
1.0
 40
1.0
 40
1.0
 10
20.7223183383
 20
10.9551826112
 30
0.0
 10
20.7223183383
 20
10.9674080913
 30
0.0
 10
20.7207374238
 20
10.9919719456
 30
0.0
 10
20.7136629162
 20
11.0283872518
 30
0.0
 10
20.7019516009
 20
11.0640829908
 30
0.0
 10
20.6857316236
 20
11.0987012095
 30
0.0
 10
20.6651653396
 20
11.1319103552
 30
0.0
 10
20.6404614022
 20
11.1633925442
 30
0.0
 10
20.6118643466
 20
11.1928501425
 30
0.0
 10
20.5796531583
 20
11.2200051464
 30
0.0
 10
20.5441391854
 20
11.244601708
 30
0.0
 10
20.5056659394
 20
11.2664087428
 30
0.0
 10
20.4645984969
 20
11.2852224053
 30
0.0
 10
20.4065427098
 20
11.3062127855
 30
0.0
 10
20.3453378822
 20
11.3203182697
 30
0.0
 10
20.2825863226
 20
11.3274333234
 30
0.0
 10
20.2348183383
 20
11.3292284415
 30
0.0
 10
20.1870503539
 20
11.3274333234
 30
0.0
 10
20.1242987944
 20
11.3203182697
 30
0.0
 10
20.0630939667
 20
11.3062127855
 30
0.0
 10
20.0050381797
 20
11.2852224053
 30
0.0
 10
19.9639707372
 20
11.2664087428
 30
0.0
 10
19.9254974912
 20
11.244601708
 30
0.0
 10
19.8899835183
 20
11.2200051464
 30
0.0
 10
19.85777233
 20
11.1928501425
 30
0.0
 10
19.8291752744
 20
11.1633925442
 30
0.0
 10
19.804471337
 20
11.1319103552
 30
0.0
 10
19.7839050529
 20
11.0987012095
 30
0.0
 10
19.7676850756
 20
11.0640829908
 30
0.0
 10
19.7559737603
 20
11.0283872518
 30
0.0
 10
19.7488992527
 20
10.9919719456
 30
0.0
 10
19.7473183383
 20
10.9674080913
 30
0.0
 10
19.7473183383
 20
10.9551826112
 30
0.0
  0
SPLINE
  5
5A7
100
AcDbEntity
  8
0
100
AcDbSpline
 62
7
  6
CONTINUOUS
 70
0
 71
3
 72
33
 73
29
 74
0
 42
0.0000001
 43
0.0000001
 44
0.0000000001
 40
0.0
 40
0.0
 40
0.0
 40
0.0
 40
0.0269560555
 40
0.0542539027
 40
0.0820224406
 40
0.1103635495
 40
0.1393565292
 40
0.1690550778
 40
0.199486758
 40
0.2306538964
 40
0.2625354977
 40
0.295089492
 40
0.3619066542
 40
0.4304902812
 40
0.499999985
 40
0.5695096896
 40
0.6380933192
 40
0.7049104854
 40
0.7374644821
 40
0.769346086
 40
0.8005132271
 40
0.8309449101
 40
0.8606434614
 40
0.8896364437
 40
0.9179775548
 40
0.9457460947
 40
0.9730439435
 40
1.0
 40
1.0
 40
1.0
 40
1.0
 10
20.7187142771
 20
10.868611363
 30
0.0
 10
20.7169210356
 20
10.8798494058
 30
0.0
 10
20.7119734149
 20
10.9022759664
 30
0.0
 10
20.7006624494
 20
10.9350787585
 30
0.0
 10
20.6855254812
 20
10.9669508614
 30
0.0
 10
20.6666909557
 20
10.9976239074
 30
0.0
 10
20.6443208996
 20
11.0268500765
 30
0.0
 10
20.6186034642
 20
11.0543930255
 30
0.0
 10
20.5897510826
 20
11.080030051
 30
0.0
 10
20.558003053
 20
11.1035553058
 30
0.0
 10
20.5236180697
 20
11.1247815162
 30
0.0
 10
20.4742201222
 20
11.1499984256
 30
0.0
 10
20.407442781
 20
11.1747084874
 30
0.0
 10
20.3225369392
 20
11.19269972
 30
0.0
 10
20.234818421
 20
11.1987629167
 30
0.0
 10
20.1470999001
 20
11.1926997427
 30
0.0
 10
20.0621940504
 20
11.174708532
 30
0.0
 10
19.9954166988
 20
11.1499984877
 30
0.0
 10
19.9460187404
 20
11.1247815913
 30
0.0
 10
19.9116337478
 20
11.1035553898
 30
0.0
 10
19.8798857078
 20
11.0800301433
 30
0.0
 10
19.8510333148
 20
11.0543931254
 30
0.0
 10
19.8253158672
 20
11.0268501831
 30
0.0
 10
19.8029457982
 20
10.9976240199
 30
0.0
 10
19.7841112591
 20
10.9669509788
 30
0.0
 10
19.7689742768
 20
10.93507888
 30
0.0
 10
19.7576632968
 20
10.9022760908
 30
0.0
 10
19.752715666
 20
10.8798495314
 30
0.0
 10
19.7509224195
 20
10.8686114889
 30
0.0
  0
SPLINE
  5
5A8
100
AcDbEntity
  8
0
100
AcDbSpline
 62
9
  6
CONTINUOUS
 70
0
 71
3
 72
30
 73
26
 74
0
 42
0.0000001
 43
0.0000001
 44
0.0000000001
 40
0.0
 40
0.0
 40
0.0
 40
0.0
 40
0.0923781253
 40
0.1839481903
 40
0.2738124693
 40
0.3611844378
 40
0.4452762956
 40
0.5253335553
 40
0.6006557974
 40
0.6706035349
 40
0.7346073619
 40
0.7642286007
 40
0.7921930218
 40
0.8184600013
 40
0.842994954
 40
0.8657777757
 40
0.8868024374
 40
0.9060765579
 40
0.9236330615
 40
0.9395351485
 40
0.953882616
 40
0.9668320121
 40
0.9786118474
 40
0.9895344068
 40
1.0
 40
1.0
 40
1.0
 40
1.0
 10
6.2348183383
 20
10.043096391
 30
0.0
 10
6.2205256835
 20
10.043096391
 30
0.0
 10
6.1920643886
 20
10.0427828574
 30
0.0
 10
6.149720324
 20
10.041377153
 30
0.0
 10
6.1081923048
 20
10.0390482976
 30
0.0
 10
6.0678848606
 20
10.0358202243
 30
0.0
 10
6.029181207
 20
10.0317252097
 30
0.0
 10
5.9924535292
 20
10.0268032713
 30
0.0
 10
5.9580537017
 20
10.0211031681
 30
0.0
 10
5.9263107235
 20
10.0146820803
 30
0.0
 10
5.9017246167
 20
10.0086387469
 30
0.0
 10
5.8836423686
 20
10.0034416296
 30
0.0
 10
5.8712785331
 20
9.9995044777
 30
0.0
 10
5.8597880668
 20
9.9954374565
 30
0.0
 10
5.8491983719
 20
9.9912492119
 30
0.0
 10
5.8395340102
 20
9.9869500891
 30
0.0
 10
5.8308166481
 20
9.9825509635
 30
0.0
 10
5.823066248
 20
9.9780606515
 30
0.0
 10
5.8162995129
 20
9.9734886639
 30
0.0
 10
5.8105296257
 20
9.9688442124
 30
0.0
 10
5.8057694804
 20
9.9641320066
 30
0.0
 10
5.8020313228
 20
9.9593555529
 30
0.0
 10
5.7993292224
 20
9.9545157655
 30
0.0
 10
5.7976886365
 20
9.9496190407
 30
0.0
 10
5.7973189122
 20
9.9462995312
 30
0.0
 10
5.7973189122
 20
9.9446803047
 30
0.0
  0
SPLINE
  5
5A9
100
AcDbEntity
  8
0
100
AcDbSpline
 62
9
  6
CONTINUOUS
 70
0
 71
3
 72
30
 73
26
 74
0
 42
0.0000001
 43
0.0000001
 44
0.0000000001
 40
0.0
 40
0.0
 40
0.0
 40
0.0
 40
0.0923781253
 40
0.1839481903
 40
0.2738124693
 40
0.3611844378
 40
0.4452762956
 40
0.5253335553
 40
0.6006557974
 40
0.6706035349
 40
0.7346073619
 40
0.7642286007
 40
0.7921930218
 40
0.8184600013
 40
0.842994954
 40
0.8657777757
 40
0.8868024374
 40
0.9060765579
 40
0.9236330615
 40
0.9395351485
 40
0.953882616
 40
0.9668320121
 40
0.9786118474
 40
0.9895344068
 40
1.0
 40
1.0
 40
1.0
 40
1.0
 10
6.2348183383
 20
4.793096391
 30
0.0
 10
6.2205256835
 20
4.793096391
 30
0.0
 10
6.1920643886
 20
4.7927828574
 30
0.0
 10
6.149720324
 20
4.791377153
 30
0.0
 10
6.1081923048
 20
4.7890482976
 30
0.0
 10
6.0678848606
 20
4.7858202243
 30
0.0
 10
6.029181207
 20
4.7817252097
 30
0.0
 10
5.9924535292
 20
4.7768032713
 30
0.0
 10
5.9580537017
 20
4.7711031681
 30
0.0
 10
5.9263107235
 20
4.7646820803
 30
0.0
 10
5.9017246167
 20
4.7586387469
 30
0.0
 10
5.8836423686
 20
4.7534416296
 30
0.0
 10
5.8712785331
 20
4.7495044777
 30
0.0
 10
5.8597880668
 20
4.7454374565
 30
0.0
 10
5.8491983719
 20
4.7412492119
 30
0.0
 10
5.8395340102
 20
4.7369500891
 30
0.0
 10
5.8308166481
 20
4.7325509635
 30
0.0
 10
5.823066248
 20
4.7280606515
 30
0.0
 10
5.8162995129
 20
4.7234886639
 30
0.0
 10
5.8105296257
 20
4.7188442124
 30
0.0
 10
5.8057694804
 20
4.7141320066
 30
0.0
 10
5.8020313228
 20
4.7093555529
 30
0.0
 10
5.7993292224
 20
4.7045157655
 30
0.0
 10
5.7976886365
 20
4.6996190407
 30
0.0
 10
5.7973189122
 20
4.6962995312
 30
0.0
 10
5.7973189122
 20
4.6946803047
 30
0.0
  0
SPLINE
  5
5AA
100
AcDbEntity
  8
0
100
AcDbSpline
 62
9
  6
CONTINUOUS
 70
0
 71
3
 72
37
 73
33
 74
0
 42
0.0000001
 43
0.0000001
 44
0.0000000001
 40
0.0
 40
0.0
 40
0.0
 40
0.0
 40
0.0270151869
 40
0.0542166761
 40
0.0817651588
 40
0.1098177065
 40
0.1384969061
 40
0.1678959526
 40
0.1980748565
 40
0.2290601683
 40
0.2608467052
 40
0.2933998102
 40
0.326658837
 40
0.3605406801
 40
0.4296970923
 40
0.4647787494
 40
0.5
 40
0.5352212506
 40
0.5703029077
 40
0.6394593199
 40
0.673341163
 40
0.7066001898
 40
0.7391532948
 40
0.7709398317
 40
0.8019251435
 40
0.8321040474
 40
0.8615030939
 40
0.8901822935
 40
0.9182348412
 40
0.9457833239
 40
0.9729848131
 40
1.0
 40
1.0
 40
1.0
 40
1.0
 10
19.7448183383
 20
10.8104304211
 30
0.0
 10
19.7448183383
 20
10.822718596
 30
0.0
 10
19.74640736
 20
10.8474084189
 30
0.0
 10
19.7535181472
 20
10.8840104704
 30
0.0
 10
19.7652895206
 20
10.9198892646
 30
0.0
 10
19.7815926774
 20
10.9546850128
 30
0.0
 10
19.8022644298
 20
10.9880644619
 30
0.0
 10
19.8270950541
 20
11.0197080981
 30
0.0
 10
19.8558387613
 20
11.0493167609
 30
0.0
 10
19.8882151352
 20
11.076611021
 30
0.0
 10
19.9239112309
 20
11.1013337188
 30
0.0
 10
19.9625817756
 20
11.1232525844
 30
0.0
 10
20.0038598203
 20
11.1421627272
 30
0.0
 10
20.0622133293
 20
11.1632607502
 30
0.0
 10
20.1237320277
 20
11.1774385702
 30
0.0
 10
20.18680539
 20
11.1845901113
 30
0.0
 10
20.2348183383
 20
11.1863944352
 30
0.0
 10
20.2828312866
 20
11.1845901113
 30
0.0
 10
20.3459046489
 20
11.1774385702
 30
0.0
 10
20.4074233473
 20
11.1632607502
 30
0.0
 10
20.4657768563
 20
11.1421627272
 30
0.0
 10
20.507054901
 20
11.1232525844
 30
0.0
 10
20.5457254457
 20
11.1013337188
 30
0.0
 10
20.5814215414
 20
11.076611021
 30
0.0
 10
20.6137979153
 20
11.0493167609
 30
0.0
 10
20.6425416224
 20
11.0197080981
 30
0.0
 10
20.6673722468
 20
10.9880644619
 30
0.0
 10
20.6880439992
 20
10.9546850128
 30
0.0
 10
20.704347156
 20
10.9198892646
 30
0.0
 10
20.7161185294
 20
10.8840104704
 30
0.0
 10
20.7232293166
 20
10.8474084189
 30
0.0
 10
20.7248183383
 20
10.822718596
 30
0.0
 10
20.7248183383
 20
10.8104304211
 30
0.0
  0
LINE
  5
5AB
100
AcDbEntity
  8
0
100
AcDbLine
 62
9
  6
CONTINUOUS
 10
19.7953229109
 20
10.6871511949
 11
19.7957429042
 21
10.6878022173
  0
SPLINE
  5
5AC
100
AcDbEntity
  8
0
100
AcDbSpline
 62
9
  6
CONTINUOUS
 70
0
 71
3
 72
25
 73
21
 74
0
 42
0.0000001
 43
0.0000001
 44
0.0000000001
 40
0.0
 40
0.0
 40
0.0
 40
0.0
 40
0.0277401917
 40
0.0559860104
 40
0.1140448271
 40
0.1742788466
 40
0.2365880259
 40
0.3661347712
 40
0.3993723398
 40
0.4328068875
 40
0.4999848313
 40
0.5671634333
 40
0.6005987939
 40
0.6338374866
 40
0.7633914953
 40
0.8257055385
 40
0.8859448562
 40
0.9440090234
 40
0.9722574097
 40
1.0
 40
1.0
 40
1.0
 40
1.0
 10
19.7957429042
 20
10.6878022173
 30
0.0
 10
19.8008186767
 20
10.6956509387
 30
0.0
 10
19.8117033631
 20
10.7110871416
 30
0.0
 10
19.8362130363
 20
10.7407219083
 30
0.0
 10
19.8718678532
 20
10.7751453387
 30
0.0
 10
19.9211671434
 20
10.8111252709
 30
0.0
 10
19.9957423007
 20
10.8521517685
 30
0.0
 10
20.0684851464
 20
10.8763969807
 30
0.0
 10
20.1334435828
 20
10.8887238664
 30
0.0
 10
20.1781658557
 20
10.8947309445
 30
0.0
 10
20.2347346277
 20
10.8977392301
 30
0.0
 10
20.2913044542
 20
10.8947457226
 30
0.0
 10
20.3360291791
 20
10.8887503711
 30
0.0
 10
20.4009939723
 20
10.8764403322
 30
0.0
 10
20.4737476248
 20
10.8522138698
 30
0.0
 10
20.5483403495
 20
10.8112072448
 30
0.0
 10
20.5976555335
 20
10.7752403067
 30
0.0
 10
20.6333255915
 20
10.7408263314
 30
0.0
 10
20.6578484865
 20
10.7111980028
 30
0.0
 10
20.6687400795
 20
10.6957646317
 30
0.0
 10
20.6738193669
 20
10.6879172218
 30
0.0
  0
LINE
  5
5AD
100
AcDbEntity
  8
0
100
AcDbLine
 62
9
  6
CONTINUOUS
 10
20.6738193669
 20
10.6879172218
 11
20.6741717322
 21
10.6873717129
  0
SPLINE
  5
5AE
100
AcDbEntity
  8
0
100
AcDbSpline
 62
9
  6
CONTINUOUS
 70
0
 71
3
 72
37
 73
33
 74
0
 42
0.0000001
 43
0.0000001
 44
0.0000000001
 40
0.0
 40
0.0
 40
0.0
 40
0.0
 40
0.0270156913
 40
0.0542164824
 40
0.0817651799
 40
0.1098177487
 40
0.1384968548
 40
0.1678959559
 40
0.1980748957
 40
0.2290601925
 40
0.2608466613
 40
0.2933997915
 40
0.3266588782
 40
0.3605407089
 40
0.429697078
 40
0.4647787781
 40
0.5
 40
0.5352212219
 40
0.570302922
 40
0.6394592911
 40
0.6733411218
 40
0.7066002085
 40
0.7391533387
 40
0.7709398075
 40
0.8019251043
 40
0.8321040441
 40
0.8615031452
 40
0.8901822513
 40
0.9182348201
 40
0.9457835176
 40
0.9729843087
 40
1.0
 40
1.0
 40
1.0
 40
1.0
 10
20.7348183383
 20
5.0510534383
 30
0.0
 10
20.7348183383
 20
5.0635926271
 30
0.0
 10
20.7331971449
 20
5.0887862626
 30
0.0
 10
20.7259408609
 20
5.1261352395
 30
0.0
 10
20.7139293837
 20
5.1627460618
 30
0.0
 10
20.6972934254
 20
5.1982519615
 30
0.0
 10
20.6762000419
 20
5.2323127593
 30
0.0
 10
20.650862661
 20
5.264602199
 30
0.0
 10
20.6215320918
 20
5.2948149309
 30
0.0
 10
20.5884949112
 20
5.3226660782
 30
0.0
 10
20.5520706564
 20
5.3478937513
 30
0.0
 10
20.5126108956
 20
5.3702599654
 30
0.0
 10
20.470490248
 20
5.3895557074
 30
0.0
 10
20.4109457661
 20
5.4110839963
 30
0.0
 10
20.3481717919
 20
5.425552091
 30
0.0
 10
20.2838111363
 20
5.4328490338
 30
0.0
 10
20.2348183383
 20
5.4346898153
 30
0.0
 10
20.1858255402
 20
5.4328490338
 30
0.0
 10
20.1214648847
 20
5.425552091
 30
0.0
 10
20.0586909105
 20
5.4110839963
 30
0.0
 10
19.9991464286
 20
5.3895557074
 30
0.0
 10
19.9570257809
 20
5.3702599654
 30
0.0
 10
19.9175660202
 20
5.3478937513
 30
0.0
 10
19.8811417654
 20
5.3226660782
 30
0.0
 10
19.8481045848
 20
5.2948149309
 30
0.0
 10
19.8187740156
 20
5.264602199
 30
0.0
 10
19.7934366346
 20
5.2323127593
 30
0.0
 10
19.7723432511
 20
5.1982519615
 30
0.0
 10
19.7557072929
 20
5.1627460618
 30
0.0
 10
19.7436958156
 20
5.1261352395
 30
0.0
 10
19.7364395317
 20
5.0887862626
 30
0.0
 10
19.7348183383
 20
5.0635926271
 30
0.0
 10
19.7348183383
 20
5.0510534383
 30
0.0
  0
SPLINE
  5
5AF
100
AcDbEntity
  8
0
100
AcDbSpline
 62
9
  6
CONTINUOUS
 70
0
 71
3
 72
11
 73
7
 74
0
 42
0.0000001
 43
0.0000001
 44
0.0000000001
 40
0.0
 40
0.0
 40
0.0
 40
0.0
 40
0.2470149361
 40
0.4953085976
 40
0.7459296275
 40
1.0
 40
1.0
 40
1.0
 40
1.0
 10
19.7348183383
 20
10.5018923685
 30
0.0
 10
19.7348183383
 20
10.5126103483
 30
0.0
 10
19.7360008926
 20
10.5341199909
 30
0.0
 10
19.7412985431
 20
10.5661113954
 30
0.0
 10
19.750084924
 20
10.5976420852
 30
0.0
 10
19.7581623992
 20
10.6180458082
 30
0.0
 10
19.7627318768
 20
10.628078305
 30
0.0
  0
SPLINE
  5
5B0
100
AcDbEntity
  8
0
100
AcDbSpline
 62
9
  6
CONTINUOUS
 70
0
 71
3
 72
31
 73
27
 74
0
 42
0.0000001
 43
0.0000001
 44
0.0000000001
 40
0.0
 40
0.0
 40
0.0
 40
0.0
 40
0.027311063
 40
0.0551154846
 40
0.0834674783
 40
0.1124050062
 40
0.1720666411
 40
0.2028343139
 40
0.2341881596
 40
0.2984728724
 40
0.3645651306
 40
0.3981435081
 40
0.4319671663
 40
0.5
 40
0.5680328337
 40
0.6018564919
 40
0.6354348694
 40
0.7015271276
 40
0.7658118404
 40
0.7971656861
 40
0.8279333589
 40
0.8875949938
 40
0.9165325217
 40
0.9448845154
 40
0.972688937
 40
1.0
 40
1.0
 40
1.0
 40
1.0
 10
19.7627318768
 20
10.628078305
 30
0.0
 10
19.767003862
 20
10.6374576437
 30
0.0
 10
19.7765250273
 20
10.6559888203
 30
0.0
 10
19.7934150823
 20
10.682621689
 30
0.0
 10
19.8129351206
 20
10.7081717316
 30
0.0
 10
19.8425924548
 20
10.7409104925
 30
0.0
 10
19.8768245686
 20
10.770517909
 30
0.0
 10
19.9146905156
 20
10.7966099781
 30
0.0
 10
19.9558259652
 20
10.820836514
 30
0.0
 10
20.0115106301
 20
10.8462872442
 30
0.0
 10
20.0707763392
 20
10.8646370949
 30
0.0
 10
20.1200849144
 20
10.875084251
 30
0.0
 10
20.1706593142
 20
10.8826457932
 30
0.0
 10
20.2348183383
 20
10.8864295672
 30
0.0
 10
20.2989773623
 20
10.8826457932
 30
0.0
 10
20.3495517622
 20
10.875084251
 30
0.0
 10
20.3988603374
 20
10.8646370949
 30
0.0
 10
20.4581260465
 20
10.8462872442
 30
0.0
 10
20.5138107114
 20
10.820836514
 30
0.0
 10
20.554946161
 20
10.7966099781
 30
0.0
 10
20.592812108
 20
10.770517909
 30
0.0
 10
20.6270442217
 20
10.7409104925
 30
0.0
 10
20.656701556
 20
10.7081717316
 30
0.0
 10
20.6762215943
 20
10.682621689
 30
0.0
 10
20.6931116493
 20
10.6559888203
 30
0.0
 10
20.7026328146
 20
10.6374576437
 30
0.0
 10
20.7069047998
 20
10.628078305
 30
0.0
  0
SPLINE
  5
5B1
100
AcDbEntity
  8
0
100
AcDbSpline
 62
9
  6
CONTINUOUS
 70
0
 71
3
 72
11
 73
7
 74
0
 42
0.0000001
 43
0.0000001
 44
0.0000000001
 40
0.0
 40
0.0
 40
0.0
 40
0.0
 40
0.2540703725
 40
0.5046914025
 40
0.7529850638
 40
1.0
 40
1.0
 40
1.0
 40
1.0
 10
20.7069047998
 20
10.628078305
 30
0.0
 10
20.7114742773
 20
10.6180458082
 30
0.0
 10
20.7195517526
 20
10.5976420852
 30
0.0
 10
20.7283381335
 20
10.5661113954
 30
0.0
 10
20.733635784
 20
10.5341199909
 30
0.0
 10
20.7348183383
 20
10.5126103483
 30
0.0
 10
20.7348183383
 20
10.5018923685
 30
0.0
  0
SPLINE
  5
5B2
100
AcDbEntity
  8
0
100
AcDbSpline
 62
9
  6
CONTINUOUS
 70
0
 71
3
 72
37
 73
33
 74
0
 42
0.0000001
 43
0.0000001
 44
0.0000000001
 40
0.0
 40
0.0
 40
0.0
 40
0.0
 40
0.0702536072
 40
0.105058047
 40
0.139460892
 40
0.173342635
 40
0.2066014466
 40
0.2391544377
 40
0.2709408305
 40
0.3019260106
 40
0.3321047644
 40
0.3615037302
 40
0.390182768
 40
0.4182349361
 40
0.4457845995
 40
0.4729827697
 40
0.5
 40
0.5270172303
 40
0.5542154005
 40
0.5817650638
 40
0.609817232
 40
0.6384962698
 40
0.6678952356
 40
0.6980739893
 40
0.7290591694
 40
0.7608455623
 40
0.7933985534
 40
0.8266573649
 40
0.860539108
 40
0.8949419529
 40
0.9297463928
 40
1.0
 40
1.0
 40
1.0
 40
1.0
 10
20.2348183383
 20
4.6934776868
 30
0.0
 10
20.2641655332
 20
4.6934776868
 30
0.0
 10
20.3081502462
 20
4.696768531
 30
0.0
 10
20.3654062737
 20
4.7077350993
 30
0.0
 10
20.4069907862
 20
4.7191081214
 30
0.0
 10
20.4469246756
 20
4.7335460008
 30
0.0
 10
20.484830886
 20
4.7509118402
 30
0.0
 10
20.5203452546
 20
4.7710415303
 30
0.0
 10
20.5531272651
 20
4.7937460212
 30
0.0
 10
20.582860712
 20
4.8188122035
 30
0.0
 10
20.6092580553
 20
4.8460037987
 30
0.0
 10
20.6320616636
 20
4.8750643683
 30
0.0
 10
20.651045806
 20
4.9057188038
 30
0.0
 10
20.6660188099
 20
4.9376746347
 30
0.0
 10
20.6768277195
 20
4.9706228441
 30
0.0
 10
20.6833597583
 20
5.004241269
 30
0.0
 10
20.6855451943
 20
5.0381976861
 30
0.0
 10
20.6833597583
 20
5.0721541033
 30
0.0
 10
20.6768277195
 20
5.1057725281
 30
0.0
 10
20.6660188099
 20
5.1387207376
 30
0.0
 10
20.651045806
 20
5.1706765685
 30
0.0
 10
20.6320616636
 20
5.2013310039
 30
0.0
 10
20.6092580553
 20
5.2303915736
 30
0.0
 10
20.582860712
 20
5.2575831688
 30
0.0
 10
20.5531272652
 20
5.2826493511
 30
0.0
 10
20.5203452546
 20
5.305353842
 30
0.0
 10
20.484830886
 20
5.3254835321
 30
0.0
 10
20.4469246756
 20
5.3428493715
 30
0.0
 10
20.4069907862
 20
5.3572872509
 30
0.0
 10
20.3654062737
 20
5.368660273
 30
0.0
 10
20.3081502462
 20
5.3796268413
 30
0.0
 10
20.2641655332
 20
5.3829176856
 30
0.0
 10
20.2348183383
 20
5.3829176856
 30
0.0
  0
SPLINE
  5
5B3
100
AcDbEntity
  8
0
100
AcDbSpline
 62
9
  6
CONTINUOUS
 70
0
 71
3
 72
37
 73
33
 74
0
 42
0.0000001
 43
0.0000001
 44
0.0000000001
 40
0.0
 40
0.0
 40
0.0
 40
0.0
 40
0.0702536072
 40
0.105058047
 40
0.139460892
 40
0.173342635
 40
0.2066014466
 40
0.2391544377
 40
0.2709408305
 40
0.3019260106
 40
0.3321047644
 40
0.3615037302
 40
0.390182768
 40
0.4182349361
 40
0.4457845995
 40
0.4729827697
 40
0.5
 40
0.5270172303
 40
0.5542154005
 40
0.5817650638
 40
0.609817232
 40
0.6384962698
 40
0.6678952356
 40
0.6980739893
 40
0.7290591694
 40
0.7608455623
 40
0.7933985534
 40
0.8266573649
 40
0.860539108
 40
0.8949419529
 40
0.9297463928
 40
1.0
 40
1.0
 40
1.0
 40
1.0
 10
20.2348183383
 20
5.3829176856
 30
0.0
 10
20.2054711434
 20
5.3829176856
 30
0.0
 10
20.1614864304
 20
5.3796268413
 30
0.0
 10
20.1042304029
 20
5.368660273
 30
0.0
 10
20.0626458904
 20
5.3572872509
 30
0.0
 10
20.022712001
 20
5.3428493715
 30
0.0
 10
19.9848057906
 20
5.3254835321
 30
0.0
 10
19.949291422
 20
5.3053538421
 30
0.0
 10
19.9165094114
 20
5.2826493511
 30
0.0
 10
19.8867759646
 20
5.2575831688
 30
0.0
 10
19.8603786213
 20
5.2303915736
 30
0.0
 10
19.837575013
 20
5.201331004
 30
0.0
 10
19.8185908706
 20
5.1706765685
 30
0.0
 10
19.8036178666
 20
5.1387207376
 30
0.0
 10
19.792808957
 20
5.1057725282
 30
0.0
 10
19.7862769183
 20
5.0721541033
 30
0.0
 10
19.7840914822
 20
5.0381976862
 30
0.0
 10
19.7862769183
 20
5.004241269
 30
0.0
 10
19.792808957
 20
4.9706228442
 30
0.0
 10
19.8036178666
 20
4.9376746347
 30
0.0
 10
19.8185908706
 20
4.9057188039
 30
0.0
 10
19.837575013
 20
4.8750643684
 30
0.0
 10
19.8603786213
 20
4.8460037987
 30
0.0
 10
19.8867759646
 20
4.8188122035
 30
0.0
 10
19.9165094114
 20
4.7937460212
 30
0.0
 10
19.9492914219
 20
4.7710415303
 30
0.0
 10
19.9848057906
 20
4.7509118402
 30
0.0
 10
20.022712001
 20
4.7335460008
 30
0.0
 10
20.0626458904
 20
4.7191081214
 30
0.0
 10
20.1042304029
 20
4.7077350993
 30
0.0
 10
20.1614864303
 20
4.696768531
 30
0.0
 10
20.2054711434
 20
4.6934776868
 30
0.0
 10
20.2348183383
 20
4.6934776868
 30
0.0
  0
SPLINE
  5
5B4
100
AcDbEntity
  8
0
100
AcDbSpline
 62
7
  6
CONTINUOUS
 70
0
 71
3
 72
21
 73
17
 74
0
 42
0.0000001
 43
0.0000001
 44
0.0000000001
 40
0.0
 40
0.0
 40
0.0
 40
0.0
 40
0.1405238777
 40
0.2101406357
 40
0.2789543012
 40
0.4131355789
 40
0.4782490386
 40
0.5418291596
 40
0.6038065835
 40
0.6641709965
 40
0.7229757012
 40
0.7803403617
 40
0.8364510902
 40
0.8915567546
 40
0.9459593685
 40
1.0
 40
1.0
 40
1.0
 40
1.0
 10
20.2348183383
 20
5.3970060061
 30
0.0
 10
20.2048188806
 20
5.3970060061
 30
0.0
 10
20.1598585138
 20
5.3936427153
 30
0.0
 10
20.1013251381
 20
5.3824305823
 30
0.0
 10
20.0451452078
 20
5.3670675511
 30
0.0
 10
19.9918213103
 20
5.3454219637
 30
0.0
 10
19.9429480496
 20
5.3177192955
 30
0.0
 10
19.9094352969
 20
5.2945091743
 30
0.0
 10
19.8790417188
 20
5.2688862521
 30
0.0
 10
19.8520576442
 20
5.2410903282
 30
0.0
 10
19.8287473406
 20
5.2113840208
 30
0.0
 10
19.80934134
 20
5.1800482835
 30
0.0
 10
19.7940356138
 20
5.1473826909
 30
0.0
 10
19.7829865249
 20
5.1137010435
 30
0.0
 10
19.7763093239
 20
5.0793401882
 30
0.0
 10
19.7748183383
 20
5.0561623179
 30
0.0
 10
19.7748183383
 20
5.0446255623
 30
0.0
  0
SPLINE
  5
5B5
100
AcDbEntity
  8
0
100
AcDbSpline
 62
7
  6
CONTINUOUS
 70
0
 71
3
 72
21
 73
17
 74
0
 42
0.0000001
 43
0.0000001
 44
0.0000000001
 40
0.0
 40
0.0
 40
0.0
 40
0.0
 40
0.0540406315
 40
0.1084432454
 40
0.1635489098
 40
0.2196596383
 40
0.2770242988
 40
0.3358290035
 40
0.3961934165
 40
0.4581708404
 40
0.5217509614
 40
0.5868644211
 40
0.7210456988
 40
0.7898593643
 40
0.8594761223
 40
1.0
 40
1.0
 40
1.0
 40
1.0
 10
20.6948183383
 20
5.0446255623
 30
0.0
 10
20.6948183383
 20
5.0561623179
 30
0.0
 10
20.6933273527
 20
5.0793401882
 30
0.0
 10
20.6866501517
 20
5.1137010435
 30
0.0
 10
20.6756010627
 20
5.1473826909
 30
0.0
 10
20.6602953365
 20
5.1800482835
 30
0.0
 10
20.6408893359
 20
5.2113840208
 30
0.0
 10
20.6175790323
 20
5.2410903282
 30
0.0
 10
20.5905949578
 20
5.2688862521
 30
0.0
 10
20.5602013796
 20
5.2945091743
 30
0.0
 10
20.526688627
 20
5.3177192955
 30
0.0
 10
20.4778153662
 20
5.3454219637
 30
0.0
 10
20.4244914688
 20
5.3670675511
 30
0.0
 10
20.3683115385
 20
5.3824305823
 30
0.0
 10
20.3097781628
 20
5.3936427153
 30
0.0
 10
20.264817796
 20
5.3970060061
 30
0.0
 10
20.2348183383
 20
5.3970060061
 30
0.0
  0
SPLINE
  5
5B6
100
AcDbEntity
  8
0
100
AcDbSpline
 62
9
  6
CONTINUOUS
 70
0
 71
3
 72
37
 73
33
 74
0
 42
0.0000001
 43
0.0000001
 44
0.0000000001
 40
0.0
 40
0.0
 40
0.0
 40
0.0
 40
0.0270154151
 40
0.0542158918
 40
0.0817646568
 40
0.1098172944
 40
0.1384964332
 40
0.1678955361
 40
0.1980744932
 40
0.2290598342
 40
0.2608463479
 40
0.2933995142
 40
0.3266586397
 40
0.360540515
 40
0.4296969794
 40
0.4647787283
 40
0.5
 40
0.5352212717
 40
0.5703030206
 40
0.639459485
 40
0.6733413603
 40
0.7066004858
 40
0.7391536521
 40
0.7709401658
 40
0.8019255068
 40
0.8321044639
 40
0.8615035668
 40
0.8901827056
 40
0.9182353432
 40
0.9457841082
 40
0.9729845849
 40
1.0
 40
1.0
 40
1.0
 40
1.0
 10
20.7248183383
 20
5.0446255623
 30
0.0
 10
20.7248183383
 20
5.0569138417
 30
0.0
 10
20.7232296791
 20
5.0816033425
 30
0.0
 10
20.7161185311
 20
5.1182050995
 30
0.0
 10
20.7043474312
 20
5.1540836647
 30
0.0
 10
20.6880442217
 20
5.1888795483
 30
0.0
 10
20.6673727544
 20
5.2222592147
 30
0.0
 10
20.642542159
 20
5.2539029274
 30
0.0
 10
20.6137982096
 20
5.2835114536
 30
0.0
 10
20.5814217671
 20
5.3108056464
 30
0.0
 10
20.5457259779
 20
5.3355288386
 30
0.0
 10
20.5070553857
 20
5.3574477931
 30
0.0
 10
20.465777111
 20
5.376357665
 30
0.0
 10
20.4074234514
 20
5.3974554411
 30
0.0
 10
20.3459048778
 20
5.4116342202
 30
0.0
 10
20.2828313481
 20
5.4187852423
 30
0.0
 10
20.2348183383
 20
5.4205892117
 30
0.0
 10
20.1868053285
 20
5.4187852423
 30
0.0
 10
20.1237317988
 20
5.4116342202
 30
0.0
 10
20.0622132252
 20
5.3974554411
 30
0.0
 10
20.0038595656
 20
5.376357665
 30
0.0
 10
19.9625812908
 20
5.3574477931
 30
0.0
 10
19.9239106987
 20
5.3355288386
 30
0.0
 10
19.8882149095
 20
5.3108056464
 30
0.0
 10
19.855838467
 20
5.2835114536
 30
0.0
 10
19.8270945175
 20
5.2539029274
 30
0.0
 10
19.8022639222
 20
5.2222592147
 30
0.0
 10
19.7815924549
 20
5.1888795483
 30
0.0
 10
19.7652892453
 20
5.1540836647
 30
0.0
 10
19.7535181455
 20
5.1182050995
 30
0.0
 10
19.7464069974
 20
5.0816033425
 30
0.0
 10
19.7448183383
 20
5.0569138417
 30
0.0
 10
19.7448183383
 20
5.0446255623
 30
0.0
  0
SPLINE
  5
5B7
100
AcDbEntity
  8
0
100
AcDbSpline
 62
9
  6
CONTINUOUS
 70
0
 71
3
 72
37
 73
33
 74
0
 42
0.0000001
 43
0.0000001
 44
0.0000000001
 40
0.0
 40
0.0
 40
0.0
 40
0.0
 40
0.0270154151
 40
0.0542158918
 40
0.0817646568
 40
0.1098172944
 40
0.1384964332
 40
0.1678955361
 40
0.1980744932
 40
0.2290598342
 40
0.2608463479
 40
0.2933995142
 40
0.3266586397
 40
0.360540515
 40
0.4296969794
 40
0.4647787283
 40
0.5
 40
0.5352212717
 40
0.5703030206
 40
0.639459485
 40
0.6733413603
 40
0.7066004858
 40
0.7391536521
 40
0.7709401658
 40
0.8019255068
 40
0.8321044639
 40
0.8615035668
 40
0.8901827056
 40
0.9182353432
 40
0.9457841082
 40
0.9729845849
 40
1.0
 40
1.0
 40
1.0
 40
1.0
 10
19.7448183383
 20
5.0446255623
 30
0.0
 10
19.7448183383
 20
5.0323372828
 30
0.0
 10
19.7464069974
 20
5.007647782
 30
0.0
 10
19.7535181455
 20
4.971046025
 30
0.0
 10
19.7652892453
 20
4.9351674598
 30
0.0
 10
19.7815924549
 20
4.9003715762
 30
0.0
 10
19.8022639222
 20
4.8669919098
 30
0.0
 10
19.8270945175
 20
4.8353481971
 30
0.0
 10
19.855838467
 20
4.8057396709
 30
0.0
 10
19.8882149095
 20
4.7784454781
 30
0.0
 10
19.9239106987
 20
4.7537222859
 30
0.0
 10
19.9625812908
 20
4.7318033314
 30
0.0
 10
20.0038595656
 20
4.7128934595
 30
0.0
 10
20.0622132252
 20
4.6917956834
 30
0.0
 10
20.1237317988
 20
4.6776169043
 30
0.0
 10
20.1868053285
 20
4.6704658822
 30
0.0
 10
20.2348183383
 20
4.6686619128
 30
0.0
 10
20.2828313481
 20
4.6704658822
 30
0.0
 10
20.3459048778
 20
4.6776169043
 30
0.0
 10
20.4074234514
 20
4.6917956834
 30
0.0
 10
20.465777111
 20
4.7128934595
 30
0.0
 10
20.5070553857
 20
4.7318033314
 30
0.0
 10
20.5457259779
 20
4.7537222859
 30
0.0
 10
20.5814217671
 20
4.7784454781
 30
0.0
 10
20.6137982096
 20
4.8057396709
 30
0.0
 10
20.642542159
 20
4.8353481971
 30
0.0
 10
20.6673727544
 20
4.8669919098
 30
0.0
 10
20.6880442217
 20
4.9003715762
 30
0.0
 10
20.7043474312
 20
4.9351674598
 30
0.0
 10
20.7161185311
 20
4.971046025
 30
0.0
 10
20.7232296791
 20
5.007647782
 30
0.0
 10
20.7248183383
 20
5.0323372828
 30
0.0
 10
20.7248183383
 20
5.0446255623
 30
0.0
  0
ENDSEC
  0
SECTION
  2
OBJECTS
  0
DICTIONARY
  5
C
100
AcDbDictionary
280
0
281
1
  3
ACAD_GROUP
350
D
  3
ACAD_MLINESTYLE
350
17
  3
ACAD_LAYOUT
350
1A
  3
ACAD_PLOTSETTINGS
350
19
  3
ACAD_PLOTSTYLENAME
350
E
  0
DICTIONARY
  5
D
102
{ACAD_REACTORS
330
C
102
}
100
AcDbDictionary
280
0
281
1
  0
ACDBDICTIONARYWDFLT
  5
E
102
{ACAD_REACTORS
330
C
102
}
100
AcDbDictionary
281
1
  3
Normal
350
F
100
AcDbDictionaryWithDefault
340
F
  0
DICTIONARY
  5
17
102
{ACAD_REACTORS
330
C
102
}
100
AcDbDictionary
280
0
281
1
  3
Standard
350
18
  0
DICTIONARY
  5
19
102
{ACAD_REACTORS
330
C
102
}
100
AcDbDictionary
281
1
  0
DICTIONARY
  5
1A
102
{ACAD_REACTORS
330
C
102
}
100
AcDbDictionary
281
1
  3
Model
350
5B8
  3
Layout1
350
5B9
  0
ACDBPLACEHOLDER
  5
F
102
{ACAD_REACTORS
330
E
102
}
  0
MLINESTYLE
  5
18
102
{ACAD_REACTORS
330
17
102
}
100
AcDbMlineStyle
  2
STANDARD
 70
0
  3

 62
256
 51
90.0
 52
90.0
 71
2
 49
0.5
 62
256
  6
BYLAYER
 49
-0.5
 62
256
  6
BYLAYER
  0
LAYOUT
  5
5B8
102
{ACAD_REACTORS
330
1A
102
}
100
AcDbPlotSettings
  1

  2
none_device
  4
ANSI_C_(22.00_x_17.00_Inches)
  6

 40
0.0
 41
0.0
 42
0.0
 43
0.0
 44
558.8
 45
431.8
 46
0.0
 47
0.0
 48
0.0
 49
0.0
140
0.0
141
0.0
142
1.0
143
1.0
 70
1024
 72
0
 73
0
 74
0
  7

 75
0
147
1.0
148
0.0
149
0.0
100
AcDbLayout
  1
Model
 70
0
 71
0
 10
0.0
 20
0.0
 11
22.0
 21
17.0
 12
0.0
 22
0.0
 32
0.0
 14
0.0
 24
0.0
 34
0.0
 15
0.0
 25
0.0
 35
0.0
146
0.0
 13
0.0
 23
0.0
 33
0.0
 16
1.0
 26
0.0
 36
0.0
 17
0.0
 27
1.0
 37
0.0
 76
0
330
205
345
0
346
0
  0
LAYOUT
  5
5B9
102
{ACAD_REACTORS
330
1A
102
}
100
AcDbPlotSettings
  1

  2
none_device
  4
ANSI_C_(22.00_x_17.00_Inches)
  6

 40
0.0
 41
0.0
 42
0.0
 43
0.0
 44
558.8
 45
431.8
 46
0.0
 47
0.0
 48
0.0
 49
0.0
140
0.0
141
0.0
142
1.0
143
1.0
 70
0
 72
0
 73
0
 74
0
  7

 75
0
147
1.0
148
0.0
149
0.0
100
AcDbLayout
  1
Layout1
 70
0
 71
1
 10
0.0
 20
0.0
 11
22.0
 21
17.0
 12
0.0
 22
0.0
 32
0.0
 14
0.0
 24
0.0
 34
0.0
 15
0.0
 25
0.0
 35
0.0
146
0.0
 13
0.0
 23
0.0
 33
0.0
 16
1.0
 26
0.0
 36
0.0
 17
0.0
 27
1.0
 37
0.0
 76
0
330
206
345
0
346
0
  0
ENDSEC
  0
EOF
