999
DXF file: 3-3271_right.dxf
999
Pro/ENGINEER 2018400 by Parametric Technology Corporation
  0
SECTION
  2
HEADER
  9
$ACADVER
  1
AC1027
  9
$DWGCODEPAGE
  3
ANSI_1252
  9
$EXTMAX
 10
11.0
 20
8.5
 30
0.0
  9
$EXTMIN
 10
0.0
 20
0.0
 30
0.0
  9
$LIMMIN
 10
0.0
 20
0.0
  9
$LIMMAX
 10
11.0
 20
8.5
  9
$VIEWCTR
 10
5.5
 20
4.25
  9
$VIEWSIZE
 40
8.5
  9
$CLAYER
  8
0
  9
$LTSCALE
 40
0.605
  9
$CELTYPE
  6
BYLAYER
  9
$DIMSCALE
 40
1.0
  9
$DIMASZ
 40
0.1
  9
$DIMEXO
 40
0.0625
  9
$DIMDLI
 40
0.418
  9
$DIMEXE
 40
0.125
  9
$DIMCEN
 40
0.099
  9
$DIMLFAC
 40
1.0
  9
$DIMBLK
  1
_FILLED
  9
$DIMALT
 70
1
  9
$DIMALTD
 70
2
  9
$DIMALTTD
 70
2
  9
$DIMALTF
 40
25.4
  9
$DIMTXT
 40
0.08
  9
$DIMTOL
 70
1
  9
$DIMLIM
 70
0
  9
$DIMTFAC
 40
1.0
  9
$DIMTP
 40
0.001
  9
$DIMTM
 40
0.001
  9
$DIMGAP
 40
0.09
  9
$DIMDSEP
 70
46
  9
$AUNITS
 70
0
  9
$PDMODE
 70
3
  9
$PDSIZE
 40
0.3125
  9
$HANDSEED
  5
2E9
  9
$TILEMODE
 70
1
  9
$MEASUREMENT
 70
0
  9
$INSUNITS
 70
1
  0
ENDSEC
  0
SECTION
  2
CLASSES
  0
CLASS
  1
ACDBDICTIONARYWDFLT
  2
AcDbDictionaryWithDefault
  3
AutoCAD 2000
 90
0
 91
1
280
0
281
0
  0
CLASS
  1
ACDBPLACEHOLDER
  2
AcDbPlaceHolder
  3
AutoCAD 2000
 90
0
 91
1
280
0
281
0
  0
CLASS
  1
LAYOUT
  2
AcDbLayout
  3
AutoCAD 2000
 90
0
 91
0
280
0
281
0
  0
ENDSEC
  0
SECTION
  2
TABLES
  0
TABLE
  2
VPORT
  5
8
100
AcDbSymbolTable
 70
2
  0
VPORT
  5
1F4
100
AcDbSymbolTableRecord
100
AcDbViewportTableRecord
  2
*ACTIVE
 70
0
 10
0.0
 20
0.0
 11
1.0
 21
1.0
 12
5.5
 22
4.25
 13
0.0
 23
0.0
 14
1.0
 24
1.0
 15
0.0
 25
0.0
 16
0.0
 26
0.0
 36
1.0
 17
0.0
 27
0.0
 37
0.0
 40
8.5
 41
1.2941176471
 42
50.0
 43
0.0
 44
0.0
 50
0.0
 51
0.0
 71
0
 72
100
 73
1
 74
1
 75
0
 76
0
 77
0
 78
0
  0
ENDTAB
  0
TABLE
  2
LTYPE
  5
5
100
AcDbSymbolTable
 70
6
  0
LTYPE
  5
14
100
AcDbSymbolTableRecord
100
AcDbLinetypeTableRecord
  2
BYBLOCK
 70
0
  3

 72
65
 73
0
 40
0.0
  0
LTYPE
  5
15
100
AcDbSymbolTableRecord
100
AcDbLinetypeTableRecord
  2
BYLAYER
 70
0
  3

 72
65
 73
0
 40
0.0
  0
LTYPE
  5
16
100
AcDbSymbolTableRecord
100
AcDbLinetypeTableRecord
  2
CONTINUOUS
 70
64
  3
Solid line
 72
65
 73
0
 40
0.0
  0
LTYPE
  5
1F5
100
AcDbSymbolTableRecord
100
AcDbLinetypeTableRecord
  2
CENTER
 70
64
  3
____ _ ____ _ ____ _ ____ _ ____ _ ____ _ ____
 72
65
 73
4
 40
0.6
 49
0.375
 74
0
 49
-0.075
 74
0
 49
0.075
 74
0
 49
-0.075
 74
0
  0
LTYPE
  5
1F6
100
AcDbSymbolTableRecord
100
AcDbLinetypeTableRecord
  2
HIDDEN
 70
64
  3
- - - - - - - - - - - - - - - - - - - -
 72
65
 73
2
 40
0.2
 49
0.1
 74
0
 49
-0.1
 74
0
  0
LTYPE
  5
1F7
100
AcDbSymbolTableRecord
100
AcDbLinetypeTableRecord
  2
PHANTOM
 70
64
  3
_____ _ _ _____ _ _ _____ _ _ _____
 72
65
 73
6
 40
0.8
 49
0.45
 74
0
 49
-0.05
 74
0
 49
0.1
 74
0
 49
-0.05
 74
0
 49
0.1
 74
0
 49
-0.05
 74
0
  0
LTYPE
  5
1F8
100
AcDbSymbolTableRecord
100
AcDbLinetypeTableRecord
  2
DOT
 70
64
  3
. . . . . . . . . . . . . . . . . . . .
 72
65
 73
2
 40
0.2
 49
0.1
 74
0
 49
-0.1
 74
0
  0
LTYPE
  5
1F9
100
AcDbSymbolTableRecord
100
AcDbLinetypeTableRecord
  2
DASHED
 70
64
  3
- - - - - - - - - - - - - - - - - - - -
 72
65
 73
2
 40
0.2
 49
0.1
 74
0
 49
-0.1
 74
0
  0
ENDTAB
  0
TABLE
  2
LAYER
  5
2
100
AcDbSymbolTable
 70
36
  0
LAYER
  5
10
100
AcDbSymbolTableRecord
100
AcDbLayerTableRecord
  2
0
 70
0
 62
7
  6
CONTINUOUS
370
-3
390
F
  0
LAYER
  5
1FA
100
AcDbSymbolTableRecord
100
AcDbLayerTableRecord
  2
DEFAULT_1
 70
0
 62
7
  6
CENTER
370
-3
390
F
  0
LAYER
  5
1FB
100
AcDbSymbolTableRecord
100
AcDbLayerTableRecord
  2
DEFAULT_2
 70
0
 62
8
  6
HIDDEN
370
-3
390
F
  0
LAYER
  5
1FC
100
AcDbSymbolTableRecord
100
AcDbLayerTableRecord
  2
DEFAULT_3
 70
0
 62
7
  6
PHANTOM
370
-3
390
F
  0
LAYER
  5
1FD
100
AcDbSymbolTableRecord
100
AcDbLayerTableRecord
  2
2-127_ASSY_PLANES
 70
0
 62
7
  6
CONTINUOUS
370
-3
390
F
  0
LAYER
  5
1FE
100
AcDbSymbolTableRecord
100
AcDbLayerTableRecord
  2
ALL_ASSEMBLY_MEMBERS
 70
0
 62
7
  6
CONTINUOUS
370
-3
390
F
  0
LAYER
  5
1FF
100
AcDbSymbolTableRecord
100
AcDbLayerTableRecord
  2
ALL_FEATURES
 70
0
 62
7
  6
CONTINUOUS
370
-3
390
F
  0
LAYER
  5
200
100
AcDbSymbolTableRecord
100
AcDbLayerTableRecord
  2
AXES_FEATURES
 70
0
 62
7
  6
CONTINUOUS
370
-3
390
F
  0
LAYER
  5
201
100
AcDbSymbolTableRecord
100
AcDbLayerTableRecord
  2
CHAMFER_FEATURES
 70
0
 62
7
  6
CONTINUOUS
370
-3
390
F
  0
LAYER
  5
202
100
AcDbSymbolTableRecord
100
AcDbLayerTableRecord
  2
CURVE
 70
0
 62
7
  6
CONTINUOUS
370
-3
390
F
  0
LAYER
  5
203
100
AcDbSymbolTableRecord
100
AcDbLayerTableRecord
  2
CUT_FEATURES
 70
0
 62
7
  6
CONTINUOUS
370
-3
390
F
  0
LAYER
  5
204
100
AcDbSymbolTableRecord
100
AcDbLayerTableRecord
  2
DATUM_CURVES
 70
0
 62
7
  6
CONTINUOUS
370
-3
390
F
  0
LAYER
  5
205
100
AcDbSymbolTableRecord
100
AcDbLayerTableRecord
  2
DATUM_PLANES
 70
0
 62
7
  6
CONTINUOUS
370
-3
390
F
  0
LAYER
  5
206
100
AcDbSymbolTableRecord
100
AcDbLayerTableRecord
  2
DEFAULT_COORDINATE_SYSTEM
 70
0
 62
7
  6
CONTINUOUS
370
-3
390
F
  0
LAYER
  5
207
100
AcDbSymbolTableRecord
100
AcDbLayerTableRecord
  2
DEFAULT_DATUM_AXES
 70
0
 62
7
  6
CONTINUOUS
370
-3
390
F
  0
LAYER
  5
208
100
AcDbSymbolTableRecord
100
AcDbLayerTableRecord
  2
DEFAULT_DATUM_CURVES
 70
0
 62
7
  6
CONTINUOUS
370
-3
390
F
  0
LAYER
  5
209
100
AcDbSymbolTableRecord
100
AcDbLayerTableRecord
  2
DEFAULT_DATUM_PLANES
 70
0
 62
7
  6
CONTINUOUS
370
-3
390
F
  0
LAYER
  5
20A
100
AcDbSymbolTableRecord
100
AcDbLayerTableRecord
  2
DEFAULT_SURFACES
 70
0
 62
7
  6
CONTINUOUS
370
-3
390
F
  0
LAYER
  5
20B
100
AcDbSymbolTableRecord
100
AcDbLayerTableRecord
  2
DIMENSIONS
 70
0
 62
7
  6
CONTINUOUS
370
-3
390
F
  0
LAYER
  5
20C
100
AcDbSymbolTableRecord
100
AcDbLayerTableRecord
  2
HOLE_FEATURES
 70
0
 62
7
  6
CONTINUOUS
370
-3
390
F
  0
LAYER
  5
20D
100
AcDbSymbolTableRecord
100
AcDbLayerTableRecord
  2
NONE
 70
0
 62
7
  6
CONTINUOUS
370
-3
390
F
  0
LAYER
  5
20E
100
AcDbSymbolTableRecord
100
AcDbLayerTableRecord
  2
PART_REFERENCE_DIMENSIONS
 70
0
 62
7
  6
CONTINUOUS
370
-3
390
F
  0
LAYER
  5
20F
100
AcDbSymbolTableRecord
100
AcDbLayerTableRecord
  2
PROTRUSION_FEATURES
 70
0
 62
7
  6
CONTINUOUS
370
-3
390
F
  0
LAYER
  5
210
100
AcDbSymbolTableRecord
100
AcDbLayerTableRecord
  2
QUILTS
 70
0
 62
7
  6
CONTINUOUS
370
-3
390
F
  0
LAYER
  5
211
100
AcDbSymbolTableRecord
100
AcDbLayerTableRecord
  2
REFERENCE_DIMENSIONS
 70
0
 62
7
  6
CONTINUOUS
370
-3
390
F
  0
LAYER
  5
212
100
AcDbSymbolTableRecord
100
AcDbLayerTableRecord
  2
ROUND_FEATURES
 70
0
 62
7
  6
CONTINUOUS
370
-3
390
F
  0
LAYER
  5
213
100
AcDbSymbolTableRecord
100
AcDbLayerTableRecord
  2
SIZE_REF
 70
0
 62
7
  6
CONTINUOUS
370
-3
390
F
  0
LAYER
  5
214
100
AcDbSymbolTableRecord
100
AcDbLayerTableRecord
  2
WETTED_SURFACES
 70
0
 62
7
  6
CONTINUOUS
370
-3
390
F
  0
LAYER
  5
215
100
AcDbSymbolTableRecord
100
AcDbLayerTableRecord
  2
WETTED_SURFACE_AREA
 70
0
 62
7
  6
CONTINUOUS
370
-3
390
F
  0
LAYER
  5
216
100
AcDbSymbolTableRecord
100
AcDbLayerTableRecord
  2
XSEC_DATUMS
 70
0
 62
7
  6
CONTINUOUS
370
-3
390
F
  0
ENDTAB
  0
TABLE
  2
STYLE
  5
3
100
AcDbSymbolTable
 70
1
  0
STYLE
  5
11
100
AcDbSymbolTableRecord
100
AcDbTextStyleTableRecord
  2
STANDARD
 70
0
 40
0.0
 41
0.8
 50
0.0
 71
0
 42
0.2
  3
txt
  4

  0
STYLE
  5
217
100
AcDbSymbolTableRecord
100
AcDbTextStyleTableRecord
  2
TEXTSTYLE_1
 70
0
 40
0.0
 41
0.8
 50
0.0
 71
0
 42
0.2
  3
gdt
  4

  0
ENDTAB
  0
TABLE
  2
VIEW
  5
6
100
AcDbSymbolTable
 70
0
  0
ENDTAB
  0
TABLE
  2
UCS
  5
7
100
AcDbSymbolTable
 70
0
  0
ENDTAB
  0
TABLE
  2
APPID
  5
9
100
AcDbSymbolTable
 70
1
  0
APPID
  5
218
100
AcDbSymbolTableRecord
100
AcDbRegAppTableRecord
  2
ACAD
 70
0
  0
ENDTAB
  0
TABLE
  2
BLOCK_RECORD
  5
1
100
AcDbSymbolTable
 70
0
  0
BLOCK_RECORD
  5
219
100
AcDbSymbolTableRecord
100
AcDbBlockTableRecord
  2
*Model_Space
  0
BLOCK_RECORD
  5
21A
100
AcDbSymbolTableRecord
100
AcDbBlockTableRecord
  2
*Paper_Space
  0
BLOCK_RECORD
  5
21B
100
AcDbSymbolTableRecord
100
AcDbBlockTableRecord
  2
_FILLED
  0
ENDTAB
  0
TABLE
  2
DIMSTYLE
  5
A
100
AcDbSymbolTable
 70
1
100
AcDbDimStyleTable
 71
0
  0
DIMSTYLE
105
21C
100
AcDbSymbolTableRecord
100
AcDbDimStyleTableRecord
  2
STANDARD
 70
0
  3

  4

 40
1.0
 41
0.1
 42
0.0625
 43
0.38
 44
0.125
 45
0.0
 46
0.0
 47
0.001
 48
0.001
140
0.08
141
0.09
142
0.0
143
25.4
144
1.0
145
0.0
146
1.0
147
0.09
 71
1.0
 72
0.0
 73
1
 74
1
 75
0
 76
0
 77
0
 78
4
 79
1
170
1
171
2
172
0
173
0
174
0
175
0
176
0
177
0
178
0
270
2
179
3
271
3
272
3
273
2
274
2
275
0
280
0
281
0
282
0
283
1
284
4
285
0
286
0
287
3
288
0
340
11
278
46
341
21B
342
21B
343
21B
344
21B
  0
ENDTAB
  0
ENDSEC
  0
SECTION
  2
BLOCKS
  0
BLOCK
  5
20
100
AcDbEntity
  8
0
100
AcDbBlockBegin
  2
*Model_Space
 70
0
 10
0.0
 20
0.0
 30
0.0
  3
*Model_Space
  1

  0
ENDBLK
  5
21
100
AcDbEntity
  8
0
100
AcDbBlockEnd
  0
BLOCK
  5
1C
100
AcDbEntity
  8
0
100
AcDbBlockBegin
  2
*Paper_Space
 70
0
 10
0.0
 20
0.0
 30
0.0
  3
*Paper_Space
  1

  0
ENDBLK
  5
1D
100
AcDbEntity
  8
0
100
AcDbBlockEnd
  0
BLOCK
  5
21D
100
AcDbEntity
  8
0
100
AcDbBlockBegin
  2
_FILLED
 70
64
 10
0.0
 20
0.0
  3
_FILLED
  1

  0
SOLID
  5
21E
100
AcDbEntity
  8
0
  6
BYBLOCK
 62
0
100
AcDbTrace
 10
0.0
 20
0.0
 11
-1.0
 21
0.2
 12
-1.0
 22
-0.2
 13
-1.0
 23
-0.2
  0
ENDBLK
  5
21F
100
AcDbEntity
  8
0
  6
BYBLOCK
 62
0
100
AcDbBlockEnd
  0
ENDSEC
  0
SECTION
  2
ENTITIES
  0
MTEXT
  5
220
100
AcDbEntity
  8
0
100
AcDbMText
 62
2
  6
CONTINUOUS
  7
STANDARD
 71
3
 72
1
 10
3.6729376002
 20
1.7155628882
 30
0.0
 11
1.0
 21
0.0
 31
0.0
 73
2
 44
0.9
  1
SCALE  .500
 40
0.08
 41
0.704
  0
LINE
  5
221
100
AcDbEntity
  8
0
100
AcDbLine
 62
7
  6
CONTINUOUS
 10
0.0
 20
0.0
 11
0.0
 21
8.5
  0
LINE
  5
222
100
AcDbEntity
  8
0
100
AcDbLine
 62
7
  6
CONTINUOUS
 10
0.0
 20
0.0
 11
11.0
 21
0.0
  0
LINE
  5
223
100
AcDbEntity
  8
0
100
AcDbLine
 62
7
  6
CONTINUOUS
 10
0.0
 20
8.5
 11
11.0
 21
8.5
  0
LINE
  5
224
100
AcDbEntity
  8
0
100
AcDbLine
 62
7
  6
CONTINUOUS
 10
11.0
 20
0.0
 11
11.0
 21
8.5
  0
LINE
  5
225
100
AcDbEntity
  8
ALL_ASSEMBLY_MEMBERS
100
AcDbLine
 62
7
  6
CONTINUOUS
 10
3.0427714639
 20
3.6878687888
 11
3.0427714639
 21
3.6678687888
  0
LINE
  5
226
100
AcDbEntity
  8
ALL_ASSEMBLY_MEMBERS
100
AcDbLine
 62
7
  6
CONTINUOUS
 10
3.0427714639
 20
3.3328687888
 11
3.0427714639
 21
3.3128687888
  0
LINE
  5
227
100
AcDbEntity
  8
ALL_ASSEMBLY_MEMBERS
100
AcDbLine
 62
7
  6
CONTINUOUS
 10
3.0727714639
 20
3.6378687888
 11
3.0727714639
 21
3.3628687888
  0
LINE
  5
228
100
AcDbEntity
  8
0
100
AcDbLine
 62
7
  6
CONTINUOUS
 10
3.0940214639
 20
3.9278687888
 11
3.0940214639
 21
3.7028687888
  0
LINE
  5
229
100
AcDbEntity
  8
0
100
AcDbLine
 62
7
  6
CONTINUOUS
 10
3.5315214639
 20
3.9278687888
 11
3.5315214639
 21
3.7028687888
  0
LINE
  5
22A
100
AcDbEntity
  8
ALL_ASSEMBLY_MEMBERS
100
AcDbLine
 62
7
  6
CONTINUOUS
 10
3.5527714639
 20
3.6378687888
 11
3.5527714639
 21
3.3628687888
  0
LINE
  5
22B
100
AcDbEntity
  8
ALL_ASSEMBLY_MEMBERS
100
AcDbLine
 62
7
  6
CONTINUOUS
 10
3.5827714639
 20
3.6878687888
 11
3.5827714639
 21
3.6678687888
  0
LINE
  5
22C
100
AcDbEntity
  8
ALL_ASSEMBLY_MEMBERS
100
AcDbLine
 62
7
  6
CONTINUOUS
 10
3.5827714639
 20
3.3328687888
 11
3.5827714639
 21
3.3128687888
  0
LINE
  5
22D
100
AcDbEntity
  8
ALL_ASSEMBLY_MEMBERS
100
AcDbLine
 62
7
  6
CONTINUOUS
 10
3.0577714639
 20
3.2978687888
 11
3.5677714639
 21
3.2978687888
  0
LINE
  5
22E
100
AcDbEntity
  8
ALL_ASSEMBLY_MEMBERS
100
AcDbLine
 62
7
  6
CONTINUOUS
 10
3.0427714639
 20
3.3128687888
 11
3.5827714639
 21
3.3128687888
  0
LINE
  5
22F
100
AcDbEntity
  8
ALL_ASSEMBLY_MEMBERS
100
AcDbLine
 62
7
  6
CONTINUOUS
 10
3.0427714639
 20
3.3328687888
 11
3.5827714639
 21
3.3328687888
  0
LINE
  5
230
100
AcDbEntity
  8
ALL_ASSEMBLY_MEMBERS
100
AcDbLine
 62
7
  6
CONTINUOUS
 10
3.5677714639
 20
3.3478687888
 11
3.0577714639
 21
3.3478687888
  0
LINE
  5
231
100
AcDbEntity
  8
ALL_ASSEMBLY_MEMBERS
100
AcDbLine
 62
7
  6
CONTINUOUS
 10
3.5527714639
 20
3.3628687888
 11
3.0727714639
 21
3.3628687888
  0
LINE
  5
232
100
AcDbEntity
  8
0
100
AcDbLine
 62
7
  6
CONTINUOUS
 10
4.3127714639
 20
4.7091187888
 11
4.3127714639
 21
5.1466187888
  0
LINE
  5
233
100
AcDbEntity
  8
ALL_ASSEMBLY_MEMBERS
100
AcDbLine
 62
7
  6
CONTINUOUS
 10
3.5527714639
 20
3.6378687888
 11
3.0727714639
 21
3.6378687888
  0
LINE
  5
234
100
AcDbEntity
  8
ALL_ASSEMBLY_MEMBERS
100
AcDbLine
 62
7
  6
CONTINUOUS
 10
3.5677714639
 20
3.6528687888
 11
3.0577714639
 21
3.6528687888
  0
LINE
  5
235
100
AcDbEntity
  8
ALL_ASSEMBLY_MEMBERS
100
AcDbLine
 62
7
  6
CONTINUOUS
 10
3.0427714639
 20
3.6678687888
 11
3.5827714639
 21
3.6678687888
  0
LINE
  5
236
100
AcDbEntity
  8
ALL_ASSEMBLY_MEMBERS
100
AcDbLine
 62
7
  6
CONTINUOUS
 10
3.0427714639
 20
3.6878687888
 11
3.5827714639
 21
3.6878687888
  0
LINE
  5
237
100
AcDbEntity
  8
ALL_ASSEMBLY_MEMBERS
100
AcDbLine
 62
7
  6
CONTINUOUS
 10
3.0577714639
 20
3.7028687888
 11
3.5677714639
 21
3.7028687888
  0
LINE
  5
238
100
AcDbEntity
  8
0
100
AcDbLine
 62
7
  6
CONTINUOUS
 10
3.5315214639
 20
3.9278687888
 11
3.0940214639
 21
3.9278687888
  0
LINE
  5
239
100
AcDbEntity
  8
0
100
AcDbLine
 62
7
  6
CONTINUOUS
 10
7.4002714639
 20
4.3653687888
 11
7.4377714639
 21
4.3653687888
  0
LINE
  5
23A
100
AcDbEntity
  8
0
100
AcDbLine
 62
7
  6
CONTINUOUS
 10
7.2752714639
 20
4.4053687888
 11
7.3627714639
 21
4.4053687888
  0
LINE
  5
23B
100
AcDbEntity
  8
0
100
AcDbLine
 62
7
  6
CONTINUOUS
 10
6.165599891
 20
5.2511972159
 11
6.1673425317
 21
5.2529398566
  0
LINE
  5
23C
100
AcDbEntity
  8
0
100
AcDbLine
 62
7
  6
CONTINUOUS
 10
6.1227714639
 20
4.5998687888
 11
6.1511293282
 21
4.5998687888
  0
LINE
  5
23D
100
AcDbEntity
  8
0
100
AcDbLine
 62
7
  6
CONTINUOUS
 10
6.1744135995
 20
4.5998687888
 11
7.2627714639
 21
4.5998687888
  0
LINE
  5
23E
100
AcDbEntity
  8
0
100
AcDbLine
 62
7
  6
CONTINUOUS
 10
5.8227714639
 20
4.6428687888
 11
5.8527714639
 21
4.6428687888
  0
LINE
  5
23F
100
AcDbEntity
  8
0
100
AcDbLine
 62
7
  6
CONTINUOUS
 10
5.8727714639
 20
4.6628687888
 11
6.1027714639
 21
4.6628687888
  0
LINE
  5
240
100
AcDbEntity
  8
0
100
AcDbLine
 62
7
  6
CONTINUOUS
 10
7.2427714639
 20
4.6841187888
 11
6.1927714639
 21
4.6841187888
  0
LINE
  5
241
100
AcDbEntity
  8
0
100
AcDbLine
 62
7
  6
CONTINUOUS
 10
5.8247714639
 20
4.6841187888
 11
5.8497714639
 21
4.6841187888
  0
LINE
  5
242
100
AcDbEntity
  8
0
100
AcDbLine
 62
7
  6
CONTINUOUS
 10
6.1247714639
 20
4.6841187888
 11
6.1497714639
 21
4.6841187888
  0
LINE
  5
243
100
AcDbEntity
  8
0
100
AcDbLine
 62
7
  6
CONTINUOUS
 10
5.8122714639
 20
4.7091187888
 11
4.3127714639
 21
4.7091187888
  0
LINE
  5
244
100
AcDbEntity
  8
0
100
AcDbLine
 62
7
  6
CONTINUOUS
 10
7.2577714639
 20
4.7153687888
 11
7.2627714639
 21
4.7153687888
  0
LINE
  5
245
100
AcDbEntity
  8
0
100
AcDbLine
 62
7
  6
CONTINUOUS
 10
6.0997714639
 20
4.7341187888
 11
5.8747714639
 21
4.7341187888
  0
LINE
  5
246
100
AcDbEntity
  8
0
100
AcDbLine
 62
7
  6
CONTINUOUS
 10
6.158200396
 20
4.602797721
 11
6.1599430367
 21
4.6045403617
  0
LINE
  5
247
100
AcDbEntity
  8
0
100
AcDbLine
 62
7
  6
CONTINUOUS
 10
5.8247714639
 20
4.7626145515
 11
5.8497714639
 21
4.7626145515
  0
LINE
  5
248
100
AcDbEntity
  8
0
100
AcDbLine
 62
7
  6
CONTINUOUS
 10
6.1247714639
 20
4.7626145515
 11
6.1497714639
 21
4.7626145515
  0
LINE
  5
249
100
AcDbEntity
  8
0
100
AcDbLine
 62
7
  6
CONTINUOUS
 10
6.0997714639
 20
4.7965128566
 11
5.8747714639
 21
4.7965128566
  0
LINE
  5
24A
100
AcDbEntity
  8
ALL_FEATURES
100
AcDbLine
 62
7
  6
CONTINUOUS
 10
6.1777714639
 20
4.8013687888
 11
6.1622714639
 21
4.8013687888
  0
LINE
  5
24B
100
AcDbEntity
  8
0
100
AcDbLine
 62
7
  6
CONTINUOUS
 10
6.1497714639
 20
4.8028687888
 11
5.8247714639
 21
4.8028687888
  0
LINE
  5
24C
100
AcDbEntity
  8
0
100
AcDbLine
 62
7
  6
CONTINUOUS
 10
6.1622714639
 20
4.8153687888
 11
5.8122714639
 21
4.8153687888
  0
LINE
  5
24D
100
AcDbEntity
  8
0
100
AcDbLine
 62
7
  6
CONTINUOUS
 10
5.8122714639
 20
4.6966203566
 11
5.8122714639
 21
5.1591172217
  0
LINE
  5
24E
100
AcDbEntity
  8
0
100
AcDbLine
 62
7
  6
CONTINUOUS
 10
5.8127714639
 20
5.2028687888
 11
5.8127714639
 21
5.1625642821
  0
LINE
  5
24F
100
AcDbEntity
  8
0
100
AcDbLine
 62
7
  6
CONTINUOUS
 10
5.8127714639
 20
4.6931732956
 11
5.8127714639
 21
4.6528687888
  0
LINE
  5
250
100
AcDbEntity
  8
0
100
AcDbLine
 62
7
  6
CONTINUOUS
 10
5.8227714639
 20
4.6428687888
 11
5.8227714639
 21
4.684297088
  0
LINE
  5
251
100
AcDbEntity
  8
0
100
AcDbLine
 62
7
  6
CONTINUOUS
 10
5.8227714639
 20
5.1714404897
 11
5.8227714639
 21
5.2128687888
  0
LINE
  5
252
100
AcDbEntity
  8
0
100
AcDbLine
 62
7
  6
CONTINUOUS
 10
5.8247714639
 20
5.1716187888
 11
5.8247714639
 21
5.0528687888
  0
LINE
  5
253
100
AcDbEntity
  8
0
100
AcDbLine
 62
7
  6
CONTINUOUS
 10
5.8247714639
 20
4.8028687888
 11
5.8247714639
 21
4.6841187888
  0
LINE
  5
254
100
AcDbEntity
  8
0
100
AcDbLine
 62
7
  6
CONTINUOUS
 10
5.8497714639
 20
4.6841187888
 11
5.8497714639
 21
4.8028687888
  0
LINE
  5
255
100
AcDbEntity
  8
0
100
AcDbLine
 62
7
  6
CONTINUOUS
 10
5.8497714639
 20
5.0528687888
 11
5.8497714639
 21
5.1716187888
  0
LINE
  5
256
100
AcDbEntity
  8
0
100
AcDbLine
 62
7
  6
CONTINUOUS
 10
5.8527714639
 20
4.6428687888
 11
5.8527714639
 21
4.6844994193
  0
LINE
  5
257
100
AcDbEntity
  8
0
100
AcDbLine
 62
7
  6
CONTINUOUS
 10
5.8527714639
 20
5.1712381584
 11
5.8527714639
 21
5.2128687888
  0
LINE
  5
258
100
AcDbEntity
  8
0
100
AcDbLine
 62
7
  6
CONTINUOUS
 10
5.8622714639
 20
4.6966197967
 11
5.8622714639
 21
4.8028687888
  0
LINE
  5
259
100
AcDbEntity
  8
0
100
AcDbLine
 62
7
  6
CONTINUOUS
 10
5.8622714639
 20
5.0528687888
 11
5.8622714639
 21
5.1591177804
  0
LINE
  5
25A
100
AcDbEntity
  8
0
100
AcDbLine
 62
7
  6
CONTINUOUS
 10
5.8627714639
 20
5.2028687888
 11
5.8627714639
 21
5.1306732956
  0
LINE
  5
25B
100
AcDbEntity
  8
0
100
AcDbLine
 62
7
  6
CONTINUOUS
 10
5.8627714639
 20
4.7250642821
 11
5.8627714639
 21
4.6528687888
  0
LINE
  5
25C
100
AcDbEntity
  8
0
100
AcDbLine
 62
7
  6
CONTINUOUS
 10
5.8727714639
 20
5.1928687888
 11
5.8727714639
 21
5.121797088
  0
LINE
  5
25D
100
AcDbEntity
  8
0
100
AcDbLine
 62
7
  6
CONTINUOUS
 10
5.8727714639
 20
4.7339404897
 11
5.8727714639
 21
4.6628687888
  0
LINE
  5
25E
100
AcDbEntity
  8
0
100
AcDbLine
 62
7
  6
CONTINUOUS
 10
5.8747714639
 20
5.1216187888
 11
5.8747714639
 21
5.0528687888
  0
LINE
  5
25F
100
AcDbEntity
  8
0
100
AcDbLine
 62
7
  6
CONTINUOUS
 10
5.8747714639
 20
4.8028687888
 11
5.8747714639
 21
4.7341187888
  0
LINE
  5
260
100
AcDbEntity
  8
0
100
AcDbLine
 62
7
  6
CONTINUOUS
 10
5.8772714639
 20
4.8028687888
 11
5.8772714639
 21
5.0528687888
  0
LINE
  5
261
100
AcDbEntity
  8
0
100
AcDbLine
 62
7
  6
CONTINUOUS
 10
5.8122714639
 20
5.0403687888
 11
6.1622714639
 21
5.0403687888
  0
LINE
  5
262
100
AcDbEntity
  8
0
100
AcDbLine
 62
7
  6
CONTINUOUS
 10
5.8247714639
 20
5.0528687888
 11
6.1497714639
 21
5.0528687888
  0
LINE
  5
263
100
AcDbEntity
  8
ALL_FEATURES
100
AcDbLine
 62
7
  6
CONTINUOUS
 10
6.1777714639
 20
5.0543687888
 11
6.1622714639
 21
5.0543687888
  0
LINE
  5
264
100
AcDbEntity
  8
0
100
AcDbLine
 62
7
  6
CONTINUOUS
 10
6.0997714639
 20
5.059224721
 11
5.8747714639
 21
5.059224721
  0
LINE
  5
265
100
AcDbEntity
  8
0
100
AcDbLine
 62
7
  6
CONTINUOUS
 10
6.1497714639
 20
5.0931230261
 11
6.1247714639
 21
5.0931230261
  0
LINE
  5
266
100
AcDbEntity
  8
0
100
AcDbLine
 62
7
  6
CONTINUOUS
 10
5.8497714639
 20
5.0931230261
 11
5.8247714639
 21
5.0931230261
  0
LINE
  5
267
100
AcDbEntity
  8
0
100
AcDbLine
 62
7
  6
CONTINUOUS
 10
6.0997714639
 20
5.1216187888
 11
5.8747714639
 21
5.1216187888
  0
LINE
  5
268
100
AcDbEntity
  8
0
100
AcDbLine
 62
7
  6
CONTINUOUS
 10
7.2577714639
 20
5.1403687888
 11
7.2627714639
 21
5.1403687888
  0
LINE
  5
269
100
AcDbEntity
  8
0
100
AcDbLine
 62
7
  6
CONTINUOUS
 10
5.8122714639
 20
5.1466187888
 11
4.3127714639
 21
5.1466187888
  0
LINE
  5
26A
100
AcDbEntity
  8
0
100
AcDbLine
 62
7
  6
CONTINUOUS
 10
7.2427714639
 20
5.1716187888
 11
6.1927714639
 21
5.1716187888
  0
LINE
  5
26B
100
AcDbEntity
  8
0
100
AcDbLine
 62
7
  6
CONTINUOUS
 10
5.8247714639
 20
5.1716187888
 11
5.8497714639
 21
5.1716187888
  0
LINE
  5
26C
100
AcDbEntity
  8
0
100
AcDbLine
 62
7
  6
CONTINUOUS
 10
6.1247714639
 20
5.1716187888
 11
6.1497714639
 21
5.1716187888
  0
LINE
  5
26D
100
AcDbEntity
  8
0
100
AcDbLine
 62
7
  6
CONTINUOUS
 10
5.8727714639
 20
5.1928687888
 11
6.1027714639
 21
5.1928687888
  0
LINE
  5
26E
100
AcDbEntity
  8
0
100
AcDbLine
 62
7
  6
CONTINUOUS
 10
5.8227714639
 20
5.2128687888
 11
5.8527714639
 21
5.2128687888
  0
LINE
  5
26F
100
AcDbEntity
  8
0
100
AcDbLine
 62
7
  6
CONTINUOUS
 10
6.165599891
 20
4.6045403617
 11
6.1673425317
 21
4.602797721
  0
LINE
  5
270
100
AcDbEntity
  8
0
100
AcDbLine
 62
7
  6
CONTINUOUS
 10
6.0972714639
 20
4.8028687888
 11
6.0972714639
 21
5.0528687888
  0
LINE
  5
271
100
AcDbEntity
  8
0
100
AcDbLine
 62
7
  6
CONTINUOUS
 10
6.0997714639
 20
4.7341187888
 11
6.0997714639
 21
4.8028687888
  0
LINE
  5
272
100
AcDbEntity
  8
0
100
AcDbLine
 62
7
  6
CONTINUOUS
 10
6.0997714639
 20
5.0528687888
 11
6.0997714639
 21
5.1216187888
  0
LINE
  5
273
100
AcDbEntity
  8
0
100
AcDbLine
 62
7
  6
CONTINUOUS
 10
6.1027714639
 20
5.1928687888
 11
6.1027714639
 21
5.1219994193
  0
LINE
  5
274
100
AcDbEntity
  8
0
100
AcDbLine
 62
7
  6
CONTINUOUS
 10
6.1027714639
 20
4.7337381584
 11
6.1027714639
 21
4.6628687888
  0
LINE
  5
275
100
AcDbEntity
  8
0
100
AcDbLine
 62
7
  6
CONTINUOUS
 10
6.1122714639
 20
5.1591177809
 11
6.1122714639
 21
5.0528687888
  0
LINE
  5
276
100
AcDbEntity
  8
0
100
AcDbLine
 62
7
  6
CONTINUOUS
 10
6.1122714639
 20
4.8028687888
 11
6.1122714639
 21
4.6966197972
  0
LINE
  5
277
100
AcDbEntity
  8
0
100
AcDbLine
 62
7
  6
CONTINUOUS
 10
6.1127714639
 20
5.2458687888
 11
6.1127714639
 21
5.1625642821
  0
LINE
  5
278
100
AcDbEntity
  8
0
100
AcDbLine
 62
7
  6
CONTINUOUS
 10
6.1127714639
 20
4.6931732956
 11
6.1127714639
 21
4.6098687888
  0
LINE
  5
279
100
AcDbEntity
  8
0
100
AcDbLine
 62
7
  6
CONTINUOUS
 10
6.1227714639
 20
4.5998687888
 11
6.1227714639
 21
4.684297088
  0
LINE
  5
27A
100
AcDbEntity
  8
0
100
AcDbLine
 62
7
  6
CONTINUOUS
 10
6.1227714639
 20
5.1714404897
 11
6.1227714639
 21
5.2558687888
  0
LINE
  5
27B
100
AcDbEntity
  8
0
100
AcDbLine
 62
7
  6
CONTINUOUS
 10
6.1247714639
 20
5.1716187888
 11
6.1247714639
 21
5.0528687888
  0
LINE
  5
27C
100
AcDbEntity
  8
0
100
AcDbLine
 62
7
  6
CONTINUOUS
 10
6.1247714639
 20
4.8028687888
 11
6.1247714639
 21
4.6841187888
  0
LINE
  5
27D
100
AcDbEntity
  8
0
100
AcDbLine
 62
7
  6
CONTINUOUS
 10
6.1497714639
 20
4.6841187888
 11
6.1497714639
 21
4.8028687888
  0
LINE
  5
27E
100
AcDbEntity
  8
0
100
AcDbLine
 62
7
  6
CONTINUOUS
 10
6.1497714639
 20
5.0528687888
 11
6.1497714639
 21
5.1716187888
  0
LINE
  5
27F
100
AcDbEntity
  8
0
100
AcDbLine
 62
7
  6
CONTINUOUS
 10
6.1511293282
 20
4.5998687888
 11
6.1511293282
 21
4.6841169613
  0
LINE
  5
280
100
AcDbEntity
  8
0
100
AcDbLine
 62
7
  6
CONTINUOUS
 10
6.1511293282
 20
5.1716187888
 11
6.1511293282
 21
5.2558687888
  0
LINE
  5
281
100
AcDbEntity
  8
0
100
AcDbLine
 62
7
  6
CONTINUOUS
 10
6.158200396
 20
4.602797721
 11
6.158200396
 21
4.6873942781
  0
LINE
  5
282
100
AcDbEntity
  8
0
100
AcDbLine
 62
7
  6
CONTINUOUS
 10
6.158200396
 20
5.1683432995
 11
6.158200396
 21
5.2529398566
  0
LINE
  5
283
100
AcDbEntity
  8
0
100
AcDbLine
 62
7
  6
CONTINUOUS
 10
6.1599430367
 20
4.6045403617
 11
6.1599430367
 21
4.6893621103
  0
LINE
  5
284
100
AcDbEntity
  8
0
100
AcDbLine
 62
7
  6
CONTINUOUS
 10
6.1599430367
 20
5.1663754673
 11
6.1599430367
 21
5.2511972159
  0
LINE
  5
285
100
AcDbEntity
  8
0
100
AcDbLine
 62
7
  6
CONTINUOUS
 10
6.1622714639
 20
4.6966188318
 11
6.1622714639
 21
5.159117221
  0
LINE
  5
286
100
AcDbEntity
  8
0
100
AcDbLine
 62
7
  6
CONTINUOUS
 10
6.165599891
 20
4.6045403617
 11
6.165599891
 21
4.8013687888
  0
LINE
  5
287
100
AcDbEntity
  8
0
100
AcDbLine
 62
7
  6
CONTINUOUS
 10
6.165599891
 20
5.0543687888
 11
6.165599891
 21
5.2511972159
  0
LINE
  5
288
100
AcDbEntity
  8
0
100
AcDbLine
 62
7
  6
CONTINUOUS
 10
6.1673425317
 20
5.2529398566
 11
6.1673425317
 21
5.0543687888
  0
LINE
  5
289
100
AcDbEntity
  8
0
100
AcDbLine
 62
7
  6
CONTINUOUS
 10
6.1673425317
 20
4.8013687888
 11
6.1673425317
 21
4.602797721
  0
LINE
  5
28A
100
AcDbEntity
  8
0
100
AcDbLine
 62
7
  6
CONTINUOUS
 10
6.1744135995
 20
5.2558687888
 11
6.1744135995
 21
5.0543687888
  0
LINE
  5
28B
100
AcDbEntity
  8
0
100
AcDbLine
 62
7
  6
CONTINUOUS
 10
6.1744135995
 20
4.8013687888
 11
6.1744135995
 21
4.5998687888
  0
LINE
  5
28C
100
AcDbEntity
  8
0
100
AcDbLine
 62
7
  6
CONTINUOUS
 10
6.1777714639
 20
4.6991187888
 11
6.1777714639
 21
5.1566187888
  0
LINE
  5
28D
100
AcDbEntity
  8
0
100
AcDbLine
 62
7
  6
CONTINUOUS
 10
6.1927714639
 20
4.6841187888
 11
6.1927714639
 21
5.1716187888
  0
LINE
  5
28E
100
AcDbEntity
  8
0
100
AcDbLine
 62
7
  6
CONTINUOUS
 10
6.1227714639
 20
5.2558687888
 11
6.1511293282
 21
5.2558687888
  0
LINE
  5
28F
100
AcDbEntity
  8
0
100
AcDbLine
 62
7
  6
CONTINUOUS
 10
6.1744135995
 20
5.2558687888
 11
7.2627714639
 21
5.2558687888
  0
LINE
  5
290
100
AcDbEntity
  8
0
100
AcDbLine
 62
7
  6
CONTINUOUS
 10
7.2752714639
 20
5.4503687888
 11
7.3627714639
 21
5.4503687888
  0
LINE
  5
291
100
AcDbEntity
  8
0
100
AcDbLine
 62
7
  6
CONTINUOUS
 10
7.4002714639
 20
5.4903687888
 11
7.4377714639
 21
5.4903687888
  0
LINE
  5
292
100
AcDbEntity
  8
0
100
AcDbLine
 62
7
  6
CONTINUOUS
 10
6.158200396
 20
5.2529398566
 11
6.1599430367
 21
5.2511972159
  0
LINE
  5
293
100
AcDbEntity
  8
0
100
AcDbLine
 62
7
  6
CONTINUOUS
 10
7.2427714639
 20
4.6841187888
 11
7.2427714639
 21
5.1716187888
  0
LINE
  5
294
100
AcDbEntity
  8
0
100
AcDbLine
 62
7
  6
CONTINUOUS
 10
7.2577714639
 20
4.6991187888
 11
7.2577714639
 21
5.1566187888
  0
LINE
  5
295
100
AcDbEntity
  8
0
100
AcDbLine
 62
7
  6
CONTINUOUS
 10
7.2627714639
 20
5.4378687888
 11
7.2627714639
 21
4.4178687888
  0
LINE
  5
296
100
AcDbEntity
  8
0
100
AcDbLine
 62
7
  6
CONTINUOUS
 10
7.2752714639
 20
4.4053687888
 11
7.2752714639
 21
4.4055985863
  0
LINE
  5
297
100
AcDbEntity
  8
0
100
AcDbLine
 62
7
  6
CONTINUOUS
 10
7.2752714639
 20
5.4501389914
 11
7.2752714639
 21
5.4503687888
  0
LINE
  5
298
100
AcDbEntity
  8
0
100
AcDbLine
 62
7
  6
CONTINUOUS
 10
7.2777714639
 20
4.4053687888
 11
7.2777714639
 21
5.4503687888
  0
LINE
  5
299
100
AcDbEntity
  8
0
100
AcDbLine
 62
7
  6
CONTINUOUS
 10
7.3627714639
 20
5.4503687888
 11
7.3627714639
 21
4.4053687888
  0
LINE
  5
29A
100
AcDbEntity
  8
0
100
AcDbLine
 62
7
  6
CONTINUOUS
 10
7.3877714639
 20
5.4778687888
 11
7.3877714639
 21
4.3778687888
  0
LINE
  5
29B
100
AcDbEntity
  8
0
100
AcDbLine
 62
7
  6
CONTINUOUS
 10
7.4002714639
 20
4.3653687888
 11
7.4002714639
 21
4.3655985863
  0
LINE
  5
29C
100
AcDbEntity
  8
0
100
AcDbLine
 62
7
  6
CONTINUOUS
 10
7.4002714639
 20
5.4901389914
 11
7.4002714639
 21
5.4903687888
  0
LINE
  5
29D
100
AcDbEntity
  8
0
100
AcDbLine
 62
7
  6
CONTINUOUS
 10
7.4027714639
 20
4.3653687888
 11
7.4027714639
 21
5.4903687888
  0
LINE
  5
29E
100
AcDbEntity
  8
0
100
AcDbLine
 62
7
  6
CONTINUOUS
 10
7.4377714639
 20
4.3653687888
 11
7.4377714639
 21
5.4903687888
  0
ARC
  5
29F
100
AcDbEntity
  8
0
100
AcDbCircle
 62
7
  6
CONTINUOUS
 10
4.3127714639
 20
3.9278687888
 40
1.21875
100
AcDbArc
 50
90.0
 51
180.0
  0
ARC
  5
2A0
100
AcDbEntity
  8
0
100
AcDbCircle
 62
7
  6
CONTINUOUS
 10
4.3127714639
 20
3.9278687888
 40
0.78125
100
AcDbArc
 50
90.0
 51
180.0
  0
ARC
  5
2A1
100
AcDbEntity
  8
ALL_ASSEMBLY_MEMBERS
100
AcDbCircle
 62
7
  6
CONTINUOUS
 10
3.5677714639
 20
3.6678687888
 40
0.015
100
AcDbArc
 50
270.0
 51
360.0
  0
ARC
  5
2A2
100
AcDbEntity
  8
ALL_ASSEMBLY_MEMBERS
100
AcDbCircle
 62
7
  6
CONTINUOUS
 10
3.0577714639
 20
3.6678687888
 40
0.015
100
AcDbArc
 50
180.0
 51
270.0
  0
ARC
  5
2A3
100
AcDbEntity
  8
ALL_ASSEMBLY_MEMBERS
100
AcDbCircle
 62
7
  6
CONTINUOUS
 10
3.5677714639
 20
3.6378687888
 40
0.015
100
AcDbArc
 50
90.0
 51
180.0
  0
ARC
  5
2A4
100
AcDbEntity
  8
ALL_ASSEMBLY_MEMBERS
100
AcDbCircle
 62
7
  6
CONTINUOUS
 10
3.0577714639
 20
3.6378687888
 40
0.015
100
AcDbArc
 50
0.0
 51
90.0
  0
ARC
  5
2A5
100
AcDbEntity
  8
ALL_ASSEMBLY_MEMBERS
100
AcDbCircle
 62
7
  6
CONTINUOUS
 10
3.5677714639
 20
3.3628687888
 40
0.015
100
AcDbArc
 50
180.0
 51
270.0
  0
ARC
  5
2A6
100
AcDbEntity
  8
ALL_ASSEMBLY_MEMBERS
100
AcDbCircle
 62
7
  6
CONTINUOUS
 10
3.0577714639
 20
3.3628687888
 40
0.015
100
AcDbArc
 50
270.0
 51
360.0
  0
ARC
  5
2A7
100
AcDbEntity
  8
ALL_ASSEMBLY_MEMBERS
100
AcDbCircle
 62
7
  6
CONTINUOUS
 10
3.5677714639
 20
3.3328687888
 40
0.015
100
AcDbArc
 50
0.0
 51
90.0
  0
ARC
  5
2A8
100
AcDbEntity
  8
ALL_ASSEMBLY_MEMBERS
100
AcDbCircle
 62
7
  6
CONTINUOUS
 10
3.0577714639
 20
3.3328687888
 40
0.015
100
AcDbArc
 50
90.0
 51
180.0
  0
ARC
  5
2A9
100
AcDbEntity
  8
ALL_ASSEMBLY_MEMBERS
100
AcDbCircle
 62
7
  6
CONTINUOUS
 10
3.5677714639
 20
3.3128687888
 40
0.015
100
AcDbArc
 50
270.0
 51
360.0
  0
ARC
  5
2AA
100
AcDbEntity
  8
ALL_ASSEMBLY_MEMBERS
100
AcDbCircle
 62
7
  6
CONTINUOUS
 10
3.0577714639
 20
3.3128687888
 40
0.015
100
AcDbArc
 50
180.0
 51
270.0
  0
ARC
  5
2AB
100
AcDbEntity
  8
ALL_ASSEMBLY_MEMBERS
100
AcDbCircle
 62
7
  6
CONTINUOUS
 10
3.5677714639
 20
3.6878687888
 40
0.015
100
AcDbArc
 50
0.0
 51
90.0
  0
ARC
  5
2AC
100
AcDbEntity
  8
ALL_ASSEMBLY_MEMBERS
100
AcDbCircle
 62
7
  6
CONTINUOUS
 10
3.0577714639
 20
3.6878687888
 40
0.015
100
AcDbArc
 50
90.0
 51
180.0
  0
ARC
  5
2AD
100
AcDbEntity
  8
0
100
AcDbCircle
 62
7
  6
CONTINUOUS
 10
7.3627714639
 20
4.3803687888
 40
0.025
100
AcDbArc
 50
0.0
 51
90.0
  0
ARC
  5
2AE
100
AcDbEntity
  8
0
100
AcDbCircle
 62
7
  6
CONTINUOUS
 10
7.4027714639
 20
4.3803687888
 40
0.015
100
AcDbArc
 50
180.0
 51
270.0
  0
ARC
  5
2AF
100
AcDbEntity
  8
0
100
AcDbCircle
 62
7
  6
CONTINUOUS
 10
7.4002714639
 20
4.3778687888
 40
0.0125
100
AcDbArc
 50
180.0
 51
270.0
  0
ARC
  5
2B0
100
AcDbEntity
  8
0
100
AcDbCircle
 62
7
  6
CONTINUOUS
 10
6.1927714639
 20
4.6991187888
 40
0.015
100
AcDbArc
 50
180.0
 51
270.0
  0
ARC
  5
2B1
100
AcDbEntity
  8
0
100
AcDbCircle
 62
7
  6
CONTINUOUS
 10
6.1497714639
 20
4.6966187888
 40
0.0125
100
AcDbArc
 50
270.0
 51
360.0
  0
ARC
  5
2B2
100
AcDbEntity
  8
0
100
AcDbCircle
 62
7
  6
CONTINUOUS
 10
5.8247714639
 20
4.6966187888
 40
0.0125
100
AcDbArc
 50
180.0
 51
270.0
  0
ARC
  5
2B3
100
AcDbEntity
  8
0
100
AcDbCircle
 62
7
  6
CONTINUOUS
 10
6.0997714639
 20
4.7216187888
 40
0.0125
100
AcDbArc
 50
0.0
 51
90.0
  0
ARC
  5
2B4
100
AcDbEntity
  8
0
100
AcDbCircle
 62
7
  6
CONTINUOUS
 10
5.8747714639
 20
4.7216187888
 40
0.0125
100
AcDbArc
 50
90.0
 51
180.0
  0
ARC
  5
2B5
100
AcDbEntity
  8
0
100
AcDbCircle
 62
7
  6
CONTINUOUS
 10
5.8497714639
 20
4.6966187888
 40
0.0125
100
AcDbArc
 50
270.0
 51
360.0
  0
ARC
  5
2B6
100
AcDbEntity
  8
0
100
AcDbCircle
 62
7
  6
CONTINUOUS
 10
6.1247714639
 20
4.6966187888
 40
0.0125
100
AcDbArc
 50
180.0
 51
270.0
  0
ARC
  5
2B7
100
AcDbEntity
  8
0
100
AcDbCircle
 62
7
  6
CONTINUOUS
 10
6.1497714639
 20
4.8153687888
 40
0.0125
100
AcDbArc
 50
270.0
 51
360.0
  0
ARC
  5
2B8
100
AcDbEntity
  8
0
100
AcDbCircle
 62
7
  6
CONTINUOUS
 10
5.8247714639
 20
4.8153687888
 40
0.0125
100
AcDbArc
 50
180.0
 51
270.0
  0
ARC
  5
2B9
100
AcDbEntity
  8
0
100
AcDbCircle
 62
7
  6
CONTINUOUS
 10
6.1744135995
 20
4.6098687888
 40
0.01
100
AcDbArc
 50
225.0
 51
270.0
  0
ARC
  5
2BA
100
AcDbEntity
  8
0
100
AcDbCircle
 62
7
  6
CONTINUOUS
 10
6.1511293282
 20
4.6098687888
 40
0.01
100
AcDbArc
 50
270.0
 51
315.0
  0
ARC
  5
2BB
100
AcDbEntity
  8
0
100
AcDbCircle
 62
7
  6
CONTINUOUS
 10
6.1027714639
 20
4.6528687888
 40
0.01
100
AcDbArc
 50
0.0
 51
90.0
  0
ARC
  5
2BC
100
AcDbEntity
  8
0
100
AcDbCircle
 62
7
  6
CONTINUOUS
 10
5.8727714639
 20
4.6528687888
 40
0.01
100
AcDbArc
 50
90.0
 51
180.0
  0
ARC
  5
2BD
100
AcDbEntity
  8
0
100
AcDbCircle
 62
7
  6
CONTINUOUS
 10
5.8227714639
 20
4.6528687888
 40
0.01
100
AcDbArc
 50
180.0
 51
270.0
  0
ARC
  5
2BE
100
AcDbEntity
  8
0
100
AcDbCircle
 62
7
  6
CONTINUOUS
 10
5.8527714639
 20
4.6528687888
 40
0.01
100
AcDbArc
 50
270.0
 51
360.0
  0
ARC
  5
2BF
100
AcDbEntity
  8
0
100
AcDbCircle
 62
7
  6
CONTINUOUS
 10
6.1227714639
 20
4.6098687888
 40
0.01
100
AcDbArc
 50
180.0
 51
270.0
  0
ARC
  5
2C0
100
AcDbEntity
  8
0
100
AcDbCircle
 62
7
  6
CONTINUOUS
 10
6.1627714639
 20
4.6017119346
 40
0.004
100
AcDbArc
 50
45.0
 51
135.0
  0
ARC
  5
2C1
100
AcDbEntity
  8
0
100
AcDbCircle
 62
7
  6
CONTINUOUS
 10
6.1927714639
 20
5.1566187888
 40
0.015
100
AcDbArc
 50
90.0
 51
180.0
  0
ARC
  5
2C2
100
AcDbEntity
  8
0
100
AcDbCircle
 62
7
  6
CONTINUOUS
 10
6.1497714639
 20
5.1591187888
 40
0.0125
100
AcDbArc
 50
0.0
 51
90.0
  0
ARC
  5
2C3
100
AcDbEntity
  8
0
100
AcDbCircle
 62
7
  6
CONTINUOUS
 10
5.8247714639
 20
5.1591187888
 40
0.0125
100
AcDbArc
 50
90.0
 51
180.0
  0
ARC
  5
2C4
100
AcDbEntity
  8
0
100
AcDbCircle
 62
7
  6
CONTINUOUS
 10
5.8747714639
 20
5.1341187888
 40
0.0125
100
AcDbArc
 50
180.0
 51
270.0
  0
ARC
  5
2C5
100
AcDbEntity
  8
0
100
AcDbCircle
 62
7
  6
CONTINUOUS
 10
6.0997714639
 20
5.1341187888
 40
0.0125
100
AcDbArc
 50
270.0
 51
360.0
  0
ARC
  5
2C6
100
AcDbEntity
  8
0
100
AcDbCircle
 62
7
  6
CONTINUOUS
 10
6.1247714639
 20
5.1591187888
 40
0.0125
100
AcDbArc
 50
90.0
 51
180.0
  0
ARC
  5
2C7
100
AcDbEntity
  8
0
100
AcDbCircle
 62
7
  6
CONTINUOUS
 10
5.8497714639
 20
5.1591187888
 40
0.0125
100
AcDbArc
 50
0.0
 51
90.0
  0
ARC
  5
2C8
100
AcDbEntity
  8
0
100
AcDbCircle
 62
7
  6
CONTINUOUS
 10
5.8247714639
 20
5.0403687888
 40
0.0125
100
AcDbArc
 50
90.0
 51
180.0
  0
ARC
  5
2C9
100
AcDbEntity
  8
0
100
AcDbCircle
 62
7
  6
CONTINUOUS
 10
6.1497714639
 20
5.0403687888
 40
0.0125
100
AcDbArc
 50
0.0
 51
90.0
  0
ARC
  5
2CA
100
AcDbEntity
  8
0
100
AcDbCircle
 62
7
  6
CONTINUOUS
 10
6.1744135995
 20
5.2458687888
 40
0.01
100
AcDbArc
 50
90.0
 51
135.0
  0
ARC
  5
2CB
100
AcDbEntity
  8
0
100
AcDbCircle
 62
7
  6
CONTINUOUS
 10
6.1511293282
 20
5.2458687888
 40
0.01
100
AcDbArc
 50
45.0
 51
90.0
  0
ARC
  5
2CC
100
AcDbEntity
  8
0
100
AcDbCircle
 62
7
  6
CONTINUOUS
 10
6.1027714639
 20
5.2028687888
 40
0.01
100
AcDbArc
 50
270.0
 51
360.0
  0
ARC
  5
2CD
100
AcDbEntity
  8
0
100
AcDbCircle
 62
7
  6
CONTINUOUS
 10
5.8727714639
 20
5.2028687888
 40
0.01
100
AcDbArc
 50
180.0
 51
270.0
  0
ARC
  5
2CE
100
AcDbEntity
  8
0
100
AcDbCircle
 62
7
  6
CONTINUOUS
 10
5.8227714639
 20
5.2028687888
 40
0.01
100
AcDbArc
 50
90.0
 51
180.0
  0
ARC
  5
2CF
100
AcDbEntity
  8
0
100
AcDbCircle
 62
7
  6
CONTINUOUS
 10
5.8527714639
 20
5.2028687888
 40
0.01
100
AcDbArc
 50
0.0
 51
90.0
  0
ARC
  5
2D0
100
AcDbEntity
  8
0
100
AcDbCircle
 62
7
  6
CONTINUOUS
 10
6.1227714639
 20
5.2458687888
 40
0.01
100
AcDbArc
 50
90.0
 51
180.0
  0
ARC
  5
2D1
100
AcDbEntity
  8
0
100
AcDbCircle
 62
7
  6
CONTINUOUS
 10
6.1627714639
 20
5.2540256431
 40
0.004
100
AcDbArc
 50
225.0
 51
315.0
  0
ARC
  5
2D2
100
AcDbEntity
  8
0
100
AcDbCircle
 62
7
  6
CONTINUOUS
 10
7.2777714639
 20
4.4203687888
 40
0.015
100
AcDbArc
 50
180.0
 51
270.0
  0
ARC
  5
2D3
100
AcDbEntity
  8
0
100
AcDbCircle
 62
7
  6
CONTINUOUS
 10
7.2427714639
 20
4.6991187888
 40
0.015
100
AcDbArc
 50
270.0
 51
360.0
  0
ARC
  5
2D4
100
AcDbEntity
  8
0
100
AcDbCircle
 62
7
  6
CONTINUOUS
 10
7.2752714639
 20
4.4178687888
 40
0.0125
100
AcDbArc
 50
180.0
 51
270.0
  0
ARC
  5
2D5
100
AcDbEntity
  8
0
100
AcDbCircle
 62
7
  6
CONTINUOUS
 10
7.3627714639
 20
5.4753687888
 40
0.025
100
AcDbArc
 50
270.0
 51
360.0
  0
ARC
  5
2D6
100
AcDbEntity
  8
0
100
AcDbCircle
 62
7
  6
CONTINUOUS
 10
7.2777714639
 20
5.4353687888
 40
0.015
100
AcDbArc
 50
90.0
 51
180.0
  0
ARC
  5
2D7
100
AcDbEntity
  8
0
100
AcDbCircle
 62
7
  6
CONTINUOUS
 10
7.4027714639
 20
5.4753687888
 40
0.015
100
AcDbArc
 50
90.0
 51
180.0
  0
ARC
  5
2D8
100
AcDbEntity
  8
0
100
AcDbCircle
 62
7
  6
CONTINUOUS
 10
7.2427714639
 20
5.1566187888
 40
0.015
100
AcDbArc
 50
0.0
 51
90.0
  0
ARC
  5
2D9
100
AcDbEntity
  8
0
100
AcDbCircle
 62
7
  6
CONTINUOUS
 10
7.2752714639
 20
5.4378687888
 40
0.0125
100
AcDbArc
 50
90.0
 51
180.0
  0
ARC
  5
2DA
100
AcDbEntity
  8
0
100
AcDbCircle
 62
7
  6
CONTINUOUS
 10
7.4002714639
 20
5.4778687888
 40
0.0125
100
AcDbArc
 50
90.0
 51
180.0
  0
SPLINE
  5
2DB
100
AcDbEntity
  8
0
100
AcDbSpline
 62
7
  6
CONTINUOUS
 70
0
 71
3
 72
15
 73
11
 74
0
 42
0.0000001
 43
0.0000001
 44
0.0000000001
 40
0.0
 40
0.0
 40
0.0
 40
0.0
 40
0.1005710927
 40
0.2055930623
 40
0.3179804696
 40
0.4394630065
 40
0.5700352047
 40
0.7084942175
 40
0.8528767039
 40
1.0
 40
1.0
 40
1.0
 40
1.0
 10
6.1122714639
 20
4.7880382803
 30
0.0
 10
6.1122714639
 20
4.788594722
 30
0.0
 10
6.112100654
 20
4.789738157
 30
0.0
 10
6.1113622668
 20
4.7913566353
 30
0.0
 10
6.1101775666
 20
4.7928316484
 30
0.0
 10
6.1086028505
 20
4.7941111355
 30
0.0
 10
6.1067004655
 20
4.7951567348
 30
0.0
 10
6.1045388194
 20
4.7959308927
 30
0.0
 10
6.1022003568
 20
4.7964054069
 30
0.0
 10
6.1005854704
 20
4.7965128566
 30
0.0
 10
6.0997714639
 20
4.7965128566
 30
0.0
  0
SPLINE
  5
2DC
100
AcDbEntity
  8
0
100
AcDbSpline
 62
7
  6
CONTINUOUS
 70
0
 71
3
 72
15
 73
11
 74
0
 42
0.0000001
 43
0.0000001
 44
0.0000000001
 40
0.0
 40
0.0
 40
0.0
 40
0.0
 40
0.1471232961
 40
0.2915057825
 40
0.4299647953
 40
0.5605369935
 40
0.6820195304
 40
0.7944069377
 40
0.8994289073
 40
1.0
 40
1.0
 40
1.0
 40
1.0
 10
5.8247714639
 20
4.7626145515
 30
0.0
 10
5.8239574573
 20
4.7626145515
 30
0.0
 10
5.8223425709
 20
4.7627220012
 30
0.0
 10
5.8200041083
 20
4.7631965154
 30
0.0
 10
5.8178424623
 20
4.7639706733
 30
0.0
 10
5.8159400772
 20
4.7650162726
 30
0.0
 10
5.8143653611
 20
4.7662957597
 30
0.0
 10
5.8131806609
 20
4.7677707728
 30
0.0
 10
5.8124422737
 20
4.7693892512
 30
0.0
 10
5.8122714639
 20
4.7705326862
 30
0.0
 10
5.8122714639
 20
4.7710891278
 30
0.0
  0
SPLINE
  5
2DD
100
AcDbEntity
  8
0
100
AcDbSpline
 62
7
  6
CONTINUOUS
 70
0
 71
3
 72
15
 73
11
 74
0
 42
0.0000001
 43
0.0000001
 44
0.0000000001
 40
0.0
 40
0.0
 40
0.0
 40
0.0
 40
0.1471232961
 40
0.2915057825
 40
0.4299647953
 40
0.5605369935
 40
0.6820195304
 40
0.7944069377
 40
0.8994289073
 40
1.0
 40
1.0
 40
1.0
 40
1.0
 10
5.8247714639
 20
5.0931230261
 30
0.0
 10
5.8239574573
 20
5.0931230261
 30
0.0
 10
5.8223425709
 20
5.0930155764
 30
0.0
 10
5.8200041083
 20
5.0925410622
 30
0.0
 10
5.8178424623
 20
5.0917669043
 30
0.0
 10
5.8159400772
 20
5.090721305
 30
0.0
 10
5.8143653611
 20
5.0894418179
 30
0.0
 10
5.8131806609
 20
5.0879668048
 30
0.0
 10
5.8124422737
 20
5.0863483265
 30
0.0
 10
5.8122714639
 20
5.0852048915
 30
0.0
 10
5.8122714639
 20
5.0846484498
 30
0.0
  0
SPLINE
  5
2DE
100
AcDbEntity
  8
0
100
AcDbSpline
 62
7
  6
CONTINUOUS
 70
0
 71
3
 72
15
 73
11
 74
0
 42
0.0000001
 43
0.0000001
 44
0.0000000001
 40
0.0
 40
0.0
 40
0.0
 40
0.0
 40
0.1471232961
 40
0.2915057825
 40
0.4299647953
 40
0.5605369935
 40
0.6820195304
 40
0.7944069377
 40
0.8994289073
 40
1.0
 40
1.0
 40
1.0
 40
1.0
 10
6.1497714639
 20
5.0931230261
 30
0.0
 10
6.1505854704
 20
5.0931230261
 30
0.0
 10
6.1522003568
 20
5.0930155764
 30
0.0
 10
6.1545388194
 20
5.0925410622
 30
0.0
 10
6.1567004655
 20
5.0917669043
 30
0.0
 10
6.1586028505
 20
5.090721305
 30
0.0
 10
6.1601775666
 20
5.0894418179
 30
0.0
 10
6.1613622668
 20
5.0879668048
 30
0.0
 10
6.162100654
 20
5.0863483265
 30
0.0
 10
6.1622714639
 20
5.0852048915
 30
0.0
 10
6.1622714639
 20
5.0846484498
 30
0.0
  0
SPLINE
  5
2DF
100
AcDbEntity
  8
0
100
AcDbSpline
 62
7
  6
CONTINUOUS
 70
0
 71
3
 72
15
 73
11
 74
0
 42
0.0000001
 43
0.0000001
 44
0.0000000001
 40
0.0
 40
0.0
 40
0.0
 40
0.0
 40
0.1471232961
 40
0.2915057825
 40
0.4299647953
 40
0.5605369935
 40
0.6820195304
 40
0.7944069377
 40
0.8994289073
 40
1.0
 40
1.0
 40
1.0
 40
1.0
 10
6.1497714639
 20
4.7626145515
 30
0.0
 10
6.1505854704
 20
4.7626145515
 30
0.0
 10
6.1522003568
 20
4.7627220012
 30
0.0
 10
6.1545388194
 20
4.7631965154
 30
0.0
 10
6.1567004655
 20
4.7639706733
 30
0.0
 10
6.1586028505
 20
4.7650162726
 30
0.0
 10
6.1601775666
 20
4.7662957597
 30
0.0
 10
6.1613622668
 20
4.7677707728
 30
0.0
 10
6.162100654
 20
4.7693892512
 30
0.0
 10
6.1622714639
 20
4.7705326862
 30
0.0
 10
6.1622714639
 20
4.7710891278
 30
0.0
  0
SPLINE
  5
2E0
100
AcDbEntity
  8
0
100
AcDbSpline
 62
7
  6
CONTINUOUS
 70
0
 71
3
 72
15
 73
11
 74
0
 42
0.0000001
 43
0.0000001
 44
0.0000000001
 40
0.0
 40
0.0
 40
0.0
 40
0.0
 40
0.1471232961
 40
0.2915057825
 40
0.4299647953
 40
0.5605369935
 40
0.6820195304
 40
0.7944069377
 40
0.8994289073
 40
1.0
 40
1.0
 40
1.0
 40
1.0
 10
6.1247714639
 20
4.7626145515
 30
0.0
 10
6.1239574573
 20
4.7626145515
 30
0.0
 10
6.1223425709
 20
4.7627220012
 30
0.0
 10
6.1200041083
 20
4.7631965154
 30
0.0
 10
6.1178424623
 20
4.7639706733
 30
0.0
 10
6.1159400772
 20
4.7650162726
 30
0.0
 10
6.1143653611
 20
4.7662957597
 30
0.0
 10
6.1131806609
 20
4.7677707728
 30
0.0
 10
6.1124422737
 20
4.7693892512
 30
0.0
 10
6.1122714639
 20
4.7705326862
 30
0.0
 10
6.1122714639
 20
4.7710891278
 30
0.0
  0
SPLINE
  5
2E1
100
AcDbEntity
  8
0
100
AcDbSpline
 62
7
  6
CONTINUOUS
 70
0
 71
3
 72
15
 73
11
 74
0
 42
0.0000001
 43
0.0000001
 44
0.0000000001
 40
0.0
 40
0.0
 40
0.0
 40
0.0
 40
0.1471232961
 40
0.2915057825
 40
0.4299647953
 40
0.5605369935
 40
0.6820195304
 40
0.7944069377
 40
0.8994289073
 40
1.0
 40
1.0
 40
1.0
 40
1.0
 10
5.8497714639
 20
4.7626145515
 30
0.0
 10
5.8505854704
 20
4.7626145515
 30
0.0
 10
5.8522003568
 20
4.7627220012
 30
0.0
 10
5.8545388194
 20
4.7631965154
 30
0.0
 10
5.8567004655
 20
4.7639706733
 30
0.0
 10
5.8586028505
 20
4.7650162726
 30
0.0
 10
5.8601775666
 20
4.7662957597
 30
0.0
 10
5.8613622668
 20
4.7677707728
 30
0.0
 10
5.862100654
 20
4.7693892512
 30
0.0
 10
5.8622714639
 20
4.7705326862
 30
0.0
 10
5.8622714639
 20
4.7710891278
 30
0.0
  0
SPLINE
  5
2E2
100
AcDbEntity
  8
0
100
AcDbSpline
 62
7
  6
CONTINUOUS
 70
0
 71
3
 72
15
 73
11
 74
0
 42
0.0000001
 43
0.0000001
 44
0.0000000001
 40
0.0
 40
0.0
 40
0.0
 40
0.0
 40
0.1471232961
 40
0.2915057825
 40
0.4299647953
 40
0.5605369935
 40
0.6820195304
 40
0.7944069377
 40
0.8994289073
 40
1.0
 40
1.0
 40
1.0
 40
1.0
 10
5.8497714639
 20
5.0931230261
 30
0.0
 10
5.8505854704
 20
5.0931230261
 30
0.0
 10
5.8522003568
 20
5.0930155764
 30
0.0
 10
5.8545388194
 20
5.0925410622
 30
0.0
 10
5.8567004655
 20
5.0917669043
 30
0.0
 10
5.8586028505
 20
5.090721305
 30
0.0
 10
5.8601775666
 20
5.0894418179
 30
0.0
 10
5.8613622668
 20
5.0879668048
 30
0.0
 10
5.862100654
 20
5.0863483265
 30
0.0
 10
5.8622714639
 20
5.0852048915
 30
0.0
 10
5.8622714639
 20
5.0846484498
 30
0.0
  0
SPLINE
  5
2E3
100
AcDbEntity
  8
0
100
AcDbSpline
 62
7
  6
CONTINUOUS
 70
0
 71
3
 72
15
 73
11
 74
0
 42
0.0000001
 43
0.0000001
 44
0.0000000001
 40
0.0
 40
0.0
 40
0.0
 40
0.0
 40
0.1471232961
 40
0.2915057825
 40
0.4299647953
 40
0.5605369935
 40
0.6820195304
 40
0.7944069377
 40
0.8994289073
 40
1.0
 40
1.0
 40
1.0
 40
1.0
 10
6.1247714639
 20
5.0931230261
 30
0.0
 10
6.1239574573
 20
5.0931230261
 30
0.0
 10
6.1223425709
 20
5.0930155764
 30
0.0
 10
6.1200041083
 20
5.0925410622
 30
0.0
 10
6.1178424623
 20
5.0917669043
 30
0.0
 10
6.1159400772
 20
5.090721305
 30
0.0
 10
6.1143653611
 20
5.0894418179
 30
0.0
 10
6.1131806609
 20
5.0879668048
 30
0.0
 10
6.1124422737
 20
5.0863483265
 30
0.0
 10
6.1122714639
 20
5.0852048915
 30
0.0
 10
6.1122714639
 20
5.0846484498
 30
0.0
  0
SPLINE
  5
2E4
100
AcDbEntity
  8
0
100
AcDbSpline
 62
7
  6
CONTINUOUS
 70
0
 71
3
 72
15
 73
11
 74
0
 42
0.0000001
 43
0.0000001
 44
0.0000000001
 40
0.0
 40
0.0
 40
0.0
 40
0.0
 40
0.1005710927
 40
0.2055930623
 40
0.3179804696
 40
0.4394630065
 40
0.5700352047
 40
0.7084942175
 40
0.8528767039
 40
1.0
 40
1.0
 40
1.0
 40
1.0
 10
5.8622714639
 20
5.0676992973
 30
0.0
 10
5.8622714639
 20
5.0671428557
 30
0.0
 10
5.8624422737
 20
5.0659994206
 30
0.0
 10
5.8631806609
 20
5.0643809423
 30
0.0
 10
5.8643653611
 20
5.0629059292
 30
0.0
 10
5.8659400772
 20
5.0616264421
 30
0.0
 10
5.8678424623
 20
5.0605808428
 30
0.0
 10
5.8700041083
 20
5.0598066849
 30
0.0
 10
5.8723425709
 20
5.0593321707
 30
0.0
 10
5.8739574573
 20
5.059224721
 30
0.0
 10
5.8747714639
 20
5.059224721
 30
0.0
  0
SPLINE
  5
2E5
100
AcDbEntity
  8
0
100
AcDbSpline
 62
7
  6
CONTINUOUS
 70
0
 71
3
 72
15
 73
11
 74
0
 42
0.0000001
 43
0.0000001
 44
0.0000000001
 40
0.0
 40
0.0
 40
0.0
 40
0.0
 40
0.1005710927
 40
0.2055930623
 40
0.3179804696
 40
0.4394630065
 40
0.5700352047
 40
0.7084942175
 40
0.8528767039
 40
1.0
 40
1.0
 40
1.0
 40
1.0
 10
6.1122714639
 20
5.0676992973
 30
0.0
 10
6.1122714639
 20
5.0671428557
 30
0.0
 10
6.112100654
 20
5.0659994206
 30
0.0
 10
6.1113622668
 20
5.0643809423
 30
0.0
 10
6.1101775666
 20
5.0629059292
 30
0.0
 10
6.1086028505
 20
5.0616264421
 30
0.0
 10
6.1067004655
 20
5.0605808428
 30
0.0
 10
6.1045388194
 20
5.0598066849
 30
0.0
 10
6.1022003568
 20
5.0593321707
 30
0.0
 10
6.1005854704
 20
5.059224721
 30
0.0
 10
6.0997714639
 20
5.059224721
 30
0.0
  0
SPLINE
  5
2E6
100
AcDbEntity
  8
0
100
AcDbSpline
 62
7
  6
CONTINUOUS
 70
0
 71
3
 72
15
 73
11
 74
0
 42
0.0000001
 43
0.0000001
 44
0.0000000001
 40
0.0
 40
0.0
 40
0.0
 40
0.0
 40
0.1005710927
 40
0.2055930623
 40
0.3179804696
 40
0.4394630065
 40
0.5700352047
 40
0.7084942175
 40
0.8528767039
 40
1.0
 40
1.0
 40
1.0
 40
1.0
 10
5.8622714639
 20
4.7880382803
 30
0.0
 10
5.8622714639
 20
4.788594722
 30
0.0
 10
5.8624422737
 20
4.789738157
 30
0.0
 10
5.8631806609
 20
4.7913566353
 30
0.0
 10
5.8643653611
 20
4.7928316484
 30
0.0
 10
5.8659400772
 20
4.7941111355
 30
0.0
 10
5.8678424623
 20
4.7951567348
 30
0.0
 10
5.8700041083
 20
4.7959308927
 30
0.0
 10
5.8723425709
 20
4.7964054069
 30
0.0
 10
5.8739574573
 20
4.7965128566
 30
0.0
 10
5.8747714639
 20
4.7965128566
 30
0.0
  0
ENDSEC
  0
SECTION
  2
OBJECTS
  0
DICTIONARY
  5
C
100
AcDbDictionary
280
0
281
1
  3
ACAD_GROUP
350
D
  3
ACAD_MLINESTYLE
350
17
  3
ACAD_LAYOUT
350
1A
  3
ACAD_PLOTSETTINGS
350
19
  3
ACAD_PLOTSTYLENAME
350
E
  0
DICTIONARY
  5
D
102
{ACAD_REACTORS
330
C
102
}
100
AcDbDictionary
280
0
281
1
  0
ACDBDICTIONARYWDFLT
  5
E
102
{ACAD_REACTORS
330
C
102
}
100
AcDbDictionary
281
1
  3
Normal
350
F
100
AcDbDictionaryWithDefault
340
F
  0
DICTIONARY
  5
17
102
{ACAD_REACTORS
330
C
102
}
100
AcDbDictionary
280
0
281
1
  3
Standard
350
18
  0
DICTIONARY
  5
19
102
{ACAD_REACTORS
330
C
102
}
100
AcDbDictionary
281
1
  0
DICTIONARY
  5
1A
102
{ACAD_REACTORS
330
C
102
}
100
AcDbDictionary
281
1
  3
Model
350
2E7
  3
Layout1
350
2E8
  0
ACDBPLACEHOLDER
  5
F
102
{ACAD_REACTORS
330
E
102
}
  0
MLINESTYLE
  5
18
102
{ACAD_REACTORS
330
17
102
}
100
AcDbMlineStyle
  2
STANDARD
 70
0
  3

 62
256
 51
90.0
 52
90.0
 71
2
 49
0.5
 62
256
  6
BYLAYER
 49
-0.5
 62
256
  6
BYLAYER
  0
LAYOUT
  5
2E7
102
{ACAD_REACTORS
330
1A
102
}
100
AcDbPlotSettings
  1

  2
none_device
  4
ANSI_A_(11.00_x_8.50_Inches)
  6

 40
0.0
 41
0.0
 42
0.0
 43
0.0
 44
279.4
 45
215.9
 46
0.0
 47
0.0
 48
0.0
 49
0.0
140
0.0
141
0.0
142
1.0
143
1.0
 70
1024
 72
0
 73
0
 74
0
  7

 75
0
147
1.0
148
0.0
149
0.0
100
AcDbLayout
  1
Model
 70
0
 71
0
 10
0.0
 20
0.0
 11
11.0
 21
8.5
 12
0.0
 22
0.0
 32
0.0
 14
0.0
 24
0.0
 34
0.0
 15
0.0
 25
0.0
 35
0.0
146
0.0
 13
0.0
 23
0.0
 33
0.0
 16
1.0
 26
0.0
 36
0.0
 17
0.0
 27
1.0
 37
0.0
 76
0
330
219
345
0
346
0
  0
LAYOUT
  5
2E8
102
{ACAD_REACTORS
330
1A
102
}
100
AcDbPlotSettings
  1

  2
none_device
  4
ANSI_A_(11.00_x_8.50_Inches)
  6

 40
0.0
 41
0.0
 42
0.0
 43
0.0
 44
279.4
 45
215.9
 46
0.0
 47
0.0
 48
0.0
 49
0.0
140
0.0
141
0.0
142
1.0
143
1.0
 70
0
 72
0
 73
0
 74
0
  7

 75
0
147
1.0
148
0.0
149
0.0
100
AcDbLayout
  1
Layout1
 70
0
 71
1
 10
0.0
 20
0.0
 11
11.0
 21
8.5
 12
0.0
 22
0.0
 32
0.0
 14
0.0
 24
0.0
 34
0.0
 15
0.0
 25
0.0
 35
0.0
146
0.0
 13
0.0
 23
0.0
 33
0.0
 16
1.0
 26
0.0
 36
0.0
 17
0.0
 27
1.0
 37
0.0
 76
0
330
21A
345
0
346
0
  0
ENDSEC
  0
EOF
