999
DXF file: 3-3271_top.dxf
999
Pro/ENGINEER 2018400 by Parametric Technology Corporation
  0
SECTION
  2
HEADER
  9
$ACADVER
  1
AC1027
  9
$DWGCODEPAGE
  3
ANSI_1252
  9
$EXTMAX
 10
11.0
 20
8.5
 30
0.0
  9
$EXTMIN
 10
0.0
 20
0.0
 30
0.0
  9
$LIMMIN
 10
0.0
 20
0.0
  9
$LIMMAX
 10
11.0
 20
8.5
  9
$VIEWCTR
 10
5.5
 20
4.25
  9
$VIEWSIZE
 40
8.5
  9
$CLAYER
  8
0
  9
$LTSCALE
 40
0.605
  9
$CELTYPE
  6
BYLAYER
  9
$DIMSCALE
 40
1.0
  9
$DIMASZ
 40
0.1
  9
$DIMEXO
 40
0.0625
  9
$DIMDLI
 40
0.418
  9
$DIMEXE
 40
0.125
  9
$DIMCEN
 40
0.099
  9
$DIMLFAC
 40
1.0
  9
$DIMBLK
  1
_FILLED
  9
$DIMALT
 70
1
  9
$DIMALTD
 70
2
  9
$DIMALTTD
 70
2
  9
$DIMALTF
 40
25.4
  9
$DIMTXT
 40
0.08
  9
$DIMTOL
 70
1
  9
$DIMLIM
 70
0
  9
$DIMTFAC
 40
1.0
  9
$DIMTP
 40
0.001
  9
$DIMTM
 40
0.001
  9
$DIMGAP
 40
0.09
  9
$DIMDSEP
 70
46
  9
$AUNITS
 70
0
  9
$PDMODE
 70
3
  9
$PDSIZE
 40
0.3125
  9
$HANDSEED
  5
323
  9
$TILEMODE
 70
1
  9
$MEASUREMENT
 70
0
  9
$INSUNITS
 70
1
  0
ENDSEC
  0
SECTION
  2
CLASSES
  0
CLASS
  1
ACDBDICTIONARYWDFLT
  2
AcDbDictionaryWithDefault
  3
AutoCAD 2000
 90
0
 91
1
280
0
281
0
  0
CLASS
  1
ACDBPLACEHOLDER
  2
AcDbPlaceHolder
  3
AutoCAD 2000
 90
0
 91
1
280
0
281
0
  0
CLASS
  1
LAYOUT
  2
AcDbLayout
  3
AutoCAD 2000
 90
0
 91
0
280
0
281
0
  0
ENDSEC
  0
SECTION
  2
TABLES
  0
TABLE
  2
VPORT
  5
8
100
AcDbSymbolTable
 70
2
  0
VPORT
  5
1F4
100
AcDbSymbolTableRecord
100
AcDbViewportTableRecord
  2
*ACTIVE
 70
0
 10
0.0
 20
0.0
 11
1.0
 21
1.0
 12
5.5
 22
4.25
 13
0.0
 23
0.0
 14
1.0
 24
1.0
 15
0.0
 25
0.0
 16
0.0
 26
0.0
 36
1.0
 17
0.0
 27
0.0
 37
0.0
 40
8.5
 41
1.2941176471
 42
50.0
 43
0.0
 44
0.0
 50
0.0
 51
0.0
 71
0
 72
100
 73
1
 74
1
 75
0
 76
0
 77
0
 78
0
  0
ENDTAB
  0
TABLE
  2
LTYPE
  5
5
100
AcDbSymbolTable
 70
6
  0
LTYPE
  5
14
100
AcDbSymbolTableRecord
100
AcDbLinetypeTableRecord
  2
BYBLOCK
 70
0
  3

 72
65
 73
0
 40
0.0
  0
LTYPE
  5
15
100
AcDbSymbolTableRecord
100
AcDbLinetypeTableRecord
  2
BYLAYER
 70
0
  3

 72
65
 73
0
 40
0.0
  0
LTYPE
  5
16
100
AcDbSymbolTableRecord
100
AcDbLinetypeTableRecord
  2
CONTINUOUS
 70
64
  3
Solid line
 72
65
 73
0
 40
0.0
  0
LTYPE
  5
1F5
100
AcDbSymbolTableRecord
100
AcDbLinetypeTableRecord
  2
CENTER
 70
64
  3
____ _ ____ _ ____ _ ____ _ ____ _ ____ _ ____
 72
65
 73
4
 40
0.6
 49
0.375
 74
0
 49
-0.075
 74
0
 49
0.075
 74
0
 49
-0.075
 74
0
  0
LTYPE
  5
1F6
100
AcDbSymbolTableRecord
100
AcDbLinetypeTableRecord
  2
HIDDEN
 70
64
  3
- - - - - - - - - - - - - - - - - - - -
 72
65
 73
2
 40
0.2
 49
0.1
 74
0
 49
-0.1
 74
0
  0
LTYPE
  5
1F7
100
AcDbSymbolTableRecord
100
AcDbLinetypeTableRecord
  2
PHANTOM
 70
64
  3
_____ _ _ _____ _ _ _____ _ _ _____
 72
65
 73
6
 40
0.8
 49
0.45
 74
0
 49
-0.05
 74
0
 49
0.1
 74
0
 49
-0.05
 74
0
 49
0.1
 74
0
 49
-0.05
 74
0
  0
LTYPE
  5
1F8
100
AcDbSymbolTableRecord
100
AcDbLinetypeTableRecord
  2
DOT
 70
64
  3
. . . . . . . . . . . . . . . . . . . .
 72
65
 73
2
 40
0.2
 49
0.1
 74
0
 49
-0.1
 74
0
  0
LTYPE
  5
1F9
100
AcDbSymbolTableRecord
100
AcDbLinetypeTableRecord
  2
DASHED
 70
64
  3
- - - - - - - - - - - - - - - - - - - -
 72
65
 73
2
 40
0.2
 49
0.1
 74
0
 49
-0.1
 74
0
  0
ENDTAB
  0
TABLE
  2
LAYER
  5
2
100
AcDbSymbolTable
 70
36
  0
LAYER
  5
10
100
AcDbSymbolTableRecord
100
AcDbLayerTableRecord
  2
0
 70
0
 62
7
  6
CONTINUOUS
370
-3
390
F
  0
LAYER
  5
1FA
100
AcDbSymbolTableRecord
100
AcDbLayerTableRecord
  2
DEFAULT_1
 70
0
 62
7
  6
CENTER
370
-3
390
F
  0
LAYER
  5
1FB
100
AcDbSymbolTableRecord
100
AcDbLayerTableRecord
  2
DEFAULT_2
 70
0
 62
8
  6
HIDDEN
370
-3
390
F
  0
LAYER
  5
1FC
100
AcDbSymbolTableRecord
100
AcDbLayerTableRecord
  2
DEFAULT_3
 70
0
 62
7
  6
PHANTOM
370
-3
390
F
  0
LAYER
  5
1FD
100
AcDbSymbolTableRecord
100
AcDbLayerTableRecord
  2
2-127_ASSY_PLANES
 70
0
 62
7
  6
CONTINUOUS
370
-3
390
F
  0
LAYER
  5
1FE
100
AcDbSymbolTableRecord
100
AcDbLayerTableRecord
  2
ALL_ASSEMBLY_MEMBERS
 70
0
 62
7
  6
CONTINUOUS
370
-3
390
F
  0
LAYER
  5
1FF
100
AcDbSymbolTableRecord
100
AcDbLayerTableRecord
  2
ALL_FEATURES
 70
0
 62
7
  6
CONTINUOUS
370
-3
390
F
  0
LAYER
  5
200
100
AcDbSymbolTableRecord
100
AcDbLayerTableRecord
  2
AXES_FEATURES
 70
0
 62
7
  6
CONTINUOUS
370
-3
390
F
  0
LAYER
  5
201
100
AcDbSymbolTableRecord
100
AcDbLayerTableRecord
  2
CHAMFER_FEATURES
 70
0
 62
7
  6
CONTINUOUS
370
-3
390
F
  0
LAYER
  5
202
100
AcDbSymbolTableRecord
100
AcDbLayerTableRecord
  2
CURVE
 70
0
 62
7
  6
CONTINUOUS
370
-3
390
F
  0
LAYER
  5
203
100
AcDbSymbolTableRecord
100
AcDbLayerTableRecord
  2
CUT_FEATURES
 70
0
 62
7
  6
CONTINUOUS
370
-3
390
F
  0
LAYER
  5
204
100
AcDbSymbolTableRecord
100
AcDbLayerTableRecord
  2
DATUM_CURVES
 70
0
 62
7
  6
CONTINUOUS
370
-3
390
F
  0
LAYER
  5
205
100
AcDbSymbolTableRecord
100
AcDbLayerTableRecord
  2
DATUM_PLANES
 70
0
 62
7
  6
CONTINUOUS
370
-3
390
F
  0
LAYER
  5
206
100
AcDbSymbolTableRecord
100
AcDbLayerTableRecord
  2
DEFAULT_COORDINATE_SYSTEM
 70
0
 62
7
  6
CONTINUOUS
370
-3
390
F
  0
LAYER
  5
207
100
AcDbSymbolTableRecord
100
AcDbLayerTableRecord
  2
DEFAULT_DATUM_AXES
 70
0
 62
7
  6
CONTINUOUS
370
-3
390
F
  0
LAYER
  5
208
100
AcDbSymbolTableRecord
100
AcDbLayerTableRecord
  2
DEFAULT_DATUM_CURVES
 70
0
 62
7
  6
CONTINUOUS
370
-3
390
F
  0
LAYER
  5
209
100
AcDbSymbolTableRecord
100
AcDbLayerTableRecord
  2
DEFAULT_DATUM_PLANES
 70
0
 62
7
  6
CONTINUOUS
370
-3
390
F
  0
LAYER
  5
20A
100
AcDbSymbolTableRecord
100
AcDbLayerTableRecord
  2
DEFAULT_SURFACES
 70
0
 62
7
  6
CONTINUOUS
370
-3
390
F
  0
LAYER
  5
20B
100
AcDbSymbolTableRecord
100
AcDbLayerTableRecord
  2
DIMENSIONS
 70
0
 62
7
  6
CONTINUOUS
370
-3
390
F
  0
LAYER
  5
20C
100
AcDbSymbolTableRecord
100
AcDbLayerTableRecord
  2
HOLE_FEATURES
 70
0
 62
7
  6
CONTINUOUS
370
-3
390
F
  0
LAYER
  5
20D
100
AcDbSymbolTableRecord
100
AcDbLayerTableRecord
  2
NONE
 70
0
 62
7
  6
CONTINUOUS
370
-3
390
F
  0
LAYER
  5
20E
100
AcDbSymbolTableRecord
100
AcDbLayerTableRecord
  2
PART_REFERENCE_DIMENSIONS
 70
0
 62
7
  6
CONTINUOUS
370
-3
390
F
  0
LAYER
  5
20F
100
AcDbSymbolTableRecord
100
AcDbLayerTableRecord
  2
PROTRUSION_FEATURES
 70
0
 62
7
  6
CONTINUOUS
370
-3
390
F
  0
LAYER
  5
210
100
AcDbSymbolTableRecord
100
AcDbLayerTableRecord
  2
QUILTS
 70
0
 62
7
  6
CONTINUOUS
370
-3
390
F
  0
LAYER
  5
211
100
AcDbSymbolTableRecord
100
AcDbLayerTableRecord
  2
REFERENCE_DIMENSIONS
 70
0
 62
7
  6
CONTINUOUS
370
-3
390
F
  0
LAYER
  5
212
100
AcDbSymbolTableRecord
100
AcDbLayerTableRecord
  2
ROUND_FEATURES
 70
0
 62
7
  6
CONTINUOUS
370
-3
390
F
  0
LAYER
  5
213
100
AcDbSymbolTableRecord
100
AcDbLayerTableRecord
  2
SIZE_REF
 70
0
 62
7
  6
CONTINUOUS
370
-3
390
F
  0
LAYER
  5
214
100
AcDbSymbolTableRecord
100
AcDbLayerTableRecord
  2
WETTED_SURFACES
 70
0
 62
7
  6
CONTINUOUS
370
-3
390
F
  0
LAYER
  5
215
100
AcDbSymbolTableRecord
100
AcDbLayerTableRecord
  2
WETTED_SURFACE_AREA
 70
0
 62
7
  6
CONTINUOUS
370
-3
390
F
  0
LAYER
  5
216
100
AcDbSymbolTableRecord
100
AcDbLayerTableRecord
  2
XSEC_DATUMS
 70
0
 62
7
  6
CONTINUOUS
370
-3
390
F
  0
ENDTAB
  0
TABLE
  2
STYLE
  5
3
100
AcDbSymbolTable
 70
1
  0
STYLE
  5
11
100
AcDbSymbolTableRecord
100
AcDbTextStyleTableRecord
  2
STANDARD
 70
0
 40
0.0
 41
0.8
 50
0.0
 71
0
 42
0.2
  3
txt
  4

  0
STYLE
  5
217
100
AcDbSymbolTableRecord
100
AcDbTextStyleTableRecord
  2
TEXTSTYLE_1
 70
0
 40
0.0
 41
0.8
 50
0.0
 71
0
 42
0.2
  3
gdt
  4

  0
ENDTAB
  0
TABLE
  2
VIEW
  5
6
100
AcDbSymbolTable
 70
0
  0
ENDTAB
  0
TABLE
  2
UCS
  5
7
100
AcDbSymbolTable
 70
0
  0
ENDTAB
  0
TABLE
  2
APPID
  5
9
100
AcDbSymbolTable
 70
1
  0
APPID
  5
218
100
AcDbSymbolTableRecord
100
AcDbRegAppTableRecord
  2
ACAD
 70
0
  0
ENDTAB
  0
TABLE
  2
BLOCK_RECORD
  5
1
100
AcDbSymbolTable
 70
0
  0
BLOCK_RECORD
  5
219
100
AcDbSymbolTableRecord
100
AcDbBlockTableRecord
  2
*Model_Space
  0
BLOCK_RECORD
  5
21A
100
AcDbSymbolTableRecord
100
AcDbBlockTableRecord
  2
*Paper_Space
  0
BLOCK_RECORD
  5
21B
100
AcDbSymbolTableRecord
100
AcDbBlockTableRecord
  2
_FILLED
  0
ENDTAB
  0
TABLE
  2
DIMSTYLE
  5
A
100
AcDbSymbolTable
 70
1
100
AcDbDimStyleTable
 71
0
  0
DIMSTYLE
105
21C
100
AcDbSymbolTableRecord
100
AcDbDimStyleTableRecord
  2
STANDARD
 70
0
  3

  4

 40
1.0
 41
0.1
 42
0.0625
 43
0.38
 44
0.125
 45
0.0
 46
0.0
 47
0.001
 48
0.001
140
0.08
141
0.09
142
0.0
143
25.4
144
1.0
145
0.0
146
1.0
147
0.09
 71
1.0
 72
0.0
 73
1
 74
1
 75
0
 76
0
 77
0
 78
4
 79
1
170
1
171
2
172
0
173
0
174
0
175
0
176
0
177
0
178
0
270
2
179
3
271
3
272
3
273
2
274
2
275
0
280
0
281
0
282
0
283
1
284
4
285
0
286
0
287
3
288
0
340
11
278
46
341
21B
342
21B
343
21B
344
21B
  0
ENDTAB
  0
ENDSEC
  0
SECTION
  2
BLOCKS
  0
BLOCK
  5
20
100
AcDbEntity
  8
0
100
AcDbBlockBegin
  2
*Model_Space
 70
0
 10
0.0
 20
0.0
 30
0.0
  3
*Model_Space
  1

  0
ENDBLK
  5
21
100
AcDbEntity
  8
0
100
AcDbBlockEnd
  0
BLOCK
  5
1C
100
AcDbEntity
  8
0
100
AcDbBlockBegin
  2
*Paper_Space
 70
0
 10
0.0
 20
0.0
 30
0.0
  3
*Paper_Space
  1

  0
ENDBLK
  5
1D
100
AcDbEntity
  8
0
100
AcDbBlockEnd
  0
BLOCK
  5
21D
100
AcDbEntity
  8
0
100
AcDbBlockBegin
  2
_FILLED
 70
64
 10
0.0
 20
0.0
  3
_FILLED
  1

  0
SOLID
  5
21E
100
AcDbEntity
  8
0
  6
BYBLOCK
 62
0
100
AcDbTrace
 10
0.0
 20
0.0
 11
-1.0
 21
0.2
 12
-1.0
 22
-0.2
 13
-1.0
 23
-0.2
  0
ENDBLK
  5
21F
100
AcDbEntity
  8
0
  6
BYBLOCK
 62
0
100
AcDbBlockEnd
  0
ENDSEC
  0
SECTION
  2
ENTITIES
  0
MTEXT
  5
220
100
AcDbEntity
  8
0
100
AcDbMText
 62
2
  6
CONTINUOUS
  7
STANDARD
 71
3
 72
1
 10
2.819390528
 20
0.6146276045
 30
0.0
 11
1.0
 21
0.0
 31
0.0
 73
2
 44
0.9
  1
SCALE  .500
 40
0.08
 41
0.704
  0
LINE
  5
221
100
AcDbEntity
  8
0
100
AcDbLine
 62
7
  6
CONTINUOUS
 10
0.0
 20
0.0
 11
0.0
 21
8.5
  0
LINE
  5
222
100
AcDbEntity
  8
0
100
AcDbLine
 62
7
  6
CONTINUOUS
 10
0.0
 20
0.0
 11
11.0
 21
0.0
  0
LINE
  5
223
100
AcDbEntity
  8
0
100
AcDbLine
 62
7
  6
CONTINUOUS
 10
0.0
 20
8.5
 11
11.0
 21
8.5
  0
LINE
  5
224
100
AcDbEntity
  8
0
100
AcDbLine
 62
7
  6
CONTINUOUS
 10
11.0
 20
0.0
 11
11.0
 21
8.5
  0
LINE
  5
225
100
AcDbEntity
  8
0
100
AcDbLine
 62
7
  6
CONTINUOUS
 10
1.8470861801
 20
5.2508040726
 11
1.8470861801
 21
5.0308040726
  0
LINE
  5
226
100
AcDbEntity
  8
0
100
AcDbLine
 62
7
  6
CONTINUOUS
 10
1.8595861801
 20
5.2508040726
 11
1.8595861801
 21
5.0308040726
  0
LINE
  5
227
100
AcDbEntity
  8
0
100
AcDbLine
 62
7
  6
CONTINUOUS
 10
1.8845861801
 20
5.0308040726
 11
1.8845861801
 21
5.2508040726
  0
LINE
  5
228
100
AcDbEntity
  8
0
100
AcDbLine
 62
7
  6
CONTINUOUS
 10
1.8970861801
 20
5.0308040726
 11
1.8970861801
 21
5.2508040726
  0
LINE
  5
229
100
AcDbEntity
  8
0
100
AcDbLine
 62
7
  6
CONTINUOUS
 10
1.9095861801
 20
5.2508040726
 11
1.9095861801
 21
5.0308040726
  0
LINE
  5
22A
100
AcDbEntity
  8
0
100
AcDbLine
 62
7
  6
CONTINUOUS
 10
1.9120861801
 20
5.2783040726
 11
1.9120861801
 21
5.2533040726
  0
LINE
  5
22B
100
AcDbEntity
  8
0
100
AcDbLine
 62
7
  6
CONTINUOUS
 10
1.9120861801
 20
4.9783040726
 11
1.9120861801
 21
4.9658040726
  0
LINE
  5
22C
100
AcDbEntity
  8
0
100
AcDbLine
 62
7
  6
CONTINUOUS
 10
1.9120861801
 20
5.0033040726
 11
1.9120861801
 21
5.0283040726
  0
LINE
  5
22D
100
AcDbEntity
  8
0
100
AcDbLine
 62
7
  6
CONTINUOUS
 10
1.9120861801
 20
5.3033040726
 11
1.9120861802
 21
5.3158040726
  0
LINE
  5
22E
100
AcDbEntity
  8
0
100
AcDbLine
 62
7
  6
CONTINUOUS
 10
2.7095861801
 20
6.5913040726
 11
2.7095861801
 21
6.5563040726
  0
LINE
  5
22F
100
AcDbEntity
  8
0
100
AcDbLine
 62
7
  6
CONTINUOUS
 10
2.7495861801
 20
6.5163040726
 11
2.7495861801
 21
6.4313040726
  0
LINE
  5
230
100
AcDbEntity
  8
0
100
AcDbLine
 62
7
  6
CONTINUOUS
 10
3.0010205746
 20
4.9658040726
 11
3.0010205746
 21
5.3158040726
  0
LINE
  5
231
100
AcDbEntity
  8
0
100
AcDbLine
 62
7
  6
CONTINUOUS
 10
3.0283361801
 20
6.3963040726
 11
3.0283361801
 21
5.3463040726
  0
LINE
  5
232
100
AcDbEntity
  8
0
100
AcDbLine
 62
7
  6
CONTINUOUS
 10
3.0595861801
 20
6.4113040726
 11
3.0595861801
 21
6.4163040726
  0
LINE
  5
233
100
AcDbEntity
  8
0
100
AcDbLine
 62
7
  6
CONTINUOUS
 10
3.0929072205
 20
4.9783040726
 11
3.0929072205
 21
5.0033040726
  0
LINE
  5
234
100
AcDbEntity
  8
0
100
AcDbLine
 62
7
  6
CONTINUOUS
 10
3.0929072205
 20
5.2783040726
 11
3.0929072205
 21
5.3033040726
  0
LINE
  5
235
100
AcDbEntity
  8
0
100
AcDbLine
 62
7
  6
CONTINUOUS
 10
3.1296618789
 20
5.2533040726
 11
3.1296618789
 21
5.0283040726
  0
LINE
  5
236
100
AcDbEntity
  8
ALL_FEATURES
100
AcDbLine
 62
7
  6
CONTINUOUS
 10
3.1455861801
 20
5.3313040726
 11
3.1455861801
 21
5.3158040726
  0
LINE
  5
237
100
AcDbEntity
  8
ALL_FEATURES
100
AcDbLine
 62
7
  6
CONTINUOUS
 10
3.3985861801
 20
5.3313040726
 11
3.3985861801
 21
5.3158040726
  0
LINE
  5
238
100
AcDbEntity
  8
0
100
AcDbLine
 62
7
  6
CONTINUOUS
 10
3.4614270818
 20
5.0658040726
 11
3.4614270818
 21
5.2158040726
  0
LINE
  5
239
100
AcDbEntity
  8
0
100
AcDbLine
 62
7
  6
CONTINUOUS
 10
3.4736426238
 20
5.0658040726
 11
3.4736426238
 21
5.2158040726
  0
LINE
  5
23A
100
AcDbEntity
  8
0
100
AcDbLine
 62
7
  6
CONTINUOUS
 10
3.4845861801
 20
6.4113040726
 11
3.4845861801
 21
6.4163040726
  0
LINE
  5
23B
100
AcDbEntity
  8
0
100
AcDbLine
 62
7
  6
CONTINUOUS
 10
3.5025747916
 20
5.2158040726
 11
3.5025747916
 21
5.0658040726
  0
LINE
  5
23C
100
AcDbEntity
  8
0
100
AcDbLine
 62
7
  6
CONTINUOUS
 10
3.5150336354
 20
5.2158040726
 11
3.5150336354
 21
5.0658040726
  0
LINE
  5
23D
100
AcDbEntity
  8
0
100
AcDbLine
 62
7
  6
CONTINUOUS
 10
3.5158361801
 20
6.3963040726
 11
3.5158361801
 21
5.3463040726
  0
LINE
  5
23E
100
AcDbEntity
  8
0
100
AcDbLine
 62
7
  6
CONTINUOUS
 10
3.5158361801
 20
4.9783040726
 11
3.5158361801
 21
5.3033040726
  0
LINE
  5
23F
100
AcDbEntity
  8
0
100
AcDbLine
 62
7
  6
CONTINUOUS
 10
3.7945861801
 20
6.5163040726
 11
3.7945861801
 21
6.4313040726
  0
LINE
  5
240
100
AcDbEntity
  8
0
100
AcDbLine
 62
7
  6
CONTINUOUS
 10
3.8345861801
 20
6.5913040726
 11
3.8345861801
 21
6.5563040726
  0
LINE
  5
241
100
AcDbEntity
  8
0
100
AcDbLine
 62
7
  6
CONTINUOUS
 10
4.9155151123
 20
5.3117330047
 11
4.917257753
 21
5.3134756454
  0
LINE
  5
242
100
AcDbEntity
  8
0
100
AcDbLine
 62
7
  6
CONTINUOUS
 10
5.4593361801
 20
3.4663040726
 11
5.0218361801
 21
3.4663040726
  0
LINE
  5
243
100
AcDbEntity
  8
0
100
AcDbLine
 62
7
  6
CONTINUOUS
 10
4.6780861801
 20
6.5913040726
 11
4.6780861801
 21
6.5538040726
  0
LINE
  5
244
100
AcDbEntity
  8
0
100
AcDbLine
 62
7
  6
CONTINUOUS
 10
4.7180861801
 20
6.5163040726
 11
4.7180861801
 21
6.4288040726
  0
LINE
  5
245
100
AcDbEntity
  8
0
100
AcDbLine
 62
7
  6
CONTINUOUS
 10
4.9125861801
 20
6.4163040726
 11
4.9125861801
 21
5.3279462082
  0
LINE
  5
246
100
AcDbEntity
  8
0
100
AcDbLine
 62
7
  6
CONTINUOUS
 10
4.9125861801
 20
5.3046619369
 11
4.9125861801
 21
5.2763040726
  0
LINE
  5
247
100
AcDbEntity
  8
0
100
AcDbLine
 62
7
  6
CONTINUOUS
 10
4.9555861801
 20
5.0063040726
 11
4.9555861801
 21
4.9763040726
  0
LINE
  5
248
100
AcDbEntity
  8
0
100
AcDbLine
 62
7
  6
CONTINUOUS
 10
4.9755861801
 20
5.2563040726
 11
4.9755861801
 21
5.0263040726
  0
LINE
  5
249
100
AcDbEntity
  8
0
100
AcDbLine
 62
7
  6
CONTINUOUS
 10
5.5639146072
 20
5.3191324997
 11
5.5656572479
 21
5.3208751404
  0
LINE
  5
24A
100
AcDbEntity
  8
0
100
AcDbLine
 62
7
  6
CONTINUOUS
 10
5.0218361801
 20
4.9663040726
 11
5.0218361801
 21
2.4663040726
  0
LINE
  5
24B
100
AcDbEntity
  8
0
100
AcDbLine
 62
7
  6
CONTINUOUS
 10
5.4593361801
 20
4.9663040726
 11
5.4593361801
 21
2.4663040726
  0
LINE
  5
24C
100
AcDbEntity
  8
0
100
AcDbLine
 62
7
  6
CONTINUOUS
 10
5.5055861801
 20
5.2563040726
 11
5.5055861801
 21
5.0263040726
  0
LINE
  5
24D
100
AcDbEntity
  8
0
100
AcDbLine
 62
7
  6
CONTINUOUS
 10
5.5255861801
 20
5.0063040726
 11
5.5255861801
 21
4.9763040726
  0
LINE
  5
24E
100
AcDbEntity
  8
0
100
AcDbLine
 62
7
  6
CONTINUOUS
 10
5.5685861801
 20
6.4163040726
 11
5.5685861801
 21
5.3279462082
  0
LINE
  5
24F
100
AcDbEntity
  8
0
100
AcDbLine
 62
7
  6
CONTINUOUS
 10
5.5685861801
 20
5.3046619369
 11
5.5685861801
 21
5.2763040726
  0
LINE
  5
250
100
AcDbEntity
  8
0
100
AcDbLine
 62
7
  6
CONTINUOUS
 10
5.7630861801
 20
6.5163040726
 11
5.7630861801
 21
6.4288040726
  0
LINE
  5
251
100
AcDbEntity
  8
0
100
AcDbLine
 62
7
  6
CONTINUOUS
 10
5.8030861801
 20
6.5913040726
 11
5.8030861801
 21
6.5538040726
  0
LINE
  5
252
100
AcDbEntity
  8
0
100
AcDbLine
 62
7
  6
CONTINUOUS
 10
1.9120861801
 20
4.9658040726
 11
3.5033361801
 21
4.9658040726
  0
LINE
  5
253
100
AcDbEntity
  8
0
100
AcDbLine
 62
7
  6
CONTINUOUS
 10
6.9778361801
 20
4.9658040726
 11
8.5690861801
 21
4.9658040726
  0
LINE
  5
254
100
AcDbEntity
  8
0
100
AcDbLine
 62
7
  6
CONTINUOUS
 10
5.5155861801
 20
4.9663040726
 11
4.9655861801
 21
4.9663040726
  0
LINE
  5
255
100
AcDbEntity
  8
0
100
AcDbLine
 62
7
  6
CONTINUOUS
 10
4.917257753
 20
5.3191324997
 11
4.9155151123
 21
5.3208751404
  0
LINE
  5
256
100
AcDbEntity
  8
0
100
AcDbLine
 62
7
  6
CONTINUOUS
 10
5.5255861801
 20
4.9763040726
 11
4.9555861801
 21
4.9763040726
  0
LINE
  5
257
100
AcDbEntity
  8
0
100
AcDbLine
 62
7
  6
CONTINUOUS
 10
1.9120861801
 20
4.9783040726
 11
3.5158361801
 21
4.9783040726
  0
LINE
  5
258
100
AcDbEntity
  8
0
100
AcDbLine
 62
7
  6
CONTINUOUS
 10
6.9653361801
 20
4.9783040726
 11
8.5690861801
 21
4.9783040726
  0
LINE
  5
259
100
AcDbEntity
  8
0
100
AcDbLine
 62
7
  6
CONTINUOUS
 10
8.5690861801
 20
5.0033040726
 11
6.9808767832
 21
5.0033040726
  0
LINE
  5
25A
100
AcDbEntity
  8
0
100
AcDbLine
 62
7
  6
CONTINUOUS
 10
3.5002955771
 20
5.0033040726
 11
1.9120861801
 21
5.0033040726
  0
LINE
  5
25B
100
AcDbEntity
  8
0
100
AcDbLine
 62
7
  6
CONTINUOUS
 10
5.5255861801
 20
5.0063040726
 11
4.9555861801
 21
5.0063040726
  0
LINE
  5
25C
100
AcDbEntity
  8
0
100
AcDbLine
 62
7
  6
CONTINUOUS
 10
8.5690861801
 20
5.0158040726
 11
6.9925798292
 21
5.0158040726
  0
LINE
  5
25D
100
AcDbEntity
  8
0
100
AcDbLine
 62
7
  6
CONTINUOUS
 10
3.4885925311
 20
5.0158040726
 11
1.9120861801
 21
5.0158040726
  0
LINE
  5
25E
100
AcDbEntity
  8
0
100
AcDbLine
 62
7
  6
CONTINUOUS
 10
5.5155861801
 20
5.0163040726
 11
4.9655861801
 21
5.0163040726
  0
LINE
  5
25F
100
AcDbEntity
  8
0
100
AcDbLine
 62
7
  6
CONTINUOUS
 10
4.9755861801
 20
5.0263040726
 11
5.5055861801
 21
5.0263040726
  0
LINE
  5
260
100
AcDbEntity
  8
0
100
AcDbLine
 62
7
  6
CONTINUOUS
 10
1.9120861801
 20
5.0283040726
 11
3.450168861
 21
5.0283040726
  0
LINE
  5
261
100
AcDbEntity
  8
0
100
AcDbLine
 62
7
  6
CONTINUOUS
 10
7.0310034992
 20
5.0283040726
 11
8.5690861801
 21
5.0283040726
  0
LINE
  5
262
100
AcDbEntity
  8
0
100
AcDbLine
 62
7
  6
CONTINUOUS
 10
1.8595861801
 20
5.0308040726
 11
1.8470861801
 21
5.0308040727
  0
LINE
  5
263
100
AcDbEntity
  8
0
100
AcDbLine
 62
7
  6
CONTINUOUS
 10
8.5965861801
 20
5.0308040726
 11
8.5715861801
 21
5.0308040726
  0
LINE
  5
264
100
AcDbEntity
  8
0
100
AcDbLine
 62
7
  6
CONTINUOUS
 10
1.8845861801
 20
5.0308040726
 11
1.9095861801
 21
5.0308040726
  0
LINE
  5
265
100
AcDbEntity
  8
0
100
AcDbLine
 62
7
  6
CONTINUOUS
 10
8.6215861801
 20
5.0308040726
 11
8.6340861801
 21
5.0308040726
  0
LINE
  5
266
100
AcDbEntity
  8
0
100
AcDbLine
 62
7
  6
CONTINUOUS
 10
3.4614270818
 20
5.0658040726
 11
3.5150336354
 21
5.0658040726
  0
LINE
  5
267
100
AcDbEntity
  8
0
100
AcDbLine
 62
7
  6
CONTINUOUS
 10
6.9661387248
 20
5.0658040726
 11
7.0197452785
 21
5.0658040726
  0
LINE
  5
268
100
AcDbEntity
  8
0
100
AcDbLine
 62
7
  6
CONTINUOUS
 10
3.5150336354
 20
5.2158040726
 11
3.4614270818
 21
5.2158040726
  0
LINE
  5
269
100
AcDbEntity
  8
0
100
AcDbLine
 62
7
  6
CONTINUOUS
 10
6.9661387248
 20
5.2158040726
 11
7.0197452785
 21
5.2158040726
  0
LINE
  5
26A
100
AcDbEntity
  8
0
100
AcDbLine
 62
7
  6
CONTINUOUS
 10
8.5965861801
 20
5.2508040726
 11
8.5715861801
 21
5.2508040726
  0
LINE
  5
26B
100
AcDbEntity
  8
0
100
AcDbLine
 62
7
  6
CONTINUOUS
 10
1.8595861801
 20
5.2508040726
 11
1.8470861801
 21
5.2508040726
  0
LINE
  5
26C
100
AcDbEntity
  8
0
100
AcDbLine
 62
7
  6
CONTINUOUS
 10
1.8845861801
 20
5.2508040726
 11
1.9095861801
 21
5.2508040726
  0
LINE
  5
26D
100
AcDbEntity
  8
0
100
AcDbLine
 62
7
  6
CONTINUOUS
 10
8.6215861801
 20
5.2508040726
 11
8.6340861801
 21
5.2508040724
  0
LINE
  5
26E
100
AcDbEntity
  8
0
100
AcDbLine
 62
7
  6
CONTINUOUS
 10
8.5690861801
 20
5.2533040726
 11
7.0310034992
 21
5.2533040726
  0
LINE
  5
26F
100
AcDbEntity
  8
0
100
AcDbLine
 62
7
  6
CONTINUOUS
 10
3.450168861
 20
5.2533040726
 11
1.9120861801
 21
5.2533040726
  0
LINE
  5
270
100
AcDbEntity
  8
0
100
AcDbLine
 62
7
  6
CONTINUOUS
 10
4.9755861801
 20
5.2563040726
 11
5.5055861801
 21
5.2563040726
  0
LINE
  5
271
100
AcDbEntity
  8
0
100
AcDbLine
 62
7
  6
CONTINUOUS
 10
1.9120861801
 20
5.2658040726
 11
3.4885925311
 21
5.2658040726
  0
LINE
  5
272
100
AcDbEntity
  8
0
100
AcDbLine
 62
7
  6
CONTINUOUS
 10
6.9925798292
 20
5.2658040726
 11
8.5690861801
 21
5.2658040726
  0
LINE
  5
273
100
AcDbEntity
  8
0
100
AcDbLine
 62
7
  6
CONTINUOUS
 10
5.5585861801
 20
5.2663040726
 11
4.9225861801
 21
5.2663040726
  0
LINE
  5
274
100
AcDbEntity
  8
0
100
AcDbLine
 62
7
  6
CONTINUOUS
 10
5.5685861801
 20
5.2763040726
 11
4.9125861801
 21
5.2763040726
  0
LINE
  5
275
100
AcDbEntity
  8
0
100
AcDbLine
 62
7
  6
CONTINUOUS
 10
1.9120861801
 20
5.2783040726
 11
3.5002955771
 21
5.2783040726
  0
LINE
  5
276
100
AcDbEntity
  8
0
100
AcDbLine
 62
7
  6
CONTINUOUS
 10
6.9808767832
 20
5.2783040726
 11
8.5690861801
 21
5.2783040726
  0
LINE
  5
277
100
AcDbEntity
  8
0
100
AcDbLine
 62
7
  6
CONTINUOUS
 10
8.5690861801
 20
5.3033040726
 11
6.9653361801
 21
5.3033040726
  0
LINE
  5
278
100
AcDbEntity
  8
0
100
AcDbLine
 62
7
  6
CONTINUOUS
 10
3.5158361801
 20
5.3033040726
 11
1.9120861801
 21
5.3033040726
  0
LINE
  5
279
100
AcDbEntity
  8
0
100
AcDbLine
 62
7
  6
CONTINUOUS
 10
5.5685861801
 20
5.3046619369
 11
4.9125861801
 21
5.3046619369
  0
LINE
  5
27A
100
AcDbEntity
  8
0
100
AcDbLine
 62
7
  6
CONTINUOUS
 10
5.5656572479
 20
5.3117330047
 11
4.9155151123
 21
5.3117330047
  0
LINE
  5
27B
100
AcDbEntity
  8
0
100
AcDbLine
 62
7
  6
CONTINUOUS
 10
5.5639146072
 20
5.3134756454
 11
4.917257753
 21
5.3134756454
  0
LINE
  5
27C
100
AcDbEntity
  8
0
100
AcDbLine
 62
7
  6
CONTINUOUS
 10
8.5690861801
 20
5.3158040726
 11
6.9778361801
 21
5.3158040726
  0
LINE
  5
27D
100
AcDbEntity
  8
0
100
AcDbLine
 62
7
  6
CONTINUOUS
 10
3.5033361801
 20
5.3158040726
 11
1.9120861801
 21
5.3158040726
  0
LINE
  5
27E
100
AcDbEntity
  8
0
100
AcDbLine
 62
7
  6
CONTINUOUS
 10
5.5639146072
 20
5.3191324997
 11
4.917257753
 21
5.3191324997
  0
LINE
  5
27F
100
AcDbEntity
  8
0
100
AcDbLine
 62
7
  6
CONTINUOUS
 10
4.9155151123
 20
5.3208751404
 11
5.5656572479
 21
5.3208751404
  0
LINE
  5
280
100
AcDbEntity
  8
0
100
AcDbLine
 62
7
  6
CONTINUOUS
 10
4.9125861801
 20
5.3279462082
 11
5.5685861801
 21
5.3279462082
  0
LINE
  5
281
100
AcDbEntity
  8
0
100
AcDbLine
 62
7
  6
CONTINUOUS
 10
7.4378361801
 20
5.3313040726
 11
6.9803361801
 21
5.3313040726
  0
LINE
  5
282
100
AcDbEntity
  8
0
100
AcDbLine
 62
7
  6
CONTINUOUS
 10
3.5008361801
 20
5.3313040726
 11
3.0433361801
 21
5.3313040726
  0
LINE
  5
283
100
AcDbEntity
  8
0
100
AcDbLine
 62
7
  6
CONTINUOUS
 10
7.4528361801
 20
5.3463040726
 11
6.9653361801
 21
5.3463040726
  0
LINE
  5
284
100
AcDbEntity
  8
0
100
AcDbLine
 62
7
  6
CONTINUOUS
 10
3.5158361801
 20
5.3463040726
 11
3.0283361801
 21
5.3463040726
  0
LINE
  5
285
100
AcDbEntity
  8
0
100
AcDbLine
 62
7
  6
CONTINUOUS
 10
5.5656572479
 20
5.3117330047
 11
5.5639146072
 21
5.3134756454
  0
LINE
  5
286
100
AcDbEntity
  8
0
100
AcDbLine
 62
7
  6
CONTINUOUS
 10
6.6465861801
 20
6.5913040726
 11
6.6465861801
 21
6.5563040726
  0
LINE
  5
287
100
AcDbEntity
  8
0
100
AcDbLine
 62
7
  6
CONTINUOUS
 10
6.6865861801
 20
6.5163040726
 11
6.6865861801
 21
6.4313040726
  0
LINE
  5
288
100
AcDbEntity
  8
0
100
AcDbLine
 62
7
  6
CONTINUOUS
 10
6.9653361801
 20
6.3963040726
 11
6.9653361801
 21
5.3463040726
  0
LINE
  5
289
100
AcDbEntity
  8
0
100
AcDbLine
 62
7
  6
CONTINUOUS
 10
6.9653361801
 20
4.9783040726
 11
6.9653361801
 21
5.3033040726
  0
LINE
  5
28A
100
AcDbEntity
  8
0
100
AcDbLine
 62
7
  6
CONTINUOUS
 10
6.9661387248
 20
5.0658040726
 11
6.9661387248
 21
5.2158040726
  0
LINE
  5
28B
100
AcDbEntity
  8
0
100
AcDbLine
 62
7
  6
CONTINUOUS
 10
6.9785975687
 20
5.0658040726
 11
6.9785975687
 21
5.2158040726
  0
LINE
  5
28C
100
AcDbEntity
  8
0
100
AcDbLine
 62
7
  6
CONTINUOUS
 10
6.9965861801
 20
6.4113040726
 11
6.9965861801
 21
6.4163040726
  0
LINE
  5
28D
100
AcDbEntity
  8
0
100
AcDbLine
 62
7
  6
CONTINUOUS
 10
7.0075297364
 20
5.2158040726
 11
7.0075297364
 21
5.0658040726
  0
LINE
  5
28E
100
AcDbEntity
  8
0
100
AcDbLine
 62
7
  6
CONTINUOUS
 10
7.0197452785
 20
5.2158040726
 11
7.0197452785
 21
5.0658040726
  0
LINE
  5
28F
100
AcDbEntity
  8
ALL_FEATURES
100
AcDbLine
 62
7
  6
CONTINUOUS
 10
7.0825861801
 20
5.3313040726
 11
7.0825861801
 21
5.3158040726
  0
LINE
  5
290
100
AcDbEntity
  8
ALL_FEATURES
100
AcDbLine
 62
7
  6
CONTINUOUS
 10
7.3355861801
 20
5.3313040726
 11
7.3355861801
 21
5.3158040726
  0
LINE
  5
291
100
AcDbEntity
  8
0
100
AcDbLine
 62
7
  6
CONTINUOUS
 10
7.3515104813
 20
5.2533040726
 11
7.3515104813
 21
5.0283040726
  0
LINE
  5
292
100
AcDbEntity
  8
0
100
AcDbLine
 62
7
  6
CONTINUOUS
 10
7.3882651397
 20
5.3033040726
 11
7.3882651397
 21
5.2783040726
  0
LINE
  5
293
100
AcDbEntity
  8
0
100
AcDbLine
 62
7
  6
CONTINUOUS
 10
7.3882651397
 20
5.0033040726
 11
7.3882651397
 21
4.9783040726
  0
LINE
  5
294
100
AcDbEntity
  8
0
100
AcDbLine
 62
7
  6
CONTINUOUS
 10
7.4215861801
 20
6.4113040726
 11
7.4215861801
 21
6.4163040726
  0
LINE
  5
295
100
AcDbEntity
  8
0
100
AcDbLine
 62
7
  6
CONTINUOUS
 10
7.4528361801
 20
6.3963040726
 11
6.9653361801
 21
6.3963040726
  0
LINE
  5
296
100
AcDbEntity
  8
0
100
AcDbLine
 62
7
  6
CONTINUOUS
 10
3.5158361801
 20
6.3963040726
 11
3.0283361801
 21
6.3963040726
  0
LINE
  5
297
100
AcDbEntity
  8
0
100
AcDbLine
 62
7
  6
CONTINUOUS
 10
7.4378361801
 20
6.4113040726
 11
6.9803361801
 21
6.4113040726
  0
LINE
  5
298
100
AcDbEntity
  8
0
100
AcDbLine
 62
7
  6
CONTINUOUS
 10
3.5008361801
 20
6.4113040726
 11
3.0433361801
 21
6.4113040726
  0
LINE
  5
299
100
AcDbEntity
  8
0
100
AcDbLine
 62
7
  6
CONTINUOUS
 10
7.7165861801
 20
6.4163040726
 11
6.7015861801
 21
6.4163040726
  0
LINE
  5
29A
100
AcDbEntity
  8
0
100
AcDbLine
 62
7
  6
CONTINUOUS
 10
5.7505861801
 20
6.4163040726
 11
4.7305861801
 21
6.4163040726
  0
LINE
  5
29B
100
AcDbEntity
  8
0
100
AcDbLine
 62
7
  6
CONTINUOUS
 10
3.7795861801
 20
6.4163040726
 11
2.7645861801
 21
6.4163040726
  0
LINE
  5
29C
100
AcDbEntity
  8
0
100
AcDbLine
 62
7
  6
CONTINUOUS
 10
5.7630861801
 20
6.4288040726
 11
4.7180861801
 21
6.4288040726
  0
LINE
  5
29D
100
AcDbEntity
  8
0
100
AcDbLine
 62
7
  6
CONTINUOUS
 10
7.7315861801
 20
6.4313040726
 11
6.6865861801
 21
6.4313040726
  0
LINE
  5
29E
100
AcDbEntity
  8
0
100
AcDbLine
 62
7
  6
CONTINUOUS
 10
3.7945861801
 20
6.4313040726
 11
2.7495861801
 21
6.4313040726
  0
LINE
  5
29F
100
AcDbEntity
  8
0
100
AcDbLine
 62
7
  6
CONTINUOUS
 10
2.7495861801
 20
6.5163040726
 11
3.7945861801
 21
6.5163040726
  0
LINE
  5
2A0
100
AcDbEntity
  8
0
100
AcDbLine
 62
7
  6
CONTINUOUS
 10
4.7180861801
 20
6.5163040726
 11
5.7630861801
 21
6.5163040726
  0
LINE
  5
2A1
100
AcDbEntity
  8
0
100
AcDbLine
 62
7
  6
CONTINUOUS
 10
6.6865861801
 20
6.5163040726
 11
7.7315861801
 21
6.5163040726
  0
LINE
  5
2A2
100
AcDbEntity
  8
0
100
AcDbLine
 62
7
  6
CONTINUOUS
 10
5.7905861801
 20
6.5413040726
 11
4.6905861801
 21
6.5413040726
  0
LINE
  5
2A3
100
AcDbEntity
  8
0
100
AcDbLine
 62
7
  6
CONTINUOUS
 10
2.7245861801
 20
6.5413040726
 11
3.8195861801
 21
6.5413040726
  0
LINE
  5
2A4
100
AcDbEntity
  8
0
100
AcDbLine
 62
7
  6
CONTINUOUS
 10
6.6615861801
 20
6.5413040726
 11
7.7565861801
 21
6.5413040726
  0
LINE
  5
2A5
100
AcDbEntity
  8
0
100
AcDbLine
 62
7
  6
CONTINUOUS
 10
5.8030861801
 20
6.5538040726
 11
4.6780861801
 21
6.5538040726
  0
LINE
  5
2A6
100
AcDbEntity
  8
0
100
AcDbLine
 62
7
  6
CONTINUOUS
 10
7.7715861801
 20
6.5563040726
 11
6.6465861801
 21
6.5563040726
  0
LINE
  5
2A7
100
AcDbEntity
  8
0
100
AcDbLine
 62
7
  6
CONTINUOUS
 10
3.8345861801
 20
6.5563040726
 11
2.7095861801
 21
6.5563040726
  0
LINE
  5
2A8
100
AcDbEntity
  8
0
100
AcDbLine
 62
7
  6
CONTINUOUS
 10
7.4528361801
 20
6.3963040726
 11
7.4528361801
 21
5.3463040726
  0
LINE
  5
2A9
100
AcDbEntity
  8
0
100
AcDbLine
 62
7
  6
CONTINUOUS
 10
7.4801517857
 20
4.9658040726
 11
7.4801517857
 21
5.3158040726
  0
LINE
  5
2AA
100
AcDbEntity
  8
0
100
AcDbLine
 62
7
  6
CONTINUOUS
 10
3.8345861801
 20
6.5913040726
 11
2.7095861801
 21
6.5913040726
  0
LINE
  5
2AB
100
AcDbEntity
  8
0
100
AcDbLine
 62
7
  6
CONTINUOUS
 10
4.6780861801
 20
6.5913040726
 11
5.8030861801
 21
6.5913040726
  0
LINE
  5
2AC
100
AcDbEntity
  8
0
100
AcDbLine
 62
7
  6
CONTINUOUS
 10
6.6465861801
 20
6.5913040726
 11
7.7715861801
 21
6.5913040726
  0
LINE
  5
2AD
100
AcDbEntity
  8
0
100
AcDbLine
 62
7
  6
CONTINUOUS
 10
7.7315861801
 20
6.5163040726
 11
7.7315861801
 21
6.4313040726
  0
LINE
  5
2AE
100
AcDbEntity
  8
0
100
AcDbLine
 62
7
  6
CONTINUOUS
 10
7.7715861801
 20
6.5913040726
 11
7.7715861801
 21
6.5563040726
  0
LINE
  5
2AF
100
AcDbEntity
  8
0
100
AcDbLine
 62
7
  6
CONTINUOUS
 10
8.5690861801
 20
5.2783040726
 11
8.5690861801
 21
5.2533040726
  0
LINE
  5
2B0
100
AcDbEntity
  8
0
100
AcDbLine
 62
7
  6
CONTINUOUS
 10
8.5690861801
 20
4.9783040726
 11
8.56908618
 21
4.9658040726
  0
LINE
  5
2B1
100
AcDbEntity
  8
0
100
AcDbLine
 62
7
  6
CONTINUOUS
 10
8.5690861801
 20
5.0033040726
 11
8.5690861801
 21
5.0283040726
  0
LINE
  5
2B2
100
AcDbEntity
  8
0
100
AcDbLine
 62
7
  6
CONTINUOUS
 10
8.5690861801
 20
5.3033040726
 11
8.5690861801
 21
5.3158040726
  0
LINE
  5
2B3
100
AcDbEntity
  8
0
100
AcDbLine
 62
7
  6
CONTINUOUS
 10
8.5715861801
 20
5.0308040726
 11
8.5715861801
 21
5.2508040726
  0
LINE
  5
2B4
100
AcDbEntity
  8
0
100
AcDbLine
 62
7
  6
CONTINUOUS
 10
8.5840861801
 20
5.2508040726
 11
8.5840861801
 21
5.0308040726
  0
LINE
  5
2B5
100
AcDbEntity
  8
0
100
AcDbLine
 62
7
  6
CONTINUOUS
 10
8.5965861801
 20
5.2508040726
 11
8.5965861801
 21
5.0308040726
  0
LINE
  5
2B6
100
AcDbEntity
  8
0
100
AcDbLine
 62
7
  6
CONTINUOUS
 10
8.6215861801
 20
5.0308040726
 11
8.6215861801
 21
5.2508040726
  0
LINE
  5
2B7
100
AcDbEntity
  8
0
100
AcDbLine
 62
7
  6
CONTINUOUS
 10
8.6340861801
 20
5.0308040726
 11
8.6340861801
 21
5.2508040726
  0
ARC
  5
2B8
100
AcDbEntity
  8
0
100
AcDbCircle
 62
7
  6
CONTINUOUS
 10
1.9120861801
 20
5.2508040726
 40
0.065
100
AcDbArc
 50
90.0
 51
180.0
  0
ARC
  5
2B9
100
AcDbEntity
  8
0
100
AcDbCircle
 62
7
  6
CONTINUOUS
 10
1.9120861801
 20
5.0308040726
 40
0.065
100
AcDbArc
 50
180.0
 51
270.0
  0
ARC
  5
2BA
100
AcDbEntity
  8
0
100
AcDbCircle
 62
7
  6
CONTINUOUS
 10
1.9120861801
 20
5.0308040726
 40
0.0525
100
AcDbArc
 50
180.0
 51
270.0
  0
ARC
  5
2BB
100
AcDbEntity
  8
0
100
AcDbCircle
 62
7
  6
CONTINUOUS
 10
1.9120861801
 20
5.2508040726
 40
0.0525
100
AcDbArc
 50
90.0
 51
180.0
  0
ARC
  5
2BC
100
AcDbEntity
  8
0
100
AcDbCircle
 62
7
  6
CONTINUOUS
 10
1.9120861801
 20
5.2508040726
 40
0.0275
100
AcDbArc
 50
90.0
 51
180.0
  0
ARC
  5
2BD
100
AcDbEntity
  8
0
100
AcDbCircle
 62
7
  6
CONTINUOUS
 10
1.9120861801
 20
5.0308040726
 40
0.0275
100
AcDbArc
 50
180.0
 51
270.0
  0
ARC
  5
2BE
100
AcDbEntity
  8
0
100
AcDbCircle
 62
7
  6
CONTINUOUS
 10
3.0433361801
 20
5.3463040726
 40
0.015
100
AcDbArc
 50
180.0
 51
270.0
  0
ARC
  5
2BF
100
AcDbEntity
  8
0
100
AcDbCircle
 62
7
  6
CONTINUOUS
 10
1.9120861801
 20
5.2508040726
 40
0.015
100
AcDbArc
 50
90.0
 51
180.0
  0
ARC
  5
2C0
100
AcDbEntity
  8
0
100
AcDbCircle
 62
7
  6
CONTINUOUS
 10
1.9120861801
 20
5.0308040726
 40
0.015
100
AcDbArc
 50
180.0
 51
270.0
  0
ARC
  5
2C1
100
AcDbEntity
  8
0
100
AcDbCircle
 62
7
  6
CONTINUOUS
 10
1.9120861801
 20
5.0308040726
 40
0.0025
100
AcDbArc
 50
180.0
 51
270.0
  0
ARC
  5
2C2
100
AcDbEntity
  8
0
100
AcDbCircle
 62
7
  6
CONTINUOUS
 10
1.9120861801
 20
5.2508040726
 40
0.0025
100
AcDbArc
 50
90.0
 51
180.0
  0
ARC
  5
2C3
100
AcDbEntity
  8
0
100
AcDbCircle
 62
7
  6
CONTINUOUS
 10
2.7245861801
 20
6.5163040726
 40
0.025
100
AcDbArc
 50
0.0
 51
90.0
  0
ARC
  5
2C4
100
AcDbEntity
  8
0
100
AcDbCircle
 62
7
  6
CONTINUOUS
 10
2.7245861801
 20
6.5563040726
 40
0.015
100
AcDbArc
 50
180.0
 51
270.0
  0
ARC
  5
2C5
100
AcDbEntity
  8
0
100
AcDbCircle
 62
7
  6
CONTINUOUS
 10
2.7645861801
 20
6.4313040726
 40
0.015
100
AcDbArc
 50
180.0
 51
270.0
  0
ARC
  5
2C6
100
AcDbEntity
  8
0
100
AcDbCircle
 62
7
  6
CONTINUOUS
 10
3.0433361801
 20
6.3963040726
 40
0.015
100
AcDbArc
 50
90.0
 51
180.0
  0
ARC
  5
2C7
100
AcDbEntity
  8
0
100
AcDbCircle
 62
7
  6
CONTINUOUS
 10
3.5008361801
 20
5.3463040726
 40
0.015
100
AcDbArc
 50
270.0
 51
360.0
  0
ARC
  5
2C8
100
AcDbEntity
  8
0
100
AcDbCircle
 62
7
  6
CONTINUOUS
 10
3.5033361801
 20
5.3033040726
 40
0.0125
100
AcDbArc
 50
0.0
 51
90.0
  0
ARC
  5
2C9
100
AcDbEntity
  8
0
100
AcDbCircle
 62
7
  6
CONTINUOUS
 10
3.5033361801
 20
4.9783040726
 40
0.0125
100
AcDbArc
 50
270.0
 51
360.0
  0
ARC
  5
2CA
100
AcDbEntity
  8
0
100
AcDbCircle
 62
7
  6
CONTINUOUS
 10
4.9655861801
 20
5.2563040726
 40
0.01
100
AcDbArc
 50
0.0
 51
89.9999999999
  0
ARC
  5
2CB
100
AcDbEntity
  8
0
100
AcDbCircle
 62
7
  6
CONTINUOUS
 10
4.9655861801
 20
5.0263040726
 40
0.01
100
AcDbArc
 50
270.0
 51
360.0
  0
ARC
  5
2CC
100
AcDbEntity
  8
0
100
AcDbCircle
 62
7
  6
CONTINUOUS
 10
4.9655861801
 20
4.9763040726
 40
0.01
100
AcDbArc
 50
180.0
 51
270.0
  0
ARC
  5
2CD
100
AcDbEntity
  8
0
100
AcDbCircle
 62
7
  6
CONTINUOUS
 10
4.9655861801
 20
5.0063040726
 40
0.01
100
AcDbArc
 50
90.0
 51
180.0
  0
ARC
  5
2CE
100
AcDbEntity
  8
0
100
AcDbCircle
 62
7
  6
CONTINUOUS
 10
4.9225861801
 20
5.2763040726
 40
0.01
100
AcDbArc
 50
180.0
 51
270.0
  0
ARC
  5
2CF
100
AcDbEntity
  8
0
100
AcDbCircle
 62
7
  6
CONTINUOUS
 10
4.9225861801
 20
5.3046619369
 40
0.01
100
AcDbArc
 50
134.9999999991
 51
180.0
  0
ARC
  5
2D0
100
AcDbEntity
  8
0
100
AcDbCircle
 62
7
  6
CONTINUOUS
 10
4.9225861801
 20
5.3279462082
 40
0.01
100
AcDbArc
 50
180.0
 51
225.000000001
  0
ARC
  5
2D1
100
AcDbEntity
  8
0
100
AcDbCircle
 62
7
  6
CONTINUOUS
 10
4.9144293259
 20
5.3163040726
 40
0.004
100
AcDbArc
 50
314.9999999809
 51
45.0000000191
  0
ARC
  5
2D2
100
AcDbEntity
  8
0
100
AcDbCircle
 62
7
  6
CONTINUOUS
 10
3.8195861801
 20
6.5163040726
 40
0.025
100
AcDbArc
 50
90.0
 51
180.0
  0
ARC
  5
2D3
100
AcDbEntity
  8
0
100
AcDbCircle
 62
7
  6
CONTINUOUS
 10
4.6930861801
 20
6.5163040726
 40
0.025
100
AcDbArc
 50
0.0
 51
90.0
  0
ARC
  5
2D4
100
AcDbEntity
  8
0
100
AcDbCircle
 62
7
  6
CONTINUOUS
 10
3.8195861801
 20
6.5563040726
 40
0.015
100
AcDbArc
 50
270.0
 51
360.0
  0
ARC
  5
2D5
100
AcDbEntity
  8
0
100
AcDbCircle
 62
7
  6
CONTINUOUS
 10
3.7795861801
 20
6.4313040726
 40
0.015
100
AcDbArc
 50
270.0
 51
360.0
  0
ARC
  5
2D6
100
AcDbEntity
  8
0
100
AcDbCircle
 62
7
  6
CONTINUOUS
 10
3.5008361801
 20
6.3963040726
 40
0.015
100
AcDbArc
 50
0.0
 51
90.0
  0
ARC
  5
2D7
100
AcDbEntity
  8
0
100
AcDbCircle
 62
7
  6
CONTINUOUS
 10
4.6905861801
 20
6.5538040726
 40
0.0125
100
AcDbArc
 50
180.0
 51
270.0
  0
ARC
  5
2D8
100
AcDbEntity
  8
0
100
AcDbCircle
 62
7
  6
CONTINUOUS
 10
4.7305861801
 20
6.4288040726
 40
0.0125
100
AcDbArc
 50
180.0
 51
270.0
  0
ARC
  5
2D9
100
AcDbEntity
  8
ALL_ASSEMBLY_MEMBERS
100
AcDbCircle
 62
7
  6
CONTINUOUS
 10
5.2405861801
 20
2.4663040726
 40
0.27
100
AcDbArc
 50
144.1294932288
 51
35.8705067706
  0
ARC
  5
2DA
100
AcDbEntity
  8
ALL_ASSEMBLY_MEMBERS
100
AcDbCircle
 62
7
  6
CONTINUOUS
 10
5.2405861801
 20
2.4663040726
 40
0.255
100
AcDbArc
 50
149.0983892462
 51
30.9016109994
  0
ARC
  5
2DB
100
AcDbEntity
  8
0
100
AcDbCircle
 62
7
  6
CONTINUOUS
 10
5.2405861801
 20
2.4663040726
 40
0.21875
100
AcDbArc
 50
180.0
 51
360.0
  0
ARC
  5
2DC
100
AcDbEntity
  8
0
100
AcDbCircle
 62
7
  6
CONTINUOUS
 10
8.5690861801
 20
5.2508040726
 40
0.065
100
AcDbArc
 50
0.0
 51
90.0
  0
ARC
  5
2DD
100
AcDbEntity
  8
0
100
AcDbCircle
 62
7
  6
CONTINUOUS
 10
8.5690861801
 20
5.0308040726
 40
0.065
100
AcDbArc
 50
270.0
 51
360.0
  0
ARC
  5
2DE
100
AcDbEntity
  8
0
100
AcDbCircle
 62
7
  6
CONTINUOUS
 10
8.5690861801
 20
5.2508040726
 40
0.0525
100
AcDbArc
 50
0.0
 51
90.0
  0
ARC
  5
2DF
100
AcDbEntity
  8
0
100
AcDbCircle
 62
7
  6
CONTINUOUS
 10
8.5690861801
 20
5.0308040726
 40
0.0525
100
AcDbArc
 50
270.0
 51
360.0
  0
ARC
  5
2E0
100
AcDbEntity
  8
0
100
AcDbCircle
 62
7
  6
CONTINUOUS
 10
8.5690861801
 20
5.0308040726
 40
0.0275
100
AcDbArc
 50
270.0
 51
360.0
  0
ARC
  5
2E1
100
AcDbEntity
  8
0
100
AcDbCircle
 62
7
  6
CONTINUOUS
 10
8.5690861801
 20
5.2508040726
 40
0.0275
100
AcDbArc
 50
0.0
 51
90.0
  0
ARC
  5
2E2
100
AcDbEntity
  8
0
100
AcDbCircle
 62
7
  6
CONTINUOUS
 10
6.6615861801
 20
6.5163040726
 40
0.025
100
AcDbArc
 50
0.0
 51
90.0
  0
ARC
  5
2E3
100
AcDbEntity
  8
0
100
AcDbCircle
 62
7
  6
CONTINUOUS
 10
7.7565861801
 20
6.5163040726
 40
0.025
100
AcDbArc
 50
90.0
 51
180.0
  0
ARC
  5
2E4
100
AcDbEntity
  8
0
100
AcDbCircle
 62
7
  6
CONTINUOUS
 10
5.7880861801
 20
6.5163040726
 40
0.025
100
AcDbArc
 50
90.0
 51
180.0
  0
ARC
  5
2E5
100
AcDbEntity
  8
0
100
AcDbCircle
 62
7
  6
CONTINUOUS
 10
6.6615861801
 20
6.5563040726
 40
0.015
100
AcDbArc
 50
180.0
 51
270.0
  0
ARC
  5
2E6
100
AcDbEntity
  8
0
100
AcDbCircle
 62
7
  6
CONTINUOUS
 10
7.7565861801
 20
6.5563040726
 40
0.015
100
AcDbArc
 50
270.0
 51
360.0
  0
ARC
  5
2E7
100
AcDbEntity
  8
0
100
AcDbCircle
 62
7
  6
CONTINUOUS
 10
6.7015861801
 20
6.4313040726
 40
0.015
100
AcDbArc
 50
180.0
 51
270.0
  0
ARC
  5
2E8
100
AcDbEntity
  8
0
100
AcDbCircle
 62
7
  6
CONTINUOUS
 10
7.7165861801
 20
6.4313040726
 40
0.015
100
AcDbArc
 50
270.0
 51
360.0
  0
ARC
  5
2E9
100
AcDbEntity
  8
0
100
AcDbCircle
 62
7
  6
CONTINUOUS
 10
7.4378361801
 20
6.3963040726
 40
0.015
100
AcDbArc
 50
0.0
 51
90.0
  0
ARC
  5
2EA
100
AcDbEntity
  8
0
100
AcDbCircle
 62
7
  6
CONTINUOUS
 10
6.9803361801
 20
6.3963040726
 40
0.015
100
AcDbArc
 50
90.0
 51
180.0
  0
ARC
  5
2EB
100
AcDbEntity
  8
0
100
AcDbCircle
 62
7
  6
CONTINUOUS
 10
7.4378361801
 20
5.3463040726
 40
0.015
100
AcDbArc
 50
270.0
 51
360.0
  0
ARC
  5
2EC
100
AcDbEntity
  8
0
100
AcDbCircle
 62
7
  6
CONTINUOUS
 10
6.9803361801
 20
5.3463040726
 40
0.015
100
AcDbArc
 50
180.0
 51
270.0
  0
ARC
  5
2ED
100
AcDbEntity
  8
0
100
AcDbCircle
 62
7
  6
CONTINUOUS
 10
8.5690861801
 20
5.2508040726
 40
0.015
100
AcDbArc
 50
0.0
 51
90.0
  0
ARC
  5
2EE
100
AcDbEntity
  8
0
100
AcDbCircle
 62
7
  6
CONTINUOUS
 10
8.5690861801
 20
5.0308040726
 40
0.015
100
AcDbArc
 50
270.0
 51
360.0
  0
ARC
  5
2EF
100
AcDbEntity
  8
0
100
AcDbCircle
 62
7
  6
CONTINUOUS
 10
5.7905861801
 20
6.5538040726
 40
0.0125
100
AcDbArc
 50
270.0
 51
360.0
  0
ARC
  5
2F0
100
AcDbEntity
  8
0
100
AcDbCircle
 62
7
  6
CONTINUOUS
 10
5.7505861801
 20
6.4288040726
 40
0.0125
100
AcDbArc
 50
270.0
 51
360.0
  0
ARC
  5
2F1
100
AcDbEntity
  8
0
100
AcDbCircle
 62
7
  6
CONTINUOUS
 10
6.9778361801
 20
5.3033040726
 40
0.0125
100
AcDbArc
 50
90.0
 51
180.0
  0
ARC
  5
2F2
100
AcDbEntity
  8
0
100
AcDbCircle
 62
7
  6
CONTINUOUS
 10
6.9778361801
 20
4.9783040726
 40
0.0125
100
AcDbArc
 50
180.0
 51
270.0
  0
ARC
  5
2F3
100
AcDbEntity
  8
0
100
AcDbCircle
 62
7
  6
CONTINUOUS
 10
5.5155861801
 20
5.2563040726
 40
0.01
100
AcDbArc
 50
90.0000000001
 51
180.0
  0
ARC
  5
2F4
100
AcDbEntity
  8
0
100
AcDbCircle
 62
7
  6
CONTINUOUS
 10
5.5155861801
 20
5.0263040726
 40
0.01
100
AcDbArc
 50
180.0
 51
270.0
  0
ARC
  5
2F5
100
AcDbEntity
  8
0
100
AcDbCircle
 62
7
  6
CONTINUOUS
 10
5.5155861801
 20
4.9763040726
 40
0.01
100
AcDbArc
 50
270.0
 51
360.0
  0
ARC
  5
2F6
100
AcDbEntity
  8
0
100
AcDbCircle
 62
7
  6
CONTINUOUS
 10
5.5155861801
 20
5.0063040726
 40
0.01
100
AcDbArc
 50
0.0
 51
90.0
  0
ARC
  5
2F7
100
AcDbEntity
  8
0
100
AcDbCircle
 62
7
  6
CONTINUOUS
 10
5.5585861801
 20
5.2763040726
 40
0.01
100
AcDbArc
 50
270.0
 51
360.0
  0
ARC
  5
2F8
100
AcDbEntity
  8
0
100
AcDbCircle
 62
7
  6
CONTINUOUS
 10
5.5585861801
 20
5.3046619369
 40
0.01
100
AcDbArc
 50
0.0
 51
45.0000000009
  0
ARC
  5
2F9
100
AcDbEntity
  8
0
100
AcDbCircle
 62
7
  6
CONTINUOUS
 10
5.5585861801
 20
5.3279462082
 40
0.01
100
AcDbArc
 50
314.999999999
 51
360.0
  0
ARC
  5
2FA
100
AcDbEntity
  8
0
100
AcDbCircle
 62
7
  6
CONTINUOUS
 10
5.5667430344
 20
5.3163040726
 40
0.004
100
AcDbArc
 50
134.9999999809
 51
225.0000000191
  0
ARC
  5
2FB
100
AcDbEntity
  8
0
100
AcDbCircle
 62
7
  6
CONTINUOUS
 10
8.5690861801
 20
5.2508040726
 40
0.0025
100
AcDbArc
 50
0.0
 51
90.0
  0
ARC
  5
2FC
100
AcDbEntity
  8
0
100
AcDbCircle
 62
7
  6
CONTINUOUS
 10
8.5690861801
 20
5.0308040726
 40
0.0025
100
AcDbArc
 50
270.0
 51
360.0
  0
SPLINE
  5
2FD
100
AcDbEntity
  8
0
100
AcDbSpline
 62
7
  6
CONTINUOUS
 70
0
 71
3
 72
25
 73
21
 74
0
 42
0.0000001
 43
0.0000001
 44
0.0000000001
 40
0.0
 40
0.0
 40
0.0
 40
0.0
 40
0.0161945256
 40
0.0320335087
 40
0.0477469804
 40
0.0635824794
 40
0.0797944486
 40
0.0966350268
 40
0.1330535
 40
0.1743894586
 40
0.2215974006
 40
0.2752046194
 40
0.3353592065
 40
0.4019572376
 40
0.4746509321
 40
0.5529324964
 40
0.6360946319
 40
0.7233385989
 40
0.8137711717
 40
1.0
 40
1.0
 40
1.0
 40
1.0
 10
3.5002955771
 20
5.2783040726
 30
0.0
 10
3.5006643675
 20
5.2783040228
 30
0.0
 10
3.5013947162
 20
5.2782623211
 30
0.0
 10
3.5024669839
 20
5.2780656271
 30
0.0
 10
3.5034971502
 20
5.2777337809
 30
0.0
 10
3.5044821983
 20
5.2772652965
 30
0.0
 10
3.5054194216
 20
5.2766587782
 30
0.0
 10
3.5066344854
 20
5.2756401995
 30
0.0
 10
3.5080319866
 20
5.2739787744
 30
0.0
 10
3.5094501126
 20
5.2714994357
 30
0.0
 10
3.5106706668
 20
5.2684932954
 30
0.0
 10
3.5117016517
 20
5.2649709082
 30
0.0
 10
3.5125588367
 20
5.2609512228
 30
0.0
 10
3.513254909
 20
5.2564611925
 30
0.0
 10
3.5138076512
 20
5.2515363438
 30
0.0
 10
3.514233983
 20
5.2462208474
 30
0.0
 10
3.5145521775
 20
5.2405661537
 30
0.0
 10
3.5147796032
 20
5.2346303021
 30
0.0
 10
3.5149814557
 20
5.2263455465
 30
0.0
 10
3.5150335906
 20
5.2200449749
 30
0.0
 10
3.5150336354
 20
5.2158040726
 30
0.0
  0
SPLINE
  5
2FE
100
AcDbEntity
  8
0
100
AcDbSpline
 62
7
  6
CONTINUOUS
 70
0
 71
3
 72
25
 73
21
 74
0
 42
0.0000001
 43
0.0000001
 44
0.0000000001
 40
0.0
 40
0.0
 40
0.0
 40
0.0
 40
0.0139628235
 40
0.0279069064
 40
0.0421273404
 40
0.0569071879
 40
0.0890835223
 40
0.1069408532
 40
0.1261611272
 40
0.1690729892
 40
0.2183735764
 40
0.2741810144
 40
0.3363961459
 40
0.404676199
 40
0.4785525838
 40
0.5574148685
 40
0.640552737
 40
0.727222507
 40
0.8166536646
 40
1.0
 40
1.0
 40
1.0
 40
1.0
 10
3.4616580662
 20
5.0158040726
 30
0.0
 10
3.4619096191
 20
5.0158040985
 30
0.0
 10
3.4624132827
 20
5.0158415244
 30
0.0
 10
3.4631553284
 20
5.0160139592
 30
0.0
 10
3.4638764268
 20
5.0163022863
 30
0.0
 10
3.464833327
 20
5.0168557302
 30
0.0
 10
3.4657142725
 20
5.0176418665
 30
0.0
 10
3.4665123143
 20
5.0186018457
 30
0.0
 10
3.4673337802
 20
5.0197881487
 30
0.0
 10
3.4682795971
 20
5.0215662053
 30
0.0
 10
3.4692664468
 20
5.024047422
 30
0.0
 10
3.4701468217
 20
5.0269333117
 30
0.0
 10
3.4709193411
 20
5.0302013703
 30
0.0
 10
3.4715881631
 20
5.0338232592
 30
0.0
 10
3.4721556906
 20
5.0377653004
 30
0.0
 10
3.4726259694
 20
5.0419893256
 30
0.0
 10
3.4730034712
 20
5.0464538421
 30
0.0
 10
3.4732920311
 20
5.0511156999
 30
0.0
 10
3.473564951
 20
5.0575859863
 30
0.0
 10
3.4736425922
 20
5.0625009232
 30
0.0
 10
3.4736426238
 20
5.0658040726
 30
0.0
  0
SPLINE
  5
2FF
100
AcDbEntity
  8
0
100
AcDbSpline
 62
7
  6
CONTINUOUS
 70
0
 71
3
 72
24
 73
20
 74
0
 42
0.0000001
 43
0.0000001
 44
0.0000000001
 40
0.0
 40
0.0
 40
0.0
 40
0.0
 40
0.1786564352
 40
0.2657243413
 40
0.3500966622
 40
0.4309711485
 40
0.5075655797
 40
0.5791860319
 40
0.6452765559
 40
0.7054656413
 40
0.7596260426
 40
0.8079706335
 40
0.8511217745
 40
0.8902050778
 40
0.9087387316
 40
0.9268855513
 40
0.9448795588
 40
0.9629411025
 40
1.0
 40
1.0
 40
1.0
 40
1.0
 10
3.5025747916
 20
5.0658040726
 30
0.0
 10
3.5025747654
 20
5.0624722748
 30
0.0
 10
3.5025269097
 20
5.0575164256
 30
0.0
 10
3.5023422705
 20
5.0509898422
 30
0.0
 10
3.5021336619
 20
5.0462887439
 30
0.0
 10
3.5018409771
 20
5.0417876894
 30
0.0
 10
3.5014463527
 20
5.0375329197
 30
0.0
 10
3.5009323581
 20
5.0335683108
 30
0.0
 10
3.5002797946
 20
5.0299338612
 30
0.0
 10
3.4994717664
 20
5.0266640713
 30
0.0
 10
3.4984910538
 20
5.0237876862
 30
0.0
 10
3.4973244486
 20
5.0213260436
 30
0.0
 10
3.4959602384
 20
5.0192954889
 30
0.0
 10
3.4946250513
 20
5.0179516698
 30
0.0
 10
3.4934714302
 20
5.0171309489
 30
0.0
 10
3.4925750955
 20
5.0166398606
 30
0.0
 10
3.4916348892
 20
5.0162620051
 30
0.0
 10
3.4903169805
 20
5.0159032547
 30
0.0
 10
3.4892836495
 20
5.0158041259
 30
0.0
 10
3.4885925311
 20
5.0158040726
 30
0.0
  0
SPLINE
  5
300
100
AcDbEntity
  8
0
100
AcDbSpline
 62
7
  6
CONTINUOUS
 70
0
 71
3
 72
25
 73
21
 74
0
 42
0.0000001
 43
0.0000001
 44
0.0000000001
 40
0.0
 40
0.0
 40
0.0
 40
0.0
 40
0.1833362419
 40
0.2727744977
 40
0.3594652489
 40
0.4426234444
 40
0.5214988983
 40
0.595386263
 40
0.6636620586
 40
0.7258689549
 40
0.7816648146
 40
0.8309486774
 40
0.8738500116
 40
0.8930652891
 40
0.9109184276
 40
0.9430911591
 40
0.9578714328
 40
0.9720927418
 40
0.9860374083
 40
1.0
 40
1.0
 40
1.0
 40
1.0
 10
3.4736426238
 20
5.2158040726
 30
0.0
 10
3.47364259
 20
5.2191070405
 30
0.0
 10
3.4735649567
 20
5.2240219238
 30
0.0
 10
3.4732920472
 20
5.2304925359
 30
0.0
 10
3.4730034367
 20
5.2351552651
 30
0.0
 10
3.4726257942
 20
5.2396207568
 30
0.0
 10
3.4721552831
 20
5.2438455613
 30
0.0
 10
3.4715877377
 20
5.2477879644
 30
0.0
 10
3.4709186252
 20
5.2514097753
 30
0.0
 10
3.470146123
 20
5.2546773836
 30
0.0
 10
3.469265946
 20
5.25756266
 30
0.0
 10
3.468278914
 20
5.2600430429
 30
0.0
 10
3.4673334679
 20
5.2618206276
 30
0.0
 10
3.4665121836
 20
5.263006627
 30
0.0
 10
3.4657142505
 20
5.2639663998
 30
0.0
 10
3.4648333321
 20
5.2647523612
 30
0.0
 10
3.4638764633
 20
5.2653057696
 30
0.0
 10
3.4631553438
 20
5.2655941326
 30
0.0
 10
3.4624132859
 20
5.2657666129
 30
0.0
 10
3.4619096149
 20
5.2658040523
 30
0.0
 10
3.4616580662
 20
5.2658040726
 30
0.0
  0
SPLINE
  5
301
100
AcDbEntity
  8
0
100
AcDbSpline
 62
7
  6
CONTINUOUS
 70
0
 71
3
 72
23
 73
19
 74
0
 42
0.0000001
 43
0.0000001
 44
0.0000000001
 40
0.0
 40
0.0
 40
0.0
 40
0.0
 40
0.0370598592
 40
0.0730464997
 40
0.0911854364
 40
0.1097109743
 40
0.148778729
 40
0.1919192381
 40
0.2402464323
 40
0.2944027471
 40
0.3545811843
 40
0.4206677356
 40
0.4922835075
 40
0.5688843722
 40
0.649768568
 40
0.7341697983
 40
0.821285528
 40
1.0
 40
1.0
 40
1.0
 40
1.0
 10
3.4885925311
 20
5.2658040726
 30
0.0
 10
3.4892836269
 20
5.2658040316
 30
0.0
 10
3.4906511662
 20
5.2656738675
 30
0.0
 10
3.4922798755
 20
5.2651304943
 30
0.0
 10
3.4934702751
 20
5.2644777364
 30
0.0
 10
3.49462374
 20
5.2636578407
 30
0.0
 10
3.4959587662
 20
5.2623148966
 30
0.0
 10
3.4973222605
 20
5.2602850504
 30
0.0
 10
3.4984900264
 20
5.2578248063
 30
0.0
 10
3.499469832
 20
5.2549488889
 30
0.0
 10
3.5002789279
 20
5.2516799673
 30
0.0
 10
3.5009312332
 20
5.2480460267
 30
0.0
 10
3.5014457691
 20
5.2440817803
 30
0.0
 10
3.5018403599
 20
5.2398270364
 30
0.0
 10
3.5021334004
 20
5.2353254326
 30
0.0
 10
3.502342198
 20
5.2306230026
 30
0.0
 10
3.5025268281
 20
5.2240942884
 30
0.0
 10
3.5025747603
 20
5.219136757
 30
0.0
 10
3.5025747916
 20
5.2158040726
 30
0.0
  0
SPLINE
  5
302
100
AcDbEntity
  8
0
100
AcDbSpline
 62
7
  6
CONTINUOUS
 70
0
 71
3
 72
15
 73
11
 74
0
 42
0.0000001
 43
0.0000001
 44
0.0000000001
 40
0.0
 40
0.0
 40
0.0
 40
0.0
 40
0.1428152086
 40
0.283412098
 40
0.4191269364
 40
0.5484315402
 40
0.6704346088
 40
0.7852416965
 40
0.8943531822
 40
1.0
 40
1.0
 40
1.0
 40
1.0
 10
3.0929072205
 20
5.2783040726
 30
0.0
 10
3.0929072205
 20
5.2774897475
 30
0.0
 10
3.0930241423
 20
5.275871357
 30
0.0
 10
3.093540302
 20
5.2735293031
 30
0.0
 10
3.0943825497
 20
5.2713645338
 30
0.0
 10
3.0955200616
 20
5.2694603241
 30
0.0
 10
3.0969114313
 20
5.2678859746
 30
0.0
 10
3.0985124918
 20
5.2667050345
 30
0.0
 10
3.1002633391
 20
5.2659725178
 30
0.0
 10
3.1014934923
 20
5.2658040726
 30
0.0
 10
3.1020958851
 20
5.2658040726
 30
0.0
  0
SPLINE
  5
303
100
AcDbEntity
  8
0
100
AcDbSpline
 62
7
  6
CONTINUOUS
 70
0
 71
3
 72
16
 73
12
 74
0
 42
0.0000001
 43
0.0000001
 44
0.0000000001
 40
0.0
 40
0.0
 40
0.0
 40
0.0
 40
0.1287307619
 40
0.1932261043
 40
0.2575100344
 40
0.3848587647
 40
0.5106138133
 40
0.6347636002
 40
0.7575426849
 40
0.8793219707
 40
1.0
 40
1.0
 40
1.0
 40
1.0
 10
3.5002955771
 20
5.2783040726
 30
0.0
 10
3.5002955775
 20
5.2774894001
 30
0.0
 10
3.5001808334
 20
5.2762628716
 30
0.0
 10
3.4998097621
 20
5.2746743993
 30
0.0
 10
3.4992966326
 20
5.2731345906
 30
0.0
 10
3.4983923156
 20
5.2713265831
 30
0.0
 10
3.4969320012
 20
5.2694194013
 30
0.0
 10
3.4951480797
 20
5.2678530502
 30
0.0
 10
3.4931095968
 20
5.2666839621
 30
0.0
 10
3.4908949205
 20
5.2659690078
 30
0.0
 10
3.4893562418
 20
5.2658040726
 30
0.0
 10
3.4885925311
 20
5.2658040726
 30
0.0
  0
SPLINE
  5
304
100
AcDbEntity
  8
0
100
AcDbSpline
 62
7
  6
CONTINUOUS
 70
0
 71
3
 72
16
 73
12
 74
0
 42
0.0000001
 43
0.0000001
 44
0.0000000001
 40
0.0
 40
0.0
 40
0.0
 40
0.0
 40
0.1287307603
 40
0.1932260915
 40
0.2575100073
 40
0.3848587312
 40
0.5106137914
 40
0.6347635978
 40
0.7575427038
 40
0.8793220044
 40
1.0
 40
1.0
 40
1.0
 40
1.0
 10
3.5002955771
 20
5.0033040726
 30
0.0
 10
3.5002955771
 20
5.0041187449
 30
0.0
 10
3.5001808325
 20
5.0053452731
 30
0.0
 10
3.4998097608
 20
5.006933745
 30
0.0
 10
3.4992966308
 20
5.0084735531
 30
0.0
 10
3.4983923137
 20
5.0102815603
 30
0.0
 10
3.4969319998
 20
5.0121887422
 30
0.0
 10
3.4951480786
 20
5.0137550938
 30
0.0
 10
3.4931095959
 20
5.0149241824
 30
0.0
 10
3.4908949199
 20
5.0156391369
 30
0.0
 10
3.4893562415
 20
5.0158040726
 30
0.0
 10
3.4885925311
 20
5.0158040726
 30
0.0
  0
SPLINE
  5
305
100
AcDbEntity
  8
0
100
AcDbSpline
 62
7
  6
CONTINUOUS
 70
0
 71
3
 72
15
 73
11
 74
0
 42
0.0000001
 43
0.0000001
 44
0.0000000001
 40
0.0
 40
0.0
 40
0.0
 40
0.0
 40
0.1428152086
 40
0.283412098
 40
0.4191269364
 40
0.5484315402
 40
0.6704346088
 40
0.7852416965
 40
0.8943531822
 40
1.0
 40
1.0
 40
1.0
 40
1.0
 10
3.0929072205
 20
5.0033040726
 30
0.0
 10
3.0929072205
 20
5.0041183976
 30
0.0
 10
3.0930241423
 20
5.0057367881
 30
0.0
 10
3.093540302
 20
5.008078842
 30
0.0
 10
3.0943825497
 20
5.0102436114
 30
0.0
 10
3.0955200616
 20
5.012147821
 30
0.0
 10
3.0969114313
 20
5.0137221705
 30
0.0
 10
3.0985124918
 20
5.0149031106
 30
0.0
 10
3.1002633391
 20
5.0156356273
 30
0.0
 10
3.1014934923
 20
5.0158040726
 30
0.0
 10
3.1020958851
 20
5.0158040726
 30
0.0
  0
SPLINE
  5
306
100
AcDbEntity
  8
0
100
AcDbSpline
 62
7
  6
CONTINUOUS
 70
0
 71
3
 72
25
 73
21
 74
0
 42
0.0000001
 43
0.0000001
 44
0.0000000001
 40
0.0
 40
0.0
 40
0.0
 40
0.0
 40
0.186176224
 40
0.2765642861
 40
0.3637830965
 40
0.4469440912
 40
0.525224235
 40
0.5979306457
 40
0.6645377956
 40
0.7247086595
 40
0.7783246205
 40
0.8255532217
 40
0.8669037
 40
0.903338861
 40
0.9201875506
 40
0.936407077
 40
0.9522480906
 40
0.9679648307
 40
0.9838052595
 40
1.0
 40
1.0
 40
1.0
 40
1.0
 10
3.5150336354
 20
5.0658040726
 30
0.0
 10
3.5150336039
 20
5.0615643753
 30
0.0
 10
3.514981552
 20
5.055266025
 30
0.0
 10
3.5147796919
 20
5.0469840687
 30
0.0
 10
3.5145524897
 20
5.0410498352
 30
0.0
 10
3.5142346662
 20
5.0353957584
 30
0.0
 10
3.513808284
 20
5.0300800508
 30
0.0
 10
3.513256114
 20
5.0251546668
 30
0.0
 10
3.5125597787
 20
5.0206638315
 30
0.0
 10
3.5117036071
 20
5.0166431093
 30
0.0
 10
3.5106717769
 20
5.0131199283
 30
0.0
 10
3.5094522881
 20
5.0101122751
 30
0.0
 10
3.5080334791
 20
5.0076319392
 30
0.0
 10
3.506635888
 20
5.0059694755
 30
0.0
 10
3.5054205258
 20
5.004950077
 30
0.0
 10
3.5044828297
 20
5.0043433901
 30
0.0
 10
3.5034974715
 20
5.0038747127
 30
0.0
 10
3.5024671139
 20
5.0035427046
 30
0.0
 10
3.5013947559
 20
5.0033458882
 30
0.0
 10
3.5006643717
 20
5.0033041372
 30
0.0
 10
3.5002955771
 20
5.0033040726
 30
0.0
  0
SPLINE
  5
307
100
AcDbEntity
  8
0
100
AcDbSpline
 62
7
  6
CONTINUOUS
 70
0
 71
3
 72
15
 73
11
 74
0
 42
0.0000001
 43
0.0000001
 44
0.0000000001
 40
0.0
 40
0.0
 40
0.0
 40
0.0
 40
0.1056468178
 40
0.2147583035
 40
0.3295653912
 40
0.4515684598
 40
0.5808730636
 40
0.716587902
 40
0.8571847914
 40
1.0
 40
1.0
 40
1.0
 40
1.0
 10
3.1204732143
 20
5.0158040726
 30
0.0
 10
3.1210756071
 20
5.0158040726
 30
0.0
 10
3.1223057604
 20
5.0159725178
 30
0.0
 10
3.1240566077
 20
5.0167050345
 30
0.0
 10
3.1256576682
 20
5.0178859746
 30
0.0
 10
3.1270490379
 20
5.0194603241
 30
0.0
 10
3.1281865497
 20
5.0213645338
 30
0.0
 10
3.1290287974
 20
5.0235293031
 30
0.0
 10
3.1295449572
 20
5.025871357
 30
0.0
 10
3.1296618789
 20
5.0274897475
 30
0.0
 10
3.1296618789
 20
5.0283040726
 30
0.0
  0
SPLINE
  5
308
100
AcDbEntity
  8
0
100
AcDbSpline
 62
7
  6
CONTINUOUS
 70
0
 71
3
 72
16
 73
12
 74
0
 42
0.0000001
 43
0.0000001
 44
0.0000000001
 40
0.0
 40
0.0
 40
0.0
 40
0.0
 40
0.1195333269
 40
0.2403464166
 40
0.362496486
 40
0.4864427233
 40
0.6124421134
 40
0.7404373539
 40
0.8051654742
 40
0.870163672
 40
1.0
 40
1.0
 40
1.0
 40
1.0
 10
3.4616580662
 20
5.0158040726
 30
0.0
 10
3.4609081568
 20
5.0158040726
 30
0.0
 10
3.4593959497
 20
5.0159693115
 30
0.0
 10
3.457220517
 20
5.0166852759
 30
0.0
 10
3.4552189745
 20
5.0178554672
 30
0.0
 10
3.4534681063
 20
5.0194225687
 30
0.0
 10
3.4520354143
 20
5.0213298367
 30
0.0
 10
3.4511489886
 20
5.0231362185
 30
0.0
 10
3.4506456671
 20
5.0246749154
 30
0.0
 10
3.4502813848
 20
5.0262636282
 30
0.0
 10
3.4501688634
 20
5.0274895257
 30
0.0
 10
3.450168861
 20
5.0283040726
 30
0.0
  0
SPLINE
  5
309
100
AcDbEntity
  8
0
100
AcDbSpline
 62
7
  6
CONTINUOUS
 70
0
 71
3
 72
16
 73
12
 74
0
 42
0.0000001
 43
0.0000001
 44
0.0000000001
 40
0.0
 40
0.0
 40
0.0
 40
0.0
 40
0.1195335814
 40
0.2403467986
 40
0.362496905
 40
0.4864431026
 40
0.6124423985
 40
0.7404375292
 40
0.8051656028
 40
0.8701637551
 40
1.0
 40
1.0
 40
1.0
 40
1.0
 10
3.4616580662
 20
5.2658040726
 30
0.0
 10
3.4609081548
 20
5.2658040726
 30
0.0
 10
3.4593959445
 20
5.2656388341
 30
0.0
 10
3.4572205076
 20
5.2649228699
 30
0.0
 10
3.4552189624
 20
5.2637526792
 30
0.0
 10
3.4534680929
 20
5.2621855782
 30
0.0
 10
3.4520354012
 20
5.26027831
 30
0.0
 10
3.4511489774
 20
5.2584719278
 30
0.0
 10
3.4506456586
 20
5.2569332303
 30
0.0
 10
3.4502813794
 20
5.2553445171
 30
0.0
 10
3.450168861
 20
5.2541186193
 30
0.0
 10
3.450168861
 20
5.2533040726
 30
0.0
  0
SPLINE
  5
30A
100
AcDbEntity
  8
0
100
AcDbSpline
 62
7
  6
CONTINUOUS
 70
0
 71
3
 72
15
 73
11
 74
0
 42
0.0000001
 43
0.0000001
 44
0.0000000001
 40
0.0
 40
0.0
 40
0.0
 40
0.0
 40
0.1056468178
 40
0.2147583035
 40
0.3295653912
 40
0.4515684598
 40
0.5808730636
 40
0.716587902
 40
0.8571847914
 40
1.0
 40
1.0
 40
1.0
 40
1.0
 10
3.1204732143
 20
5.2658040726
 30
0.0
 10
3.1210756071
 20
5.2658040726
 30
0.0
 10
3.1223057604
 20
5.2656356273
 30
0.0
 10
3.1240566077
 20
5.2649031106
 30
0.0
 10
3.1256576682
 20
5.2637221705
 30
0.0
 10
3.1270490379
 20
5.262147821
 30
0.0
 10
3.1281865497
 20
5.2602436114
 30
0.0
 10
3.1290287974
 20
5.258078842
 30
0.0
 10
3.1295449572
 20
5.2557367881
 30
0.0
 10
3.1296618789
 20
5.2541183976
 30
0.0
 10
3.1296618789
 20
5.2533040726
 30
0.0
  0
SPLINE
  5
30B
100
AcDbEntity
  8
0
100
AcDbSpline
 62
7
  6
CONTINUOUS
 70
0
 71
3
 72
15
 73
11
 74
0
 42
0.0000001
 43
0.0000001
 44
0.0000000001
 40
0.0
 40
0.0
 40
0.0
 40
0.0
 40
0.1428152086
 40
0.283412098
 40
0.4191269364
 40
0.5484315402
 40
0.6704346088
 40
0.7852416965
 40
0.8943531822
 40
1.0
 40
1.0
 40
1.0
 40
1.0
 10
3.0929072205
 20
4.9783040726
 30
0.0
 10
3.0929072205
 20
4.9774897475
 30
0.0
 10
3.0930241423
 20
4.975871357
 30
0.0
 10
3.093540302
 20
4.9735293031
 30
0.0
 10
3.0943825497
 20
4.9713645338
 30
0.0
 10
3.0955200616
 20
4.9694603241
 30
0.0
 10
3.0969114313
 20
4.9678859746
 30
0.0
 10
3.0985124918
 20
4.9667050345
 30
0.0
 10
3.1002633391
 20
4.9659725178
 30
0.0
 10
3.1014934923
 20
4.9658040726
 30
0.0
 10
3.1020958851
 20
4.9658040726
 30
0.0
  0
SPLINE
  5
30C
100
AcDbEntity
  8
0
100
AcDbSpline
 62
7
  6
CONTINUOUS
 70
0
 71
3
 72
15
 73
11
 74
0
 42
0.0000001
 43
0.0000001
 44
0.0000000001
 40
0.0
 40
0.0
 40
0.0
 40
0.0
 40
0.1428152086
 40
0.283412098
 40
0.4191269364
 40
0.5484315402
 40
0.6704346088
 40
0.7852416965
 40
0.8943531822
 40
1.0
 40
1.0
 40
1.0
 40
1.0
 10
3.0929072205
 20
5.3033040726
 30
0.0
 10
3.0929072205
 20
5.3041183976
 30
0.0
 10
3.0930241423
 20
5.3057367881
 30
0.0
 10
3.093540302
 20
5.308078842
 30
0.0
 10
3.0943825497
 20
5.3102436114
 30
0.0
 10
3.0955200616
 20
5.312147821
 30
0.0
 10
3.0969114313
 20
5.3137221705
 30
0.0
 10
3.0985124918
 20
5.3149031106
 30
0.0
 10
3.1002633391
 20
5.3156356273
 30
0.0
 10
3.1014934923
 20
5.3158040726
 30
0.0
 10
3.1020958851
 20
5.3158040726
 30
0.0
  0
SPLINE
  5
30D
100
AcDbEntity
  8
0
100
AcDbSpline
 62
7
  6
CONTINUOUS
 70
0
 71
3
 72
21
 73
17
 74
0
 42
0.0000001
 43
0.0000001
 44
0.0000000001
 40
0.0
 40
0.0
 40
0.0
 40
0.0
 40
0.174646087
 40
0.3434124021
 40
0.4237257622
 40
0.5004202656
 40
0.5728273494
 40
0.6403452814
 40
0.7025049811
 40
0.7589729715
 40
0.8096806275
 40
0.8548430536
 40
0.895111632
 40
0.9316279291
 40
0.9659855808
 40
1.0
 40
1.0
 40
1.0
 40
1.0
 10
3.4614270818
 20
5.2158040726
 30
0.0
 10
3.4614270402
 20
5.2182344971
 30
0.0
 10
3.4613337419
 20
5.2230139795
 30
0.0
 10
3.4609696617
 20
5.2289019289
 30
0.0
 10
3.4605022589
 20
5.2334119688
 30
0.0
 10
3.4600704385
 20
5.2365759066
 30
0.0
 10
3.4595465256
 20
5.2395455189
 30
0.0
 10
3.458924992
 20
5.2422895915
 30
0.0
 10
3.4582027885
 20
5.2447793641
 30
0.0
 10
3.4573745538
 20
5.2469885847
 30
0.0
 10
3.456439816
 20
5.2488961045
 30
0.0
 10
3.4553951757
 20
5.2504842954
 30
0.0
 10
3.4542391194
 20
5.2517394791
 30
0.0
 10
3.4529699036
 20
5.2526467047
 30
0.0
 10
3.451598516
 20
5.2531890115
 30
0.0
 10
3.4506422153
 20
5.2533039888
 30
0.0
 10
3.450168861
 20
5.2533040726
 30
0.0
  0
SPLINE
  5
30E
100
AcDbEntity
  8
0
100
AcDbSpline
 62
7
  6
CONTINUOUS
 70
0
 71
3
 72
21
 73
17
 74
0
 42
0.0000001
 43
0.0000001
 44
0.0000000001
 40
0.0
 40
0.0
 40
0.0
 40
0.0
 40
0.0340132794
 40
0.0683698846
 40
0.104890585
 40
0.1451694697
 40
0.190342866
 40
0.241067391
 40
0.2975465448
 40
0.3597129258
 40
0.4272330178
 40
0.4996301304
 40
0.5763099725
 40
0.656604576
 40
0.8253457898
 40
1.0
 40
1.0
 40
1.0
 40
1.0
 10
3.450168861
 20
5.0283040726
 30
0.0
 10
3.4506421993
 20
5.0283041755
 30
0.0
 10
3.4515984665
 20
5.0284190923
 30
0.0
 10
3.4529699183
 20
5.0289613591
 30
0.0
 10
3.454239205
 20
5.0298688319
 30
0.0
 10
3.4553954161
 20
5.0311243354
 30
0.0
 10
3.4564404932
 20
5.0327128899
 30
0.0
 10
3.4573750142
 20
5.0346211299
 30
0.0
 10
3.4582034808
 20
5.036830761
 30
0.0
 10
3.458925654
 20
5.0393208435
 30
0.0
 10
3.4595469143
 20
5.0420649565
 30
0.0
 10
3.4600707929
 20
5.0450342542
 30
0.0
 10
3.4605024259
 20
5.0481976086
 30
0.0
 10
3.4609696503
 20
5.0527068446
 30
0.0
 10
3.4613337655
 20
5.0585942898
 30
0.0
 10
3.4614270434
 20
5.0633735358
 30
0.0
 10
3.4614270818
 20
5.0658040726
 30
0.0
  0
SPLINE
  5
30F
100
AcDbEntity
  8
0
100
AcDbSpline
 62
7
  6
CONTINUOUS
 70
0
 71
3
 72
25
 73
21
 74
0
 42
0.0000001
 43
0.0000001
 44
0.0000000001
 40
0.0
 40
0.0
 40
0.0
 40
0.0
 40
0.0161945262
 40
0.0320335117
 40
0.0477469881
 40
0.0635824939
 40
0.0797944708
 40
0.0966350553
 40
0.1330535366
 40
0.1743894973
 40
0.2215974414
 40
0.2752046558
 40
0.335359241
 40
0.4019572663
 40
0.4746509545
 40
0.5529325105
 40
0.6360946389
 40
0.7233385984
 40
0.813771168
 40
1.0
 40
1.0
 40
1.0
 40
1.0
 10
6.9808767832
 20
5.0033040726
 30
0.0
 10
6.9805079928
 20
5.0033041224
 30
0.0
 10
6.9797776439
 20
5.0033458241
 30
0.0
 10
6.9787053761
 20
5.0035425183
 30
0.0
 10
6.9776752095
 20
5.0038743647
 30
0.0
 10
6.9766901611
 20
5.0043428493
 30
0.0
 10
6.9757529373
 20
5.0049493677
 30
0.0
 10
6.9745378734
 20
5.0059679471
 30
0.0
 10
6.9731403724
 20
5.0076293728
 30
0.0
 10
6.9717222463
 20
5.0101087118
 30
0.0
 10
6.9705016928
 20
5.0131148524
 30
0.0
 10
6.9694707077
 20
5.0166372394
 30
0.0
 10
6.9686135233
 20
5.0206569246
 30
0.0
 10
6.9679174509
 20
5.0251469546
 30
0.0
 10
6.9673647089
 20
5.0300718029
 30
0.0
 10
6.9669383772
 20
5.0353872987
 30
0.0
 10
6.9666201828
 20
5.041041992
 30
0.0
 10
6.9663927571
 20
5.0469778431
 30
0.0
 10
6.9661909045
 20
5.0552625985
 30
0.0
 10
6.9661387697
 20
5.0615631701
 30
0.0
 10
6.9661387248
 20
5.0658040726
 30
0.0
  0
SPLINE
  5
310
100
AcDbEntity
  8
0
100
AcDbSpline
 62
7
  6
CONTINUOUS
 70
0
 71
3
 72
25
 73
21
 74
0
 42
0.0000001
 43
0.0000001
 44
0.0000000001
 40
0.0
 40
0.0
 40
0.0
 40
0.0
 40
0.1833362419
 40
0.2727744977
 40
0.3594652489
 40
0.4426234444
 40
0.5214988983
 40
0.595386263
 40
0.6636620586
 40
0.7258689549
 40
0.7816648146
 40
0.8309486774
 40
0.8738500116
 40
0.8930652891
 40
0.9109184276
 40
0.9430911591
 40
0.9578714328
 40
0.9720927418
 40
0.9860374083
 40
1.0
 40
1.0
 40
1.0
 40
1.0
 10
7.0075297364
 20
5.0658040726
 30
0.0
 10
7.0075297702
 20
5.0625011046
 30
0.0
 10
7.0076074035
 20
5.0575862213
 30
0.0
 10
7.007880313
 20
5.0511156092
 30
0.0
 10
7.0081689236
 20
5.04645288
 30
0.0
 10
7.0085465661
 20
5.0419873883
 30
0.0
 10
7.0090170771
 20
5.0377625838
 30
0.0
 10
7.0095846226
 20
5.0338201807
 30
0.0
 10
7.010253735
 20
5.0301983698
 30
0.0
 10
7.0110262373
 20
5.0269307615
 30
0.0
 10
7.0119064143
 20
5.0240454851
 30
0.0
 10
7.0128934463
 20
5.0215651022
 30
0.0
 10
7.0138388923
 20
5.0197875175
 30
0.0
 10
7.0146601766
 20
5.0186015181
 30
0.0
 10
7.0154581097
 20
5.0176417453
 30
0.0
 10
7.0163390281
 20
5.0168557839
 30
0.0
 10
7.0172958969
 20
5.0163023756
 30
0.0
 10
7.0180170165
 20
5.0160140125
 30
0.0
 10
7.0187590743
 20
5.0158415322
 30
0.0
 10
7.0192627453
 20
5.0158040928
 30
0.0
 10
7.019514294
 20
5.0158040726
 30
0.0
  0
SPLINE
  5
311
100
AcDbEntity
  8
0
100
AcDbSpline
 62
7
  6
CONTINUOUS
 70
0
 71
3
 72
23
 73
19
 74
0
 42
0.0000001
 43
0.0000001
 44
0.0000000001
 40
0.0
 40
0.0
 40
0.0
 40
0.0
 40
0.0370598623
 40
0.0730465175
 40
0.0911854635
 40
0.1097110085
 40
0.1487787712
 40
0.1919192805
 40
0.2402464759
 40
0.2944027854
 40
0.3545812196
 40
0.4206677649
 40
0.49228353
 40
0.5688843869
 40
0.6497685753
 40
0.7341697989
 40
0.8212855255
 40
1.0
 40
1.0
 40
1.0
 40
1.0
 10
6.9925798292
 20
5.0158040726
 30
0.0
 10
6.9918887333
 20
5.0158041135
 30
0.0
 10
6.9905211937
 20
5.0159342779
 30
0.0
 10
6.9888924839
 20
5.0164776514
 30
0.0
 10
6.9877020837
 20
5.0171304094
 30
0.0
 10
6.9865486188
 20
5.0179503058
 30
0.0
 10
6.9852135927
 20
5.0192932503
 30
0.0
 10
6.9838500983
 20
5.0213230967
 30
0.0
 10
6.9826823332
 20
5.0237833411
 30
0.0
 10
6.9817025274
 20
5.0266592583
 30
0.0
 10
6.980893432
 20
5.0299281798
 30
0.0
 10
6.9802411268
 20
5.0335621201
 30
0.0
 10
6.9797265911
 20
5.037526366
 30
0.0
 10
6.9793320003
 20
5.0417811096
 30
0.0
 10
6.9790389598
 20
5.0462827129
 30
0.0
 10
6.9788301623
 20
5.0509851426
 30
0.0
 10
6.9786455321
 20
5.0575138567
 30
0.0
 10
6.9785976
 20
5.062471388
 30
0.0
 10
6.9785975687
 20
5.0658040726
 30
0.0
  0
SPLINE
  5
312
100
AcDbEntity
  8
0
100
AcDbSpline
 62
7
  6
CONTINUOUS
 70
0
 71
3
 72
25
 73
21
 74
0
 42
0.0000001
 43
0.0000001
 44
0.0000000001
 40
0.0
 40
0.0
 40
0.0
 40
0.0
 40
0.0139628235
 40
0.0279069064
 40
0.0421273404
 40
0.0569071879
 40
0.0890835223
 40
0.1069408532
 40
0.1261611272
 40
0.1690729892
 40
0.2183735764
 40
0.2741810144
 40
0.3363961459
 40
0.404676199
 40
0.4785525838
 40
0.5574148685
 40
0.640552737
 40
0.727222507
 40
0.8166536646
 40
1.0
 40
1.0
 40
1.0
 40
1.0
 10
7.019514294
 20
5.2658040726
 30
0.0
 10
7.0192627412
 20
5.2658040466
 30
0.0
 10
7.0187590776
 20
5.2657666207
 30
0.0
 10
7.0180170319
 20
5.2655941859
 30
0.0
 10
7.0172959334
 20
5.2653058588
 30
0.0
 10
7.0163390333
 20
5.2647524149
 30
0.0
 10
7.0154580877
 20
5.2639662786
 30
0.0
 10
7.014660046
 20
5.2630062994
 30
0.0
 10
7.0138385801
 20
5.2618199964
 30
0.0
 10
7.0128927632
 20
5.2600419398
 30
0.0
 10
7.0119059134
 20
5.2575607231
 30
0.0
 10
7.0110255385
 20
5.2546748334
 30
0.0
 10
7.0102530192
 20
5.2514067748
 30
0.0
 10
7.0095841972
 20
5.2477848859
 30
0.0
 10
7.0090166696
 20
5.2438428447
 30
0.0
 10
7.0085463908
 20
5.2396188195
 30
0.0
 10
7.008168889
 20
5.2351543031
 30
0.0
 10
7.0078803292
 20
5.2304924452
 30
0.0
 10
7.0076074092
 20
5.2240221588
 30
0.0
 10
7.0075297681
 20
5.2191072219
 30
0.0
 10
7.0075297364
 20
5.2158040726
 30
0.0
  0
SPLINE
  5
313
100
AcDbEntity
  8
0
100
AcDbSpline
 62
7
  6
CONTINUOUS
 70
0
 71
3
 72
24
 73
20
 74
0
 42
0.0000001
 43
0.0000001
 44
0.0000000001
 40
0.0
 40
0.0
 40
0.0
 40
0.0
 40
0.1786564229
 40
0.2657243212
 40
0.3500966386
 40
0.430971123
 40
0.5075655494
 40
0.5791859974
 40
0.6452765174
 40
0.7054656063
 40
0.7596260115
 40
0.8079706137
 40
0.8511217623
 40
0.8902050734
 40
0.9087387299
 40
0.9268855514
 40
0.9448795595
 40
0.9629411031
 40
1.0
 40
1.0
 40
1.0
 40
1.0
 10
6.9785975687
 20
5.2158040726
 30
0.0
 10
6.9785975948
 20
5.2191358701
 30
0.0
 10
6.9786454505
 20
5.2240917189
 30
0.0
 10
6.9788300897
 20
5.2306183019
 30
0.0
 10
6.9790386982
 20
5.2353193999
 30
0.0
 10
6.979331383
 20
5.2398204542
 30
0.0
 10
6.9797260074
 20
5.2440752237
 30
0.0
 10
6.9802400018
 20
5.2480398324
 30
0.0
 10
6.9808925653
 20
5.2516742818
 30
0.0
 10
6.981700593
 20
5.254944072
 30
0.0
 10
6.9826813061
 20
5.2578204573
 30
0.0
 10
6.9838479109
 20
5.2602821006
 30
0.0
 10
6.9852121215
 20
5.2623126556
 30
0.0
 10
6.9865473087
 20
5.263656475
 30
0.0
 10
6.98770093
 20
5.2644771961
 30
0.0
 10
6.9885972647
 20
5.2649682845
 30
0.0
 10
6.989537471
 20
5.2653461401
 30
0.0
 10
6.9908553798
 20
5.2657048904
 30
0.0
 10
6.9918887108
 20
5.2658040192
 30
0.0
 10
6.9925798292
 20
5.2658040726
 30
0.0
  0
SPLINE
  5
314
100
AcDbEntity
  8
0
100
AcDbSpline
 62
7
  6
CONTINUOUS
 70
0
 71
3
 72
15
 73
11
 74
0
 42
0.0000001
 43
0.0000001
 44
0.0000000001
 40
0.0
 40
0.0
 40
0.0
 40
0.0
 40
0.1428152086
 40
0.283412098
 40
0.4191269364
 40
0.5484315402
 40
0.6704346088
 40
0.7852416965
 40
0.8943531822
 40
1.0
 40
1.0
 40
1.0
 40
1.0
 10
7.3882651397
 20
5.0033040726
 30
0.0
 10
7.3882651397
 20
5.0041183976
 30
0.0
 10
7.388148218
 20
5.0057367881
 30
0.0
 10
7.3876320582
 20
5.008078842
 30
0.0
 10
7.3867898105
 20
5.0102436114
 30
0.0
 10
7.3856522987
 20
5.012147821
 30
0.0
 10
7.384260929
 20
5.0137221705
 30
0.0
 10
7.3826598684
 20
5.0149031106
 30
0.0
 10
7.3809090212
 20
5.0156356273
 30
0.0
 10
7.3796788679
 20
5.0158040726
 30
0.0
 10
7.3790764751
 20
5.0158040726
 30
0.0
  0
SPLINE
  5
315
100
AcDbEntity
  8
0
100
AcDbSpline
 62
7
  6
CONTINUOUS
 70
0
 71
3
 72
16
 73
12
 74
0
 42
0.0000001
 43
0.0000001
 44
0.0000000001
 40
0.0
 40
0.0
 40
0.0
 40
0.0
 40
0.1287307619
 40
0.1932261043
 40
0.2575100344
 40
0.3848587647
 40
0.5106138133
 40
0.6347636002
 40
0.7575426849
 40
0.8793219707
 40
1.0
 40
1.0
 40
1.0
 40
1.0
 10
6.9808767832
 20
5.0033040726
 30
0.0
 10
6.9808767827
 20
5.004118745
 30
0.0
 10
6.9809915269
 20
5.0053452735
 30
0.0
 10
6.9813625982
 20
5.0069337458
 30
0.0
 10
6.9818757277
 20
5.0084735545
 30
0.0
 10
6.9827800447
 20
5.0102815621
 30
0.0
 10
6.984240359
 20
5.0121887438
 30
0.0
 10
6.9860242806
 20
5.0137550949
 30
0.0
 10
6.9880627634
 20
5.014924183
 30
0.0
 10
6.9902774398
 20
5.0156391373
 30
0.0
 10
6.9918161184
 20
5.0158040726
 30
0.0
 10
6.9925798292
 20
5.0158040726
 30
0.0
  0
SPLINE
  5
316
100
AcDbEntity
  8
0
100
AcDbSpline
 62
7
  6
CONTINUOUS
 70
0
 71
3
 72
16
 73
12
 74
0
 42
0.0000001
 43
0.0000001
 44
0.0000000001
 40
0.0
 40
0.0
 40
0.0
 40
0.0
 40
0.1287307603
 40
0.1932260916
 40
0.2575100074
 40
0.3848587314
 40
0.5106137916
 40
0.634763598
 40
0.7575427039
 40
0.8793220044
 40
1.0
 40
1.0
 40
1.0
 40
1.0
 10
6.9808767832
 20
5.2783040726
 30
0.0
 10
6.9808767832
 20
5.2774894002
 30
0.0
 10
6.9809915278
 20
5.276262872
 30
0.0
 10
6.9813625994
 20
5.2746744001
 30
0.0
 10
6.9818757295
 20
5.273134592
 30
0.0
 10
6.9827800465
 20
5.2713265848
 30
0.0
 10
6.9842403605
 20
5.2694194029
 30
0.0
 10
6.9860242817
 20
5.2678530513
 30
0.0
 10
6.9880627643
 20
5.2666839627
 30
0.0
 10
6.9902774404
 20
5.2659690083
 30
0.0
 10
6.9918161187
 20
5.2658040726
 30
0.0
 10
6.9925798292
 20
5.2658040726
 30
0.0
  0
SPLINE
  5
317
100
AcDbEntity
  8
0
100
AcDbSpline
 62
7
  6
CONTINUOUS
 70
0
 71
3
 72
15
 73
11
 74
0
 42
0.0000001
 43
0.0000001
 44
0.0000000001
 40
0.0
 40
0.0
 40
0.0
 40
0.0
 40
0.1428152086
 40
0.283412098
 40
0.4191269364
 40
0.5484315402
 40
0.6704346088
 40
0.7852416965
 40
0.8943531822
 40
1.0
 40
1.0
 40
1.0
 40
1.0
 10
7.3882651397
 20
5.2783040726
 30
0.0
 10
7.3882651397
 20
5.2774897475
 30
0.0
 10
7.388148218
 20
5.275871357
 30
0.0
 10
7.3876320582
 20
5.2735293031
 30
0.0
 10
7.3867898105
 20
5.2713645338
 30
0.0
 10
7.3856522987
 20
5.2694603241
 30
0.0
 10
7.384260929
 20
5.2678859746
 30
0.0
 10
7.3826598684
 20
5.2667050345
 30
0.0
 10
7.3809090212
 20
5.2659725178
 30
0.0
 10
7.3796788679
 20
5.2658040726
 30
0.0
 10
7.3790764751
 20
5.2658040726
 30
0.0
  0
SPLINE
  5
318
100
AcDbEntity
  8
0
100
AcDbSpline
 62
7
  6
CONTINUOUS
 70
0
 71
3
 72
15
 73
11
 74
0
 42
0.0000001
 43
0.0000001
 44
0.0000000001
 40
0.0
 40
0.0
 40
0.0
 40
0.0
 40
0.1056468178
 40
0.2147583035
 40
0.3295653912
 40
0.4515684598
 40
0.5808730636
 40
0.716587902
 40
0.8571847914
 40
1.0
 40
1.0
 40
1.0
 40
1.0
 10
7.3606991459
 20
5.0158040726
 30
0.0
 10
7.3600967531
 20
5.0158040726
 30
0.0
 10
7.3588665999
 20
5.0159725178
 30
0.0
 10
7.3571157526
 20
5.0167050345
 30
0.0
 10
7.3555146921
 20
5.0178859746
 30
0.0
 10
7.3541233223
 20
5.0194603241
 30
0.0
 10
7.3529858105
 20
5.0213645338
 30
0.0
 10
7.3521435628
 20
5.0235293031
 30
0.0
 10
7.3516274031
 20
5.025871357
 30
0.0
 10
7.3515104813
 20
5.0274897475
 30
0.0
 10
7.3515104813
 20
5.0283040726
 30
0.0
  0
SPLINE
  5
319
100
AcDbEntity
  8
0
100
AcDbSpline
 62
7
  6
CONTINUOUS
 70
0
 71
3
 72
15
 73
11
 74
0
 42
0.0000001
 43
0.0000001
 44
0.0000000001
 40
0.0
 40
0.0
 40
0.0
 40
0.0
 40
0.1056468178
 40
0.2147583035
 40
0.3295653912
 40
0.4515684598
 40
0.5808730636
 40
0.716587902
 40
0.8571847914
 40
1.0
 40
1.0
 40
1.0
 40
1.0
 10
7.3606991459
 20
5.2658040726
 30
0.0
 10
7.3600967531
 20
5.2658040726
 30
0.0
 10
7.3588665999
 20
5.2656356273
 30
0.0
 10
7.3571157526
 20
5.2649031106
 30
0.0
 10
7.3555146921
 20
5.2637221705
 30
0.0
 10
7.3541233223
 20
5.262147821
 30
0.0
 10
7.3529858105
 20
5.2602436114
 30
0.0
 10
7.3521435628
 20
5.258078842
 30
0.0
 10
7.3516274031
 20
5.2557367881
 30
0.0
 10
7.3515104813
 20
5.2541183976
 30
0.0
 10
7.3515104813
 20
5.2533040726
 30
0.0
  0
SPLINE
  5
31A
100
AcDbEntity
  8
0
100
AcDbSpline
 62
7
  6
CONTINUOUS
 70
0
 71
3
 72
16
 73
12
 74
0
 42
0.0000001
 43
0.0000001
 44
0.0000000001
 40
0.0
 40
0.0
 40
0.0
 40
0.0
 40
0.1195333269
 40
0.2403464166
 40
0.362496486
 40
0.4864427233
 40
0.6124421134
 40
0.7404373539
 40
0.8051654742
 40
0.870163672
 40
1.0
 40
1.0
 40
1.0
 40
1.0
 10
7.019514294
 20
5.2658040726
 30
0.0
 10
7.0202642035
 20
5.2658040726
 30
0.0
 10
7.0217764105
 20
5.2656388336
 30
0.0
 10
7.0239518432
 20
5.2649228692
 30
0.0
 10
7.0259533858
 20
5.2637526779
 30
0.0
 10
7.0277042539
 20
5.2621855765
 30
0.0
 10
7.0291369459
 20
5.2602783084
 30
0.0
 10
7.0300233717
 20
5.2584719266
 30
0.0
 10
7.0305266932
 20
5.2569332297
 30
0.0
 10
7.0308909755
 20
5.2553445169
 30
0.0
 10
7.0310034968
 20
5.2541186194
 30
0.0
 10
7.0310034992
 20
5.2533040726
 30
0.0
  0
SPLINE
  5
31B
100
AcDbEntity
  8
0
100
AcDbSpline
 62
7
  6
CONTINUOUS
 70
0
 71
3
 72
16
 73
12
 74
0
 42
0.0000001
 43
0.0000001
 44
0.0000000001
 40
0.0
 40
0.0
 40
0.0
 40
0.0
 40
0.1195335816
 40
0.2403467991
 40
0.3624969058
 40
0.4864431034
 40
0.6124423991
 40
0.7404375296
 40
0.805165603
 40
0.8701637552
 40
1.0
 40
1.0
 40
1.0
 40
1.0
 10
7.019514294
 20
5.0158040726
 30
0.0
 10
7.0202642055
 20
5.0158040726
 30
0.0
 10
7.0217764158
 20
5.015969311
 30
0.0
 10
7.0239518527
 20
5.0166852752
 30
0.0
 10
7.0259533979
 20
5.0178554659
 30
0.0
 10
7.0277042674
 20
5.0194225669
 30
0.0
 10
7.0291369591
 20
5.0213298351
 30
0.0
 10
7.0300233829
 20
5.0231362174
 30
0.0
 10
7.0305267017
 20
5.0246749148
 30
0.0
 10
7.0308909809
 20
5.0262636281
 30
0.0
 10
7.0310034992
 20
5.0274895258
 30
0.0
 10
7.0310034992
 20
5.0283040726
 30
0.0
  0
SPLINE
  5
31C
100
AcDbEntity
  8
0
100
AcDbSpline
 62
7
  6
CONTINUOUS
 70
0
 71
3
 72
15
 73
11
 74
0
 42
0.0000001
 43
0.0000001
 44
0.0000000001
 40
0.0
 40
0.0
 40
0.0
 40
0.0
 40
0.1428152086
 40
0.283412098
 40
0.4191269364
 40
0.5484315402
 40
0.6704346088
 40
0.7852416965
 40
0.8943531822
 40
1.0
 40
1.0
 40
1.0
 40
1.0
 10
7.3882651397
 20
4.9783040726
 30
0.0
 10
7.3882651397
 20
4.9774897475
 30
0.0
 10
7.388148218
 20
4.975871357
 30
0.0
 10
7.3876320582
 20
4.9735293031
 30
0.0
 10
7.3867898105
 20
4.9713645338
 30
0.0
 10
7.3856522987
 20
4.9694603241
 30
0.0
 10
7.384260929
 20
4.9678859746
 30
0.0
 10
7.3826598684
 20
4.9667050345
 30
0.0
 10
7.3809090212
 20
4.9659725178
 30
0.0
 10
7.3796788679
 20
4.9658040726
 30
0.0
 10
7.3790764751
 20
4.9658040726
 30
0.0
  0
SPLINE
  5
31D
100
AcDbEntity
  8
0
100
AcDbSpline
 62
7
  6
CONTINUOUS
 70
0
 71
3
 72
15
 73
11
 74
0
 42
0.0000001
 43
0.0000001
 44
0.0000000001
 40
0.0
 40
0.0
 40
0.0
 40
0.0
 40
0.1428152086
 40
0.283412098
 40
0.4191269364
 40
0.5484315402
 40
0.6704346088
 40
0.7852416965
 40
0.8943531822
 40
1.0
 40
1.0
 40
1.0
 40
1.0
 10
7.3882651397
 20
5.3033040726
 30
0.0
 10
7.3882651397
 20
5.3041183976
 30
0.0
 10
7.388148218
 20
5.3057367881
 30
0.0
 10
7.3876320582
 20
5.308078842
 30
0.0
 10
7.3867898105
 20
5.3102436114
 30
0.0
 10
7.3856522987
 20
5.312147821
 30
0.0
 10
7.384260929
 20
5.3137221705
 30
0.0
 10
7.3826598684
 20
5.3149031106
 30
0.0
 10
7.3809090212
 20
5.3156356273
 30
0.0
 10
7.3796788679
 20
5.3158040726
 30
0.0
 10
7.3790764751
 20
5.3158040726
 30
0.0
  0
SPLINE
  5
31E
100
AcDbEntity
  8
0
100
AcDbSpline
 62
7
  6
CONTINUOUS
 70
0
 71
3
 72
21
 73
17
 74
0
 42
0.0000001
 43
0.0000001
 44
0.0000000001
 40
0.0
 40
0.0
 40
0.0
 40
0.0
 40
0.174646087
 40
0.3434124021
 40
0.4237257622
 40
0.5004202656
 40
0.5728273494
 40
0.6403452814
 40
0.7025049811
 40
0.7589729715
 40
0.8096806275
 40
0.8548430536
 40
0.895111632
 40
0.9316279291
 40
0.9659855808
 40
1.0
 40
1.0
 40
1.0
 40
1.0
 10
7.0197452785
 20
5.0658040726
 30
0.0
 10
7.0197453201
 20
5.063373648
 30
0.0
 10
7.0198386183
 20
5.0585941656
 30
0.0
 10
7.0202026986
 20
5.0527062162
 30
0.0
 10
7.0206701013
 20
5.0481961763
 30
0.0
 10
7.0211019217
 20
5.0450322385
 30
0.0
 10
7.0216258347
 20
5.0420626262
 30
0.0
 10
7.0222473683
 20
5.0393185536
 30
0.0
 10
7.0229695717
 20
5.0368287811
 30
0.0
 10
7.0237978065
 20
5.0346195604
 30
0.0
 10
7.0247325443
 20
5.0327120406
 30
0.0
 10
7.0257771846
 20
5.0311238497
 30
0.0
 10
7.0269332408
 20
5.029868666
 30
0.0
 10
7.0282024567
 20
5.0289614405
 30
0.0
 10
7.0295738443
 20
5.0284191336
 30
0.0
 10
7.0305301449
 20
5.0283041564
 30
0.0
 10
7.0310034992
 20
5.0283040726
 30
0.0
  0
SPLINE
  5
31F
100
AcDbEntity
  8
0
100
AcDbSpline
 62
7
  6
CONTINUOUS
 70
0
 71
3
 72
21
 73
17
 74
0
 42
0.0000001
 43
0.0000001
 44
0.0000000001
 40
0.0
 40
0.0
 40
0.0
 40
0.0
 40
0.0340132794
 40
0.0683698846
 40
0.104890585
 40
0.1451694697
 40
0.190342866
 40
0.241067391
 40
0.2975465448
 40
0.3597129258
 40
0.4272330178
 40
0.4996301304
 40
0.5763099725
 40
0.656604576
 40
0.8253457898
 40
1.0
 40
1.0
 40
1.0
 40
1.0
 10
7.0310034992
 20
5.2533040726
 30
0.0
 10
7.030530161
 20
5.2533039696
 30
0.0
 10
7.0295738938
 20
5.2531890528
 30
0.0
 10
7.028202442
 20
5.252646786
 30
0.0
 10
7.0269331552
 20
5.2517393132
 30
0.0
 10
7.0257769442
 20
5.2504838097
 30
0.0
 10
7.024731867
 20
5.2488952552
 30
0.0
 10
7.0237973461
 20
5.2469870152
 30
0.0
 10
7.0229688794
 20
5.2447773841
 30
0.0
 10
7.0222467063
 20
5.2422873016
 30
0.0
 10
7.0216254459
 20
5.2395431886
 30
0.0
 10
7.0211015674
 20
5.2365738909
 30
0.0
 10
7.0206699343
 20
5.2334105365
 30
0.0
 10
7.02020271
 20
5.2289013005
 30
0.0
 10
7.0198385947
 20
5.2230138553
 30
0.0
 10
7.0197453168
 20
5.2182346093
 30
0.0
 10
7.0197452785
 20
5.2158040726
 30
0.0
  0
SPLINE
  5
320
100
AcDbEntity
  8
0
100
AcDbSpline
 62
7
  6
CONTINUOUS
 70
0
 71
3
 72
25
 73
21
 74
0
 42
0.0000001
 43
0.0000001
 44
0.0000000001
 40
0.0
 40
0.0
 40
0.0
 40
0.0
 40
0.1861762107
 40
0.2765642649
 40
0.3637830717
 40
0.4469440653
 40
0.5252242039
 40
0.5979306113
 40
0.6645377574
 40
0.7247086259
 40
0.7783245912
 40
0.8255532035
 40
0.8669036891
 40
0.9033388569
 40
0.9201875489
 40
0.9364070769
 40
0.9522480911
 40
0.9679648312
 40
0.9838052597
 40
1.0
 40
1.0
 40
1.0
 40
1.0
 10
6.9661387248
 20
5.2158040726
 30
0.0
 10
6.9661387563
 20
5.2200437695
 30
0.0
 10
6.9661908082
 20
5.2263421194
 30
0.0
 10
6.9663926684
 20
5.234624075
 30
0.0
 10
6.9666198705
 20
5.2405583082
 30
0.0
 10
6.9669376939
 20
5.2462123848
 30
0.0
 10
6.967364076
 20
5.2515280923
 30
0.0
 10
6.9679162459
 20
5.256453476
 30
0.0
 10
6.9686125812
 20
5.2609443112
 30
0.0
 10
6.9694687524
 20
5.2649650336
 30
0.0
 10
6.970500583
 20
5.2684882149
 30
0.0
 10
6.9717200714
 20
5.2714958688
 30
0.0
 10
6.9731388808
 20
5.2739762052
 30
0.0
 10
6.974536472
 20
5.2756386692
 30
0.0
 10
6.9757518344
 20
5.2766580681
 30
0.0
 10
6.9766895305
 20
5.277264755
 30
0.0
 10
6.9776748888
 20
5.2777334324
 30
0.0
 10
6.9787052463
 20
5.2780654406
 30
0.0
 10
6.9797776043
 20
5.2782622569
 30
0.0
 10
6.9805079885
 20
5.2783040079
 30
0.0
 10
6.9808767832
 20
5.2783040726
 30
0.0
  0
ENDSEC
  0
SECTION
  2
OBJECTS
  0
DICTIONARY
  5
C
100
AcDbDictionary
280
0
281
1
  3
ACAD_GROUP
350
D
  3
ACAD_MLINESTYLE
350
17
  3
ACAD_LAYOUT
350
1A
  3
ACAD_PLOTSETTINGS
350
19
  3
ACAD_PLOTSTYLENAME
350
E
  0
DICTIONARY
  5
D
102
{ACAD_REACTORS
330
C
102
}
100
AcDbDictionary
280
0
281
1
  0
ACDBDICTIONARYWDFLT
  5
E
102
{ACAD_REACTORS
330
C
102
}
100
AcDbDictionary
281
1
  3
Normal
350
F
100
AcDbDictionaryWithDefault
340
F
  0
DICTIONARY
  5
17
102
{ACAD_REACTORS
330
C
102
}
100
AcDbDictionary
280
0
281
1
  3
Standard
350
18
  0
DICTIONARY
  5
19
102
{ACAD_REACTORS
330
C
102
}
100
AcDbDictionary
281
1
  0
DICTIONARY
  5
1A
102
{ACAD_REACTORS
330
C
102
}
100
AcDbDictionary
281
1
  3
Model
350
321
  3
Layout1
350
322
  0
ACDBPLACEHOLDER
  5
F
102
{ACAD_REACTORS
330
E
102
}
  0
MLINESTYLE
  5
18
102
{ACAD_REACTORS
330
17
102
}
100
AcDbMlineStyle
  2
STANDARD
 70
0
  3

 62
256
 51
90.0
 52
90.0
 71
2
 49
0.5
 62
256
  6
BYLAYER
 49
-0.5
 62
256
  6
BYLAYER
  0
LAYOUT
  5
321
102
{ACAD_REACTORS
330
1A
102
}
100
AcDbPlotSettings
  1

  2
none_device
  4
ANSI_A_(11.00_x_8.50_Inches)
  6

 40
0.0
 41
0.0
 42
0.0
 43
0.0
 44
279.4
 45
215.9
 46
0.0
 47
0.0
 48
0.0
 49
0.0
140
0.0
141
0.0
142
1.0
143
1.0
 70
1024
 72
0
 73
0
 74
0
  7

 75
0
147
1.0
148
0.0
149
0.0
100
AcDbLayout
  1
Model
 70
0
 71
0
 10
0.0
 20
0.0
 11
11.0
 21
8.5
 12
0.0
 22
0.0
 32
0.0
 14
0.0
 24
0.0
 34
0.0
 15
0.0
 25
0.0
 35
0.0
146
0.0
 13
0.0
 23
0.0
 33
0.0
 16
1.0
 26
0.0
 36
0.0
 17
0.0
 27
1.0
 37
0.0
 76
0
330
219
345
0
346
0
  0
LAYOUT
  5
322
102
{ACAD_REACTORS
330
1A
102
}
100
AcDbPlotSettings
  1

  2
none_device
  4
ANSI_A_(11.00_x_8.50_Inches)
  6

 40
0.0
 41
0.0
 42
0.0
 43
0.0
 44
279.4
 45
215.9
 46
0.0
 47
0.0
 48
0.0
 49
0.0
140
0.0
141
0.0
142
1.0
143
1.0
 70
0
 72
0
 73
0
 74
0
  7

 75
0
147
1.0
148
0.0
149
0.0
100
AcDbLayout
  1
Layout1
 70
0
 71
1
 10
0.0
 20
0.0
 11
11.0
 21
8.5
 12
0.0
 22
0.0
 32
0.0
 14
0.0
 24
0.0
 34
0.0
 15
0.0
 25
0.0
 35
0.0
146
0.0
 13
0.0
 23
0.0
 33
0.0
 16
1.0
 26
0.0
 36
0.0
 17
0.0
 27
1.0
 37
0.0
 76
0
330
21A
345
0
346
0
  0
ENDSEC
  0
EOF
