999
DXF file: 3-3281_right.dxf
999
Pro/ENGINEER 2018400 by Parametric Technology Corporation
  0
SECTION
  2
HEADER
  9
$ACADVER
  1
AC1027
  9
$DWGCODEPAGE
  3
ANSI_1252
  9
$EXTMAX
 10
11.0
 20
8.5
 30
0.0
  9
$EXTMIN
 10
0.0
 20
0.0
 30
0.0
  9
$LIMMIN
 10
0.0
 20
0.0
  9
$LIMMAX
 10
11.0
 20
8.5
  9
$VIEWCTR
 10
5.5
 20
4.25
  9
$VIEWSIZE
 40
8.5
  9
$CLAYER
  8
0
  9
$LTSCALE
 40
0.605
  9
$CELTYPE
  6
BYLAYER
  9
$DIMSCALE
 40
1.0
  9
$DIMASZ
 40
0.1
  9
$DIMEXO
 40
0.0625
  9
$DIMDLI
 40
0.418
  9
$DIMEXE
 40
0.125
  9
$DIMCEN
 40
0.099
  9
$DIMLFAC
 40
1.0
  9
$DIMBLK
  1
_FILLED
  9
$DIMALT
 70
1
  9
$DIMALTD
 70
2
  9
$DIMALTTD
 70
2
  9
$DIMALTF
 40
25.4
  9
$DIMTXT
 40
0.08
  9
$DIMTOL
 70
1
  9
$DIMLIM
 70
0
  9
$DIMTFAC
 40
1.0
  9
$DIMTP
 40
0.001
  9
$DIMTM
 40
0.001
  9
$DIMGAP
 40
0.09
  9
$DIMDSEP
 70
46
  9
$AUNITS
 70
0
  9
$PDMODE
 70
3
  9
$PDSIZE
 40
0.3125
  9
$HANDSEED
  5
2D1
  9
$TILEMODE
 70
1
  9
$MEASUREMENT
 70
0
  9
$INSUNITS
 70
1
  0
ENDSEC
  0
SECTION
  2
CLASSES
  0
CLASS
  1
ACDBDICTIONARYWDFLT
  2
AcDbDictionaryWithDefault
  3
AutoCAD 2000
 90
0
 91
1
280
0
281
0
  0
CLASS
  1
ACDBPLACEHOLDER
  2
AcDbPlaceHolder
  3
AutoCAD 2000
 90
0
 91
1
280
0
281
0
  0
CLASS
  1
LAYOUT
  2
AcDbLayout
  3
AutoCAD 2000
 90
0
 91
0
280
0
281
0
  0
ENDSEC
  0
SECTION
  2
TABLES
  0
TABLE
  2
VPORT
  5
8
100
AcDbSymbolTable
 70
2
  0
VPORT
  5
1F4
100
AcDbSymbolTableRecord
100
AcDbViewportTableRecord
  2
*ACTIVE
 70
0
 10
0.0
 20
0.0
 11
1.0
 21
1.0
 12
5.5
 22
4.25
 13
0.0
 23
0.0
 14
1.0
 24
1.0
 15
0.0
 25
0.0
 16
0.0
 26
0.0
 36
1.0
 17
0.0
 27
0.0
 37
0.0
 40
8.5
 41
1.2941176471
 42
50.0
 43
0.0
 44
0.0
 50
0.0
 51
0.0
 71
0
 72
100
 73
1
 74
1
 75
0
 76
0
 77
0
 78
0
  0
ENDTAB
  0
TABLE
  2
LTYPE
  5
5
100
AcDbSymbolTable
 70
6
  0
LTYPE
  5
14
100
AcDbSymbolTableRecord
100
AcDbLinetypeTableRecord
  2
BYBLOCK
 70
0
  3

 72
65
 73
0
 40
0.0
  0
LTYPE
  5
15
100
AcDbSymbolTableRecord
100
AcDbLinetypeTableRecord
  2
BYLAYER
 70
0
  3

 72
65
 73
0
 40
0.0
  0
LTYPE
  5
16
100
AcDbSymbolTableRecord
100
AcDbLinetypeTableRecord
  2
CONTINUOUS
 70
64
  3
Solid line
 72
65
 73
0
 40
0.0
  0
LTYPE
  5
1F5
100
AcDbSymbolTableRecord
100
AcDbLinetypeTableRecord
  2
CENTER
 70
64
  3
____ _ ____ _ ____ _ ____ _ ____ _ ____ _ ____
 72
65
 73
4
 40
0.6
 49
0.375
 74
0
 49
-0.075
 74
0
 49
0.075
 74
0
 49
-0.075
 74
0
  0
LTYPE
  5
1F6
100
AcDbSymbolTableRecord
100
AcDbLinetypeTableRecord
  2
HIDDEN
 70
64
  3
- - - - - - - - - - - - - - - - - - - -
 72
65
 73
2
 40
0.2
 49
0.1
 74
0
 49
-0.1
 74
0
  0
LTYPE
  5
1F7
100
AcDbSymbolTableRecord
100
AcDbLinetypeTableRecord
  2
PHANTOM
 70
64
  3
_____ _ _ _____ _ _ _____ _ _ _____
 72
65
 73
6
 40
0.8
 49
0.45
 74
0
 49
-0.05
 74
0
 49
0.1
 74
0
 49
-0.05
 74
0
 49
0.1
 74
0
 49
-0.05
 74
0
  0
LTYPE
  5
1F8
100
AcDbSymbolTableRecord
100
AcDbLinetypeTableRecord
  2
DOT
 70
64
  3
. . . . . . . . . . . . . . . . . . . .
 72
65
 73
2
 40
0.2
 49
0.1
 74
0
 49
-0.1
 74
0
  0
LTYPE
  5
1F9
100
AcDbSymbolTableRecord
100
AcDbLinetypeTableRecord
  2
DASHED
 70
64
  3
- - - - - - - - - - - - - - - - - - - -
 72
65
 73
2
 40
0.2
 49
0.1
 74
0
 49
-0.1
 74
0
  0
ENDTAB
  0
TABLE
  2
LAYER
  5
2
100
AcDbSymbolTable
 70
36
  0
LAYER
  5
10
100
AcDbSymbolTableRecord
100
AcDbLayerTableRecord
  2
0
 70
0
 62
7
  6
CONTINUOUS
370
-3
390
F
  0
LAYER
  5
1FA
100
AcDbSymbolTableRecord
100
AcDbLayerTableRecord
  2
DEFAULT_1
 70
0
 62
7
  6
CENTER
370
-3
390
F
  0
LAYER
  5
1FB
100
AcDbSymbolTableRecord
100
AcDbLayerTableRecord
  2
DEFAULT_2
 70
0
 62
8
  6
HIDDEN
370
-3
390
F
  0
LAYER
  5
1FC
100
AcDbSymbolTableRecord
100
AcDbLayerTableRecord
  2
DEFAULT_3
 70
0
 62
7
  6
PHANTOM
370
-3
390
F
  0
LAYER
  5
1FD
100
AcDbSymbolTableRecord
100
AcDbLayerTableRecord
  2
2-127_ASSY_PLANES
 70
0
 62
7
  6
CONTINUOUS
370
-3
390
F
  0
LAYER
  5
1FE
100
AcDbSymbolTableRecord
100
AcDbLayerTableRecord
  2
ALL_ASSEMBLY_MEMBERS
 70
0
 62
7
  6
CONTINUOUS
370
-3
390
F
  0
LAYER
  5
1FF
100
AcDbSymbolTableRecord
100
AcDbLayerTableRecord
  2
ALL_FEATURES
 70
0
 62
7
  6
CONTINUOUS
370
-3
390
F
  0
LAYER
  5
200
100
AcDbSymbolTableRecord
100
AcDbLayerTableRecord
  2
AXES_FEATURES
 70
0
 62
7
  6
CONTINUOUS
370
-3
390
F
  0
LAYER
  5
201
100
AcDbSymbolTableRecord
100
AcDbLayerTableRecord
  2
CHAMFER_FEATURES
 70
0
 62
7
  6
CONTINUOUS
370
-3
390
F
  0
LAYER
  5
202
100
AcDbSymbolTableRecord
100
AcDbLayerTableRecord
  2
CURVE
 70
0
 62
7
  6
CONTINUOUS
370
-3
390
F
  0
LAYER
  5
203
100
AcDbSymbolTableRecord
100
AcDbLayerTableRecord
  2
CUT_FEATURES
 70
0
 62
7
  6
CONTINUOUS
370
-3
390
F
  0
LAYER
  5
204
100
AcDbSymbolTableRecord
100
AcDbLayerTableRecord
  2
DATUM_CURVES
 70
0
 62
7
  6
CONTINUOUS
370
-3
390
F
  0
LAYER
  5
205
100
AcDbSymbolTableRecord
100
AcDbLayerTableRecord
  2
DATUM_PLANES
 70
0
 62
7
  6
CONTINUOUS
370
-3
390
F
  0
LAYER
  5
206
100
AcDbSymbolTableRecord
100
AcDbLayerTableRecord
  2
DEFAULT_COORDINATE_SYSTEM
 70
0
 62
7
  6
CONTINUOUS
370
-3
390
F
  0
LAYER
  5
207
100
AcDbSymbolTableRecord
100
AcDbLayerTableRecord
  2
DEFAULT_DATUM_AXES
 70
0
 62
7
  6
CONTINUOUS
370
-3
390
F
  0
LAYER
  5
208
100
AcDbSymbolTableRecord
100
AcDbLayerTableRecord
  2
DEFAULT_DATUM_CURVES
 70
0
 62
7
  6
CONTINUOUS
370
-3
390
F
  0
LAYER
  5
209
100
AcDbSymbolTableRecord
100
AcDbLayerTableRecord
  2
DEFAULT_DATUM_PLANES
 70
0
 62
7
  6
CONTINUOUS
370
-3
390
F
  0
LAYER
  5
20A
100
AcDbSymbolTableRecord
100
AcDbLayerTableRecord
  2
DEFAULT_SURFACES
 70
0
 62
7
  6
CONTINUOUS
370
-3
390
F
  0
LAYER
  5
20B
100
AcDbSymbolTableRecord
100
AcDbLayerTableRecord
  2
DIMENSIONS
 70
0
 62
7
  6
CONTINUOUS
370
-3
390
F
  0
LAYER
  5
20C
100
AcDbSymbolTableRecord
100
AcDbLayerTableRecord
  2
HOLE_FEATURES
 70
0
 62
7
  6
CONTINUOUS
370
-3
390
F
  0
LAYER
  5
20D
100
AcDbSymbolTableRecord
100
AcDbLayerTableRecord
  2
NONE
 70
0
 62
7
  6
CONTINUOUS
370
-3
390
F
  0
LAYER
  5
20E
100
AcDbSymbolTableRecord
100
AcDbLayerTableRecord
  2
PART_REFERENCE_DIMENSIONS
 70
0
 62
7
  6
CONTINUOUS
370
-3
390
F
  0
LAYER
  5
20F
100
AcDbSymbolTableRecord
100
AcDbLayerTableRecord
  2
PROTRUSION_FEATURES
 70
0
 62
7
  6
CONTINUOUS
370
-3
390
F
  0
LAYER
  5
210
100
AcDbSymbolTableRecord
100
AcDbLayerTableRecord
  2
QUILTS
 70
0
 62
7
  6
CONTINUOUS
370
-3
390
F
  0
LAYER
  5
211
100
AcDbSymbolTableRecord
100
AcDbLayerTableRecord
  2
REFERENCE_DIMENSIONS
 70
0
 62
7
  6
CONTINUOUS
370
-3
390
F
  0
LAYER
  5
212
100
AcDbSymbolTableRecord
100
AcDbLayerTableRecord
  2
ROUND_FEATURES
 70
0
 62
7
  6
CONTINUOUS
370
-3
390
F
  0
LAYER
  5
213
100
AcDbSymbolTableRecord
100
AcDbLayerTableRecord
  2
SIZE_REF
 70
0
 62
7
  6
CONTINUOUS
370
-3
390
F
  0
LAYER
  5
214
100
AcDbSymbolTableRecord
100
AcDbLayerTableRecord
  2
WETTED_SURFACES
 70
0
 62
7
  6
CONTINUOUS
370
-3
390
F
  0
LAYER
  5
215
100
AcDbSymbolTableRecord
100
AcDbLayerTableRecord
  2
WETTED_SURFACE_AREA
 70
0
 62
7
  6
CONTINUOUS
370
-3
390
F
  0
LAYER
  5
216
100
AcDbSymbolTableRecord
100
AcDbLayerTableRecord
  2
XSEC_DATUMS
 70
0
 62
7
  6
CONTINUOUS
370
-3
390
F
  0
ENDTAB
  0
TABLE
  2
STYLE
  5
3
100
AcDbSymbolTable
 70
1
  0
STYLE
  5
11
100
AcDbSymbolTableRecord
100
AcDbTextStyleTableRecord
  2
STANDARD
 70
0
 40
0.0
 41
0.8
 50
0.0
 71
0
 42
0.2
  3
txt
  4

  0
STYLE
  5
217
100
AcDbSymbolTableRecord
100
AcDbTextStyleTableRecord
  2
TEXTSTYLE_1
 70
0
 40
0.0
 41
0.8
 50
0.0
 71
0
 42
0.2
  3
gdt
  4

  0
ENDTAB
  0
TABLE
  2
VIEW
  5
6
100
AcDbSymbolTable
 70
0
  0
ENDTAB
  0
TABLE
  2
UCS
  5
7
100
AcDbSymbolTable
 70
0
  0
ENDTAB
  0
TABLE
  2
APPID
  5
9
100
AcDbSymbolTable
 70
1
  0
APPID
  5
218
100
AcDbSymbolTableRecord
100
AcDbRegAppTableRecord
  2
ACAD
 70
0
  0
ENDTAB
  0
TABLE
  2
BLOCK_RECORD
  5
1
100
AcDbSymbolTable
 70
0
  0
BLOCK_RECORD
  5
219
100
AcDbSymbolTableRecord
100
AcDbBlockTableRecord
  2
*Model_Space
  0
BLOCK_RECORD
  5
21A
100
AcDbSymbolTableRecord
100
AcDbBlockTableRecord
  2
*Paper_Space
  0
BLOCK_RECORD
  5
21B
100
AcDbSymbolTableRecord
100
AcDbBlockTableRecord
  2
_FILLED
  0
ENDTAB
  0
TABLE
  2
DIMSTYLE
  5
A
100
AcDbSymbolTable
 70
1
100
AcDbDimStyleTable
 71
0
  0
DIMSTYLE
105
21C
100
AcDbSymbolTableRecord
100
AcDbDimStyleTableRecord
  2
STANDARD
 70
0
  3

  4

 40
1.0
 41
0.1
 42
0.0625
 43
0.38
 44
0.125
 45
0.0
 46
0.0
 47
0.001
 48
0.001
140
0.08
141
0.09
142
0.0
143
25.4
144
1.0
145
0.0
146
1.0
147
0.09
 71
1.0
 72
0.0
 73
1
 74
1
 75
0
 76
0
 77
0
 78
4
 79
1
170
1
171
2
172
0
173
0
174
0
175
0
176
0
177
0
178
0
270
2
179
3
271
3
272
3
273
2
274
2
275
0
280
0
281
0
282
0
283
1
284
4
285
0
286
0
287
3
288
0
340
11
278
46
341
21B
342
21B
343
21B
344
21B
  0
ENDTAB
  0
ENDSEC
  0
SECTION
  2
BLOCKS
  0
BLOCK
  5
20
100
AcDbEntity
  8
0
100
AcDbBlockBegin
  2
*Model_Space
 70
0
 10
0.0
 20
0.0
 30
0.0
  3
*Model_Space
  1

  0
ENDBLK
  5
21
100
AcDbEntity
  8
0
100
AcDbBlockEnd
  0
BLOCK
  5
1C
100
AcDbEntity
  8
0
100
AcDbBlockBegin
  2
*Paper_Space
 70
0
 10
0.0
 20
0.0
 30
0.0
  3
*Paper_Space
  1

  0
ENDBLK
  5
1D
100
AcDbEntity
  8
0
100
AcDbBlockEnd
  0
BLOCK
  5
21D
100
AcDbEntity
  8
0
100
AcDbBlockBegin
  2
_FILLED
 70
64
 10
0.0
 20
0.0
  3
_FILLED
  1

  0
SOLID
  5
21E
100
AcDbEntity
  8
0
  6
BYBLOCK
 62
0
100
AcDbTrace
 10
0.0
 20
0.0
 11
-1.0
 21
0.2
 12
-1.0
 22
-0.2
 13
-1.0
 23
-0.2
  0
ENDBLK
  5
21F
100
AcDbEntity
  8
0
  6
BYBLOCK
 62
0
100
AcDbBlockEnd
  0
ENDSEC
  0
SECTION
  2
ENTITIES
  0
MTEXT
  5
220
100
AcDbEntity
  8
0
100
AcDbMText
 62
2
  6
CONTINUOUS
  7
STANDARD
 71
3
 72
1
 10
2.4249811798
 20
1.2437859452
 30
0.0
 11
1.0
 21
0.0
 31
0.0
 73
2
 44
0.9
  1
SCALE  .500
 40
0.08
 41
0.704
  0
LINE
  5
221
100
AcDbEntity
  8
0
100
AcDbLine
 62
7
  6
CONTINUOUS
 10
0.0
 20
0.0
 11
0.0
 21
8.5
  0
LINE
  5
222
100
AcDbEntity
  8
0
100
AcDbLine
 62
7
  6
CONTINUOUS
 10
0.0
 20
0.0
 11
11.0
 21
0.0
  0
LINE
  5
223
100
AcDbEntity
  8
0
100
AcDbLine
 62
7
  6
CONTINUOUS
 10
0.0
 20
8.5
 11
11.0
 21
8.5
  0
LINE
  5
224
100
AcDbEntity
  8
0
100
AcDbLine
 62
7
  6
CONTINUOUS
 10
11.0
 20
0.0
 11
11.0
 21
8.5
  0
LINE
  5
225
100
AcDbEntity
  8
ALL_ASSEMBLY_MEMBERS
100
AcDbLine
 62
7
  6
CONTINUOUS
 10
3.2041845073
 20
3.3659753862
 11
3.2041845073
 21
3.3459753862
  0
LINE
  5
226
100
AcDbEntity
  8
ALL_ASSEMBLY_MEMBERS
100
AcDbLine
 62
7
  6
CONTINUOUS
 10
3.2041845073
 20
3.0109753862
 11
3.2041845073
 21
2.9909753862
  0
LINE
  5
227
100
AcDbEntity
  8
ALL_ASSEMBLY_MEMBERS
100
AcDbLine
 62
7
  6
CONTINUOUS
 10
3.2341845073
 20
3.3159753862
 11
3.2341845073
 21
3.0409753862
  0
LINE
  5
228
100
AcDbEntity
  8
0
100
AcDbLine
 62
7
  6
CONTINUOUS
 10
3.2554345073
 20
3.6059753862
 11
3.2554345073
 21
3.3809753862
  0
LINE
  5
229
100
AcDbEntity
  8
0
100
AcDbLine
 62
7
  6
CONTINUOUS
 10
3.6929345073
 20
3.6059753862
 11
3.6929345073
 21
3.3809753862
  0
LINE
  5
22A
100
AcDbEntity
  8
ALL_ASSEMBLY_MEMBERS
100
AcDbLine
 62
7
  6
CONTINUOUS
 10
3.7141845073
 20
3.3159753862
 11
3.7141845073
 21
3.0409753862
  0
LINE
  5
22B
100
AcDbEntity
  8
ALL_ASSEMBLY_MEMBERS
100
AcDbLine
 62
7
  6
CONTINUOUS
 10
3.7441845073
 20
3.3659753862
 11
3.7441845073
 21
3.3459753862
  0
LINE
  5
22C
100
AcDbEntity
  8
ALL_ASSEMBLY_MEMBERS
100
AcDbLine
 62
7
  6
CONTINUOUS
 10
3.7441845073
 20
3.0109753862
 11
3.7441845073
 21
2.9909753862
  0
LINE
  5
22D
100
AcDbEntity
  8
ALL_ASSEMBLY_MEMBERS
100
AcDbLine
 62
7
  6
CONTINUOUS
 10
3.2191845073
 20
2.9759753862
 11
3.7291845073
 21
2.9759753862
  0
LINE
  5
22E
100
AcDbEntity
  8
ALL_ASSEMBLY_MEMBERS
100
AcDbLine
 62
7
  6
CONTINUOUS
 10
3.2041845073
 20
2.9909753862
 11
3.7441845073
 21
2.9909753862
  0
LINE
  5
22F
100
AcDbEntity
  8
ALL_ASSEMBLY_MEMBERS
100
AcDbLine
 62
7
  6
CONTINUOUS
 10
3.2041845073
 20
3.0109753862
 11
3.7441845073
 21
3.0109753862
  0
LINE
  5
230
100
AcDbEntity
  8
ALL_ASSEMBLY_MEMBERS
100
AcDbLine
 62
7
  6
CONTINUOUS
 10
3.7291845073
 20
3.0259753862
 11
3.2191845073
 21
3.0259753862
  0
LINE
  5
231
100
AcDbEntity
  8
ALL_ASSEMBLY_MEMBERS
100
AcDbLine
 62
7
  6
CONTINUOUS
 10
3.7141845073
 20
3.0409753862
 11
3.2341845073
 21
3.0409753862
  0
LINE
  5
232
100
AcDbEntity
  8
0
100
AcDbLine
 62
7
  6
CONTINUOUS
 10
4.4741845073
 20
4.3872253862
 11
4.4741845073
 21
4.8247253862
  0
LINE
  5
233
100
AcDbEntity
  8
ALL_ASSEMBLY_MEMBERS
100
AcDbLine
 62
7
  6
CONTINUOUS
 10
3.7141845073
 20
3.3159753862
 11
3.2341845073
 21
3.3159753862
  0
LINE
  5
234
100
AcDbEntity
  8
ALL_ASSEMBLY_MEMBERS
100
AcDbLine
 62
7
  6
CONTINUOUS
 10
3.7291845073
 20
3.3309753862
 11
3.2191845073
 21
3.3309753862
  0
LINE
  5
235
100
AcDbEntity
  8
ALL_ASSEMBLY_MEMBERS
100
AcDbLine
 62
7
  6
CONTINUOUS
 10
3.2041845073
 20
3.3459753862
 11
3.7441845073
 21
3.3459753862
  0
LINE
  5
236
100
AcDbEntity
  8
ALL_ASSEMBLY_MEMBERS
100
AcDbLine
 62
7
  6
CONTINUOUS
 10
3.2041845073
 20
3.3659753862
 11
3.7441845073
 21
3.3659753862
  0
LINE
  5
237
100
AcDbEntity
  8
ALL_ASSEMBLY_MEMBERS
100
AcDbLine
 62
7
  6
CONTINUOUS
 10
3.2191845073
 20
3.3809753862
 11
3.7291845073
 21
3.3809753862
  0
LINE
  5
238
100
AcDbEntity
  8
0
100
AcDbLine
 62
7
  6
CONTINUOUS
 10
3.6929345073
 20
3.6059753862
 11
3.2554345073
 21
3.6059753862
  0
LINE
  5
239
100
AcDbEntity
  8
0
100
AcDbLine
 62
7
  6
CONTINUOUS
 10
6.2586845073
 20
3.9059753862
 11
6.0386845073
 21
3.9059753862
  0
LINE
  5
23A
100
AcDbEntity
  8
0
100
AcDbLine
 62
7
  6
CONTINUOUS
 10
6.0386845073
 20
3.9150598553
 11
6.2586845073
 21
3.9150598553
  0
LINE
  5
23B
100
AcDbEntity
  8
0
100
AcDbLine
 62
7
  6
CONTINUOUS
 10
6.0386845073
 20
3.9298651881
 11
6.2586845073
 21
3.9298651881
  0
LINE
  5
23C
100
AcDbEntity
  8
0
100
AcDbLine
 62
7
  6
CONTINUOUS
 10
6.2586845073
 20
3.9487373332
 11
6.0386845073
 21
3.9487373332
  0
LINE
  5
23D
100
AcDbEntity
  8
0
100
AcDbLine
 62
7
  6
CONTINUOUS
 10
6.2586845073
 20
3.9602271246
 11
6.0386845073
 21
3.9602271246
  0
LINE
  5
23E
100
AcDbEntity
  8
0
100
AcDbLine
 62
7
  6
CONTINUOUS
 10
6.3086845073
 20
3.9805755141
 11
6.3236845073
 21
3.9805755141
  0
LINE
  5
23F
100
AcDbEntity
  8
0
100
AcDbLine
 62
7
  6
CONTINUOUS
 10
5.9886845073
 20
3.9805755141
 11
5.9736845073
 21
3.9805755143
  0
LINE
  5
240
100
AcDbEntity
  8
0
100
AcDbLine
 62
7
  6
CONTINUOUS
 10
6.2886845073
 20
3.992729833
 11
6.2736845073
 21
3.992729833
  0
LINE
  5
241
100
AcDbEntity
  8
0
100
AcDbLine
 62
7
  6
CONTINUOUS
 10
6.0086845073
 20
3.992729833
 11
6.0236845073
 21
3.992729833
  0
LINE
  5
242
100
AcDbEntity
  8
0
100
AcDbLine
 62
7
  6
CONTINUOUS
 10
7.5616845073
 20
4.0434753862
 11
7.5991845073
 21
4.0434753862
  0
LINE
  5
243
100
AcDbEntity
  8
0
100
AcDbLine
 62
7
  6
CONTINUOUS
 10
6.0236845073
 20
4.0559753862
 11
6.2736845073
 21
4.0559753862
  0
LINE
  5
244
100
AcDbEntity
  8
0
100
AcDbLine
 62
7
  6
CONTINUOUS
 10
7.4366845073
 20
4.0834753862
 11
7.5241845073
 21
4.0834753862
  0
LINE
  5
245
100
AcDbEntity
  8
0
100
AcDbLine
 62
7
  6
CONTINUOUS
 10
6.3270129345
 20
4.9293038133
 11
6.3287555751
 21
4.931046454
  0
LINE
  5
246
100
AcDbEntity
  8
0
100
AcDbLine
 62
7
  6
CONTINUOUS
 10
6.335826643
 20
4.2779753862
 11
7.4241845073
 21
4.2779753862
  0
LINE
  5
247
100
AcDbEntity
  8
0
100
AcDbLine
 62
7
  6
CONTINUOUS
 10
5.9736845073
 20
4.3184753862
 11
6.3236845073
 21
4.3184753862
  0
LINE
  5
248
100
AcDbEntity
  8
0
100
AcDbLine
 62
7
  6
CONTINUOUS
 10
7.4041845073
 20
4.3622253862
 11
6.3541845073
 21
4.3622253862
  0
LINE
  5
249
100
AcDbEntity
  8
0
100
AcDbLine
 62
7
  6
CONTINUOUS
 10
5.9736845073
 20
4.3872253862
 11
4.4741845073
 21
4.3872253862
  0
LINE
  5
24A
100
AcDbEntity
  8
0
100
AcDbLine
 62
7
  6
CONTINUOUS
 10
7.4191845073
 20
4.3934753862
 11
7.4241845073
 21
4.3934753862
  0
LINE
  5
24B
100
AcDbEntity
  8
ALL_FEATURES
100
AcDbLine
 62
7
  6
CONTINUOUS
 10
6.3391845073
 20
4.4794753862
 11
6.3236845073
 21
4.4794753862
  0
LINE
  5
24C
100
AcDbEntity
  8
0
100
AcDbLine
 62
7
  6
CONTINUOUS
 10
6.3086845073
 20
4.4809753862
 11
5.9886845073
 21
4.4809753862
  0
LINE
  5
24D
100
AcDbEntity
  8
0
100
AcDbLine
 62
7
  6
CONTINUOUS
 10
6.2586845073
 20
4.4935666271
 11
6.0386845073
 21
4.4935666271
  0
LINE
  5
24E
100
AcDbEntity
  8
0
100
AcDbLine
 62
7
  6
CONTINUOUS
 10
5.9736845073
 20
3.9709809031
 11
5.9736845073
 21
5.2409699914
  0
LINE
  5
24F
100
AcDbEntity
  8
0
100
AcDbLine
 62
7
  6
CONTINUOUS
 10
5.9886845073
 20
4.4809753862
 11
5.9886845073
 21
3.9805755141
  0
LINE
  5
250
100
AcDbEntity
  8
0
100
AcDbLine
 62
7
  6
CONTINUOUS
 10
5.9886845073
 20
4.7309753862
 11
5.9886845073
 21
5.2313752583
  0
LINE
  5
251
100
AcDbEntity
  8
0
100
AcDbLine
 62
7
  6
CONTINUOUS
 10
6.0086845073
 20
3.992729833
 11
6.0086845073
 21
4.4809753862
  0
LINE
  5
252
100
AcDbEntity
  8
0
100
AcDbLine
 62
7
  6
CONTINUOUS
 10
6.0086845073
 20
4.7309753862
 11
6.0086845073
 21
5.2192209394
  0
LINE
  5
253
100
AcDbEntity
  8
0
100
AcDbLine
 62
7
  6
CONTINUOUS
 10
6.0236845073
 20
3.9927297818
 11
6.0236845073
 21
4.4809753862
  0
LINE
  5
254
100
AcDbEntity
  8
0
100
AcDbLine
 62
7
  6
CONTINUOUS
 10
6.0236845073
 20
4.7309753862
 11
6.0236845073
 21
5.2192209393
  0
LINE
  5
255
100
AcDbEntity
  8
0
100
AcDbLine
 62
7
  6
CONTINUOUS
 10
6.0386845073
 20
5.3059753862
 11
6.0386845073
 21
5.2820855843
  0
LINE
  5
256
100
AcDbEntity
  8
0
100
AcDbLine
 62
7
  6
CONTINUOUS
 10
6.0386845073
 20
3.9298651881
 11
6.0386845073
 21
3.9059753862
  0
LINE
  5
257
100
AcDbEntity
  8
0
100
AcDbLine
 62
7
  6
CONTINUOUS
 10
6.0386845073
 20
3.9487373332
 11
6.0386845073
 21
5.2632134391
  0
LINE
  5
258
100
AcDbEntity
  8
0
100
AcDbLine
 62
7
  6
CONTINUOUS
 10
6.2586845073
 20
4.7183841453
 11
6.0386845073
 21
4.7183841453
  0
LINE
  5
259
100
AcDbEntity
  8
0
100
AcDbLine
 62
7
  6
CONTINUOUS
 10
6.3086845073
 20
4.7309753862
 11
5.9886845073
 21
4.7309753862
  0
LINE
  5
25A
100
AcDbEntity
  8
ALL_FEATURES
100
AcDbLine
 62
7
  6
CONTINUOUS
 10
6.3391845073
 20
4.7324753862
 11
6.3236845073
 21
4.7324753862
  0
LINE
  5
25B
100
AcDbEntity
  8
0
100
AcDbLine
 62
7
  6
CONTINUOUS
 10
7.4191845073
 20
4.8184753862
 11
7.4241845073
 21
4.8184753862
  0
LINE
  5
25C
100
AcDbEntity
  8
0
100
AcDbLine
 62
7
  6
CONTINUOUS
 10
5.9736845073
 20
4.8247253862
 11
4.4741845073
 21
4.8247253862
  0
LINE
  5
25D
100
AcDbEntity
  8
0
100
AcDbLine
 62
7
  6
CONTINUOUS
 10
7.4041845073
 20
4.8497253862
 11
6.3541845073
 21
4.8497253862
  0
LINE
  5
25E
100
AcDbEntity
  8
0
100
AcDbLine
 62
7
  6
CONTINUOUS
 10
5.9736845073
 20
4.8934753862
 11
6.3236845073
 21
4.8934753862
  0
LINE
  5
25F
100
AcDbEntity
  8
0
100
AcDbLine
 62
7
  6
CONTINUOUS
 10
6.335826643
 20
4.9339753862
 11
7.4241845073
 21
4.9339753862
  0
LINE
  5
260
100
AcDbEntity
  8
0
100
AcDbLine
 62
7
  6
CONTINUOUS
 10
6.3270129345
 20
4.2826469591
 11
6.3287555751
 21
4.2809043184
  0
LINE
  5
261
100
AcDbEntity
  8
0
100
AcDbLine
 62
7
  6
CONTINUOUS
 10
6.2586845073
 20
3.9059753862
 11
6.2586845073
 21
3.9298651881
  0
LINE
  5
262
100
AcDbEntity
  8
0
100
AcDbLine
 62
7
  6
CONTINUOUS
 10
6.2586845073
 20
3.9487373332
 11
6.2586845073
 21
5.2632134391
  0
LINE
  5
263
100
AcDbEntity
  8
0
100
AcDbLine
 62
7
  6
CONTINUOUS
 10
6.2586845073
 20
5.2820855843
 11
6.2586845073
 21
5.3059753862
  0
LINE
  5
264
100
AcDbEntity
  8
0
100
AcDbLine
 62
7
  6
CONTINUOUS
 10
6.2736845073
 20
5.2192209394
 11
6.2736845073
 21
4.7309753862
  0
LINE
  5
265
100
AcDbEntity
  8
0
100
AcDbLine
 62
7
  6
CONTINUOUS
 10
6.2736845073
 20
4.4809753862
 11
6.2736845073
 21
3.9927298315
  0
LINE
  5
266
100
AcDbEntity
  8
0
100
AcDbLine
 62
7
  6
CONTINUOUS
 10
6.2886845073
 20
5.2192209394
 11
6.2886845073
 21
4.7309753862
  0
LINE
  5
267
100
AcDbEntity
  8
0
100
AcDbLine
 62
7
  6
CONTINUOUS
 10
6.2886845073
 20
4.4809753862
 11
6.2886845073
 21
3.992729833
  0
LINE
  5
268
100
AcDbEntity
  8
0
100
AcDbLine
 62
7
  6
CONTINUOUS
 10
6.3086845073
 20
5.2313752583
 11
6.3086845073
 21
4.7309753862
  0
LINE
  5
269
100
AcDbEntity
  8
0
100
AcDbLine
 62
7
  6
CONTINUOUS
 10
6.3086845073
 20
3.9805755141
 11
6.3086845073
 21
4.4809753862
  0
LINE
  5
26A
100
AcDbEntity
  8
0
100
AcDbLine
 62
7
  6
CONTINUOUS
 10
6.3236845073
 20
3.9709809026
 11
6.3236845073
 21
5.2409698879
  0
LINE
  5
26B
100
AcDbEntity
  8
0
100
AcDbLine
 62
7
  6
CONTINUOUS
 10
6.3270129345
 20
4.2826469591
 11
6.3270129345
 21
4.4794753862
  0
LINE
  5
26C
100
AcDbEntity
  8
0
100
AcDbLine
 62
7
  6
CONTINUOUS
 10
6.3270129345
 20
4.7324753862
 11
6.3270129345
 21
4.9293038133
  0
LINE
  5
26D
100
AcDbEntity
  8
0
100
AcDbLine
 62
7
  6
CONTINUOUS
 10
6.3287555751
 20
4.931046454
 11
6.3287555751
 21
4.7324753862
  0
LINE
  5
26E
100
AcDbEntity
  8
0
100
AcDbLine
 62
7
  6
CONTINUOUS
 10
6.3287555751
 20
4.4794753862
 11
6.3287555751
 21
4.2809043184
  0
LINE
  5
26F
100
AcDbEntity
  8
0
100
AcDbLine
 62
7
  6
CONTINUOUS
 10
6.335826643
 20
4.9339753862
 11
6.335826643
 21
4.7324753862
  0
LINE
  5
270
100
AcDbEntity
  8
0
100
AcDbLine
 62
7
  6
CONTINUOUS
 10
6.335826643
 20
4.4794753862
 11
6.335826643
 21
4.2779753862
  0
LINE
  5
271
100
AcDbEntity
  8
0
100
AcDbLine
 62
7
  6
CONTINUOUS
 10
6.3391845073
 20
4.3772253862
 11
6.3391845073
 21
4.8347253862
  0
LINE
  5
272
100
AcDbEntity
  8
0
100
AcDbLine
 62
7
  6
CONTINUOUS
 10
6.3541845073
 20
4.3622253862
 11
6.3541845073
 21
4.8497253862
  0
LINE
  5
273
100
AcDbEntity
  8
0
100
AcDbLine
 62
7
  6
CONTINUOUS
 10
7.4366845073
 20
5.1284753862
 11
7.5241845073
 21
5.1284753862
  0
LINE
  5
274
100
AcDbEntity
  8
0
100
AcDbLine
 62
7
  6
CONTINUOUS
 10
6.0236845073
 20
5.1559753862
 11
6.2736845073
 21
5.1559753862
  0
LINE
  5
275
100
AcDbEntity
  8
0
100
AcDbLine
 62
7
  6
CONTINUOUS
 10
7.5616845073
 20
5.1684753862
 11
7.5991845073
 21
5.1684753862
  0
LINE
  5
276
100
AcDbEntity
  8
0
100
AcDbLine
 62
7
  6
CONTINUOUS
 10
6.2886845073
 20
5.2192209394
 11
6.2736845073
 21
5.2192209394
  0
LINE
  5
277
100
AcDbEntity
  8
0
100
AcDbLine
 62
7
  6
CONTINUOUS
 10
6.0086845073
 20
5.2192209394
 11
6.0236845073
 21
5.2192209394
  0
LINE
  5
278
100
AcDbEntity
  8
0
100
AcDbLine
 62
7
  6
CONTINUOUS
 10
6.3236845073
 20
5.2313752583
 11
6.3086845073
 21
5.2313752583
  0
LINE
  5
279
100
AcDbEntity
  8
0
100
AcDbLine
 62
7
  6
CONTINUOUS
 10
5.9736845073
 20
5.2313752583
 11
5.9886845073
 21
5.2313752583
  0
LINE
  5
27A
100
AcDbEntity
  8
0
100
AcDbLine
 62
7
  6
CONTINUOUS
 10
6.0386845073
 20
5.2517236478
 11
6.2586845073
 21
5.2517236478
  0
LINE
  5
27B
100
AcDbEntity
  8
0
100
AcDbLine
 62
7
  6
CONTINUOUS
 10
6.0386845073
 20
5.2632134391
 11
6.2586845073
 21
5.2632134391
  0
LINE
  5
27C
100
AcDbEntity
  8
0
100
AcDbLine
 62
7
  6
CONTINUOUS
 10
6.0386845073
 20
5.2820855843
 11
6.2586845073
 21
5.2820855843
  0
LINE
  5
27D
100
AcDbEntity
  8
0
100
AcDbLine
 62
7
  6
CONTINUOUS
 10
6.0386845073
 20
5.2968909171
 11
6.2586845073
 21
5.2968909171
  0
LINE
  5
27E
100
AcDbEntity
  8
0
100
AcDbLine
 62
7
  6
CONTINUOUS
 10
6.2586845073
 20
5.3059753862
 11
6.0386845073
 21
5.3059753862
  0
LINE
  5
27F
100
AcDbEntity
  8
0
100
AcDbLine
 62
7
  6
CONTINUOUS
 10
7.4041845073
 20
4.3622253862
 11
7.4041845073
 21
4.8497253862
  0
LINE
  5
280
100
AcDbEntity
  8
0
100
AcDbLine
 62
7
  6
CONTINUOUS
 10
7.4191845073
 20
4.3772253862
 11
7.4191845073
 21
4.8347253862
  0
LINE
  5
281
100
AcDbEntity
  8
0
100
AcDbLine
 62
7
  6
CONTINUOUS
 10
7.4241845073
 20
5.1159753862
 11
7.4241845073
 21
4.0959753862
  0
LINE
  5
282
100
AcDbEntity
  8
0
100
AcDbLine
 62
7
  6
CONTINUOUS
 10
7.4366845073
 20
4.0834753862
 11
7.4366845073
 21
4.0837051836
  0
LINE
  5
283
100
AcDbEntity
  8
0
100
AcDbLine
 62
7
  6
CONTINUOUS
 10
7.4366845073
 20
5.1282455888
 11
7.4366845073
 21
5.1284753862
  0
LINE
  5
284
100
AcDbEntity
  8
0
100
AcDbLine
 62
7
  6
CONTINUOUS
 10
7.4391845073
 20
4.0834753862
 11
7.4391845073
 21
5.1284753862
  0
LINE
  5
285
100
AcDbEntity
  8
0
100
AcDbLine
 62
7
  6
CONTINUOUS
 10
7.5241845073
 20
5.1284753862
 11
7.5241845073
 21
4.0834753862
  0
LINE
  5
286
100
AcDbEntity
  8
0
100
AcDbLine
 62
7
  6
CONTINUOUS
 10
7.5491845073
 20
5.1559753862
 11
7.5491845073
 21
4.0559753862
  0
LINE
  5
287
100
AcDbEntity
  8
0
100
AcDbLine
 62
7
  6
CONTINUOUS
 10
7.5616845073
 20
4.0434753862
 11
7.5616845073
 21
4.0437051836
  0
LINE
  5
288
100
AcDbEntity
  8
0
100
AcDbLine
 62
7
  6
CONTINUOUS
 10
7.5616845073
 20
5.1682455888
 11
7.5616845073
 21
5.1684753862
  0
LINE
  5
289
100
AcDbEntity
  8
0
100
AcDbLine
 62
7
  6
CONTINUOUS
 10
7.5641845073
 20
4.0434753862
 11
7.5641845073
 21
5.1684753862
  0
LINE
  5
28A
100
AcDbEntity
  8
0
100
AcDbLine
 62
7
  6
CONTINUOUS
 10
7.5991845073
 20
4.0434753862
 11
7.5991845073
 21
5.1684753862
  0
ARC
  5
28B
100
AcDbEntity
  8
0
100
AcDbCircle
 62
7
  6
CONTINUOUS
 10
4.4741845073
 20
3.6059753862
 40
1.21875
100
AcDbArc
 50
90.0
 51
180.0
  0
ARC
  5
28C
100
AcDbEntity
  8
0
100
AcDbCircle
 62
7
  6
CONTINUOUS
 10
4.4741845073
 20
3.6059753862
 40
0.78125
100
AcDbArc
 50
90.0
 51
180.0
  0
ARC
  5
28D
100
AcDbEntity
  8
ALL_ASSEMBLY_MEMBERS
100
AcDbCircle
 62
7
  6
CONTINUOUS
 10
3.7291845073
 20
3.3459753862
 40
0.015
100
AcDbArc
 50
270.0
 51
360.0
  0
ARC
  5
28E
100
AcDbEntity
  8
ALL_ASSEMBLY_MEMBERS
100
AcDbCircle
 62
7
  6
CONTINUOUS
 10
3.2191845073
 20
3.3459753862
 40
0.015
100
AcDbArc
 50
180.0
 51
270.0
  0
ARC
  5
28F
100
AcDbEntity
  8
ALL_ASSEMBLY_MEMBERS
100
AcDbCircle
 62
7
  6
CONTINUOUS
 10
3.7291845073
 20
3.3159753862
 40
0.015
100
AcDbArc
 50
90.0
 51
180.0
  0
ARC
  5
290
100
AcDbEntity
  8
ALL_ASSEMBLY_MEMBERS
100
AcDbCircle
 62
7
  6
CONTINUOUS
 10
3.2191845073
 20
3.3159753862
 40
0.015
100
AcDbArc
 50
0.0
 51
90.0
  0
ARC
  5
291
100
AcDbEntity
  8
ALL_ASSEMBLY_MEMBERS
100
AcDbCircle
 62
7
  6
CONTINUOUS
 10
3.7291845073
 20
3.0409753862
 40
0.015
100
AcDbArc
 50
180.0
 51
270.0
  0
ARC
  5
292
100
AcDbEntity
  8
ALL_ASSEMBLY_MEMBERS
100
AcDbCircle
 62
7
  6
CONTINUOUS
 10
3.2191845073
 20
3.0409753862
 40
0.015
100
AcDbArc
 50
270.0
 51
360.0
  0
ARC
  5
293
100
AcDbEntity
  8
ALL_ASSEMBLY_MEMBERS
100
AcDbCircle
 62
7
  6
CONTINUOUS
 10
3.7291845073
 20
3.0109753862
 40
0.015
100
AcDbArc
 50
0.0
 51
90.0
  0
ARC
  5
294
100
AcDbEntity
  8
ALL_ASSEMBLY_MEMBERS
100
AcDbCircle
 62
7
  6
CONTINUOUS
 10
3.2191845073
 20
3.0109753862
 40
0.015
100
AcDbArc
 50
90.0
 51
180.0
  0
ARC
  5
295
100
AcDbEntity
  8
ALL_ASSEMBLY_MEMBERS
100
AcDbCircle
 62
7
  6
CONTINUOUS
 10
3.7291845073
 20
2.9909753862
 40
0.015
100
AcDbArc
 50
270.0
 51
360.0
  0
ARC
  5
296
100
AcDbEntity
  8
ALL_ASSEMBLY_MEMBERS
100
AcDbCircle
 62
7
  6
CONTINUOUS
 10
3.2191845073
 20
2.9909753862
 40
0.015
100
AcDbArc
 50
180.0
 51
270.0
  0
ARC
  5
297
100
AcDbEntity
  8
ALL_ASSEMBLY_MEMBERS
100
AcDbCircle
 62
7
  6
CONTINUOUS
 10
3.7291845073
 20
3.3659753862
 40
0.015
100
AcDbArc
 50
0.0
 51
90.0
  0
ARC
  5
298
100
AcDbEntity
  8
ALL_ASSEMBLY_MEMBERS
100
AcDbCircle
 62
7
  6
CONTINUOUS
 10
3.2191845073
 20
3.3659753862
 40
0.015
100
AcDbArc
 50
90.0
 51
180.0
  0
ARC
  5
299
100
AcDbEntity
  8
0
100
AcDbCircle
 62
7
  6
CONTINUOUS
 10
6.2573421865
 20
3.9806094705
 40
0.0663432331
100
AcDbArc
 50
351.0505788175
 51
355.4607122325
  0
ARC
  5
29A
100
AcDbEntity
  8
0
100
AcDbCircle
 62
7
  6
CONTINUOUS
 10
6.0400100125
 20
3.9806067051
 40
0.0663263165
100
AcDbArc
 50
184.4036465178
 51
188.7521600627
  0
ARC
  5
29B
100
AcDbEntity
  8
0
100
AcDbCircle
 62
7
  6
CONTINUOUS
 10
6.2576675392
 20
3.980585057
 40
0.0660169688
100
AcDbArc
 50
355.4594864169
 51
359.9917177431
  0
ARC
  5
29C
100
AcDbEntity
  8
0
100
AcDbCircle
 62
7
  6
CONTINUOUS
 10
6.0395869292
 20
3.9805798712
 40
0.065902422
100
AcDbArc
 50
180.0037880233
 51
184.4086287934
  0
ARC
  5
29D
100
AcDbEntity
  8
0
100
AcDbCircle
 62
7
  6
CONTINUOUS
 10
6.0386845073
 20
3.9709753862
 40
0.065
100
AcDbArc
 50
180.0
 51
270.0
  0
ARC
  5
29E
100
AcDbEntity
  8
0
100
AcDbCircle
 62
7
  6
CONTINUOUS
 10
6.2586845073
 20
3.9709753862
 40
0.065
100
AcDbArc
 50
270.0
 51
360.0
  0
ARC
  5
29F
100
AcDbEntity
  8
0
100
AcDbCircle
 62
7
  6
CONTINUOUS
 10
7.5241845073
 20
4.0584753862
 40
0.025
100
AcDbArc
 50
0.0
 51
90.0
  0
ARC
  5
2A0
100
AcDbEntity
  8
0
100
AcDbCircle
 62
7
  6
CONTINUOUS
 10
7.4391845073
 20
4.0984753862
 40
0.015
100
AcDbArc
 50
180.0
 51
270.0
  0
ARC
  5
2A1
100
AcDbEntity
  8
0
100
AcDbCircle
 62
7
  6
CONTINUOUS
 10
7.5641845073
 20
4.0584753862
 40
0.015
100
AcDbArc
 50
180.0
 51
270.0
  0
ARC
  5
2A2
100
AcDbEntity
  8
0
100
AcDbCircle
 62
7
  6
CONTINUOUS
 10
7.4366845073
 20
4.0959753862
 40
0.0125
100
AcDbArc
 50
180.0
 51
270.0
  0
ARC
  5
2A3
100
AcDbEntity
  8
0
100
AcDbCircle
 62
7
  6
CONTINUOUS
 10
7.5616845073
 20
4.0559753862
 40
0.0125
100
AcDbArc
 50
180.0
 51
270.0
  0
ARC
  5
2A4
100
AcDbEntity
  8
0
100
AcDbCircle
 62
7
  6
CONTINUOUS
 10
6.2573395437
 20
5.2313409409
 40
0.0663458916
100
AcDbArc
 50
4.5493575215
 51
8.9527614411
  0
ARC
  5
2A5
100
AcDbEntity
  8
0
100
AcDbCircle
 62
7
  6
CONTINUOUS
 10
6.0400156464
 20
5.2313430557
 40
0.0663319855
100
AcDbArc
 50
171.1639094997
 51
175.5497148377
  0
ARC
  5
2A6
100
AcDbEntity
  8
0
100
AcDbCircle
 62
7
  6
CONTINUOUS
 10
6.2576688366
 20
5.2313657117
 40
0.0660156715
100
AcDbArc
 50
0.0082856268
 51
4.550595268
  0
ARC
  5
2A7
100
AcDbEntity
  8
0
100
AcDbCircle
 62
7
  6
CONTINUOUS
 10
6.0395830799
 20
5.2313707743
 40
0.0658985727
100
AcDbArc
 50
175.5445594366
 51
179.9961014257
  0
ARC
  5
2A8
100
AcDbEntity
  8
0
100
AcDbCircle
 62
7
  6
CONTINUOUS
 10
6.0386845073
 20
5.2409753862
 40
0.065
100
AcDbArc
 50
90.0
 51
180.0
  0
ARC
  5
2A9
100
AcDbEntity
  8
0
100
AcDbCircle
 62
7
  6
CONTINUOUS
 10
6.2586845073
 20
5.2409753862
 40
0.065
100
AcDbArc
 50
0.0
 51
90.0
  0
ARC
  5
2AA
100
AcDbEntity
  8
0
100
AcDbCircle
 62
7
  6
CONTINUOUS
 10
7.5241845073
 20
5.1534753862
 40
0.025
100
AcDbArc
 50
270.0
 51
360.0
  0
ARC
  5
2AB
100
AcDbEntity
  8
0
100
AcDbCircle
 62
7
  6
CONTINUOUS
 10
7.4391845073
 20
5.1134753862
 40
0.015
100
AcDbArc
 50
90.0
 51
180.0
  0
ARC
  5
2AC
100
AcDbEntity
  8
0
100
AcDbCircle
 62
7
  6
CONTINUOUS
 10
7.5641845073
 20
5.1534753862
 40
0.015
100
AcDbArc
 50
90.0
 51
180.0
  0
ARC
  5
2AD
100
AcDbEntity
  8
0
100
AcDbCircle
 62
7
  6
CONTINUOUS
 10
5.9886845073
 20
4.4959753862
 40
0.015
100
AcDbArc
 50
180.0000000001
 51
270.0
  0
ARC
  5
2AE
100
AcDbEntity
  8
0
100
AcDbCircle
 62
7
  6
CONTINUOUS
 10
6.3086845073
 20
4.4959753862
 40
0.015
100
AcDbArc
 50
270.0000000005
 51
360.0
  0
ARC
  5
2AF
100
AcDbEntity
  8
0
100
AcDbCircle
 62
7
  6
CONTINUOUS
 10
6.3086845073
 20
4.7159753862
 40
0.015
100
AcDbArc
 50
0.0
 51
89.9999999996
  0
ARC
  5
2B0
100
AcDbEntity
  8
0
100
AcDbCircle
 62
7
  6
CONTINUOUS
 10
5.9886845073
 20
4.7159753862
 40
0.015
100
AcDbArc
 50
90.0
 51
180.0
  0
ARC
  5
2B1
100
AcDbEntity
  8
0
100
AcDbCircle
 62
7
  6
CONTINUOUS
 10
7.4041845073
 20
4.8347253862
 40
0.015
100
AcDbArc
 50
0.0
 51
90.0
  0
ARC
  5
2B2
100
AcDbEntity
  8
0
100
AcDbCircle
 62
7
  6
CONTINUOUS
 10
7.4041845073
 20
4.3772253862
 40
0.015
100
AcDbArc
 50
270.0
 51
360.0
  0
ARC
  5
2B3
100
AcDbEntity
  8
0
100
AcDbCircle
 62
7
  6
CONTINUOUS
 10
6.3541845073
 20
4.8347253862
 40
0.015
100
AcDbArc
 50
90.0
 51
180.0
  0
ARC
  5
2B4
100
AcDbEntity
  8
0
100
AcDbCircle
 62
7
  6
CONTINUOUS
 10
6.3541845073
 20
4.3772253862
 40
0.015
100
AcDbArc
 50
180.0
 51
270.0
  0
ARC
  5
2B5
100
AcDbEntity
  8
0
100
AcDbCircle
 62
7
  6
CONTINUOUS
 10
7.4366845073
 20
5.1159753862
 40
0.0125
100
AcDbArc
 50
90.0
 51
180.0
  0
ARC
  5
2B6
100
AcDbEntity
  8
0
100
AcDbCircle
 62
7
  6
CONTINUOUS
 10
7.5616845073
 20
5.1559753862
 40
0.0125
100
AcDbArc
 50
90.0
 51
180.0
  0
ARC
  5
2B7
100
AcDbEntity
  8
0
100
AcDbCircle
 62
7
  6
CONTINUOUS
 10
6.335826643
 20
4.2879753862
 40
0.01
100
AcDbArc
 50
225.0
 51
270.0
  0
ARC
  5
2B8
100
AcDbEntity
  8
0
100
AcDbCircle
 62
7
  6
CONTINUOUS
 10
6.335826643
 20
4.9239753862
 40
0.01
100
AcDbArc
 50
90.0
 51
135.0
  0
ARC
  5
2B9
100
AcDbEntity
  8
0
100
AcDbCircle
 62
7
  6
CONTINUOUS
 10
6.3241845073
 20
4.2798185319
 40
0.004
100
AcDbArc
 50
45.0
 51
97.1824664771
  0
ARC
  5
2BA
100
AcDbEntity
  8
0
100
AcDbCircle
 62
7
  6
CONTINUOUS
 10
6.3241845073
 20
4.9321322404
 40
0.004
100
AcDbArc
 50
262.8175335229
 51
315.0
  0
SPLINE
  5
2BB
100
AcDbEntity
  8
0
100
AcDbSpline
 62
7
  6
CONTINUOUS
 70
0
 71
3
 72
20
 73
16
 74
0
 42
0.0000001
 43
0.0000001
 44
0.0000000001
 40
0.0
 40
0.0
 40
0.0
 40
0.0
 40
0.1249416825
 40
0.1875193614
 40
0.2500597346
 40
0.3125843185
 40
0.3751128731
 40
0.4376468523
 40
0.5001771889
 40
0.6250977805
 40
0.749984733
 40
0.81247025
 40
0.8749513015
 40
0.9374553862
 40
1.0
 40
1.0
 40
1.0
 40
1.0
 10
6.2586845073
 20
3.9150598553
 30
0.0
 10
6.2625209346
 20
3.9150599542
 30
0.0
 10
6.2682959446
 20
3.9155788551
 30
0.0
 10
6.2757906201
 20
3.9172791283
 30
0.0
 10
6.2812810454
 20
3.9190534957
 30
0.0
 10
6.2865900261
 20
3.9213075288
 30
0.0
 10
6.2916769473
 20
3.9240256168
 30
0.0
 10
6.2965039442
 20
3.927183163
 30
0.0
 10
6.3025371954
 20
3.9319423335
 30
0.0
 10
6.3092522688
 20
3.938864296
 30
0.0
 10
6.3146458855
 20
3.9468563959
 30
0.0
 10
6.3180720082
 20
3.9537299285
 30
0.0
 10
6.3201819505
 20
3.959094068
 30
0.0
 10
6.3218162968
 20
3.9646227213
 30
0.0
 10
6.3225789956
 20
3.9683918535
 30
0.0
 10
6.3228777605
 20
3.9702889509
 30
0.0
  0
SPLINE
  5
2BC
100
AcDbEntity
  8
0
100
AcDbSpline
 62
7
  6
CONTINUOUS
 70
0
 71
3
 72
20
 73
16
 74
0
 42
0.0000001
 43
0.0000001
 44
0.0000000001
 40
0.0
 40
0.0
 40
0.0
 40
0.0
 40
0.0625424535
 40
0.1250530032
 40
0.1875454929
 40
0.2500436241
 40
0.3749527506
 40
0.4998732918
 40
0.5623938232
 40
0.6249134665
 40
0.6874270276
 40
0.7499378523
 40
0.8124699315
 40
0.8750494145
 40
1.0
 40
1.0
 40
1.0
 40
1.0
 10
5.9744560146
 20
3.9705144498
 30
0.0
 10
5.9747489579
 20
3.9686117075
 30
0.0
 10
5.9755009938
 20
3.9648305732
 30
0.0
 10
5.9771222101
 20
3.9592826683
 30
0.0
 10
5.9792219346
 20
3.9538981648
 30
0.0
 10
5.982638739
 20
3.9469971674
 30
0.0
 10
5.9880275035
 20
3.9389713891
 30
0.0
 10
5.9947468402
 20
3.9320195271
 30
0.0
 10
6.0007864616
 20
3.9272389181
 30
0.0
 10
6.0056202012
 20
3.9240677415
 30
0.0
 10
6.0107153845
 20
3.9213376424
 30
0.0
 10
6.0160341632
 20
3.919073047
 30
0.0
 10
6.0215362336
 20
3.9172901841
 30
0.0
 10
6.0290486601
 20
3.9155818309
 30
0.0
 10
6.0348383205
 20
3.9150599464
 30
0.0
 10
6.0386845073
 20
3.9150598553
 30
0.0
  0
SPLINE
  5
2BD
100
AcDbEntity
  8
0
100
AcDbSpline
 62
7
  6
CONTINUOUS
 70
0
 71
3
 72
29
 73
25
 74
0
 42
0.0000001
 43
0.0000001
 44
0.0000000001
 40
0.0
 40
0.0
 40
0.0
 40
0.0
 40
0.195321041
 40
0.2906292485
 40
0.3830211914
 40
0.4716428718
 40
0.555660028
 40
0.6342683863
 40
0.7066904437
 40
0.7722619575
 40
0.8303606088
 40
0.8804651977
 40
0.9221368789
 40
0.939694464
 40
0.9550220882
 40
0.9680900644
 40
0.9737686314
 40
0.9788742938
 40
0.9873699914
 40
0.9936015435
 40
0.9958930872
 40
0.9976662729
 40
0.9989838647
 40
1.0
 40
1.0
 40
1.0
 40
1.0
 10
6.0386845073
 20
4.4935666271
 30
0.0
 10
6.0344395426
 20
4.4935666172
 30
0.0
 10
6.0281231877
 20
4.4935876165
 30
0.0
 10
6.0197991816
 20
4.4936594026
 30
0.0
 10
6.0137942493
 20
4.4937337845
 30
0.0
 10
6.0080350259
 20
4.4938285176
 30
0.0
 10
6.002575783
 20
4.4939430348
 30
0.0
 10
5.9974691466
 20
4.4940764257
 30
0.0
 10
5.9927640834
 20
4.4942279719
 30
0.0
 10
5.9885056396
 20
4.4943962846
 30
0.0
 10
5.9847333421
 20
4.494580011
 30
0.0
 10
5.981481991
 20
4.4947776449
 30
0.0
 10
5.9791126663
 20
4.4949607037
 30
0.0
 10
5.9774998902
 20
4.4951179727
 30
0.0
 10
5.9765076062
 20
4.495231542
 30
0.0
 10
5.9757737925
 20
4.4953319395
 30
0.0
 10
5.9752620718
 20
4.4954149402
 30
0.0
 10
5.9748498267
 20
4.4954902295
 30
0.0
 10
5.9744286482
 20
4.4955821113
 30
0.0
 10
5.9740730629
 20
4.4956875127
 30
0.0
 10
5.9738680507
 20
4.4957783315
 30
0.0
 10
5.9737681037
 20
4.495839883
 30
0.0
 10
5.9737027903
 20
4.4959027085
 30
0.0
 10
5.9736845177
 20
4.4959533023
 30
0.0
 10
5.9736845073
 20
4.4959753862
 30
0.0
  0
SPLINE
  5
2BE
100
AcDbEntity
  8
0
100
AcDbSpline
 62
7
  6
CONTINUOUS
 70
0
 71
3
 72
29
 73
25
 74
0
 42
0.0000001
 43
0.0000001
 44
0.0000000001
 40
0.0
 40
0.0
 40
0.0
 40
0.0
 40
0.1953122627
 40
0.2906089262
 40
0.3829922198
 40
0.4716083266
 40
0.555623179
 40
0.6342274874
 40
0.7066481877
 40
0.7722222743
 40
0.8303233617
 40
0.8804380869
 40
0.9221175607
 40
0.9396800456
 40
0.9550125558
 40
0.9680842869
 40
0.973764017
 40
0.9788706475
 40
0.9873679305
 40
0.9936006189
 40
0.9958925662
 40
0.9976660444
 40
0.9989838112
 40
1.0
 40
1.0
 40
1.0
 40
1.0
 10
6.0386845073
 20
4.7183841453
 30
0.0
 10
6.0344397342
 20
4.7183841544
 30
0.0
 10
6.0281238221
 20
4.7183631626
 30
0.0
 10
6.0198004471
 20
4.7182913794
 30
0.0
 10
6.0137960758
 20
4.7182170141
 30
0.0
 10
6.0080372126
 20
4.7181222906
 30
0.0
 10
6.0025782293
 20
4.7180078033
 30
0.0
 10
5.9974717612
 20
4.7178744217
 30
0.0
 10
5.9927667602
 20
4.7177228876
 30
0.0
 10
5.988508236
 20
4.7175546151
 30
0.0
 10
5.9847356108
 20
4.717370869
 30
0.0
 10
5.9814838147
 20
4.7171732685
 30
0.0
 10
5.9791139961
 20
4.716990167
 30
0.0
 10
5.9775008378
 20
4.7168328857
 30
0.0
 10
5.976508259
 20
4.7167193058
 30
0.0
 10
5.9757742316
 20
4.7166188986
 30
0.0
 10
5.9752623841
 20
4.7165358811
 30
0.0
 10
5.974850059
 20
4.7164605808
 30
0.0
 10
5.974428801
 20
4.7163686872
 30
0.0
 10
5.9740731484
 20
4.7162632746
 30
0.0
 10
5.9738680959
 20
4.7161724488
 30
0.0
 10
5.9737681288
 20
4.7161108938
 30
0.0
 10
5.973702801
 20
4.7160480678
 30
0.0
 10
5.9736845195
 20
4.7159974713
 30
0.0
 10
5.9736845073
 20
4.7159753862
 30
0.0
  0
SPLINE
  5
2BF
100
AcDbEntity
  8
0
100
AcDbSpline
 62
7
  6
CONTINUOUS
 70
0
 71
3
 72
29
 73
25
 74
0
 42
0.0000001
 43
0.0000001
 44
0.0000000001
 40
0.0
 40
0.0
 40
0.0
 40
0.0
 40
0.0010161208
 40
0.0023338486
 40
0.0041072987
 40
0.0063992674
 40
0.0126323744
 40
0.0211309906
 40
0.0262387891
 40
0.0319201393
 40
0.0449974129
 40
0.0603378424
 40
0.0779094538
 40
0.1196079766
 40
0.1697545424
 40
0.2278784643
 40
0.2934709301
 40
0.3659039529
 40
0.4444966948
 40
0.528496853
 40
0.6170824542
 40
0.7094255983
 40
0.8046929384
 40
1.0
 40
1.0
 40
1.0
 40
1.0
 10
6.3236845073
 20
4.4959753862
 30
0.0
 10
6.3236844917
 20
4.4959533026
 30
0.0
 10
6.3236662059
 20
4.4959027115
 30
0.0
 10
6.3236008805
 20
4.4958398882
 30
0.0
 10
6.3235009148
 20
4.4957783326
 30
0.0
 10
6.3232958557
 20
4.4956875
 30
0.0
 10
6.3229401668
 20
4.4955820732
 30
0.0
 10
6.322518847
 20
4.4954901657
 30
0.0
 10
6.3221064334
 20
4.4954148513
 30
0.0
 10
6.3215944066
 20
4.4953318091
 30
0.0
 10
6.3208600511
 20
4.4952313814
 30
0.0
 10
6.3198669811
 20
4.495117777
 30
0.0
 10
6.3182530386
 20
4.4949604586
 30
0.0
 10
6.3158819208
 20
4.4947772437
 30
0.0
 10
6.312628518
 20
4.4945796672
 30
0.0
 10
6.3088543071
 20
4.4943958616
 30
0.0
 10
6.3045946177
 20
4.4942276155
 30
0.0
 10
6.2998891993
 20
4.4940761508
 30
0.0
 10
6.2947830352
 20
4.4939427588
 30
0.0
 10
6.2893252844
 20
4.4938283787
 30
0.0
 10
6.2835682766
 20
4.4937336942
 30
0.0
 10
6.2775660787
 20
4.4936593626
 30
0.0
 10
6.2692443278
 20
4.4935876034
 30
0.0
 10
6.2629291669
 20
4.4935666231
 30
0.0
 10
6.2586845073
 20
4.4935666271
 30
0.0
  0
SPLINE
  5
2C0
100
AcDbEntity
  8
0
100
AcDbSpline
 62
7
  6
CONTINUOUS
 70
0
 71
3
 72
29
 73
25
 74
0
 42
0.0000001
 43
0.0000001
 44
0.0000000001
 40
0.0
 40
0.0
 40
0.0
 40
0.0
 40
0.0010160541
 40
0.0023335911
 40
0.0041067287
 40
0.0063982881
 40
0.0126303847
 40
0.0211278903
 40
0.0262351516
 40
0.0319159658
 40
0.0449911359
 40
0.0603284044
 40
0.0778965178
 40
0.1195893722
 40
0.1697260171
 40
0.2278412798
 40
0.2934268189
 40
0.3658517007
 40
0.4444438112
 40
0.5284438075
 40
0.6170363811
 40
0.709394917
 40
0.8046804275
 40
1.0
 40
1.0
 40
1.0
 40
1.0
 10
6.3236845073
 20
4.7159753862
 30
0.0
 10
6.3236844926
 20
4.7159974684
 30
0.0
 10
6.3236662153
 20
4.7160480554
 30
0.0
 10
6.3236009063
 20
4.7161108783
 30
0.0
 10
6.3235009623
 20
4.7161724315
 30
0.0
 10
6.3232959425
 20
4.7162632605
 30
0.0
 10
6.3229403089
 20
4.7163686813
 30
0.0
 10
6.3225190463
 20
4.7164605807
 30
0.0
 10
6.3221066795
 20
4.7165358877
 30
0.0
 10
6.3215947205
 20
4.7166189171
 30
0.0
 10
6.3208604912
 20
4.716719338
 30
0.0
 10
6.319867612
 20
4.7168329358
 30
0.0
 10
6.3182539377
 20
4.7169902482
 30
0.0
 10
6.3158832323
 20
4.717173422
 30
0.0
 10
6.3126303579
 20
4.7173710103
 30
0.0
 10
6.3088567007
 20
4.717554807
 30
0.0
 10
6.3045975265
 20
4.7177230494
 30
0.0
 10
6.2998924495
 20
4.7178745418
 30
0.0
 10
6.2947864784
 20
4.7180079205
 30
0.0
 10
6.2893285931
 20
4.7181223386
 30
0.0
 10
6.2835711019
 20
4.7182170406
 30
0.0
 10
6.2775680221
 20
4.7182913923
 30
0.0
 10
6.2692452684
 20
4.7183631604
 30
0.0
 10
6.2629294396
 20
4.7183841511
 30
0.0
 10
6.2586845073
 20
4.7183841453
 30
0.0
  0
SPLINE
  5
2C1
100
AcDbEntity
  8
0
100
AcDbSpline
 62
7
  6
CONTINUOUS
 70
0
 71
3
 72
21
 73
17
 74
0
 42
0.0000001
 43
0.0000001
 44
0.0000000001
 40
0.0
 40
0.0
 40
0.0
 40
0.0
 40
0.1249298756
 40
0.1875029419
 40
0.250037167
 40
0.3125544083
 40
0.3750751947
 40
0.4376018678
 40
0.5001255399
 40
0.5626435821
 40
0.6251548777
 40
0.7500266092
 40
0.8125026134
 40
0.8749721616
 40
0.9374647465
 40
1.0
 40
1.0
 40
1.0
 40
1.0
 10
6.2586845073
 20
5.2968909171
 30
0.0
 10
6.2625208747
 20
5.2968908163
 30
0.0
 10
6.268295818
 20
5.2963718168
 30
0.0
 10
6.275790441
 20
5.2946717248
 30
0.0
 10
6.2812807771
 20
5.2928973824
 30
0.0
 10
6.2865895636
 20
5.2906434634
 30
0.0
 10
6.2916763836
 20
5.2879255061
 30
0.0
 10
6.296502949
 20
5.2847682548
 30
0.0
 10
6.3010312039
 20
5.2811965431
 30
0.0
 10
6.3052248982
 20
5.277237307
 30
0.0
 10
6.3103261239
 20
5.2714942099
 30
0.0
 10
6.3146453531
 20
5.2650953743
 30
0.0
 10
6.3180709498
 20
5.2582231075
 30
0.0
 10
6.3201810533
 20
5.2528594363
 30
0.0
 10
6.321815445
 20
5.2473314066
 30
0.0
 10
6.3225782877
 20
5.2435626405
 30
0.0
 10
6.322877142
 20
5.2416656948
 30
0.0
  0
SPLINE
  5
2C2
100
AcDbEntity
  8
0
100
AcDbSpline
 62
7
  6
CONTINUOUS
 70
0
 71
3
 72
20
 73
16
 74
0
 42
0.0000001
 43
0.0000001
 44
0.0000000001
 40
0.0
 40
0.0
 40
0.0
 40
0.0
 40
0.0625453224
 40
0.1250574993
 40
0.187550601
 40
0.2500488631
 40
0.3749595232
 40
0.4998830996
 40
0.5624045228
 40
0.624924146
 40
0.6874363981
 40
0.7499438241
 40
0.8124719526
 40
0.8750492143
 40
1.0
 40
1.0
 40
1.0
 40
1.0
 10
5.9744709008
 20
5.2415321985
 30
0.0
 10
5.9747663347
 20
5.2434326021
 30
0.0
 10
5.9755229548
 20
5.2472088286
 30
0.0
 10
5.9771499205
 20
5.2527488854
 30
0.0
 10
5.9792542094
 20
5.258125161
 30
0.0
 10
5.9826754452
 20
5.2650150067
 30
0.0
 10
5.9880668197
 20
5.2730268719
 30
0.0
 10
5.9947850897
 20
5.2799657313
 30
0.0
 10
6.0008217913
 20
5.2847371811
 30
0.0
 10
6.0056524552
 20
5.2879019439
 30
0.0
 10
6.0107435884
 20
5.2906264149
 30
0.0
 10
6.0160574804
 20
5.2928862949
 30
0.0
 10
6.0215540938
 20
5.2946653163
 30
0.0
 10
6.0290588582
 20
5.2963700224
 30
0.0
 10
6.0348423471
 20
5.2968908329
 30
0.0
 10
6.0386845073
 20
5.2968909171
 30
0.0
  0
SPLINE
  5
2C3
100
AcDbEntity
  8
0
100
AcDbSpline
 62
7
  6
CONTINUOUS
 70
0
 71
3
 72
21
 73
17
 74
0
 42
0.0000001
 43
0.0000001
 44
0.0000000001
 40
0.0
 40
0.0
 40
0.0
 40
0.0
 40
0.0645434457
 40
0.0968494566
 40
0.1289299384
 40
0.1608973264
 40
0.1927547404
 40
0.2558831557
 40
0.3186165101
 40
0.38098902
 40
0.4431416776
 40
0.5051326228
 40
0.6288110375
 40
0.7523954567
 40
0.8760791047
 40
1.0
 40
1.0
 40
1.0
 40
1.0
 10
6.2586845073
 20
5.2517236478
 30
0.0
 10
6.259525222
 20
5.251723486
 30
0.0
 10
6.2607940925
 20
5.2515293104
 30
0.0
 10
6.2623742378
 20
5.2509525142
 30
0.0
 10
6.2634913723
 20
5.2503727683
 30
0.0
 10
6.2645292871
 20
5.24967345
 30
0.0
 10
6.2658028904
 20
5.2486152055
 30
0.0
 10
6.2672021478
 20
5.2470975573
 30
0.0
 10
6.2685929891
 20
5.2450710088
 30
0.0
 10
6.2697438584
 20
5.2429157546
 30
0.0
 10
6.2706865584
 20
5.2406735584
 30
0.0
 10
6.2717109742
 20
5.2376099061
 30
0.0
 10
6.2726237919
 20
5.2336773461
 30
0.0
 10
6.2732859057
 20
5.2288867825
 30
0.0
 10
6.2736231384
 20
5.2240608255
 30
0.0
 10
6.2736845073
 20
5.2208350788
 30
0.0
 10
6.2736845073
 20
5.2192209394
 30
0.0
  0
SPLINE
  5
2C4
100
AcDbEntity
  8
0
100
AcDbSpline
 62
7
  6
CONTINUOUS
 70
0
 71
3
 72
20
 73
16
 74
0
 42
0.0000001
 43
0.0000001
 44
0.0000000001
 40
0.0
 40
0.0
 40
0.0
 40
0.0
 40
0.1239582146
 40
0.2476824079
 40
0.3713161981
 40
0.4950575499
 40
0.6191848519
 40
0.6815989693
 40
0.7443080189
 40
0.8074134718
 40
0.8391978031
 40
0.8711457778
 40
0.9032109482
 40
0.9354712995
 40
1.0
 40
1.0
 40
1.0
 40
1.0
 10
6.2736845073
 20
3.9927298306
 30
0.0
 10
6.2736845072
 20
3.9911153442
 30
0.0
 10
6.2736231264
 20
3.9878888133
 30
0.0
 10
6.2732857258
 20
3.983061834
 30
0.0
 10
6.2726232238
 20
3.9782689537
 30
0.0
 10
6.271526518
 20
3.9735481854
 30
0.0
 10
6.2701195904
 20
3.9697408222
 30
0.0
 10
6.2685898162
 20
3.9668713812
 30
0.0
 10
6.2671951353
 20
3.9648478613
 30
0.0
 10
6.2657987518
 20
3.9633300289
 30
0.0
 10
6.2645250491
 20
3.9622743531
 30
0.0
 10
6.2634878493
 20
3.9615767746
 30
0.0
 10
6.2623719631
 20
3.960997278
 30
0.0
 10
6.2607932703
 20
3.9604195456
 30
0.0
 10
6.2595249575
 20
3.9602272575
 30
0.0
 10
6.2586845073
 20
3.9602271246
 30
0.0
  0
SPLINE
  5
2C5
100
AcDbEntity
  8
0
100
AcDbSpline
 62
7
  6
CONTINUOUS
 70
0
 71
3
 72
21
 73
17
 74
0
 42
0.0000001
 43
0.0000001
 44
0.0000000001
 40
0.0
 40
0.0
 40
0.0
 40
0.0
 40
0.1239917113
 40
0.2477554631
 40
0.371436538
 40
0.4333146626
 40
0.4952639047
 40
0.5572998185
 40
0.6194993944
 40
0.6818937392
 40
0.7445887984
 40
0.8076714926
 40
0.8712144569
 40
0.9032474219
 40
0.9354748822
 40
1.0
 40
1.0
 40
1.0
 40
1.0
 10
6.0236845073
 20
5.2192209394
 30
0.0
 10
6.0236845069
 20
5.2208359542
 30
0.0
 10
6.0237459021
 20
5.2240636715
 30
0.0
 10
6.0240837881
 20
5.2288922562
 30
0.0
 10
6.024635474
 20
5.2328881731
 30
0.0
 10
6.0252955757
 20
5.2360449403
 30
0.0
 10
6.0259164906
 20
5.2383863052
 30
0.0
 10
6.0266878645
 20
5.2406874542
 30
0.0
 10
6.0276321011
 20
5.2429304911
 30
0.0
 10
6.0287841172
 20
5.2450854853
 30
0.0
 10
6.0301781942
 20
5.247109279
 30
0.0
 10
6.0318559396
 20
5.2489297728
 30
0.0
 10
6.0335169431
 20
5.250185199
 30
0.0
 10
6.0349982533
 20
5.2509537893
 30
0.0
 10
6.0365759891
 20
5.2515321217
 30
0.0
 10
6.0378440558
 20
5.2517235846
 30
0.0
 10
6.0386845073
 20
5.2517236478
 30
0.0
  0
SPLINE
  5
2C6
100
AcDbEntity
  8
0
100
AcDbSpline
 62
7
  6
CONTINUOUS
 70
0
 71
3
 72
21
 73
17
 74
0
 42
0.0000001
 43
0.0000001
 44
0.0000000001
 40
0.0
 40
0.0
 40
0.0
 40
0.0
 40
0.0645072115
 40
0.096772959
 40
0.1288340682
 40
0.1607891379
 40
0.1926105447
 40
0.2557119913
 40
0.3184868111
 40
0.3808810077
 40
0.4430796432
 40
0.5051030905
 40
0.628813285
 40
0.7524028495
 40
0.8760932467
 40
1.0
 40
1.0
 40
1.0
 40
1.0
 10
6.0386845073
 20
3.9602271246
 30
0.0
 10
6.0378442611
 20
3.9602272655
 30
0.0
 10
6.0365761871
 20
3.9604201395
 30
0.0
 10
6.034997358
 20
3.9609970874
 30
0.0
 10
6.0338811712
 20
3.9615765535
 30
0.0
 10
6.0328436344
 20
3.962274802
 30
0.0
 10
6.0315696913
 20
3.9633311367
 30
0.0
 10
6.0301706623
 20
3.9648487505
 30
0.0
 10
6.0287791194
 20
3.9668752678
 30
0.0
 10
6.0276256364
 20
3.9690308179
 30
0.0
 10
6.0266835905
 20
3.9712747502
 30
0.0
 10
6.0256577956
 20
3.9743394321
 30
0.0
 10
6.0247455632
 20
3.9782731339
 30
0.0
 10
6.0240827014
 20
3.9830641409
 30
0.0
 10
6.0237455663
 20
3.9878901283
 30
0.0
 10
6.0236845129
 20
3.9911157901
 30
0.0
 10
6.0236845073
 20
3.992729752
 30
0.0
  0
SPLINE
  5
2C7
100
AcDbEntity
  8
0
100
AcDbSpline
 62
7
  6
CONTINUOUS
 70
0
 71
3
 72
18
 73
14
 74
0
 42
0.0000001
 43
0.0000001
 44
0.0000000001
 40
0.0
 40
0.0
 40
0.0
 40
0.0
 40
0.0625229616
 40
0.1251683396
 40
0.187765788
 40
0.2503588905
 40
0.3753119253
 40
0.5002733001
 40
0.6252165547
 40
0.7501342096
 40
0.8126205648
 40
0.8751040805
 40
1.0
 40
1.0
 40
1.0
 40
1.0
 10
6.0386845073
 20
3.9487373332
 30
0.0
 10
6.0374530102
 20
3.9487373742
 30
0.0
 10
6.0349833968
 20
3.9489394565
 30
0.0
 10
6.0313762395
 20
3.9498186822
 30
0.0
 10
6.027947221
 20
3.9512460257
 30
0.0
 10
6.0237048873
 20
3.9537796422
 30
0.0
 10
6.0191112999
 20
3.9579828353
 30
0.0
 10
6.0148923822
 20
3.9641018826
 30
0.0
 10
6.0118786979
 20
3.9708794831
 30
0.0
 10
6.0102543712
 20
3.9768344071
 30
0.0
 10
6.0094073501
 20
3.9816850995
 30
0.0
 10
6.0088344604
 20
3.9865753007
 30
0.0
 10
6.008684533
 20
3.9902697933
 30
0.0
 10
6.0086845073
 20
3.992729833
 30
0.0
  0
SPLINE
  5
2C8
100
AcDbEntity
  8
0
100
AcDbSpline
 62
7
  6
CONTINUOUS
 70
0
 71
3
 72
19
 73
15
 74
0
 42
0.0000001
 43
0.0000001
 44
0.0000000001
 40
0.0
 40
0.0
 40
0.0
 40
0.0
 40
0.1248888747
 40
0.1873528816
 40
0.2498246755
 40
0.3747217197
 40
0.4996406404
 40
0.6245550572
 40
0.6871058642
 40
0.7496676806
 40
0.8122312581
 40
0.8748167784
 40
0.9374608038
 40
1.0
 40
1.0
 40
1.0
 40
1.0
 10
6.2886845073
 20
3.992729833
 30
0.0
 10
6.2886845064
 20
3.990269341
 30
0.0
 10
6.2885345192
 20
3.9865744876
 30
0.0
 10
6.2879614556
 20
3.9816839141
 30
0.0
 10
6.2871141826
 20
3.9768332253
 30
0.0
 10
6.285489328
 20
3.9708775928
 30
0.0
 10
6.2824775933
 20
3.9641017629
 30
0.0
 10
6.2789543722
 20
3.9589961619
 30
0.0
 10
6.2755059797
 20
3.9554641612
 30
0.0
 10
6.2726085541
 20
3.9531501383
 30
0.0
 10
6.2694240312
 20
3.9512465526
 30
0.0
 10
6.2659950816
 20
3.9498196708
 30
0.0
 10
6.262387157
 20
3.9489393384
 30
0.0
 10
6.2599166202
 20
3.9487373554
 30
0.0
 10
6.2586845073
 20
3.9487373332
 30
0.0
  0
SPLINE
  5
2C9
100
AcDbEntity
  8
0
100
AcDbSpline
 62
7
  6
CONTINUOUS
 70
0
 71
3
 72
21
 73
17
 74
0
 42
0.0000001
 43
0.0000001
 44
0.0000000001
 40
0.0
 40
0.0
 40
0.0
 40
0.0
 40
0.124881106
 40
0.1874283225
 40
0.2499431862
 40
0.3124540212
 40
0.3749757737
 40
0.4375002927
 40
0.5000216372
 40
0.5625402973
 40
0.625052558
 40
0.6875586792
 40
0.7500540425
 40
0.8125586332
 40
0.8751052337
 40
1.0
 40
1.0
 40
1.0
 40
1.0
 10
6.2586845073
 20
3.9298651881
 30
0.0
 10
6.2619750958
 20
3.9298654363
 30
0.0
 10
6.2669322815
 20
3.930364513
 30
0.0
 10
6.2733201459
 20
3.9319976849
 30
0.0
 10
6.2779710394
 20
3.9336964647
 30
0.0
 10
6.2824283041
 20
3.9358490297
 30
0.0
 10
6.2866503403
 20
3.9384333893
 30
0.0
 10
6.2905973531
 20
3.9414213295
 30
0.0
 10
6.2942294517
 20
3.9447848292
 30
0.0
 10
6.2975150946
 20
3.9484869685
 30
0.0
 10
6.3004218009
 20
3.95249295
 30
0.0
 10
6.3029255856
 20
3.9567615796
 30
0.0
 10
6.3050037261
 20
3.9612523575
 30
0.0
 10
6.3066389548
 20
3.9659246416
 30
0.0
 10
6.3082066494
 20
3.9723284473
 30
0.0
 10
6.3086842783
 20
3.9772845657
 30
0.0
 10
6.3086845073
 20
3.9805755141
 30
0.0
  0
SPLINE
  5
2CA
100
AcDbEntity
  8
0
100
AcDbSpline
 62
7
  6
CONTINUOUS
 70
0
 71
3
 72
21
 73
17
 74
0
 42
0.0000001
 43
0.0000001
 44
0.0000000001
 40
0.0
 40
0.0
 40
0.0
 40
0.0
 40
0.1248872257
 40
0.1874350285
 40
0.249949278
 40
0.3124576719
 40
0.3749775952
 40
0.4375002653
 40
0.5000224148
 40
0.5625406348
 40
0.625053976
 40
0.6875611292
 40
0.7500575795
 40
0.8125618332
 40
0.8751087122
 40
1.0
 40
1.0
 40
1.0
 40
1.0
 10
5.9886845073
 20
3.9805755141
 30
0.0
 10
5.9886847504
 20
3.9772847645
 30
0.0
 10
5.9891621311
 20
3.9723287853
 30
0.0
 10
5.9907300488
 20
3.9659249374
 30
0.0
 10
5.9923654196
 20
3.9612520454
 30
0.0
 10
5.9944439385
 20
3.9567603628
 30
0.0
 10
5.9969486535
 20
3.9524911426
 30
0.0
 10
5.999855743
 20
3.9484845447
 30
0.0
 10
6.0031418749
 20
3.9447824325
 30
0.0
 10
6.0067740917
 20
3.9414195085
 30
0.0
 10
6.010720405
 20
3.9384319031
 30
0.0
 10
6.0149418174
 20
3.9358485405
 30
0.0
 10
6.0193981084
 20
3.9336964127
 30
0.0
 10
6.0240483354
 20
3.9319977203
 30
0.0
 10
6.030436249
 20
3.9303648502
 30
0.0
 10
6.0353936507
 20
3.9298654232
 30
0.0
 10
6.0386845073
 20
3.9298651881
 30
0.0
  0
SPLINE
  5
2CB
100
AcDbEntity
  8
0
100
AcDbSpline
 62
7
  6
CONTINUOUS
 70
0
 71
3
 72
19
 73
15
 74
0
 42
0.0000001
 43
0.0000001
 44
0.0000000001
 40
0.0
 40
0.0
 40
0.0
 40
0.0
 40
0.12492947
 40
0.1874993544
 40
0.2500340469
 40
0.3125617549
 40
0.3751011424
 40
0.4376438857
 40
0.5001866168
 40
0.5627255596
 40
0.6252587959
 40
0.7501442921
 40
0.8750704328
 40
1.0
 40
1.0
 40
1.0
 40
1.0
 10
5.9886845073
 20
5.2313752583
 30
0.0
 10
5.9886847559
 20
5.2346660998
 30
0.0
 10
5.9891622433
 20
5.2396222283
 30
0.0
 10
5.9907301403
 20
5.2460262774
 30
0.0
 10
5.9923656293
 20
5.2506992308
 30
0.0
 10
5.9944441776
 20
5.2551909309
 30
0.0
 10
5.9969489881
 20
5.2594601085
 30
0.0
 10
5.9998561649
 20
5.2634667351
 30
0.0
 10
6.0031422938
 20
5.2671688279
 30
0.0
 10
6.0067750425
 20
5.2705318815
 30
0.0
 10
6.0120312105
 20
5.2745118173
 30
0.0
 10
6.0193046645
 20
5.2784839706
 30
0.0
 10
6.0287929942
 20
5.2814216534
 30
0.0
 10
6.0353936633
 20
5.2820853624
 30
0.0
 10
6.0386845073
 20
5.2820855843
 30
0.0
  0
SPLINE
  5
2CC
100
AcDbEntity
  8
0
100
AcDbSpline
 62
7
  6
CONTINUOUS
 70
0
 71
3
 72
19
 73
15
 74
0
 42
0.0000001
 43
0.0000001
 44
0.0000000001
 40
0.0
 40
0.0
 40
0.0
 40
0.0
 40
0.1249213581
 40
0.1874895493
 40
0.2500236017
 40
0.3125526623
 40
0.3750927882
 40
0.4376364056
 40
0.5001772368
 40
0.5627154097
 40
0.6252464095
 40
0.7501340752
 40
0.8750689523
 40
1.0
 40
1.0
 40
1.0
 40
1.0
 10
6.2586845073
 20
5.2820855843
 30
0.0
 10
6.2619751921
 20
5.2820853307
 30
0.0
 10
6.266932529
 20
5.2815861384
 30
0.0
 10
6.2733205971
 20
5.2799529951
 30
0.0
 10
6.2779715402
 20
5.2782540844
 30
0.0
 10
6.282428821
 20
5.2761014992
 30
0.0
 10
6.2866508067
 20
5.2735170305
 30
0.0
 10
6.2905978611
 20
5.2705290207
 30
0.0
 10
6.2942299272
 20
5.2671655012
 30
0.0
 10
6.2975156861
 20
5.2634628686
 30
0.0
 10
6.3013880185
 20
5.2581269701
 30
0.0
 10
6.3052281001
 20
5.2507854397
 30
0.0
 10
6.3080494088
 20
5.2412657861
 30
0.0
 10
6.3086842907
 20
5.2346661983
 30
0.0
 10
6.3086845073
 20
5.2313752583
 30
0.0
  0
SPLINE
  5
2CD
100
AcDbEntity
  8
0
100
AcDbSpline
 62
7
  6
CONTINUOUS
 70
0
 71
3
 72
18
 73
14
 74
0
 42
0.0000001
 43
0.0000001
 44
0.0000000001
 40
0.0
 40
0.0
 40
0.0
 40
0.0
 40
0.0625620173
 40
0.1252655559
 40
0.1879168763
 40
0.2505646376
 40
0.3755253449
 40
0.5004230071
 40
0.6252949151
 40
0.7501701802
 40
0.8126382534
 40
0.8751041621
 40
1.0
 40
1.0
 40
1.0
 40
1.0
 10
6.2586845073
 20
5.2632134391
 30
0.0
 10
6.2599167721
 20
5.2632134158
 30
0.0
 10
6.262388247
 20
5.2630106071
 30
0.0
 10
6.2659983367
 20
5.2621306784
 30
0.0
 10
6.2694297307
 20
5.260700393
 30
0.0
 10
6.2736733596
 20
5.2581645036
 30
0.0
 10
6.2782649157
 20
5.2539590822
 30
0.0
 10
6.2824807665
 20
5.2478411703
 30
0.0
 10
6.2854918093
 20
5.2410662557
 30
0.0
 10
6.2871148904
 20
5.2351137508
 30
0.0
 10
6.2879617864
 20
5.2302646093
 30
0.0
 10
6.2885345344
 20
5.2253751107
 30
0.0
 10
6.2886845071
 20
5.2216809743
 30
0.0
 10
6.2886845073
 20
5.2192209394
 30
0.0
  0
SPLINE
  5
2CE
100
AcDbEntity
  8
0
100
AcDbSpline
 62
7
  6
CONTINUOUS
 70
0
 71
3
 72
18
 73
14
 74
0
 42
0.0000001
 43
0.0000001
 44
0.0000000001
 40
0.0
 40
0.0
 40
0.0
 40
0.0
 40
0.1249388503
 40
0.2498877915
 40
0.3748486427
 40
0.4997964051
 40
0.6247023812
 40
0.687238053
 40
0.7497722173
 40
0.8122949246
 40
0.8748260472
 40
0.9374462548
 40
1.0
 40
1.0
 40
1.0
 40
1.0
 10
6.0086845073
 20
5.2192209394
 30
0.0
 10
6.0086845059
 20
5.2216822952
 30
0.0
 10
6.008884604
 20
5.2266089141
 30
0.0
 10
6.0099314302
 20
5.2339341118
 30
0.0
 10
6.0118824759
 20
5.2410811402
 30
0.0
 10
6.0148962829
 20
5.2478579512
 30
0.0
 10
6.0184211714
 20
5.2529619502
 30
0.0
 10
6.0218690711
 20
5.2564927621
 30
0.0
 10
6.0247663274
 20
5.2588040072
 30
0.0
 10
6.0279484293
 20
5.260706508
 30
0.0
 10
6.0313754989
 20
5.2621313352
 30
0.0
 10
6.0349818933
 20
5.2630116301
 30
0.0
 10
6.0374521683
 20
5.2632134747
 30
0.0
 10
6.0386845073
 20
5.2632134391
 30
0.0
  0
ENDSEC
  0
SECTION
  2
OBJECTS
  0
DICTIONARY
  5
C
100
AcDbDictionary
280
0
281
1
  3
ACAD_GROUP
350
D
  3
ACAD_MLINESTYLE
350
17
  3
ACAD_LAYOUT
350
1A
  3
ACAD_PLOTSETTINGS
350
19
  3
ACAD_PLOTSTYLENAME
350
E
  0
DICTIONARY
  5
D
102
{ACAD_REACTORS
330
C
102
}
100
AcDbDictionary
280
0
281
1
  0
ACDBDICTIONARYWDFLT
  5
E
102
{ACAD_REACTORS
330
C
102
}
100
AcDbDictionary
281
1
  3
Normal
350
F
100
AcDbDictionaryWithDefault
340
F
  0
DICTIONARY
  5
17
102
{ACAD_REACTORS
330
C
102
}
100
AcDbDictionary
280
0
281
1
  3
Standard
350
18
  0
DICTIONARY
  5
19
102
{ACAD_REACTORS
330
C
102
}
100
AcDbDictionary
281
1
  0
DICTIONARY
  5
1A
102
{ACAD_REACTORS
330
C
102
}
100
AcDbDictionary
281
1
  3
Model
350
2CF
  3
Layout1
350
2D0
  0
ACDBPLACEHOLDER
  5
F
102
{ACAD_REACTORS
330
E
102
}
  0
MLINESTYLE
  5
18
102
{ACAD_REACTORS
330
17
102
}
100
AcDbMlineStyle
  2
STANDARD
 70
0
  3

 62
256
 51
90.0
 52
90.0
 71
2
 49
0.5
 62
256
  6
BYLAYER
 49
-0.5
 62
256
  6
BYLAYER
  0
LAYOUT
  5
2CF
102
{ACAD_REACTORS
330
1A
102
}
100
AcDbPlotSettings
  1

  2
none_device
  4
ANSI_A_(11.00_x_8.50_Inches)
  6

 40
0.0
 41
0.0
 42
0.0
 43
0.0
 44
279.4
 45
215.9
 46
0.0
 47
0.0
 48
0.0
 49
0.0
140
0.0
141
0.0
142
1.0
143
1.0
 70
1024
 72
0
 73
0
 74
0
  7

 75
0
147
1.0
148
0.0
149
0.0
100
AcDbLayout
  1
Model
 70
0
 71
0
 10
0.0
 20
0.0
 11
11.0
 21
8.5
 12
0.0
 22
0.0
 32
0.0
 14
0.0
 24
0.0
 34
0.0
 15
0.0
 25
0.0
 35
0.0
146
0.0
 13
0.0
 23
0.0
 33
0.0
 16
1.0
 26
0.0
 36
0.0
 17
0.0
 27
1.0
 37
0.0
 76
0
330
219
345
0
346
0
  0
LAYOUT
  5
2D0
102
{ACAD_REACTORS
330
1A
102
}
100
AcDbPlotSettings
  1

  2
none_device
  4
ANSI_A_(11.00_x_8.50_Inches)
  6

 40
0.0
 41
0.0
 42
0.0
 43
0.0
 44
279.4
 45
215.9
 46
0.0
 47
0.0
 48
0.0
 49
0.0
140
0.0
141
0.0
142
1.0
143
1.0
 70
0
 72
0
 73
0
 74
0
  7

 75
0
147
1.0
148
0.0
149
0.0
100
AcDbLayout
  1
Layout1
 70
0
 71
1
 10
0.0
 20
0.0
 11
11.0
 21
8.5
 12
0.0
 22
0.0
 32
0.0
 14
0.0
 24
0.0
 34
0.0
 15
0.0
 25
0.0
 35
0.0
146
0.0
 13
0.0
 23
0.0
 33
0.0
 16
1.0
 26
0.0
 36
0.0
 17
0.0
 27
1.0
 37
0.0
 76
0
330
21A
345
0
346
0
  0
ENDSEC
  0
EOF
