999
DXF file: 3-3285_RIGHT.dxf
999
Pro/ENGINEER 2018400 by Parametric Technology Corporation
  0
SECTION
  2
HEADER
  9
$ACADVER
  1
AC1027
  9
$DWGCODEPAGE
  3
ANSI_1252
  9
$EXTMAX
 10
11.0
 20
8.5
 30
0.0
  9
$EXTMIN
 10
0.0
 20
0.0
 30
0.0
  9
$LIMMIN
 10
0.0
 20
0.0
  9
$LIMMAX
 10
11.0
 20
8.5
  9
$VIEWCTR
 10
5.5
 20
4.25
  9
$VIEWSIZE
 40
8.5
  9
$CLAYER
  8
0
  9
$LTSCALE
 40
0.605
  9
$CELTYPE
  6
BYLAYER
  9
$DIMSCALE
 40
1.0
  9
$DIMASZ
 40
0.1
  9
$DIMEXO
 40
0.0625
  9
$DIMDLI
 40
0.418
  9
$DIMEXE
 40
0.125
  9
$DIMCEN
 40
0.099
  9
$DIMLFAC
 40
1.0
  9
$DIMBLK
  1
_FILLED
  9
$DIMALT
 70
1
  9
$DIMALTD
 70
2
  9
$DIMALTTD
 70
2
  9
$DIMALTF
 40
25.4
  9
$DIMTXT
 40
0.08
  9
$DIMTOL
 70
1
  9
$DIMLIM
 70
0
  9
$DIMTFAC
 40
1.0
  9
$DIMTP
 40
0.001
  9
$DIMTM
 40
0.001
  9
$DIMGAP
 40
0.09
  9
$DIMDSEP
 70
46
  9
$AUNITS
 70
0
  9
$PDMODE
 70
3
  9
$PDSIZE
 40
0.3125
  9
$HANDSEED
  5
2F5
  9
$TILEMODE
 70
1
  9
$MEASUREMENT
 70
0
  9
$INSUNITS
 70
1
  0
ENDSEC
  0
SECTION
  2
CLASSES
  0
CLASS
  1
ACDBDICTIONARYWDFLT
  2
AcDbDictionaryWithDefault
  3
AutoCAD 2000
 90
0
 91
1
280
0
281
0
  0
CLASS
  1
ACDBPLACEHOLDER
  2
AcDbPlaceHolder
  3
AutoCAD 2000
 90
0
 91
1
280
0
281
0
  0
CLASS
  1
LAYOUT
  2
AcDbLayout
  3
AutoCAD 2000
 90
0
 91
0
280
0
281
0
  0
ENDSEC
  0
SECTION
  2
TABLES
  0
TABLE
  2
VPORT
  5
8
100
AcDbSymbolTable
 70
2
  0
VPORT
  5
1F4
100
AcDbSymbolTableRecord
100
AcDbViewportTableRecord
  2
*ACTIVE
 70
0
 10
0.0
 20
0.0
 11
1.0
 21
1.0
 12
5.5
 22
4.25
 13
0.0
 23
0.0
 14
1.0
 24
1.0
 15
0.0
 25
0.0
 16
0.0
 26
0.0
 36
1.0
 17
0.0
 27
0.0
 37
0.0
 40
8.5
 41
1.2941176471
 42
50.0
 43
0.0
 44
0.0
 50
0.0
 51
0.0
 71
0
 72
100
 73
1
 74
1
 75
0
 76
0
 77
0
 78
0
  0
ENDTAB
  0
TABLE
  2
LTYPE
  5
5
100
AcDbSymbolTable
 70
6
  0
LTYPE
  5
14
100
AcDbSymbolTableRecord
100
AcDbLinetypeTableRecord
  2
BYBLOCK
 70
0
  3

 72
65
 73
0
 40
0.0
  0
LTYPE
  5
15
100
AcDbSymbolTableRecord
100
AcDbLinetypeTableRecord
  2
BYLAYER
 70
0
  3

 72
65
 73
0
 40
0.0
  0
LTYPE
  5
16
100
AcDbSymbolTableRecord
100
AcDbLinetypeTableRecord
  2
CONTINUOUS
 70
64
  3
Solid line
 72
65
 73
0
 40
0.0
  0
LTYPE
  5
1F5
100
AcDbSymbolTableRecord
100
AcDbLinetypeTableRecord
  2
CENTER
 70
64
  3
____ _ ____ _ ____ _ ____ _ ____ _ ____ _ ____
 72
65
 73
4
 40
0.6
 49
0.375
 74
0
 49
-0.075
 74
0
 49
0.075
 74
0
 49
-0.075
 74
0
  0
LTYPE
  5
1F6
100
AcDbSymbolTableRecord
100
AcDbLinetypeTableRecord
  2
HIDDEN
 70
64
  3
- - - - - - - - - - - - - - - - - - - -
 72
65
 73
2
 40
0.2
 49
0.1
 74
0
 49
-0.1
 74
0
  0
LTYPE
  5
1F7
100
AcDbSymbolTableRecord
100
AcDbLinetypeTableRecord
  2
PHANTOM
 70
64
  3
_____ _ _ _____ _ _ _____ _ _ _____
 72
65
 73
6
 40
0.8
 49
0.45
 74
0
 49
-0.05
 74
0
 49
0.1
 74
0
 49
-0.05
 74
0
 49
0.1
 74
0
 49
-0.05
 74
0
  0
LTYPE
  5
1F8
100
AcDbSymbolTableRecord
100
AcDbLinetypeTableRecord
  2
DOT
 70
64
  3
. . . . . . . . . . . . . . . . . . . .
 72
65
 73
2
 40
0.2
 49
0.1
 74
0
 49
-0.1
 74
0
  0
LTYPE
  5
1F9
100
AcDbSymbolTableRecord
100
AcDbLinetypeTableRecord
  2
DASHED
 70
64
  3
- - - - - - - - - - - - - - - - - - - -
 72
65
 73
2
 40
0.2
 49
0.1
 74
0
 49
-0.1
 74
0
  0
ENDTAB
  0
TABLE
  2
LAYER
  5
2
100
AcDbSymbolTable
 70
36
  0
LAYER
  5
10
100
AcDbSymbolTableRecord
100
AcDbLayerTableRecord
  2
0
 70
0
 62
7
  6
CONTINUOUS
370
-3
390
F
  0
LAYER
  5
1FA
100
AcDbSymbolTableRecord
100
AcDbLayerTableRecord
  2
DEFAULT_1
 70
0
 62
7
  6
CENTER
370
-3
390
F
  0
LAYER
  5
1FB
100
AcDbSymbolTableRecord
100
AcDbLayerTableRecord
  2
DEFAULT_2
 70
0
 62
8
  6
HIDDEN
370
-3
390
F
  0
LAYER
  5
1FC
100
AcDbSymbolTableRecord
100
AcDbLayerTableRecord
  2
DEFAULT_3
 70
0
 62
7
  6
PHANTOM
370
-3
390
F
  0
LAYER
  5
1FD
100
AcDbSymbolTableRecord
100
AcDbLayerTableRecord
  2
3-985_ASSY_PLANES
 70
0
 62
7
  6
CONTINUOUS
370
-3
390
F
  0
LAYER
  5
1FE
100
AcDbSymbolTableRecord
100
AcDbLayerTableRecord
  2
ALL_ASSEMBLY_MEMBERS
 70
0
 62
7
  6
CONTINUOUS
370
-3
390
F
  0
LAYER
  5
1FF
100
AcDbSymbolTableRecord
100
AcDbLayerTableRecord
  2
ALL_FEATURES
 70
0
 62
7
  6
CONTINUOUS
370
-3
390
F
  0
LAYER
  5
200
100
AcDbSymbolTableRecord
100
AcDbLayerTableRecord
  2
AXES_FEATURES
 70
0
 62
7
  6
CONTINUOUS
370
-3
390
F
  0
LAYER
  5
201
100
AcDbSymbolTableRecord
100
AcDbLayerTableRecord
  2
CHAMFER_FEATURES
 70
0
 62
7
  6
CONTINUOUS
370
-3
390
F
  0
LAYER
  5
202
100
AcDbSymbolTableRecord
100
AcDbLayerTableRecord
  2
CURVE
 70
0
 62
7
  6
CONTINUOUS
370
-3
390
F
  0
LAYER
  5
203
100
AcDbSymbolTableRecord
100
AcDbLayerTableRecord
  2
CUT_FEATURES
 70
0
 62
7
  6
CONTINUOUS
370
-3
390
F
  0
LAYER
  5
204
100
AcDbSymbolTableRecord
100
AcDbLayerTableRecord
  2
DATUM_CURVES
 70
0
 62
7
  6
CONTINUOUS
370
-3
390
F
  0
LAYER
  5
205
100
AcDbSymbolTableRecord
100
AcDbLayerTableRecord
  2
DATUM_PLANES
 70
0
 62
7
  6
CONTINUOUS
370
-3
390
F
  0
LAYER
  5
206
100
AcDbSymbolTableRecord
100
AcDbLayerTableRecord
  2
DEFAULT_COORDINATE_SYSTEM
 70
0
 62
7
  6
CONTINUOUS
370
-3
390
F
  0
LAYER
  5
207
100
AcDbSymbolTableRecord
100
AcDbLayerTableRecord
  2
DEFAULT_DATUM_AXES
 70
0
 62
7
  6
CONTINUOUS
370
-3
390
F
  0
LAYER
  5
208
100
AcDbSymbolTableRecord
100
AcDbLayerTableRecord
  2
DEFAULT_DATUM_CURVES
 70
0
 62
7
  6
CONTINUOUS
370
-3
390
F
  0
LAYER
  5
209
100
AcDbSymbolTableRecord
100
AcDbLayerTableRecord
  2
DEFAULT_DATUM_PLANES
 70
0
 62
7
  6
CONTINUOUS
370
-3
390
F
  0
LAYER
  5
20A
100
AcDbSymbolTableRecord
100
AcDbLayerTableRecord
  2
DEFAULT_SURFACES
 70
0
 62
7
  6
CONTINUOUS
370
-3
390
F
  0
LAYER
  5
20B
100
AcDbSymbolTableRecord
100
AcDbLayerTableRecord
  2
DIMENSIONS
 70
0
 62
7
  6
CONTINUOUS
370
-3
390
F
  0
LAYER
  5
20C
100
AcDbSymbolTableRecord
100
AcDbLayerTableRecord
  2
HOLE_FEATURES
 70
0
 62
7
  6
CONTINUOUS
370
-3
390
F
  0
LAYER
  5
20D
100
AcDbSymbolTableRecord
100
AcDbLayerTableRecord
  2
NONE
 70
0
 62
7
  6
CONTINUOUS
370
-3
390
F
  0
LAYER
  5
20E
100
AcDbSymbolTableRecord
100
AcDbLayerTableRecord
  2
PART_REFERENCE_DIMENSIONS
 70
0
 62
7
  6
CONTINUOUS
370
-3
390
F
  0
LAYER
  5
20F
100
AcDbSymbolTableRecord
100
AcDbLayerTableRecord
  2
PROTRUSION_FEATURES
 70
0
 62
7
  6
CONTINUOUS
370
-3
390
F
  0
LAYER
  5
210
100
AcDbSymbolTableRecord
100
AcDbLayerTableRecord
  2
QUILTS
 70
0
 62
7
  6
CONTINUOUS
370
-3
390
F
  0
LAYER
  5
211
100
AcDbSymbolTableRecord
100
AcDbLayerTableRecord
  2
REFERENCE_DIMENSIONS
 70
0
 62
7
  6
CONTINUOUS
370
-3
390
F
  0
LAYER
  5
212
100
AcDbSymbolTableRecord
100
AcDbLayerTableRecord
  2
ROUND_FEATURES
 70
0
 62
7
  6
CONTINUOUS
370
-3
390
F
  0
LAYER
  5
213
100
AcDbSymbolTableRecord
100
AcDbLayerTableRecord
  2
SIZE_REF
 70
0
 62
7
  6
CONTINUOUS
370
-3
390
F
  0
LAYER
  5
214
100
AcDbSymbolTableRecord
100
AcDbLayerTableRecord
  2
WETTED_SURFACES
 70
0
 62
7
  6
CONTINUOUS
370
-3
390
F
  0
LAYER
  5
215
100
AcDbSymbolTableRecord
100
AcDbLayerTableRecord
  2
WETTED_SURFACE_AREA
 70
0
 62
7
  6
CONTINUOUS
370
-3
390
F
  0
LAYER
  5
216
100
AcDbSymbolTableRecord
100
AcDbLayerTableRecord
  2
XSEC_DATUMS
 70
0
 62
7
  6
CONTINUOUS
370
-3
390
F
  0
ENDTAB
  0
TABLE
  2
STYLE
  5
3
100
AcDbSymbolTable
 70
1
  0
STYLE
  5
11
100
AcDbSymbolTableRecord
100
AcDbTextStyleTableRecord
  2
STANDARD
 70
0
 40
0.0
 41
0.8
 50
0.0
 71
0
 42
0.2
  3
txt
  4

  0
STYLE
  5
217
100
AcDbSymbolTableRecord
100
AcDbTextStyleTableRecord
  2
TEXTSTYLE_1
 70
0
 40
0.0
 41
0.8
 50
0.0
 71
0
 42
0.2
  3
gdt
  4

  0
ENDTAB
  0
TABLE
  2
VIEW
  5
6
100
AcDbSymbolTable
 70
0
  0
ENDTAB
  0
TABLE
  2
UCS
  5
7
100
AcDbSymbolTable
 70
0
  0
ENDTAB
  0
TABLE
  2
APPID
  5
9
100
AcDbSymbolTable
 70
1
  0
APPID
  5
218
100
AcDbSymbolTableRecord
100
AcDbRegAppTableRecord
  2
ACAD
 70
0
  0
ENDTAB
  0
TABLE
  2
BLOCK_RECORD
  5
1
100
AcDbSymbolTable
 70
0
  0
BLOCK_RECORD
  5
219
100
AcDbSymbolTableRecord
100
AcDbBlockTableRecord
  2
*Model_Space
  0
BLOCK_RECORD
  5
21A
100
AcDbSymbolTableRecord
100
AcDbBlockTableRecord
  2
*Paper_Space
  0
BLOCK_RECORD
  5
21B
100
AcDbSymbolTableRecord
100
AcDbBlockTableRecord
  2
_FILLED
  0
ENDTAB
  0
TABLE
  2
DIMSTYLE
  5
A
100
AcDbSymbolTable
 70
1
100
AcDbDimStyleTable
 71
0
  0
DIMSTYLE
105
21C
100
AcDbSymbolTableRecord
100
AcDbDimStyleTableRecord
  2
STANDARD
 70
0
  3

  4

 40
1.0
 41
0.1
 42
0.0625
 43
0.38
 44
0.125
 45
0.0
 46
0.0
 47
0.001
 48
0.001
140
0.08
141
0.09
142
0.0
143
25.4
144
1.0
145
0.0
146
1.0
147
0.09
 71
1.0
 72
0.0
 73
1
 74
1
 75
0
 76
0
 77
0
 78
4
 79
1
170
1
171
2
172
0
173
0
174
0
175
0
176
0
177
0
178
0
270
2
179
3
271
3
272
3
273
2
274
2
275
0
280
0
281
0
282
0
283
1
284
4
285
0
286
0
287
3
288
0
340
11
278
46
341
21B
342
21B
343
21B
344
21B
  0
ENDTAB
  0
ENDSEC
  0
SECTION
  2
BLOCKS
  0
BLOCK
  5
20
100
AcDbEntity
  8
0
100
AcDbBlockBegin
  2
*Model_Space
 70
0
 10
0.0
 20
0.0
 30
0.0
  3
*Model_Space
  1

  0
ENDBLK
  5
21
100
AcDbEntity
  8
0
100
AcDbBlockEnd
  0
BLOCK
  5
1C
100
AcDbEntity
  8
0
100
AcDbBlockBegin
  2
*Paper_Space
 70
0
 10
0.0
 20
0.0
 30
0.0
  3
*Paper_Space
  1

  0
ENDBLK
  5
1D
100
AcDbEntity
  8
0
100
AcDbBlockEnd
  0
BLOCK
  5
21D
100
AcDbEntity
  8
0
100
AcDbBlockBegin
  2
_FILLED
 70
64
 10
0.0
 20
0.0
  3
_FILLED
  1

  0
SOLID
  5
21E
100
AcDbEntity
  8
0
  6
BYBLOCK
 62
0
100
AcDbTrace
 10
0.0
 20
0.0
 11
-1.0
 21
0.2
 12
-1.0
 22
-0.2
 13
-1.0
 23
-0.2
  0
ENDBLK
  5
21F
100
AcDbEntity
  8
0
  6
BYBLOCK
 62
0
100
AcDbBlockEnd
  0
ENDSEC
  0
SECTION
  2
ENTITIES
  0
MTEXT
  5
220
100
AcDbEntity
  8
0
100
AcDbMText
 62
2
  6
CONTINUOUS
  7
STANDARD
 71
3
 72
1
 10
3.7300895971
 20
1.5539179328
 30
0.0
 11
1.0
 21
0.0
 31
0.0
 73
2
 44
0.9
  1
SCALE  .500
 40
0.08
 41
0.704
  0
LINE
  5
221
100
AcDbEntity
  8
0
100
AcDbLine
 62
7
  6
CONTINUOUS
 10
0.0
 20
0.0
 11
0.0
 21
8.5
  0
LINE
  5
222
100
AcDbEntity
  8
0
100
AcDbLine
 62
7
  6
CONTINUOUS
 10
0.0
 20
0.0
 11
11.0
 21
0.0
  0
LINE
  5
223
100
AcDbEntity
  8
0
100
AcDbLine
 62
7
  6
CONTINUOUS
 10
0.0
 20
8.5
 11
11.0
 21
8.5
  0
LINE
  5
224
100
AcDbEntity
  8
0
100
AcDbLine
 62
7
  6
CONTINUOUS
 10
11.0
 20
0.0
 11
11.0
 21
8.5
  0
LINE
  5
225
100
AcDbEntity
  8
ALL_ASSEMBLY_MEMBERS
100
AcDbLine
 62
7
  6
CONTINUOUS
 10
2.8387109049
 20
1.9602145166
 11
3.3487109049
 21
1.9602145166
  0
LINE
  5
226
100
AcDbEntity
  8
ALL_ASSEMBLY_MEMBERS
100
AcDbLine
 62
7
  6
CONTINUOUS
 10
2.8237109049
 20
1.9752145166
 11
3.3637109049
 21
1.9752145166
  0
LINE
  5
227
100
AcDbEntity
  8
ALL_ASSEMBLY_MEMBERS
100
AcDbLine
 62
7
  6
CONTINUOUS
 10
2.8237109049
 20
1.9952145166
 11
3.3637109049
 21
1.9952145166
  0
LINE
  5
228
100
AcDbEntity
  8
ALL_ASSEMBLY_MEMBERS
100
AcDbLine
 62
7
  6
CONTINUOUS
 10
3.3487109049
 20
2.0102145166
 11
2.8387109049
 21
2.0102145166
  0
LINE
  5
229
100
AcDbEntity
  8
ALL_ASSEMBLY_MEMBERS
100
AcDbLine
 62
7
  6
CONTINUOUS
 10
3.3337109049
 20
2.0252145166
 11
2.8537109049
 21
2.0252145166
  0
LINE
  5
22A
100
AcDbEntity
  8
ALL_ASSEMBLY_MEMBERS
100
AcDbLine
 62
7
  6
CONTINUOUS
 10
3.3337109049
 20
2.3002145166
 11
2.8537109049
 21
2.3002145166
  0
LINE
  5
22B
100
AcDbEntity
  8
ALL_ASSEMBLY_MEMBERS
100
AcDbLine
 62
7
  6
CONTINUOUS
 10
3.3487109049
 20
2.3152145166
 11
2.8387109049
 21
2.3152145166
  0
LINE
  5
22C
100
AcDbEntity
  8
ALL_ASSEMBLY_MEMBERS
100
AcDbLine
 62
7
  6
CONTINUOUS
 10
2.8237109049
 20
2.3302145166
 11
3.3637109049
 21
2.3302145166
  0
LINE
  5
22D
100
AcDbEntity
  8
ALL_ASSEMBLY_MEMBERS
100
AcDbLine
 62
7
  6
CONTINUOUS
 10
2.8237109049
 20
2.3502145166
 11
3.3637109049
 21
2.3502145166
  0
LINE
  5
22E
100
AcDbEntity
  8
ALL_ASSEMBLY_MEMBERS
100
AcDbLine
 62
7
  6
CONTINUOUS
 10
2.8237109049
 20
2.3502145166
 11
2.8237109049
 21
2.3302145166
  0
LINE
  5
22F
100
AcDbEntity
  8
ALL_ASSEMBLY_MEMBERS
100
AcDbLine
 62
7
  6
CONTINUOUS
 10
2.8237109049
 20
1.9952145166
 11
2.8237109049
 21
1.9752145166
  0
LINE
  5
230
100
AcDbEntity
  8
ALL_ASSEMBLY_MEMBERS
100
AcDbLine
 62
7
  6
CONTINUOUS
 10
2.8537109049
 20
2.3002145166
 11
2.8537109049
 21
2.0252145166
  0
LINE
  5
231
100
AcDbEntity
  8
ALL_ASSEMBLY_MEMBERS
100
AcDbLine
 62
7
  6
CONTINUOUS
 10
2.8749609049
 20
2.5902145166
 11
2.8749609049
 21
2.3652145166
  0
LINE
  5
232
100
AcDbEntity
  8
ALL_ASSEMBLY_MEMBERS
100
AcDbLine
 62
7
  6
CONTINUOUS
 10
2.8387109049
 20
2.3652145166
 11
3.3487109049
 21
2.3652145166
  0
LINE
  5
233
100
AcDbEntity
  8
ALL_ASSEMBLY_MEMBERS
100
AcDbLine
 62
7
  6
CONTINUOUS
 10
3.3124609049
 20
2.5902145166
 11
2.8749609049
 21
2.5902145166
  0
LINE
  5
234
100
AcDbEntity
  8
ALL_ASSEMBLY_MEMBERS
100
AcDbLine
 62
7
  6
CONTINUOUS
 10
3.3124609049
 20
2.5902145166
 11
3.3124609049
 21
2.3652145166
  0
LINE
  5
235
100
AcDbEntity
  8
ALL_ASSEMBLY_MEMBERS
100
AcDbLine
 62
7
  6
CONTINUOUS
 10
3.3337109049
 20
2.3002145166
 11
3.3337109049
 21
2.0252145166
  0
LINE
  5
236
100
AcDbEntity
  8
ALL_ASSEMBLY_MEMBERS
100
AcDbLine
 62
7
  6
CONTINUOUS
 10
3.3637109049
 20
2.3502145166
 11
3.3637109049
 21
2.3302145166
  0
LINE
  5
237
100
AcDbEntity
  8
ALL_ASSEMBLY_MEMBERS
100
AcDbLine
 62
7
  6
CONTINUOUS
 10
3.3637109049
 20
1.9952145166
 11
3.3637109049
 21
1.9752145166
  0
LINE
  5
238
100
AcDbEntity
  8
ALL_ASSEMBLY_MEMBERS
100
AcDbLine
 62
7
  6
CONTINUOUS
 10
7.1812109049
 20
3.0277145166
 11
7.2187109049
 21
3.0277145166
  0
LINE
  5
239
100
AcDbEntity
  8
ALL_ASSEMBLY_MEMBERS
100
AcDbLine
 62
7
  6
CONTINUOUS
 10
7.0562109049
 20
3.0677145166
 11
7.1437109049
 21
3.0677145166
  0
LINE
  5
23A
100
AcDbEntity
  8
ALL_ASSEMBLY_MEMBERS
100
AcDbLine
 62
7
  6
CONTINUOUS
 10
5.9037109049
 20
3.2622145166
 11
5.9320687692
 21
3.2622145166
  0
LINE
  5
23B
100
AcDbEntity
  8
ALL_ASSEMBLY_MEMBERS
100
AcDbLine
 62
7
  6
CONTINUOUS
 10
5.9553530405
 20
3.2622145166
 11
7.0437109049
 21
3.2622145166
  0
LINE
  5
23C
100
AcDbEntity
  8
ALL_ASSEMBLY_MEMBERS
100
AcDbLine
 62
7
  6
CONTINUOUS
 10
5.6037109049
 20
3.3052145166
 11
5.6337109049
 21
3.3052145166
  0
LINE
  5
23D
100
AcDbEntity
  8
ALL_ASSEMBLY_MEMBERS
100
AcDbLine
 62
7
  6
CONTINUOUS
 10
5.6537109049
 20
3.3252145166
 11
5.8837109049
 21
3.3252145166
  0
LINE
  5
23E
100
AcDbEntity
  8
ALL_ASSEMBLY_MEMBERS
100
AcDbLine
 62
7
  6
CONTINUOUS
 10
5.5937109049
 20
3.3714645166
 11
4.0937109049
 21
3.3714645166
  0
LINE
  5
23F
100
AcDbEntity
  8
ALL_ASSEMBLY_MEMBERS
100
AcDbLine
 62
7
  6
CONTINUOUS
 10
4.0937109049
 20
3.3714645166
 11
4.0937109049
 21
3.8089645166
  0
LINE
  5
240
100
AcDbEntity
  8
ALL_ASSEMBLY_MEMBERS
100
AcDbLine
 62
7
  6
CONTINUOUS
 10
5.5937109049
 20
3.8089645166
 11
4.0937109049
 21
3.8089645166
  0
LINE
  5
241
100
AcDbEntity
  8
ALL_ASSEMBLY_MEMBERS
100
AcDbLine
 62
7
  6
CONTINUOUS
 10
5.6537109049
 20
3.8552145166
 11
5.8837109049
 21
3.8552145166
  0
LINE
  5
242
100
AcDbEntity
  8
ALL_ASSEMBLY_MEMBERS
100
AcDbLine
 62
7
  6
CONTINUOUS
 10
5.6037109049
 20
3.8752145166
 11
5.6337109049
 21
3.8752145166
  0
LINE
  5
243
100
AcDbEntity
  8
ALL_ASSEMBLY_MEMBERS
100
AcDbLine
 62
7
  6
CONTINUOUS
 10
5.9037109049
 20
3.9182145166
 11
5.9320687692
 21
3.9182145166
  0
LINE
  5
244
100
AcDbEntity
  8
ALL_ASSEMBLY_MEMBERS
100
AcDbLine
 62
7
  6
CONTINUOUS
 10
5.9553530405
 20
3.9182145166
 11
7.0437109049
 21
3.9182145166
  0
LINE
  5
245
100
AcDbEntity
  8
ALL_ASSEMBLY_MEMBERS
100
AcDbLine
 62
7
  6
CONTINUOUS
 10
7.0562109049
 20
4.1127145166
 11
7.1437109049
 21
4.1127145166
  0
LINE
  5
246
100
AcDbEntity
  8
ALL_ASSEMBLY_MEMBERS
100
AcDbLine
 62
7
  6
CONTINUOUS
 10
7.1812109049
 20
4.1527145166
 11
7.2187109049
 21
4.1527145166
  0
LINE
  5
247
100
AcDbEntity
  8
ALL_ASSEMBLY_MEMBERS
100
AcDbLine
 62
7
  6
CONTINUOUS
 10
5.946539332
 20
3.2668860895
 11
5.9482819727
 21
3.2651434488
  0
LINE
  5
248
100
AcDbEntity
  8
ALL_ASSEMBLY_MEMBERS
100
AcDbLine
 62
7
  6
CONTINUOUS
 10
5.939139837
 20
3.9152855844
 11
5.9408824777
 21
3.9135429438
  0
LINE
  5
249
100
AcDbEntity
  8
ALL_ASSEMBLY_MEMBERS
100
AcDbLine
 62
7
  6
CONTINUOUS
 10
5.5932109049
 20
5.9552200335
 11
5.5932109049
 21
7.2252091218
  0
LINE
  5
24A
100
AcDbEntity
  8
ALL_ASSEMBLY_MEMBERS
100
AcDbLine
 62
7
  6
CONTINUOUS
 10
5.5937109049
 20
3.8652145166
 11
5.5937109049
 21
3.3152145166
  0
LINE
  5
24B
100
AcDbEntity
  8
ALL_ASSEMBLY_MEMBERS
100
AcDbLine
 62
7
  6
CONTINUOUS
 10
5.6037109049
 20
3.3052145166
 11
5.6037109049
 21
3.8752145166
  0
LINE
  5
24C
100
AcDbEntity
  8
ALL_ASSEMBLY_MEMBERS
100
AcDbLine
 62
7
  6
CONTINUOUS
 10
5.6082109049
 20
6.4652145166
 11
5.6082109049
 21
5.9648146445
  0
LINE
  5
24D
100
AcDbEntity
  8
ALL_ASSEMBLY_MEMBERS
100
AcDbLine
 62
7
  6
CONTINUOUS
 10
5.6082109049
 20
6.7152145166
 11
5.6082109049
 21
7.2156143887
  0
LINE
  5
24E
100
AcDbEntity
  8
ALL_ASSEMBLY_MEMBERS
100
AcDbLine
 62
7
  6
CONTINUOUS
 10
5.6282109049
 20
5.9769689634
 11
5.6282109049
 21
6.4652145166
  0
LINE
  5
24F
100
AcDbEntity
  8
ALL_ASSEMBLY_MEMBERS
100
AcDbLine
 62
7
  6
CONTINUOUS
 10
5.6282109049
 20
6.7152145166
 11
5.6282109049
 21
7.2034600698
  0
LINE
  5
250
100
AcDbEntity
  8
ALL_ASSEMBLY_MEMBERS
100
AcDbLine
 62
7
  6
CONTINUOUS
 10
5.6337109049
 20
3.3052145166
 11
5.6337109049
 21
3.8752145166
  0
LINE
  5
251
100
AcDbEntity
  8
ALL_ASSEMBLY_MEMBERS
100
AcDbLine
 62
7
  6
CONTINUOUS
 10
5.6432109049
 20
5.9769689123
 11
5.6432109049
 21
6.4652145166
  0
LINE
  5
252
100
AcDbEntity
  8
ALL_ASSEMBLY_MEMBERS
100
AcDbLine
 62
7
  6
CONTINUOUS
 10
5.6432109049
 20
6.7152145166
 11
5.6432109049
 21
7.2034600697
  0
LINE
  5
253
100
AcDbEntity
  8
ALL_ASSEMBLY_MEMBERS
100
AcDbLine
 62
7
  6
CONTINUOUS
 10
5.6437109049
 20
3.8652145166
 11
5.6437109049
 21
3.3152145166
  0
LINE
  5
254
100
AcDbEntity
  8
ALL_ASSEMBLY_MEMBERS
100
AcDbLine
 62
7
  6
CONTINUOUS
 10
5.6537109049
 20
3.8552145166
 11
5.6537109049
 21
3.3252145166
  0
LINE
  5
255
100
AcDbEntity
  8
ALL_ASSEMBLY_MEMBERS
100
AcDbLine
 62
7
  6
CONTINUOUS
 10
5.6582109049
 20
7.2902145166
 11
5.6582109049
 21
7.2663247147
  0
LINE
  5
256
100
AcDbEntity
  8
ALL_ASSEMBLY_MEMBERS
100
AcDbLine
 62
7
  6
CONTINUOUS
 10
5.6582109049
 20
5.9141043185
 11
5.6582109049
 21
5.8902145166
  0
LINE
  5
257
100
AcDbEntity
  8
ALL_ASSEMBLY_MEMBERS
100
AcDbLine
 62
7
  6
CONTINUOUS
 10
5.6582109049
 20
5.9329764637
 11
5.6582109049
 21
7.2474525696
  0
LINE
  5
258
100
AcDbEntity
  8
ALL_ASSEMBLY_MEMBERS
100
AcDbLine
 62
7
  6
CONTINUOUS
 10
5.8782109049
 20
5.8902145166
 11
5.8782109049
 21
5.9141043185
  0
LINE
  5
259
100
AcDbEntity
  8
ALL_ASSEMBLY_MEMBERS
100
AcDbLine
 62
7
  6
CONTINUOUS
 10
5.8782109049
 20
5.9329764637
 11
5.8782109049
 21
7.2474525696
  0
LINE
  5
25A
100
AcDbEntity
  8
ALL_ASSEMBLY_MEMBERS
100
AcDbLine
 62
7
  6
CONTINUOUS
 10
5.8782109049
 20
7.2663247147
 11
5.8782109049
 21
7.2902145166
  0
LINE
  5
25B
100
AcDbEntity
  8
ALL_ASSEMBLY_MEMBERS
100
AcDbLine
 62
7
  6
CONTINUOUS
 10
5.8837109049
 20
3.8552145166
 11
5.8837109049
 21
3.3252145166
  0
LINE
  5
25C
100
AcDbEntity
  8
ALL_ASSEMBLY_MEMBERS
100
AcDbLine
 62
7
  6
CONTINUOUS
 10
5.8932109049
 20
7.2034600698
 11
5.8932109049
 21
6.7152145166
  0
LINE
  5
25D
100
AcDbEntity
  8
ALL_ASSEMBLY_MEMBERS
100
AcDbLine
 62
7
  6
CONTINUOUS
 10
5.8932109049
 20
6.4652145166
 11
5.8932109049
 21
5.9769689619
  0
LINE
  5
25E
100
AcDbEntity
  8
ALL_ASSEMBLY_MEMBERS
100
AcDbLine
 62
7
  6
CONTINUOUS
 10
5.8937109049
 20
3.9082145166
 11
5.8937109049
 21
3.2722145166
  0
LINE
  5
25F
100
AcDbEntity
  8
ALL_ASSEMBLY_MEMBERS
100
AcDbLine
 62
7
  6
CONTINUOUS
 10
5.9037109049
 20
3.2622145166
 11
5.9037109049
 21
3.9182145166
  0
LINE
  5
260
100
AcDbEntity
  8
ALL_ASSEMBLY_MEMBERS
100
AcDbLine
 62
7
  6
CONTINUOUS
 10
5.9082109049
 20
7.2034600698
 11
5.9082109049
 21
6.7152145166
  0
LINE
  5
261
100
AcDbEntity
  8
ALL_ASSEMBLY_MEMBERS
100
AcDbLine
 62
7
  6
CONTINUOUS
 10
5.9082109049
 20
6.4652145166
 11
5.9082109049
 21
5.9769689634
  0
LINE
  5
262
100
AcDbEntity
  8
ALL_ASSEMBLY_MEMBERS
100
AcDbLine
 62
7
  6
CONTINUOUS
 10
5.9282109049
 20
7.2156143887
 11
5.9282109049
 21
6.7152145166
  0
LINE
  5
263
100
AcDbEntity
  8
ALL_ASSEMBLY_MEMBERS
100
AcDbLine
 62
7
  6
CONTINUOUS
 10
5.9282109049
 20
5.9648146445
 11
5.9282109049
 21
6.4652145166
  0
LINE
  5
264
100
AcDbEntity
  8
ALL_ASSEMBLY_MEMBERS
100
AcDbLine
 62
7
  6
CONTINUOUS
 10
5.9320687692
 20
3.2622145166
 11
5.9320687692
 21
3.9182145166
  0
LINE
  5
265
100
AcDbEntity
  8
ALL_ASSEMBLY_MEMBERS
100
AcDbLine
 62
7
  6
CONTINUOUS
 10
5.939139837
 20
3.2651434488
 11
5.939139837
 21
3.9152855844
  0
LINE
  5
266
100
AcDbEntity
  8
ALL_ASSEMBLY_MEMBERS
100
AcDbLine
 62
7
  6
CONTINUOUS
 10
5.9408824777
 20
3.2668860895
 11
5.9408824777
 21
3.9135429438
  0
LINE
  5
267
100
AcDbEntity
  8
ALL_ASSEMBLY_MEMBERS
100
AcDbLine
 62
7
  6
CONTINUOUS
 10
5.9432109049
 20
5.955220033
 11
5.9432109049
 21
7.2252090183
  0
LINE
  5
268
100
AcDbEntity
  8
ALL_ASSEMBLY_MEMBERS
100
AcDbLine
 62
7
  6
CONTINUOUS
 10
5.946539332
 20
3.2668860895
 11
5.946539332
 21
3.9135429438
  0
LINE
  5
269
100
AcDbEntity
  8
ALL_ASSEMBLY_MEMBERS
100
AcDbLine
 62
7
  6
CONTINUOUS
 10
5.9482819727
 20
3.9152855844
 11
5.9482819727
 21
3.2651434488
  0
LINE
  5
26A
100
AcDbEntity
  8
ALL_ASSEMBLY_MEMBERS
100
AcDbLine
 62
7
  6
CONTINUOUS
 10
5.9553530405
 20
3.9182145166
 11
5.9553530405
 21
3.2622145166
  0
LINE
  5
26B
100
AcDbEntity
  8
ALL_ASSEMBLY_MEMBERS
100
AcDbLine
 62
7
  6
CONTINUOUS
 10
5.9587109049
 20
6.3614645166
 11
5.9587109049
 21
6.8189645166
  0
LINE
  5
26C
100
AcDbEntity
  8
ALL_ASSEMBLY_MEMBERS
100
AcDbLine
 62
7
  6
CONTINUOUS
 10
5.9737109049
 20
6.3464645166
 11
5.9737109049
 21
6.8339645166
  0
LINE
  5
26D
100
AcDbEntity
  8
ALL_ASSEMBLY_MEMBERS
100
AcDbLine
 62
7
  6
CONTINUOUS
 10
5.946539332
 20
3.9135429438
 11
5.9482819727
 21
3.9152855844
  0
LINE
  5
26E
100
AcDbEntity
  8
ALL_ASSEMBLY_MEMBERS
100
AcDbLine
 62
7
  6
CONTINUOUS
 10
5.8782109049
 20
5.8902145166
 11
5.6582109049
 21
5.8902145166
  0
LINE
  5
26F
100
AcDbEntity
  8
ALL_ASSEMBLY_MEMBERS
100
AcDbLine
 62
7
  6
CONTINUOUS
 10
5.6582109049
 20
5.8992989857
 11
5.8782109049
 21
5.8992989857
  0
LINE
  5
270
100
AcDbEntity
  8
ALL_ASSEMBLY_MEMBERS
100
AcDbLine
 62
7
  6
CONTINUOUS
 10
5.6582109049
 20
5.9141043185
 11
5.8782109049
 21
5.9141043185
  0
LINE
  5
271
100
AcDbEntity
  8
ALL_ASSEMBLY_MEMBERS
100
AcDbLine
 62
7
  6
CONTINUOUS
 10
5.8782109049
 20
5.9329764637
 11
5.6582109049
 21
5.9329764637
  0
LINE
  5
272
100
AcDbEntity
  8
ALL_ASSEMBLY_MEMBERS
100
AcDbLine
 62
7
  6
CONTINUOUS
 10
5.8782109049
 20
5.9444662551
 11
5.6582109049
 21
5.9444662551
  0
LINE
  5
273
100
AcDbEntity
  8
ALL_ASSEMBLY_MEMBERS
100
AcDbLine
 62
7
  6
CONTINUOUS
 10
5.6082109049
 20
5.9648146445
 11
5.5932109049
 21
5.9648146447
  0
LINE
  5
274
100
AcDbEntity
  8
ALL_ASSEMBLY_MEMBERS
100
AcDbLine
 62
7
  6
CONTINUOUS
 10
5.9282109049
 20
5.9648146445
 11
5.9432109049
 21
5.9648146445
  0
LINE
  5
275
100
AcDbEntity
  8
ALL_ASSEMBLY_MEMBERS
100
AcDbLine
 62
7
  6
CONTINUOUS
 10
5.9082109049
 20
5.9769689634
 11
5.8932109049
 21
5.9769689634
  0
LINE
  5
276
100
AcDbEntity
  8
ALL_ASSEMBLY_MEMBERS
100
AcDbLine
 62
7
  6
CONTINUOUS
 10
5.6282109049
 20
5.9769689634
 11
5.6432109049
 21
5.9769689634
  0
LINE
  5
277
100
AcDbEntity
  8
ALL_ASSEMBLY_MEMBERS
100
AcDbLine
 62
7
  6
CONTINUOUS
 10
7.1837109049
 20
6.0277145166
 11
7.2187109049
 21
6.0277145166
  0
LINE
  5
278
100
AcDbEntity
  8
ALL_ASSEMBLY_MEMBERS
100
AcDbLine
 62
7
  6
CONTINUOUS
 10
5.939139837
 20
3.2651434488
 11
5.9408824777
 21
3.2668860895
  0
LINE
  5
279
100
AcDbEntity
  8
ALL_ASSEMBLY_MEMBERS
100
AcDbLine
 62
7
  6
CONTINUOUS
 10
5.6432109049
 20
6.0402145166
 11
5.8932109049
 21
6.0402145166
  0
LINE
  5
27A
100
AcDbEntity
  8
ALL_ASSEMBLY_MEMBERS
100
AcDbLine
 62
7
  6
CONTINUOUS
 10
7.0587109049
 20
6.0677145166
 11
7.1437109049
 21
6.0677145166
  0
LINE
  5
27B
100
AcDbEntity
  8
ALL_ASSEMBLY_MEMBERS
100
AcDbLine
 62
7
  6
CONTINUOUS
 10
5.5932109049
 20
6.3027145166
 11
5.9432109049
 21
6.3027145166
  0
LINE
  5
27C
100
AcDbEntity
  8
ALL_ASSEMBLY_MEMBERS
100
AcDbLine
 62
7
  6
CONTINUOUS
 10
7.0237109049
 20
6.3464645166
 11
5.9737109049
 21
6.3464645166
  0
LINE
  5
27D
100
AcDbEntity
  8
ALL_ASSEMBLY_MEMBERS
100
AcDbLine
 62
7
  6
CONTINUOUS
 10
7.0387109049
 20
6.3777145166
 11
7.0437109049
 21
6.3777145166
  0
LINE
  5
27E
100
AcDbEntity
  8
ALL_ASSEMBLY_MEMBERS
100
AcDbLine
 62
7
  6
CONTINUOUS
 10
5.9587109049
 20
6.4637145166
 11
5.9432109049
 21
6.4637145166
  0
LINE
  5
27F
100
AcDbEntity
  8
ALL_ASSEMBLY_MEMBERS
100
AcDbLine
 62
7
  6
CONTINUOUS
 10
5.9282109049
 20
6.4652145166
 11
5.6082109049
 21
6.4652145166
  0
LINE
  5
280
100
AcDbEntity
  8
ALL_ASSEMBLY_MEMBERS
100
AcDbLine
 62
7
  6
CONTINUOUS
 10
5.8782109049
 20
6.4778057575
 11
5.6582109049
 21
6.4778057575
  0
LINE
  5
281
100
AcDbEntity
  8
ALL_ASSEMBLY_MEMBERS
100
AcDbLine
 62
7
  6
CONTINUOUS
 10
7.0237109049
 20
6.3464645166
 11
7.0237109049
 21
6.8339645166
  0
LINE
  5
282
100
AcDbEntity
  8
ALL_ASSEMBLY_MEMBERS
100
AcDbLine
 62
7
  6
CONTINUOUS
 10
7.0387109049
 20
6.3614645166
 11
7.0387109049
 21
6.8189645166
  0
LINE
  5
283
100
AcDbEntity
  8
ALL_ASSEMBLY_MEMBERS
100
AcDbLine
 62
7
  6
CONTINUOUS
 10
7.0437109049
 20
7.0977145166
 11
7.0437109049
 21
6.0827145166
  0
LINE
  5
284
100
AcDbEntity
  8
ALL_ASSEMBLY_MEMBERS
100
AcDbLine
 62
7
  6
CONTINUOUS
 10
7.0437109049
 20
4.1002145166
 11
7.0437109049
 21
3.0802145166
  0
LINE
  5
285
100
AcDbEntity
  8
ALL_ASSEMBLY_MEMBERS
100
AcDbLine
 62
7
  6
CONTINUOUS
 10
7.0562109049
 20
3.0677145166
 11
7.0562109049
 21
4.1127145166
  0
LINE
  5
286
100
AcDbEntity
  8
ALL_ASSEMBLY_MEMBERS
100
AcDbLine
 62
7
  6
CONTINUOUS
 10
7.0587109049
 20
6.0677145166
 11
7.0587109049
 21
7.1127145166
  0
LINE
  5
287
100
AcDbEntity
  8
ALL_ASSEMBLY_MEMBERS
100
AcDbLine
 62
7
  6
CONTINUOUS
 10
5.8782109049
 20
6.7026232758
 11
5.6582109049
 21
6.7026232758
  0
LINE
  5
288
100
AcDbEntity
  8
ALL_ASSEMBLY_MEMBERS
100
AcDbLine
 62
7
  6
CONTINUOUS
 10
5.9282109049
 20
6.7152145166
 11
5.6082109049
 21
6.7152145166
  0
LINE
  5
289
100
AcDbEntity
  8
ALL_ASSEMBLY_MEMBERS
100
AcDbLine
 62
7
  6
CONTINUOUS
 10
5.9587109049
 20
6.7167145166
 11
5.9432109049
 21
6.7167145166
  0
LINE
  5
28A
100
AcDbEntity
  8
ALL_ASSEMBLY_MEMBERS
100
AcDbLine
 62
7
  6
CONTINUOUS
 10
7.1437109049
 20
7.1127145166
 11
7.1437109049
 21
6.0677145166
  0
LINE
  5
28B
100
AcDbEntity
  8
ALL_ASSEMBLY_MEMBERS
100
AcDbLine
 62
7
  6
CONTINUOUS
 10
7.1437109049
 20
4.1127145166
 11
7.1437109049
 21
3.0677145166
  0
LINE
  5
28C
100
AcDbEntity
  8
ALL_ASSEMBLY_MEMBERS
100
AcDbLine
 62
7
  6
CONTINUOUS
 10
7.1687109049
 20
7.1377145166
 11
7.1687109049
 21
6.0427145166
  0
LINE
  5
28D
100
AcDbEntity
  8
ALL_ASSEMBLY_MEMBERS
100
AcDbLine
 62
7
  6
CONTINUOUS
 10
7.1687109049
 20
4.1402145166
 11
7.1687109049
 21
3.0402145166
  0
LINE
  5
28E
100
AcDbEntity
  8
ALL_ASSEMBLY_MEMBERS
100
AcDbLine
 62
7
  6
CONTINUOUS
 10
7.1812109049
 20
3.0277145166
 11
7.1812109049
 21
4.1527145166
  0
LINE
  5
28F
100
AcDbEntity
  8
ALL_ASSEMBLY_MEMBERS
100
AcDbLine
 62
7
  6
CONTINUOUS
 10
7.1837109049
 20
6.0277145166
 11
7.1837109049
 21
7.1527145166
  0
LINE
  5
290
100
AcDbEntity
  8
ALL_ASSEMBLY_MEMBERS
100
AcDbLine
 62
7
  6
CONTINUOUS
 10
7.2187109049
 20
3.0277145166
 11
7.2187109049
 21
4.1527145166
  0
LINE
  5
291
100
AcDbEntity
  8
ALL_ASSEMBLY_MEMBERS
100
AcDbLine
 62
7
  6
CONTINUOUS
 10
7.2187109049
 20
6.0277145166
 11
7.2187109049
 21
7.1527145166
  0
LINE
  5
292
100
AcDbEntity
  8
ALL_ASSEMBLY_MEMBERS
100
AcDbLine
 62
7
  6
CONTINUOUS
 10
7.0387109049
 20
6.8027145166
 11
7.0437109049
 21
6.8027145166
  0
LINE
  5
293
100
AcDbEntity
  8
ALL_ASSEMBLY_MEMBERS
100
AcDbLine
 62
7
  6
CONTINUOUS
 10
7.0237109049
 20
6.8339645166
 11
5.9737109049
 21
6.8339645166
  0
LINE
  5
294
100
AcDbEntity
  8
ALL_ASSEMBLY_MEMBERS
100
AcDbLine
 62
7
  6
CONTINUOUS
 10
5.5932109049
 20
6.8777145166
 11
5.9432109049
 21
6.8777145166
  0
LINE
  5
295
100
AcDbEntity
  8
ALL_ASSEMBLY_MEMBERS
100
AcDbLine
 62
7
  6
CONTINUOUS
 10
7.0587109049
 20
7.1127145166
 11
7.1437109049
 21
7.1127145166
  0
LINE
  5
296
100
AcDbEntity
  8
ALL_ASSEMBLY_MEMBERS
100
AcDbLine
 62
7
  6
CONTINUOUS
 10
5.6432109049
 20
7.1402145166
 11
5.8932109049
 21
7.1402145166
  0
LINE
  5
297
100
AcDbEntity
  8
ALL_ASSEMBLY_MEMBERS
100
AcDbLine
 62
7
  6
CONTINUOUS
 10
7.1837109049
 20
7.1527145166
 11
7.2187109049
 21
7.1527145166
  0
LINE
  5
298
100
AcDbEntity
  8
ALL_ASSEMBLY_MEMBERS
100
AcDbLine
 62
7
  6
CONTINUOUS
 10
5.9082109049
 20
7.2034600698
 11
5.8932109049
 21
7.2034600698
  0
LINE
  5
299
100
AcDbEntity
  8
ALL_ASSEMBLY_MEMBERS
100
AcDbLine
 62
7
  6
CONTINUOUS
 10
5.6282109049
 20
7.2034600698
 11
5.6432109049
 21
7.2034600698
  0
LINE
  5
29A
100
AcDbEntity
  8
ALL_ASSEMBLY_MEMBERS
100
AcDbLine
 62
7
  6
CONTINUOUS
 10
5.9432109049
 20
7.2156143887
 11
5.9282109049
 21
7.2156143887
  0
LINE
  5
29B
100
AcDbEntity
  8
ALL_ASSEMBLY_MEMBERS
100
AcDbLine
 62
7
  6
CONTINUOUS
 10
5.5932109049
 20
7.2156143887
 11
5.6082109049
 21
7.2156143887
  0
LINE
  5
29C
100
AcDbEntity
  8
ALL_ASSEMBLY_MEMBERS
100
AcDbLine
 62
7
  6
CONTINUOUS
 10
5.6582109049
 20
7.2359627782
 11
5.8782109049
 21
7.2359627782
  0
LINE
  5
29D
100
AcDbEntity
  8
ALL_ASSEMBLY_MEMBERS
100
AcDbLine
 62
7
  6
CONTINUOUS
 10
5.6582109049
 20
7.2474525696
 11
5.8782109049
 21
7.2474525696
  0
LINE
  5
29E
100
AcDbEntity
  8
ALL_ASSEMBLY_MEMBERS
100
AcDbLine
 62
7
  6
CONTINUOUS
 10
5.6582109049
 20
7.2663247147
 11
5.8782109049
 21
7.2663247147
  0
LINE
  5
29F
100
AcDbEntity
  8
ALL_ASSEMBLY_MEMBERS
100
AcDbLine
 62
7
  6
CONTINUOUS
 10
5.6582109049
 20
7.2811300476
 11
5.8782109049
 21
7.2811300476
  0
LINE
  5
2A0
100
AcDbEntity
  8
ALL_ASSEMBLY_MEMBERS
100
AcDbLine
 62
7
  6
CONTINUOUS
 10
5.8782109049
 20
7.2902145166
 11
5.6582109049
 21
7.2902145166
  0
ARC
  5
2A1
100
AcDbEntity
  8
ALL_ASSEMBLY_MEMBERS
100
AcDbCircle
 62
7
  6
CONTINUOUS
 10
4.0937109049
 20
2.5902145166
 40
1.21875
100
AcDbArc
 50
90.0
 51
180.0
  0
ARC
  5
2A2
100
AcDbEntity
  8
ALL_ASSEMBLY_MEMBERS
100
AcDbCircle
 62
7
  6
CONTINUOUS
 10
4.0937109049
 20
2.5902145166
 40
0.78125
100
AcDbArc
 50
90.0
 51
180.0
  0
ARC
  5
2A3
100
AcDbEntity
  8
ALL_ASSEMBLY_MEMBERS
100
AcDbCircle
 62
7
  6
CONTINUOUS
 10
3.3487109049
 20
2.3302145166
 40
0.015
100
AcDbArc
 50
270.0
 51
360.0
  0
ARC
  5
2A4
100
AcDbEntity
  8
ALL_ASSEMBLY_MEMBERS
100
AcDbCircle
 62
7
  6
CONTINUOUS
 10
2.8387109049
 20
2.3302145166
 40
0.015
100
AcDbArc
 50
180.0
 51
270.0
  0
ARC
  5
2A5
100
AcDbEntity
  8
ALL_ASSEMBLY_MEMBERS
100
AcDbCircle
 62
7
  6
CONTINUOUS
 10
3.3487109049
 20
2.3002145166
 40
0.015
100
AcDbArc
 50
90.0
 51
180.0
  0
ARC
  5
2A6
100
AcDbEntity
  8
ALL_ASSEMBLY_MEMBERS
100
AcDbCircle
 62
7
  6
CONTINUOUS
 10
2.8387109049
 20
2.3002145166
 40
0.015
100
AcDbArc
 50
0.0
 51
90.0
  0
ARC
  5
2A7
100
AcDbEntity
  8
ALL_ASSEMBLY_MEMBERS
100
AcDbCircle
 62
7
  6
CONTINUOUS
 10
3.3487109049
 20
2.0252145166
 40
0.015
100
AcDbArc
 50
180.0
 51
270.0
  0
ARC
  5
2A8
100
AcDbEntity
  8
ALL_ASSEMBLY_MEMBERS
100
AcDbCircle
 62
7
  6
CONTINUOUS
 10
2.8387109049
 20
2.0252145166
 40
0.015
100
AcDbArc
 50
270.0
 51
360.0
  0
ARC
  5
2A9
100
AcDbEntity
  8
ALL_ASSEMBLY_MEMBERS
100
AcDbCircle
 62
7
  6
CONTINUOUS
 10
3.3487109049
 20
1.9952145166
 40
0.015
100
AcDbArc
 50
0.0
 51
90.0
  0
ARC
  5
2AA
100
AcDbEntity
  8
ALL_ASSEMBLY_MEMBERS
100
AcDbCircle
 62
7
  6
CONTINUOUS
 10
2.8387109049
 20
1.9952145166
 40
0.015
100
AcDbArc
 50
90.0
 51
180.0
  0
ARC
  5
2AB
100
AcDbEntity
  8
ALL_ASSEMBLY_MEMBERS
100
AcDbCircle
 62
7
  6
CONTINUOUS
 10
3.3487109049
 20
1.9752145166
 40
0.015
100
AcDbArc
 50
270.0
 51
360.0
  0
ARC
  5
2AC
100
AcDbEntity
  8
ALL_ASSEMBLY_MEMBERS
100
AcDbCircle
 62
7
  6
CONTINUOUS
 10
2.8387109049
 20
1.9752145166
 40
0.015
100
AcDbArc
 50
180.0
 51
270.0
  0
ARC
  5
2AD
100
AcDbEntity
  8
ALL_ASSEMBLY_MEMBERS
100
AcDbCircle
 62
7
  6
CONTINUOUS
 10
3.3487109049
 20
2.3502145166
 40
0.015
100
AcDbArc
 50
0.0
 51
90.0
  0
ARC
  5
2AE
100
AcDbEntity
  8
ALL_ASSEMBLY_MEMBERS
100
AcDbCircle
 62
7
  6
CONTINUOUS
 10
2.8387109049
 20
2.3502145166
 40
0.015
100
AcDbArc
 50
90.0
 51
180.0
  0
ARC
  5
2AF
100
AcDbEntity
  8
ALL_ASSEMBLY_MEMBERS
100
AcDbCircle
 62
7
  6
CONTINUOUS
 10
7.1437109049
 20
3.0427145166
 40
0.025
100
AcDbArc
 50
0.0
 51
90.0
  0
ARC
  5
2B0
100
AcDbEntity
  8
ALL_ASSEMBLY_MEMBERS
100
AcDbCircle
 62
7
  6
CONTINUOUS
 10
7.1437109049
 20
4.1377145166
 40
0.025
100
AcDbArc
 50
270.0
 51
360.0
  0
ARC
  5
2B1
100
AcDbEntity
  8
ALL_ASSEMBLY_MEMBERS
100
AcDbCircle
 62
7
  6
CONTINUOUS
 10
7.0562109049
 20
4.1002145166
 40
0.0125
100
AcDbArc
 50
90.0
 51
180.0
  0
ARC
  5
2B2
100
AcDbEntity
  8
ALL_ASSEMBLY_MEMBERS
100
AcDbCircle
 62
7
  6
CONTINUOUS
 10
7.0562109049
 20
3.0802145166
 40
0.0125
100
AcDbArc
 50
180.0
 51
270.0
  0
ARC
  5
2B3
100
AcDbEntity
  8
ALL_ASSEMBLY_MEMBERS
100
AcDbCircle
 62
7
  6
CONTINUOUS
 10
7.1812109049
 20
4.1402145166
 40
0.0125
100
AcDbArc
 50
90.0
 51
180.0
  0
ARC
  5
2B4
100
AcDbEntity
  8
ALL_ASSEMBLY_MEMBERS
100
AcDbCircle
 62
7
  6
CONTINUOUS
 10
7.1812109049
 20
3.0402145166
 40
0.0125
100
AcDbArc
 50
180.0
 51
270.0
  0
ARC
  5
2B5
100
AcDbEntity
  8
ALL_ASSEMBLY_MEMBERS
100
AcDbCircle
 62
7
  6
CONTINUOUS
 10
5.9553530405
 20
3.2722145166
 40
0.01
100
AcDbArc
 50
225.0
 51
270.0
  0
ARC
  5
2B6
100
AcDbEntity
  8
ALL_ASSEMBLY_MEMBERS
100
AcDbCircle
 62
7
  6
CONTINUOUS
 10
5.9553530405
 20
3.9082145166
 40
0.01
100
AcDbArc
 50
90.0
 51
135.0
  0
ARC
  5
2B7
100
AcDbEntity
  8
ALL_ASSEMBLY_MEMBERS
100
AcDbCircle
 62
7
  6
CONTINUOUS
 10
5.9320687692
 20
3.2722145166
 40
0.01
100
AcDbArc
 50
270.0
 51
315.0
  0
ARC
  5
2B8
100
AcDbEntity
  8
ALL_ASSEMBLY_MEMBERS
100
AcDbCircle
 62
7
  6
CONTINUOUS
 10
5.9320687692
 20
3.9082145166
 40
0.01
100
AcDbArc
 50
45.0
 51
90.0
  0
ARC
  5
2B9
100
AcDbEntity
  8
ALL_ASSEMBLY_MEMBERS
100
AcDbCircle
 62
7
  6
CONTINUOUS
 10
5.8837109049
 20
3.3152145166
 40
0.01
100
AcDbArc
 50
0.0
 51
90.0
  0
ARC
  5
2BA
100
AcDbEntity
  8
ALL_ASSEMBLY_MEMBERS
100
AcDbCircle
 62
7
  6
CONTINUOUS
 10
5.8837109049
 20
3.8652145166
 40
0.01
100
AcDbArc
 50
270.0
 51
360.0
  0
ARC
  5
2BB
100
AcDbEntity
  8
ALL_ASSEMBLY_MEMBERS
100
AcDbCircle
 62
7
  6
CONTINUOUS
 10
5.6537109049
 20
3.3152145166
 40
0.01
100
AcDbArc
 50
90.0
 51
180.0
  0
ARC
  5
2BC
100
AcDbEntity
  8
ALL_ASSEMBLY_MEMBERS
100
AcDbCircle
 62
7
  6
CONTINUOUS
 10
5.6537109049
 20
3.8652145166
 40
0.01
100
AcDbArc
 50
180.0
 51
270.0
  0
ARC
  5
2BD
100
AcDbEntity
  8
ALL_ASSEMBLY_MEMBERS
100
AcDbCircle
 62
7
  6
CONTINUOUS
 10
5.6037109049
 20
3.3152145166
 40
0.01
100
AcDbArc
 50
180.0
 51
270.0
  0
ARC
  5
2BE
100
AcDbEntity
  8
ALL_ASSEMBLY_MEMBERS
100
AcDbCircle
 62
7
  6
CONTINUOUS
 10
5.6037109049
 20
3.8652145166
 40
0.01
100
AcDbArc
 50
90.0
 51
180.0
  0
ARC
  5
2BF
100
AcDbEntity
  8
ALL_ASSEMBLY_MEMBERS
100
AcDbCircle
 62
7
  6
CONTINUOUS
 10
5.6337109049
 20
3.3152145166
 40
0.01
100
AcDbArc
 50
270.0
 51
360.0
  0
ARC
  5
2C0
100
AcDbEntity
  8
ALL_ASSEMBLY_MEMBERS
100
AcDbCircle
 62
7
  6
CONTINUOUS
 10
5.6337109049
 20
3.8652145166
 40
0.01
100
AcDbArc
 50
0.0
 51
90.0
  0
ARC
  5
2C1
100
AcDbEntity
  8
ALL_ASSEMBLY_MEMBERS
100
AcDbCircle
 62
7
  6
CONTINUOUS
 10
5.9037109049
 20
3.2722145166
 40
0.01
100
AcDbArc
 50
180.0
 51
270.0
  0
ARC
  5
2C2
100
AcDbEntity
  8
ALL_ASSEMBLY_MEMBERS
100
AcDbCircle
 62
7
  6
CONTINUOUS
 10
5.9037109049
 20
3.9082145166
 40
0.01
100
AcDbArc
 50
90.0
 51
180.0
  0
ARC
  5
2C3
100
AcDbEntity
  8
ALL_ASSEMBLY_MEMBERS
100
AcDbCircle
 62
7
  6
CONTINUOUS
 10
5.9437109049
 20
3.2640576624
 40
0.004
100
AcDbArc
 50
45.0
 51
135.0
  0
ARC
  5
2C4
100
AcDbEntity
  8
ALL_ASSEMBLY_MEMBERS
100
AcDbCircle
 62
7
  6
CONTINUOUS
 10
5.9437109049
 20
3.9163713709
 40
0.004
100
AcDbArc
 50
225.0
 51
315.0
  0
ARC
  5
2C5
100
AcDbEntity
  8
ALL_ASSEMBLY_MEMBERS
100
AcDbCircle
 62
7
  6
CONTINUOUS
 10
5.8768659412
 20
7.2155800714
 40
0.0663458916
100
AcDbArc
 50
4.5493575215
 51
8.9527614411
  0
ARC
  5
2C6
100
AcDbEntity
  8
ALL_ASSEMBLY_MEMBERS
100
AcDbCircle
 62
7
  6
CONTINUOUS
 10
5.8768685841
 20
5.9648486009
 40
0.0663432331
100
AcDbArc
 50
351.0505788175
 51
355.4607122326
  0
ARC
  5
2C7
100
AcDbEntity
  8
ALL_ASSEMBLY_MEMBERS
100
AcDbCircle
 62
7
  6
CONTINUOUS
 10
5.6595420439
 20
7.2155821861
 40
0.0663319855
100
AcDbArc
 50
171.1639094997
 51
175.5497148377
  0
ARC
  5
2C8
100
AcDbEntity
  8
ALL_ASSEMBLY_MEMBERS
100
AcDbCircle
 62
7
  6
CONTINUOUS
 10
5.6595364101
 20
5.9648458355
 40
0.0663263165
100
AcDbArc
 50
184.4036465179
 51
188.7521600626
  0
ARC
  5
2C9
100
AcDbEntity
  8
ALL_ASSEMBLY_MEMBERS
100
AcDbCircle
 62
7
  6
CONTINUOUS
 10
5.8771939367
 20
5.9648241875
 40
0.0660169688
100
AcDbArc
 50
355.4594864169
 51
359.9917177431
  0
ARC
  5
2CA
100
AcDbEntity
  8
ALL_ASSEMBLY_MEMBERS
100
AcDbCircle
 62
7
  6
CONTINUOUS
 10
5.8771952341
 20
7.2156048421
 40
0.0660156715
100
AcDbArc
 50
0.0082856268
 51
4.550595268
  0
ARC
  5
2CB
100
AcDbEntity
  8
ALL_ASSEMBLY_MEMBERS
100
AcDbCircle
 62
7
  6
CONTINUOUS
 10
5.6591133267
 20
5.9648190016
 40
0.065902422
100
AcDbArc
 50
180.0037880233
 51
184.4086287934
  0
ARC
  5
2CC
100
AcDbEntity
  8
ALL_ASSEMBLY_MEMBERS
100
AcDbCircle
 62
7
  6
CONTINUOUS
 10
5.6591094774
 20
7.2156099048
 40
0.0658985727
100
AcDbArc
 50
175.5445594366
 51
179.9961014257
  0
ARC
  5
2CD
100
AcDbEntity
  8
ALL_ASSEMBLY_MEMBERS
100
AcDbCircle
 62
7
  6
CONTINUOUS
 10
5.6582109049
 20
7.2252145166
 40
0.065
100
AcDbArc
 50
90.0
 51
180.0
  0
ARC
  5
2CE
100
AcDbEntity
  8
ALL_ASSEMBLY_MEMBERS
100
AcDbCircle
 62
7
  6
CONTINUOUS
 10
5.8782109049
 20
7.2252145166
 40
0.065
100
AcDbArc
 50
0.0
 51
90.0
  0
ARC
  5
2CF
100
AcDbEntity
  8
ALL_ASSEMBLY_MEMBERS
100
AcDbCircle
 62
7
  6
CONTINUOUS
 10
5.6582109049
 20
5.9552145166
 40
0.065
100
AcDbArc
 50
180.0
 51
270.0
  0
ARC
  5
2D0
100
AcDbEntity
  8
ALL_ASSEMBLY_MEMBERS
100
AcDbCircle
 62
7
  6
CONTINUOUS
 10
5.8782109049
 20
5.9552145166
 40
0.065
100
AcDbArc
 50
270.0
 51
360.0
  0
ARC
  5
2D1
100
AcDbEntity
  8
ALL_ASSEMBLY_MEMBERS
100
AcDbCircle
 62
7
  6
CONTINUOUS
 10
7.1437109049
 20
7.1377145166
 40
0.025
100
AcDbArc
 50
270.0
 51
360.0
  0
ARC
  5
2D2
100
AcDbEntity
  8
ALL_ASSEMBLY_MEMBERS
100
AcDbCircle
 62
7
  6
CONTINUOUS
 10
7.1437109049
 20
6.0427145166
 40
0.025
100
AcDbArc
 50
0.0
 51
90.0
  0
ARC
  5
2D3
100
AcDbEntity
  8
ALL_ASSEMBLY_MEMBERS
100
AcDbCircle
 62
7
  6
CONTINUOUS
 10
7.0587109049
 20
7.0977145166
 40
0.015
100
AcDbArc
 50
90.0
 51
180.0
  0
ARC
  5
2D4
100
AcDbEntity
  8
ALL_ASSEMBLY_MEMBERS
100
AcDbCircle
 62
7
  6
CONTINUOUS
 10
7.0587109049
 20
6.0827145166
 40
0.015
100
AcDbArc
 50
180.0
 51
270.0
  0
ARC
  5
2D5
100
AcDbEntity
  8
ALL_ASSEMBLY_MEMBERS
100
AcDbCircle
 62
7
  6
CONTINUOUS
 10
7.1837109049
 20
7.1377145166
 40
0.015
100
AcDbArc
 50
90.0
 51
180.0
  0
ARC
  5
2D6
100
AcDbEntity
  8
ALL_ASSEMBLY_MEMBERS
100
AcDbCircle
 62
7
  6
CONTINUOUS
 10
7.1837109049
 20
6.0427145166
 40
0.015
100
AcDbArc
 50
180.0
 51
270.0
  0
ARC
  5
2D7
100
AcDbEntity
  8
ALL_ASSEMBLY_MEMBERS
100
AcDbCircle
 62
7
  6
CONTINUOUS
 10
5.6082109049
 20
6.4802145166
 40
0.015
100
AcDbArc
 50
180.0000000001
 51
270.0
  0
ARC
  5
2D8
100
AcDbEntity
  8
ALL_ASSEMBLY_MEMBERS
100
AcDbCircle
 62
7
  6
CONTINUOUS
 10
5.9282109049
 20
6.4802145166
 40
0.015
100
AcDbArc
 50
270.0000000005
 51
360.0
  0
ARC
  5
2D9
100
AcDbEntity
  8
ALL_ASSEMBLY_MEMBERS
100
AcDbCircle
 62
7
  6
CONTINUOUS
 10
5.9282109049
 20
6.7002145166
 40
0.015
100
AcDbArc
 50
0.0
 51
89.9999999996
  0
ARC
  5
2DA
100
AcDbEntity
  8
ALL_ASSEMBLY_MEMBERS
100
AcDbCircle
 62
7
  6
CONTINUOUS
 10
5.6082109049
 20
6.7002145166
 40
0.015
100
AcDbArc
 50
90.0
 51
180.0
  0
ARC
  5
2DB
100
AcDbEntity
  8
ALL_ASSEMBLY_MEMBERS
100
AcDbCircle
 62
7
  6
CONTINUOUS
 10
7.0237109049
 20
6.8189645166
 40
0.015
100
AcDbArc
 50
0.0
 51
90.0
  0
ARC
  5
2DC
100
AcDbEntity
  8
ALL_ASSEMBLY_MEMBERS
100
AcDbCircle
 62
7
  6
CONTINUOUS
 10
7.0237109049
 20
6.3614645166
 40
0.015
100
AcDbArc
 50
270.0
 51
360.0
  0
ARC
  5
2DD
100
AcDbEntity
  8
ALL_ASSEMBLY_MEMBERS
100
AcDbCircle
 62
7
  6
CONTINUOUS
 10
5.9737109049
 20
6.8189645166
 40
0.015
100
AcDbArc
 50
90.0
 51
180.0
  0
ARC
  5
2DE
100
AcDbEntity
  8
ALL_ASSEMBLY_MEMBERS
100
AcDbCircle
 62
7
  6
CONTINUOUS
 10
5.9737109049
 20
6.3614645166
 40
0.015
100
AcDbArc
 50
180.0
 51
270.0
  0
SPLINE
  5
2DF
100
AcDbEntity
  8
ALL_ASSEMBLY_MEMBERS
100
AcDbSpline
 62
7
  6
CONTINUOUS
 70
0
 71
3
 72
20
 73
16
 74
0
 42
0.0000001
 43
0.0000001
 44
0.0000000001
 40
0.0
 40
0.0
 40
0.0
 40
0.0
 40
0.1249416825
 40
0.1875193614
 40
0.2500597346
 40
0.3125843185
 40
0.3751128731
 40
0.4376468523
 40
0.5001771889
 40
0.6250977805
 40
0.749984733
 40
0.81247025
 40
0.8749513015
 40
0.9374553862
 40
1.0
 40
1.0
 40
1.0
 40
1.0
 10
5.8782109049
 20
5.8992989857
 30
0.0
 10
5.8820473321
 20
5.8992990847
 30
0.0
 10
5.8878223421
 20
5.8998179855
 30
0.0
 10
5.8953170176
 20
5.9015182587
 30
0.0
 10
5.9008074429
 20
5.9032926261
 30
0.0
 10
5.9061164236
 20
5.9055466593
 30
0.0
 10
5.9112033448
 20
5.9082647472
 30
0.0
 10
5.9160303417
 20
5.9114222935
 30
0.0
 10
5.9220635929
 20
5.9161814639
 30
0.0
 10
5.9287786663
 20
5.9231034264
 30
0.0
 10
5.934172283
 20
5.9310955263
 30
0.0
 10
5.9375984057
 20
5.9379690589
 30
0.0
 10
5.939708348
 20
5.9433331984
 30
0.0
 10
5.9413426943
 20
5.9488618517
 30
0.0
 10
5.9421053931
 20
5.9526309839
 30
0.0
 10
5.942404158
 20
5.9545280814
 30
0.0
  0
SPLINE
  5
2E0
100
AcDbEntity
  8
ALL_ASSEMBLY_MEMBERS
100
AcDbSpline
 62
7
  6
CONTINUOUS
 70
0
 71
3
 72
20
 73
16
 74
0
 42
0.0000001
 43
0.0000001
 44
0.0000000001
 40
0.0
 40
0.0
 40
0.0
 40
0.0
 40
0.0625424535
 40
0.1250530032
 40
0.1875454929
 40
0.2500436241
 40
0.3749527506
 40
0.4998732918
 40
0.5623938232
 40
0.6249134665
 40
0.6874270276
 40
0.7499378523
 40
0.8124699315
 40
0.8750494145
 40
1.0
 40
1.0
 40
1.0
 40
1.0
 10
5.5939824122
 20
5.9547535802
 30
0.0
 10
5.5942753554
 20
5.952850838
 30
0.0
 10
5.5950273913
 20
5.9490697036
 30
0.0
 10
5.5966486077
 20
5.9435217987
 30
0.0
 10
5.5987483322
 20
5.9381372952
 30
0.0
 10
5.6021651366
 20
5.9312362978
 30
0.0
 10
5.607553901
 20
5.9232105195
 30
0.0
 10
5.6142732377
 20
5.9162586576
 30
0.0
 10
5.6203128591
 20
5.9114780485
 30
0.0
 10
5.6251465987
 20
5.9083068719
 30
0.0
 10
5.630241782
 20
5.9055767728
 30
0.0
 10
5.6355605607
 20
5.9033121775
 30
0.0
 10
5.6410626312
 20
5.9015293145
 30
0.0
 10
5.6485750576
 20
5.8998209613
 30
0.0
 10
5.654364718
 20
5.8992990768
 30
0.0
 10
5.6582109049
 20
5.8992989857
 30
0.0
  0
SPLINE
  5
2E1
100
AcDbEntity
  8
ALL_ASSEMBLY_MEMBERS
100
AcDbSpline
 62
7
  6
CONTINUOUS
 70
0
 71
3
 72
29
 73
25
 74
0
 42
0.0000001
 43
0.0000001
 44
0.0000000001
 40
0.0
 40
0.0
 40
0.0
 40
0.0
 40
0.195321041
 40
0.2906292485
 40
0.3830211914
 40
0.4716428718
 40
0.555660028
 40
0.6342683863
 40
0.7066904437
 40
0.7722619575
 40
0.8303606088
 40
0.8804651977
 40
0.9221368789
 40
0.939694464
 40
0.9550220882
 40
0.9680900644
 40
0.9737686314
 40
0.9788742938
 40
0.9873699914
 40
0.9936015435
 40
0.9958930872
 40
0.9976662729
 40
0.9989838647
 40
1.0
 40
1.0
 40
1.0
 40
1.0
 10
5.6582109049
 20
6.4778057575
 30
0.0
 10
5.6539659401
 20
6.4778057476
 30
0.0
 10
5.6476495852
 20
6.4778267469
 30
0.0
 10
5.6393255791
 20
6.477898533
 30
0.0
 10
5.6333206469
 20
6.477972915
 30
0.0
 10
5.6275614234
 20
6.4780676481
 30
0.0
 10
5.6221021805
 20
6.4781821652
 30
0.0
 10
5.6169955442
 20
6.4783155561
 30
0.0
 10
5.6122904809
 20
6.4784671023
 30
0.0
 10
5.6080320371
 20
6.478635415
 30
0.0
 10
5.6042597396
 20
6.4788191414
 30
0.0
 10
5.6010083885
 20
6.4790167754
 30
0.0
 10
5.5986390638
 20
6.4791998341
 30
0.0
 10
5.5970262877
 20
6.4793571031
 30
0.0
 10
5.5960340037
 20
6.4794706725
 30
0.0
 10
5.59530019
 20
6.47957107
 30
0.0
 10
5.5947884693
 20
6.4796540707
 30
0.0
 10
5.5943762242
 20
6.4797293599
 30
0.0
 10
5.5939550457
 20
6.4798212418
 30
0.0
 10
5.5935994604
 20
6.4799266431
 30
0.0
 10
5.5933944483
 20
6.480017462
 30
0.0
 10
5.5932945012
 20
6.4800790135
 30
0.0
 10
5.5932291878
 20
6.4801418389
 30
0.0
 10
5.5932109152
 20
6.4801924327
 30
0.0
 10
5.5932109049
 20
6.4802145166
 30
0.0
  0
SPLINE
  5
2E2
100
AcDbEntity
  8
ALL_ASSEMBLY_MEMBERS
100
AcDbSpline
 62
7
  6
CONTINUOUS
 70
0
 71
3
 72
29
 73
25
 74
0
 42
0.0000001
 43
0.0000001
 44
0.0000000001
 40
0.0
 40
0.0
 40
0.0
 40
0.0
 40
0.1953122627
 40
0.2906089262
 40
0.3829922198
 40
0.4716083266
 40
0.555623179
 40
0.6342274874
 40
0.7066481877
 40
0.7722222743
 40
0.8303233617
 40
0.8804380869
 40
0.9221175607
 40
0.9396800456
 40
0.9550125558
 40
0.9680842869
 40
0.973764017
 40
0.9788706475
 40
0.9873679305
 40
0.9936006189
 40
0.9958925662
 40
0.9976660444
 40
0.9989838112
 40
1.0
 40
1.0
 40
1.0
 40
1.0
 10
5.6582109049
 20
6.7026232758
 30
0.0
 10
5.6539661317
 20
6.7026232848
 30
0.0
 10
5.6476502196
 20
6.7026022931
 30
0.0
 10
5.6393268446
 20
6.7025305098
 30
0.0
 10
5.6333224733
 20
6.7024561445
 30
0.0
 10
5.6275636101
 20
6.7023614211
 30
0.0
 10
5.6221046268
 20
6.7022469338
 30
0.0
 10
5.6169981587
 20
6.7021135521
 30
0.0
 10
5.6122931577
 20
6.701962018
 30
0.0
 10
5.6080346335
 20
6.7017937456
 30
0.0
 10
5.6042620083
 20
6.7016099995
 30
0.0
 10
5.6010102122
 20
6.7014123989
 30
0.0
 10
5.5986403936
 20
6.7012292974
 30
0.0
 10
5.5970272353
 20
6.7010720162
 30
0.0
 10
5.5960346565
 20
6.7009584362
 30
0.0
 10
5.5953006291
 20
6.700858029
 30
0.0
 10
5.5947887816
 20
6.7007750116
 30
0.0
 10
5.5943764565
 20
6.7006997113
 30
0.0
 10
5.5939551985
 20
6.7006078176
 30
0.0
 10
5.593599546
 20
6.7005024051
 30
0.0
 10
5.5933944935
 20
6.7004115792
 30
0.0
 10
5.5932945264
 20
6.7003500243
 30
0.0
 10
5.5932291985
 20
6.7002871982
 30
0.0
 10
5.5932109171
 20
6.7002366017
 30
0.0
 10
5.5932109049
 20
6.7002145166
 30
0.0
  0
SPLINE
  5
2E3
100
AcDbEntity
  8
ALL_ASSEMBLY_MEMBERS
100
AcDbSpline
 62
7
  6
CONTINUOUS
 70
0
 71
3
 72
29
 73
25
 74
0
 42
0.0000001
 43
0.0000001
 44
0.0000000001
 40
0.0
 40
0.0
 40
0.0
 40
0.0
 40
0.0010161208
 40
0.0023338486
 40
0.0041072987
 40
0.0063992674
 40
0.0126323744
 40
0.0211309906
 40
0.0262387891
 40
0.0319201393
 40
0.0449974129
 40
0.0603378424
 40
0.0779094538
 40
0.1196079766
 40
0.1697545424
 40
0.2278784643
 40
0.2934709301
 40
0.3659039529
 40
0.4444966948
 40
0.528496853
 40
0.6170824542
 40
0.7094255983
 40
0.8046929384
 40
1.0
 40
1.0
 40
1.0
 40
1.0
 10
5.9432109049
 20
6.4802145166
 30
0.0
 10
5.9432108892
 20
6.480192433
 30
0.0
 10
5.9431926035
 20
6.4801418419
 30
0.0
 10
5.943127278
 20
6.4800790187
 30
0.0
 10
5.9430273123
 20
6.4800174631
 30
0.0
 10
5.9428222532
 20
6.4799266304
 30
0.0
 10
5.9424665644
 20
6.4798212036
 30
0.0
 10
5.9420452445
 20
6.4797292962
 30
0.0
 10
5.9416328309
 20
6.4796539817
 30
0.0
 10
5.9411208041
 20
6.4795709396
 30
0.0
 10
5.9403864486
 20
6.4794705119
 30
0.0
 10
5.9393933786
 20
6.4793569074
 30
0.0
 10
5.9377794361
 20
6.479199589
 30
0.0
 10
5.9354083183
 20
6.4790163741
 30
0.0
 10
5.9321549155
 20
6.4788187977
 30
0.0
 10
5.9283807046
 20
6.478634992
 30
0.0
 10
5.9241210152
 20
6.478466746
 30
0.0
 10
5.9194155968
 20
6.4783152813
 30
0.0
 10
5.9143094328
 20
6.4781818892
 30
0.0
 10
5.9088516819
 20
6.4780675091
 30
0.0
 10
5.9030946741
 20
6.4779728247
 30
0.0
 10
5.8970924763
 20
6.477898493
 30
0.0
 10
5.8887707253
 20
6.4778267339
 30
0.0
 10
5.8824555644
 20
6.4778057535
 30
0.0
 10
5.8782109049
 20
6.4778057575
 30
0.0
  0
SPLINE
  5
2E4
100
AcDbEntity
  8
ALL_ASSEMBLY_MEMBERS
100
AcDbSpline
 62
7
  6
CONTINUOUS
 70
0
 71
3
 72
29
 73
25
 74
0
 42
0.0000001
 43
0.0000001
 44
0.0000000001
 40
0.0
 40
0.0
 40
0.0
 40
0.0
 40
0.0010160541
 40
0.0023335911
 40
0.0041067287
 40
0.0063982881
 40
0.0126303847
 40
0.0211278903
 40
0.0262351516
 40
0.0319159658
 40
0.0449911359
 40
0.0603284044
 40
0.0778965178
 40
0.1195893722
 40
0.1697260171
 40
0.2278412798
 40
0.2934268189
 40
0.3658517007
 40
0.4444438112
 40
0.5284438075
 40
0.6170363811
 40
0.709394917
 40
0.8046804275
 40
1.0
 40
1.0
 40
1.0
 40
1.0
 10
5.9432109049
 20
6.7002145166
 30
0.0
 10
5.9432108901
 20
6.7002365988
 30
0.0
 10
5.9431926129
 20
6.7002871859
 30
0.0
 10
5.9431273038
 20
6.7003500088
 30
0.0
 10
5.9430273598
 20
6.7004115619
 30
0.0
 10
5.94282234
 20
6.7005023909
 30
0.0
 10
5.9424667064
 20
6.7006078118
 30
0.0
 10
5.9420454438
 20
6.7006997112
 30
0.0
 10
5.941633077
 20
6.7007750182
 30
0.0
 10
5.941121118
 20
6.7008580476
 30
0.0
 10
5.9403868887
 20
6.7009584684
 30
0.0
 10
5.9393940095
 20
6.7010720663
 30
0.0
 10
5.9377803353
 20
6.7012293787
 30
0.0
 10
5.9354096298
 20
6.7014125524
 30
0.0
 10
5.9321567554
 20
6.7016101407
 30
0.0
 10
5.9283830982
 20
6.7017939375
 30
0.0
 10
5.924123924
 20
6.7019621799
 30
0.0
 10
5.919418847
 20
6.7021136722
 30
0.0
 10
5.9143128759
 20
6.7022470509
 30
0.0
 10
5.9088549906
 20
6.7023614691
 30
0.0
 10
5.9030974994
 20
6.702456171
 30
0.0
 10
5.8970944197
 20
6.7025305227
 30
0.0
 10
5.8887716659
 20
6.7026022908
 30
0.0
 10
5.8824558371
 20
6.7026232815
 30
0.0
 10
5.8782109049
 20
6.7026232758
 30
0.0
  0
SPLINE
  5
2E5
100
AcDbEntity
  8
ALL_ASSEMBLY_MEMBERS
100
AcDbSpline
 62
7
  6
CONTINUOUS
 70
0
 71
3
 72
21
 73
17
 74
0
 42
0.0000001
 43
0.0000001
 44
0.0000000001
 40
0.0
 40
0.0
 40
0.0
 40
0.0
 40
0.1249298756
 40
0.1875029419
 40
0.250037167
 40
0.3125544083
 40
0.3750751947
 40
0.4376018678
 40
0.5001255399
 40
0.5626435821
 40
0.6251548777
 40
0.7500266092
 40
0.8125026134
 40
0.8749721616
 40
0.9374647465
 40
1.0
 40
1.0
 40
1.0
 40
1.0
 10
5.8782109049
 20
7.2811300476
 30
0.0
 10
5.8820472722
 20
7.2811299468
 30
0.0
 10
5.8878222155
 20
7.2806109473
 30
0.0
 10
5.8953168385
 20
7.2789108553
 30
0.0
 10
5.9008071746
 20
7.2771365129
 30
0.0
 10
5.9061159611
 20
7.2748825939
 30
0.0
 10
5.9112027811
 20
7.2721646365
 30
0.0
 10
5.9160293465
 20
7.2690073852
 30
0.0
 10
5.9205576015
 20
7.2654356735
 30
0.0
 10
5.9247512958
 20
7.2614764374
 30
0.0
 10
5.9298525215
 20
7.2557333403
 30
0.0
 10
5.9341717506
 20
7.2493345047
 30
0.0
 10
5.9375973473
 20
7.2424622379
 30
0.0
 10
5.9397074508
 20
7.2370985667
 30
0.0
 10
5.9413418425
 20
7.231570537
 30
0.0
 10
5.9421046852
 20
7.227801771
 30
0.0
 10
5.9424035395
 20
7.2259048253
 30
0.0
  0
SPLINE
  5
2E6
100
AcDbEntity
  8
ALL_ASSEMBLY_MEMBERS
100
AcDbSpline
 62
7
  6
CONTINUOUS
 70
0
 71
3
 72
20
 73
16
 74
0
 42
0.0000001
 43
0.0000001
 44
0.0000000001
 40
0.0
 40
0.0
 40
0.0
 40
0.0
 40
0.0625453224
 40
0.1250574993
 40
0.187550601
 40
0.2500488631
 40
0.3749595232
 40
0.4998830996
 40
0.5624045228
 40
0.624924146
 40
0.6874363981
 40
0.7499438241
 40
0.8124719526
 40
0.8750492143
 40
1.0
 40
1.0
 40
1.0
 40
1.0
 10
5.5939972983
 20
7.2257713289
 30
0.0
 10
5.5942927322
 20
7.2276717325
 30
0.0
 10
5.5950493523
 20
7.231447959
 30
0.0
 10
5.596676318
 20
7.2369880158
 30
0.0
 10
5.5987806069
 20
7.2423642914
 30
0.0
 10
5.6022018427
 20
7.2492541371
 30
0.0
 10
5.6075932172
 20
7.2572660023
 30
0.0
 10
5.6143114873
 20
7.2642048617
 30
0.0
 10
5.6203481888
 20
7.2689763115
 30
0.0
 10
5.6251788528
 20
7.2721410744
 30
0.0
 10
5.6302699859
 20
7.2748655454
 30
0.0
 10
5.6355838779
 20
7.2771254253
 30
0.0
 10
5.6410804913
 20
7.2789044467
 30
0.0
 10
5.6485852558
 20
7.2806091528
 30
0.0
 10
5.6543687446
 20
7.2811299633
 30
0.0
 10
5.6582109049
 20
7.2811300476
 30
0.0
  0
SPLINE
  5
2E7
100
AcDbEntity
  8
ALL_ASSEMBLY_MEMBERS
100
AcDbSpline
 62
7
  6
CONTINUOUS
 70
0
 71
3
 72
21
 73
17
 74
0
 42
0.0000001
 43
0.0000001
 44
0.0000000001
 40
0.0
 40
0.0
 40
0.0
 40
0.0
 40
0.0645434457
 40
0.0968494566
 40
0.1289299384
 40
0.1608973264
 40
0.1927547404
 40
0.2558831557
 40
0.3186165101
 40
0.38098902
 40
0.4431416776
 40
0.5051326228
 40
0.6288110375
 40
0.7523954567
 40
0.8760791047
 40
1.0
 40
1.0
 40
1.0
 40
1.0
 10
5.8782109049
 20
7.2359627782
 30
0.0
 10
5.8790516195
 20
7.2359626165
 30
0.0
 10
5.8803204901
 20
7.2357684409
 30
0.0
 10
5.8819006354
 20
7.2351916447
 30
0.0
 10
5.8830177698
 20
7.2346118987
 30
0.0
 10
5.8840556847
 20
7.2339125804
 30
0.0
 10
5.8853292879
 20
7.2328543359
 30
0.0
 10
5.8867285453
 20
7.2313366877
 30
0.0
 10
5.8881193866
 20
7.2293101392
 30
0.0
 10
5.8892702559
 20
7.227154885
 30
0.0
 10
5.8902129559
 20
7.2249126888
 30
0.0
 10
5.8912373717
 20
7.2218490365
 30
0.0
 10
5.8921501894
 20
7.2179164766
 30
0.0
 10
5.8928123032
 20
7.2131259129
 30
0.0
 10
5.8931495359
 20
7.2082999559
 30
0.0
 10
5.8932109048
 20
7.2050742092
 30
0.0
 10
5.8932109049
 20
7.2034600698
 30
0.0
  0
SPLINE
  5
2E8
100
AcDbEntity
  8
ALL_ASSEMBLY_MEMBERS
100
AcDbSpline
 62
7
  6
CONTINUOUS
 70
0
 71
3
 72
20
 73
16
 74
0
 42
0.0000001
 43
0.0000001
 44
0.0000000001
 40
0.0
 40
0.0
 40
0.0
 40
0.0
 40
0.1239582146
 40
0.2476824079
 40
0.3713161981
 40
0.4950575499
 40
0.6191848519
 40
0.6815989693
 40
0.7443080189
 40
0.8074134718
 40
0.8391978031
 40
0.8711457778
 40
0.9032109482
 40
0.9354712995
 40
1.0
 40
1.0
 40
1.0
 40
1.0
 10
5.8932109049
 20
5.976968961
 30
0.0
 10
5.8932109047
 20
5.9753544746
 30
0.0
 10
5.8931495239
 20
5.9721279438
 30
0.0
 10
5.8928121234
 20
5.9673009645
 30
0.0
 10
5.8921496213
 20
5.9625080841
 30
0.0
 10
5.8910529155
 20
5.9577873158
 30
0.0
 10
5.8896459879
 20
5.9539799527
 30
0.0
 10
5.8881162137
 20
5.9511105117
 30
0.0
 10
5.8867215328
 20
5.9490869917
 30
0.0
 10
5.8853251493
 20
5.9475691593
 30
0.0
 10
5.8840514466
 20
5.9465134835
 30
0.0
 10
5.8830142468
 20
5.945815905
 30
0.0
 10
5.8818983606
 20
5.9452364084
 30
0.0
 10
5.8803196678
 20
5.944658676
 30
0.0
 10
5.8790513551
 20
5.944466388
 30
0.0
 10
5.8782109049
 20
5.9444662551
 30
0.0
  0
SPLINE
  5
2E9
100
AcDbEntity
  8
ALL_ASSEMBLY_MEMBERS
100
AcDbSpline
 62
7
  6
CONTINUOUS
 70
0
 71
3
 72
21
 73
17
 74
0
 42
0.0000001
 43
0.0000001
 44
0.0000000001
 40
0.0
 40
0.0
 40
0.0
 40
0.0
 40
0.1239917113
 40
0.2477554631
 40
0.371436538
 40
0.4333146626
 40
0.4952639047
 40
0.5572998185
 40
0.6194993944
 40
0.6818937392
 40
0.7445887984
 40
0.8076714926
 40
0.8712144569
 40
0.9032474219
 40
0.9354748822
 40
1.0
 40
1.0
 40
1.0
 40
1.0
 10
5.6432109049
 20
7.2034600698
 30
0.0
 10
5.6432109044
 20
7.2050750846
 30
0.0
 10
5.6432722996
 20
7.2083028019
 30
0.0
 10
5.6436101856
 20
7.2131313866
 30
0.0
 10
5.6441618715
 20
7.2171273036
 30
0.0
 10
5.6448219732
 20
7.2202840708
 30
0.0
 10
5.6454428881
 20
7.2226254356
 30
0.0
 10
5.646214262
 20
7.2249265846
 30
0.0
 10
5.6471584986
 20
7.2271696215
 30
0.0
 10
5.6483105147
 20
7.2293246157
 30
0.0
 10
5.6497045917
 20
7.2313484094
 30
0.0
 10
5.6513823372
 20
7.2331689032
 30
0.0
 10
5.6530433406
 20
7.2344243295
 30
0.0
 10
5.6545246508
 20
7.2351929197
 30
0.0
 10
5.6561023866
 20
7.2357712522
 30
0.0
 10
5.6573704534
 20
7.235962715
 30
0.0
 10
5.6582109049
 20
7.2359627782
 30
0.0
  0
SPLINE
  5
2EA
100
AcDbEntity
  8
ALL_ASSEMBLY_MEMBERS
100
AcDbSpline
 62
7
  6
CONTINUOUS
 70
0
 71
3
 72
21
 73
17
 74
0
 42
0.0000001
 43
0.0000001
 44
0.0000000001
 40
0.0
 40
0.0
 40
0.0
 40
0.0
 40
0.0645072115
 40
0.096772959
 40
0.1288340682
 40
0.1607891379
 40
0.1926105447
 40
0.2557119913
 40
0.3184868111
 40
0.3808810077
 40
0.4430796432
 40
0.5051030905
 40
0.628813285
 40
0.7524028495
 40
0.8760932467
 40
1.0
 40
1.0
 40
1.0
 40
1.0
 10
5.6582109049
 20
5.9444662551
 30
0.0
 10
5.6573706586
 20
5.944466396
 30
0.0
 10
5.6561025846
 20
5.94465927
 30
0.0
 10
5.6545237555
 20
5.9452362178
 30
0.0
 10
5.6534075687
 20
5.9458156839
 30
0.0
 10
5.652370032
 20
5.9465139324
 30
0.0
 10
5.6510960888
 20
5.9475702671
 30
0.0
 10
5.6496970598
 20
5.9490878809
 30
0.0
 10
5.6483055169
 20
5.9511143982
 30
0.0
 10
5.6471520339
 20
5.9532699484
 30
0.0
 10
5.646209988
 20
5.9555138806
 30
0.0
 10
5.6451841931
 20
5.9585785625
 30
0.0
 10
5.6442719607
 20
5.9625122643
 30
0.0
 10
5.6436090989
 20
5.9673032713
 30
0.0
 10
5.6432719638
 20
5.9721292587
 30
0.0
 10
5.6432109104
 20
5.9753549205
 30
0.0
 10
5.6432109049
 20
5.9769688824
 30
0.0
  0
SPLINE
  5
2EB
100
AcDbEntity
  8
ALL_ASSEMBLY_MEMBERS
100
AcDbSpline
 62
7
  6
CONTINUOUS
 70
0
 71
3
 72
18
 73
14
 74
0
 42
0.0000001
 43
0.0000001
 44
0.0000000001
 40
0.0
 40
0.0
 40
0.0
 40
0.0
 40
0.0625229616
 40
0.1251683396
 40
0.187765788
 40
0.2503588905
 40
0.3753119253
 40
0.5002733001
 40
0.6252165547
 40
0.7501342096
 40
0.8126205648
 40
0.8751040805
 40
1.0
 40
1.0
 40
1.0
 40
1.0
 10
5.6582109049
 20
5.9329764637
 30
0.0
 10
5.6569794077
 20
5.9329765046
 30
0.0
 10
5.6545097943
 20
5.9331785869
 30
0.0
 10
5.6509026371
 20
5.9340578126
 30
0.0
 10
5.6474736185
 20
5.9354851561
 30
0.0
 10
5.6432312849
 20
5.9380187726
 30
0.0
 10
5.6386376974
 20
5.9422219657
 30
0.0
 10
5.6344187797
 20
5.948341013
 30
0.0
 10
5.6314050955
 20
5.9551186135
 30
0.0
 10
5.6297807687
 20
5.9610735376
 30
0.0
 10
5.6289337477
 20
5.96592423
 30
0.0
 10
5.6283608579
 20
5.9708144311
 30
0.0
 10
5.6282109305
 20
5.9745089237
 30
0.0
 10
5.6282109049
 20
5.9769689634
 30
0.0
  0
SPLINE
  5
2EC
100
AcDbEntity
  8
ALL_ASSEMBLY_MEMBERS
100
AcDbSpline
 62
7
  6
CONTINUOUS
 70
0
 71
3
 72
19
 73
15
 74
0
 42
0.0000001
 43
0.0000001
 44
0.0000000001
 40
0.0
 40
0.0
 40
0.0
 40
0.0
 40
0.1248888747
 40
0.1873528816
 40
0.2498246755
 40
0.3747217197
 40
0.4996406404
 40
0.6245550572
 40
0.6871058642
 40
0.7496676806
 40
0.8122312581
 40
0.8748167784
 40
0.9374608038
 40
1.0
 40
1.0
 40
1.0
 40
1.0
 10
5.9082109049
 20
5.9769689634
 30
0.0
 10
5.9082109039
 20
5.9745084715
 30
0.0
 10
5.9080609168
 20
5.970813618
 30
0.0
 10
5.9074878532
 20
5.9659230446
 30
0.0
 10
5.9066405801
 20
5.9610723558
 30
0.0
 10
5.9050157255
 20
5.9551167232
 30
0.0
 10
5.9020039908
 20
5.9483408933
 30
0.0
 10
5.8984807697
 20
5.9432352923
 30
0.0
 10
5.8950323772
 20
5.9397032917
 30
0.0
 10
5.8921349516
 20
5.9373892688
 30
0.0
 10
5.8889504287
 20
5.935485683
 30
0.0
 10
5.8855214791
 20
5.9340588012
 30
0.0
 10
5.8819135545
 20
5.9331784688
 30
0.0
 10
5.8794430177
 20
5.9329764858
 30
0.0
 10
5.8782109049
 20
5.9329764637
 30
0.0
  0
SPLINE
  5
2ED
100
AcDbEntity
  8
ALL_ASSEMBLY_MEMBERS
100
AcDbSpline
 62
7
  6
CONTINUOUS
 70
0
 71
3
 72
21
 73
17
 74
0
 42
0.0000001
 43
0.0000001
 44
0.0000000001
 40
0.0
 40
0.0
 40
0.0
 40
0.0
 40
0.124881106
 40
0.1874283225
 40
0.2499431862
 40
0.3124540212
 40
0.3749757737
 40
0.4375002927
 40
0.5000216372
 40
0.5625402973
 40
0.625052558
 40
0.6875586792
 40
0.7500540425
 40
0.8125586332
 40
0.8751052337
 40
1.0
 40
1.0
 40
1.0
 40
1.0
 10
5.8782109049
 20
5.9141043185
 30
0.0
 10
5.8815014933
 20
5.9141045667
 30
0.0
 10
5.886458679
 20
5.9146036434
 30
0.0
 10
5.8928465434
 20
5.9162368154
 30
0.0
 10
5.8974974369
 20
5.9179355951
 30
0.0
 10
5.9019547016
 20
5.9200881601
 30
0.0
 10
5.9061767378
 20
5.9226725198
 30
0.0
 10
5.9101237506
 20
5.92566046
 30
0.0
 10
5.9137558492
 20
5.9290239596
 30
0.0
 10
5.9170414921
 20
5.9327260989
 30
0.0
 10
5.9199481984
 20
5.9367320804
 30
0.0
 10
5.9224519831
 20
5.94100071
 30
0.0
 10
5.9245301236
 20
5.9454914879
 30
0.0
 10
5.9261653523
 20
5.950163772
 30
0.0
 10
5.927733047
 20
5.9565675777
 30
0.0
 10
5.9282106758
 20
5.9615236962
 30
0.0
 10
5.9282109049
 20
5.9648146445
 30
0.0
  0
SPLINE
  5
2EE
100
AcDbEntity
  8
ALL_ASSEMBLY_MEMBERS
100
AcDbSpline
 62
7
  6
CONTINUOUS
 70
0
 71
3
 72
21
 73
17
 74
0
 42
0.0000001
 43
0.0000001
 44
0.0000000001
 40
0.0
 40
0.0
 40
0.0
 40
0.0
 40
0.1248872257
 40
0.1874350285
 40
0.249949278
 40
0.3124576719
 40
0.3749775952
 40
0.4375002653
 40
0.5000224148
 40
0.5625406348
 40
0.625053976
 40
0.6875611292
 40
0.7500575795
 40
0.8125618332
 40
0.8751087122
 40
1.0
 40
1.0
 40
1.0
 40
1.0
 10
5.6082109049
 20
5.9648146445
 30
0.0
 10
5.6082111479
 20
5.9615238949
 30
0.0
 10
5.6086885286
 20
5.9565679157
 30
0.0
 10
5.6102564463
 20
5.9501640679
 30
0.0
 10
5.6118918171
 20
5.9454911759
 30
0.0
 10
5.613970336
 20
5.9409994933
 30
0.0
 10
5.616475051
 20
5.9367302731
 30
0.0
 10
5.6193821405
 20
5.9327236751
 30
0.0
 10
5.6226682724
 20
5.929021563
 30
0.0
 10
5.6263004892
 20
5.925658639
 30
0.0
 10
5.6302468025
 20
5.9226710335
 30
0.0
 10
5.6344682149
 20
5.920087671
 30
0.0
 10
5.6389245059
 20
5.9179355432
 30
0.0
 10
5.6435747329
 20
5.9162368507
 30
0.0
 10
5.6499626465
 20
5.9146039807
 30
0.0
 10
5.6549200482
 20
5.9141045536
 30
0.0
 10
5.6582109049
 20
5.9141043185
 30
0.0
  0
SPLINE
  5
2EF
100
AcDbEntity
  8
ALL_ASSEMBLY_MEMBERS
100
AcDbSpline
 62
7
  6
CONTINUOUS
 70
0
 71
3
 72
19
 73
15
 74
0
 42
0.0000001
 43
0.0000001
 44
0.0000000001
 40
0.0
 40
0.0
 40
0.0
 40
0.0
 40
0.12492947
 40
0.1874993544
 40
0.2500340469
 40
0.3125617549
 40
0.3751011424
 40
0.4376438857
 40
0.5001866168
 40
0.5627255596
 40
0.6252587959
 40
0.7501442921
 40
0.8750704328
 40
1.0
 40
1.0
 40
1.0
 40
1.0
 10
5.6082109049
 20
7.2156143887
 30
0.0
 10
5.6082111535
 20
7.2189052302
 30
0.0
 10
5.6086886408
 20
7.2238613587
 30
0.0
 10
5.6102565378
 20
7.2302654078
 30
0.0
 10
5.6118920268
 20
7.2349383612
 30
0.0
 10
5.6139705751
 20
7.2394300614
 30
0.0
 10
5.6164753856
 20
7.243699239
 30
0.0
 10
5.6193825625
 20
7.2477058655
 30
0.0
 10
5.6226686913
 20
7.2514079584
 30
0.0
 10
5.62630144
 20
7.2547710119
 30
0.0
 10
5.631557608
 20
7.2587509478
 30
0.0
 10
5.638831062
 20
7.2627231011
 30
0.0
 10
5.6483193917
 20
7.2656607838
 30
0.0
 10
5.6549200608
 20
7.2663244928
 30
0.0
 10
5.6582109049
 20
7.2663247147
 30
0.0
  0
SPLINE
  5
2F0
100
AcDbEntity
  8
ALL_ASSEMBLY_MEMBERS
100
AcDbSpline
 62
7
  6
CONTINUOUS
 70
0
 71
3
 72
19
 73
15
 74
0
 42
0.0000001
 43
0.0000001
 44
0.0000000001
 40
0.0
 40
0.0
 40
0.0
 40
0.0
 40
0.1249213581
 40
0.1874895493
 40
0.2500236017
 40
0.3125526623
 40
0.3750927882
 40
0.4376364056
 40
0.5001772368
 40
0.5627154097
 40
0.6252464095
 40
0.7501340752
 40
0.8750689523
 40
1.0
 40
1.0
 40
1.0
 40
1.0
 10
5.8782109049
 20
7.2663247147
 30
0.0
 10
5.8815015896
 20
7.2663244612
 30
0.0
 10
5.8864589265
 20
7.2658252689
 30
0.0
 10
5.8928469946
 20
7.2641921256
 30
0.0
 10
5.8974979377
 20
7.2624932148
 30
0.0
 10
5.9019552185
 20
7.2603406296
 30
0.0
 10
5.9061772043
 20
7.2577561609
 30
0.0
 10
5.9101242586
 20
7.2547681511
 30
0.0
 10
5.9137563247
 20
7.2514046317
 30
0.0
 10
5.9170420837
 20
7.247701999
 30
0.0
 10
5.920914416
 20
7.2423661005
 30
0.0
 10
5.9247544976
 20
7.2350245702
 30
0.0
 10
5.9275758063
 20
7.2255049165
 30
0.0
 10
5.9282106882
 20
7.2189053287
 30
0.0
 10
5.9282109049
 20
7.2156143887
 30
0.0
  0
SPLINE
  5
2F1
100
AcDbEntity
  8
ALL_ASSEMBLY_MEMBERS
100
AcDbSpline
 62
7
  6
CONTINUOUS
 70
0
 71
3
 72
18
 73
14
 74
0
 42
0.0000001
 43
0.0000001
 44
0.0000000001
 40
0.0
 40
0.0
 40
0.0
 40
0.0
 40
0.0625620173
 40
0.1252655559
 40
0.1879168763
 40
0.2505646376
 40
0.3755253449
 40
0.5004230071
 40
0.6252949151
 40
0.7501701802
 40
0.8126382534
 40
0.8751041621
 40
1.0
 40
1.0
 40
1.0
 40
1.0
 10
5.8782109049
 20
7.2474525696
 30
0.0
 10
5.8794431697
 20
7.2474525462
 30
0.0
 10
5.8819146445
 20
7.2472497375
 30
0.0
 10
5.8855247342
 20
7.2463698089
 30
0.0
 10
5.8889561282
 20
7.2449395235
 30
0.0
 10
5.8931997571
 20
7.2424036341
 30
0.0
 10
5.8977913132
 20
7.2381982127
 30
0.0
 10
5.902007164
 20
7.2320803008
 30
0.0
 10
5.9050182069
 20
7.2253053862
 30
0.0
 10
5.9066412879
 20
7.2193528812
 30
0.0
 10
5.907488184
 20
7.2145037398
 30
0.0
 10
5.9080609319
 20
7.2096142412
 30
0.0
 10
5.9082109046
 20
7.2059201047
 30
0.0
 10
5.9082109049
 20
7.2034600698
 30
0.0
  0
SPLINE
  5
2F2
100
AcDbEntity
  8
ALL_ASSEMBLY_MEMBERS
100
AcDbSpline
 62
7
  6
CONTINUOUS
 70
0
 71
3
 72
18
 73
14
 74
0
 42
0.0000001
 43
0.0000001
 44
0.0000000001
 40
0.0
 40
0.0
 40
0.0
 40
0.0
 40
0.1249388503
 40
0.2498877915
 40
0.3748486427
 40
0.4997964051
 40
0.6247023812
 40
0.687238053
 40
0.7497722173
 40
0.8122949246
 40
0.8748260472
 40
0.9374462548
 40
1.0
 40
1.0
 40
1.0
 40
1.0
 10
5.6282109049
 20
7.2034600698
 30
0.0
 10
5.6282109034
 20
7.2059214256
 30
0.0
 10
5.6284110015
 20
7.2108480445
 30
0.0
 10
5.6294578277
 20
7.2181732423
 30
0.0
 10
5.6314088734
 20
7.2253202706
 30
0.0
 10
5.6344226804
 20
7.2320970816
 30
0.0
 10
5.637947569
 20
7.2372010806
 30
0.0
 10
5.6413954687
 20
7.2407318926
 30
0.0
 10
5.644292725
 20
7.2430431377
 30
0.0
 10
5.6474748269
 20
7.2449456384
 30
0.0
 10
5.6509018964
 20
7.2463704656
 30
0.0
 10
5.6545082908
 20
7.2472507605
 30
0.0
 10
5.6569785658
 20
7.2474526051
 30
0.0
 10
5.6582109049
 20
7.2474525696
 30
0.0
  0
ENDSEC
  0
SECTION
  2
OBJECTS
  0
DICTIONARY
  5
C
100
AcDbDictionary
280
0
281
1
  3
ACAD_GROUP
350
D
  3
ACAD_MLINESTYLE
350
17
  3
ACAD_LAYOUT
350
1A
  3
ACAD_PLOTSETTINGS
350
19
  3
ACAD_PLOTSTYLENAME
350
E
  0
DICTIONARY
  5
D
102
{ACAD_REACTORS
330
C
102
}
100
AcDbDictionary
280
0
281
1
  0
ACDBDICTIONARYWDFLT
  5
E
102
{ACAD_REACTORS
330
C
102
}
100
AcDbDictionary
281
1
  3
Normal
350
F
100
AcDbDictionaryWithDefault
340
F
  0
DICTIONARY
  5
17
102
{ACAD_REACTORS
330
C
102
}
100
AcDbDictionary
280
0
281
1
  3
Standard
350
18
  0
DICTIONARY
  5
19
102
{ACAD_REACTORS
330
C
102
}
100
AcDbDictionary
281
1
  0
DICTIONARY
  5
1A
102
{ACAD_REACTORS
330
C
102
}
100
AcDbDictionary
281
1
  3
Model
350
2F3
  3
Layout1
350
2F4
  0
ACDBPLACEHOLDER
  5
F
102
{ACAD_REACTORS
330
E
102
}
  0
MLINESTYLE
  5
18
102
{ACAD_REACTORS
330
17
102
}
100
AcDbMlineStyle
  2
STANDARD
 70
0
  3

 62
256
 51
90.0
 52
90.0
 71
2
 49
0.5
 62
256
  6
BYLAYER
 49
-0.5
 62
256
  6
BYLAYER
  0
LAYOUT
  5
2F3
102
{ACAD_REACTORS
330
1A
102
}
100
AcDbPlotSettings
  1

  2
none_device
  4
ANSI_A_(11.00_x_8.50_Inches)
  6

 40
0.0
 41
0.0
 42
0.0
 43
0.0
 44
279.4
 45
215.9
 46
0.0
 47
0.0
 48
0.0
 49
0.0
140
0.0
141
0.0
142
1.0
143
1.0
 70
1024
 72
0
 73
0
 74
0
  7

 75
0
147
1.0
148
0.0
149
0.0
100
AcDbLayout
  1
Model
 70
0
 71
0
 10
0.0
 20
0.0
 11
11.0
 21
8.5
 12
0.0
 22
0.0
 32
0.0
 14
0.0
 24
0.0
 34
0.0
 15
0.0
 25
0.0
 35
0.0
146
0.0
 13
0.0
 23
0.0
 33
0.0
 16
1.0
 26
0.0
 36
0.0
 17
0.0
 27
1.0
 37
0.0
 76
0
330
219
345
0
346
0
  0
LAYOUT
  5
2F4
102
{ACAD_REACTORS
330
1A
102
}
100
AcDbPlotSettings
  1

  2
none_device
  4
ANSI_A_(11.00_x_8.50_Inches)
  6

 40
0.0
 41
0.0
 42
0.0
 43
0.0
 44
279.4
 45
215.9
 46
0.0
 47
0.0
 48
0.0
 49
0.0
140
0.0
141
0.0
142
1.0
143
1.0
 70
0
 72
0
 73
0
 74
0
  7

 75
0
147
1.0
148
0.0
149
0.0
100
AcDbLayout
  1
Layout1
 70
0
 71
1
 10
0.0
 20
0.0
 11
11.0
 21
8.5
 12
0.0
 22
0.0
 32
0.0
 14
0.0
 24
0.0
 34
0.0
 15
0.0
 25
0.0
 35
0.0
146
0.0
 13
0.0
 23
0.0
 33
0.0
 16
1.0
 26
0.0
 36
0.0
 17
0.0
 27
1.0
 37
0.0
 76
0
330
21A
345
0
346
0
  0
ENDSEC
  0
EOF
