999
DXF file: E:\BT Custom\CADOUTPUT\_TOP.dxf
999
Pro/ENGINEER 2018400 by Parametric Technology Corporation
  0
SECTION
  2
HEADER
  9
$ACADVER
  1
AC1018
  9
$DWGCODEPAGE
  3
ANSI_1252
  9
$EXTMAX
 10
22.0
 20
17.0
 30
0.0
  9
$EXTMIN
 10
0.0
 20
0.0
 30
0.0
  9
$LIMMIN
 10
0.0
 20
0.0
  9
$LIMMAX
 10
22.0
 20
17.0
  9
$VIEWCTR
 10
11.0
 20
8.5
  9
$VIEWSIZE
 40
17.0
  9
$CLAYER
  8
0
  9
$LTSCALE
 40
1.21
  9
$CELTYPE
  6
BYLAYER
  9
$DIMSCALE
 40
1.0
  9
$DIMASZ
 40
0.1
  9
$DIMEXO
 40
0.0625
  9
$DIMDLI
 40
0.836
  9
$DIMEXE
 40
0.125
  9
$DIMCEN
 40
0.198
  9
$DIMLFAC
 40
1.0
  9
$DIMBLK
  1
_FILLED
  9
$DIMALT
 70
1
  9
$DIMALTD
 70
2
  9
$DIMALTTD
 70
2
  9
$DIMALTF
 40
25.4
  9
$DIMTXT
 40
0.08
  9
$DIMTOL
 70
1
  9
$DIMLIM
 70
0
  9
$DIMTFAC
 40
1.0
  9
$DIMTP
 40
0.001
  9
$DIMTM
 40
0.001
  9
$DIMGAP
 40
0.09
  9
$DIMDSEP
 70
46
  9
$AUNITS
 70
0
  9
$PDMODE
 70
3
  9
$PDSIZE
 40
0.06
  9
$HANDSEED
  5
33F
  9
$TILEMODE
 70
1
  9
$MEASUREMENT
 70
0
  9
$INSUNITS
 70
1
  0
ENDSEC
  0
SECTION
  2
CLASSES
  0
CLASS
  1
ACDBDICTIONARYWDFLT
  2
AcDbDictionaryWithDefault
  3
AutoCAD 2000
 90
0
 91
1
280
0
281
0
  0
CLASS
  1
ACDBPLACEHOLDER
  2
AcDbPlaceHolder
  3
AutoCAD 2000
 90
0
 91
1
280
0
281
0
  0
CLASS
  1
LAYOUT
  2
AcDbLayout
  3
AutoCAD 2000
 90
0
 91
0
280
0
281
0
  0
ENDSEC
  0
SECTION
  2
TABLES
  0
TABLE
  2
VPORT
  5
8
100
AcDbSymbolTable
 70
2
  0
VPORT
  5
1F4
100
AcDbSymbolTableRecord
100
AcDbViewportTableRecord
  2
*ACTIVE
 70
0
 10
0.0
 20
0.0
 11
1.0
 21
1.0
 12
11.0
 22
8.5
 13
0.0
 23
0.0
 14
1.0
 24
1.0
 15
0.0
 25
0.0
 16
0.0
 26
0.0
 36
1.0
 17
0.0
 27
0.0
 37
0.0
 40
17.0
 41
1.2941176471
 42
50.0
 43
0.0
 44
0.0
 50
0.0
 51
0.0
 71
0
 72
100
 73
1
 74
1
 75
0
 76
0
 77
0
 78
0
  0
ENDTAB
  0
TABLE
  2
LTYPE
  5
5
100
AcDbSymbolTable
 70
6
  0
LTYPE
  5
14
100
AcDbSymbolTableRecord
100
AcDbLinetypeTableRecord
  2
BYBLOCK
 70
0
  3

 72
65
 73
0
 40
0.0
  0
LTYPE
  5
15
100
AcDbSymbolTableRecord
100
AcDbLinetypeTableRecord
  2
BYLAYER
 70
0
  3

 72
65
 73
0
 40
0.0
  0
LTYPE
  5
16
100
AcDbSymbolTableRecord
100
AcDbLinetypeTableRecord
  2
CONTINUOUS
 70
64
  3
Solid line
 72
65
 73
0
 40
0.0
  0
LTYPE
  5
1F5
100
AcDbSymbolTableRecord
100
AcDbLinetypeTableRecord
  2
CENTER
 70
64
  3
____ _ ____ _ ____ _ ____ _ ____ _ ____ _ ____
 72
65
 73
4
 40
0.6
 49
0.375
 74
0
 49
-0.075
 74
0
 49
0.075
 74
0
 49
-0.075
 74
0
  0
LTYPE
  5
1F6
100
AcDbSymbolTableRecord
100
AcDbLinetypeTableRecord
  2
HIDDEN
 70
64
  3
- - - - - - - - - - - - - - - - - - - -
 72
65
 73
2
 40
0.2
 49
0.1
 74
0
 49
-0.1
 74
0
  0
LTYPE
  5
1F7
100
AcDbSymbolTableRecord
100
AcDbLinetypeTableRecord
  2
PHANTOM
 70
64
  3
_____ _ _ _____ _ _ _____ _ _ _____
 72
65
 73
6
 40
0.8
 49
0.45
 74
0
 49
-0.05
 74
0
 49
0.1
 74
0
 49
-0.05
 74
0
 49
0.1
 74
0
 49
-0.05
 74
0
  0
LTYPE
  5
1F8
100
AcDbSymbolTableRecord
100
AcDbLinetypeTableRecord
  2
DOT
 70
64
  3
. . . . . . . . . . . . . . . . . . . .
 72
65
 73
2
 40
0.2
 49
0.1
 74
0
 49
-0.1
 74
0
  0
LTYPE
  5
1F9
100
AcDbSymbolTableRecord
100
AcDbLinetypeTableRecord
  2
DASHED
 70
64
  3
- - - - - - - - - - - - - - - - - - - -
 72
65
 73
2
 40
0.2
 49
0.1
 74
0
 49
-0.1
 74
0
  0
ENDTAB
  0
TABLE
  2
LAYER
  5
2
100
AcDbSymbolTable
 70
36
  0
LAYER
  5
10
100
AcDbSymbolTableRecord
100
AcDbLayerTableRecord
  2
0
 70
0
 62
7
  6
CONTINUOUS
370
-3
390
F
  0
LAYER
  5
1FA
100
AcDbSymbolTableRecord
100
AcDbLayerTableRecord
  2
DEFAULT_1
 70
0
 62
7
  6
CENTER
370
-3
390
F
  0
LAYER
  5
1FB
100
AcDbSymbolTableRecord
100
AcDbLayerTableRecord
  2
DEFAULT_2
 70
0
 62
8
  6
HIDDEN
370
-3
390
F
  0
LAYER
  5
1FC
100
AcDbSymbolTableRecord
100
AcDbLayerTableRecord
  2
DEFAULT_3
 70
0
 62
7
  6
PHANTOM
370
-3
390
F
  0
LAYER
  5
1FD
100
AcDbSymbolTableRecord
100
AcDbLayerTableRecord
  2
ALL_FEATURES
 70
0
 62
7
  6
CONTINUOUS
370
-3
390
F
  0
LAYER
  5
1FE
100
AcDbSymbolTableRecord
100
AcDbLayerTableRecord
  2
AXES_FEATURES
 70
0
 62
7
  6
CONTINUOUS
370
-3
390
F
  0
LAYER
  5
1FF
100
AcDbSymbolTableRecord
100
AcDbLayerTableRecord
  2
DEFAULT_COORDINATE_SYSTEM
 70
0
 62
7
  6
CONTINUOUS
370
-3
390
F
  0
LAYER
  5
200
100
AcDbSymbolTableRecord
100
AcDbLayerTableRecord
  2
DEFAULT_DATUM_AXES
 70
0
 62
7
  6
CONTINUOUS
370
-3
390
F
  0
LAYER
  5
201
100
AcDbSymbolTableRecord
100
AcDbLayerTableRecord
  2
DEFAULT_DATUM_PLANES
 70
0
 62
7
  6
CONTINUOUS
370
-3
390
F
  0
LAYER
  5
202
100
AcDbSymbolTableRecord
100
AcDbLayerTableRecord
  2
DIMENSIONS
 70
0
 62
7
  6
CONTINUOUS
370
-3
390
F
  0
ENDTAB
  0
TABLE
  2
STYLE
  5
3
100
AcDbSymbolTable
 70
1
  0
STYLE
  5
11
100
AcDbSymbolTableRecord
100
AcDbTextStyleTableRecord
  2
STANDARD
 70
0
 40
0.0
 41
0.8
 50
0.0
 71
0
 42
0.2
  3
txt
  4

  0
STYLE
  5
203
100
AcDbSymbolTableRecord
100
AcDbTextStyleTableRecord
  2
TEXTSTYLE_1
 70
0
 40
0.0
 41
0.8
 50
0.0
 71
0
 42
0.2
  3
gdt
  4

  0
ENDTAB
  0
TABLE
  2
VIEW
  5
6
100
AcDbSymbolTable
 70
0
  0
ENDTAB
  0
TABLE
  2
UCS
  5
7
100
AcDbSymbolTable
 70
0
  0
ENDTAB
  0
TABLE
  2
APPID
  5
9
100
AcDbSymbolTable
 70
1
  0
APPID
  5
204
100
AcDbSymbolTableRecord
100
AcDbRegAppTableRecord
  2
ACAD
 70
0
  0
ENDTAB
  0
TABLE
  2
BLOCK_RECORD
  5
1
100
AcDbSymbolTable
 70
0
  0
BLOCK_RECORD
  5
205
100
AcDbSymbolTableRecord
100
AcDbBlockTableRecord
  2
*Model_Space
  0
BLOCK_RECORD
  5
206
100
AcDbSymbolTableRecord
100
AcDbBlockTableRecord
  2
*Paper_Space
  0
BLOCK_RECORD
  5
207
100
AcDbSymbolTableRecord
100
AcDbBlockTableRecord
  2
_FILLED
  0
ENDTAB
  0
TABLE
  2
DIMSTYLE
  5
A
100
AcDbSymbolTable
 70
1
100
AcDbDimStyleTable
 71
0
  0
DIMSTYLE
105
208
100
AcDbSymbolTableRecord
100
AcDbDimStyleTableRecord
  2
STANDARD
 70
0
  3

  4

 40
1.0
 41
0.1
 42
0.0625
 43
0.38
 44
0.125
 45
0.0
 46
0.0
 47
0.001
 48
0.001
140
0.08
141
0.09
142
0.0
143
25.4
144
1.0
145
0.0
146
1.0
147
0.09
 71
1.0
 72
0.0
 73
1
 74
1
 75
0
 76
0
 77
0
 78
4
 79
1
170
1
171
2
172
0
173
0
174
0
175
0
176
0
177
0
178
0
270
2
179
3
271
3
272
3
273
2
274
2
275
0
280
0
281
0
282
0
283
1
284
4
285
0
286
0
287
3
288
0
340
11
278
46
341
207
342
207
343
207
344
207
  0
ENDTAB
  0
ENDSEC
  0
SECTION
  2
BLOCKS
  0
BLOCK
  5
20
100
AcDbEntity
  8
0
100
AcDbBlockBegin
  2
*Model_Space
 70
0
 10
0.0
 20
0.0
 30
0.0
  3
*Model_Space
  1

  0
ENDBLK
  5
21
100
AcDbEntity
  8
0
100
AcDbBlockEnd
  0
BLOCK
  5
1C
100
AcDbEntity
  8
0
100
AcDbBlockBegin
  2
*Paper_Space
 70
0
 10
0.0
 20
0.0
 30
0.0
  3
*Paper_Space
  1

  0
ENDBLK
  5
1D
100
AcDbEntity
  8
0
100
AcDbBlockEnd
  0
BLOCK
  5
209
100
AcDbEntity
  8
0
100
AcDbBlockBegin
  2
_FILLED
 70
64
 10
0.0
 20
0.0
  3
_FILLED
  1

  0
SOLID
  5
20A
100
AcDbEntity
  8
0
  6
BYBLOCK
 62
0
100
AcDbTrace
 10
0.0
 20
0.0
 11
-1.0
 21
0.2
 12
-1.0
 22
-0.2
 13
-1.0
 23
-0.2
  0
ENDBLK
  5
20B
100
AcDbEntity
  8
0
  6
BYBLOCK
 62
0
100
AcDbBlockEnd
  0
ENDSEC
  0
SECTION
  2
ENTITIES
  0
LINE
  5
20C
100
AcDbEntity
  8
0
100
AcDbLine
 62
9
  6
CONTINUOUS
 10
0.9330072614
 20
11.4273318604
 11
0.9330072614
 21
11.3973318604
  0
LINE
  5
20D
100
AcDbEntity
  8
0
100
AcDbLine
 62
9
  6
CONTINUOUS
 10
0.9330072614
 20
10.9573318604
 11
0.9330072614
 21
10.9273318604
  0
LINE
  5
20E
100
AcDbEntity
  8
0
100
AcDbLine
 62
9
  6
CONTINUOUS
 10
1.6088070056
 20
11.4273318604
 11
1.6088070056
 21
11.3973318604
  0
LINE
  5
20F
100
AcDbEntity
  8
0
100
AcDbLine
 62
9
  6
CONTINUOUS
 10
1.6088070056
 20
10.9573318604
 11
1.6088070056
 21
10.9273318604
  0
LINE
  5
210
100
AcDbEntity
  8
0
100
AcDbLine
 62
7
  6
CONTINUOUS
 10
1.9338070056
 20
10.6023318604
 11
1.9338070056
 21
9.8251114642
  0
LINE
  5
211
100
AcDbEntity
  8
0
100
AcDbLine
 62
7
  6
CONTINUOUS
 10
1.9338070056
 20
11.7523318604
 11
1.9338070056
 21
12.5295522566
  0
LINE
  5
212
100
AcDbEntity
  8
0
100
AcDbLine
 62
9
  6
CONTINUOUS
 10
1.9638070056
 20
10.6023318604
 11
1.9638070056
 21
9.926532118
  0
LINE
  5
213
100
AcDbEntity
  8
0
100
AcDbLine
 62
9
  6
CONTINUOUS
 10
1.9638070056
 20
11.7523318604
 11
1.9638070056
 21
12.4281316027
  0
LINE
  5
214
100
AcDbEntity
  8
0
100
AcDbLine
 62
9
  6
CONTINUOUS
 10
2.4038070056
 20
12.4281316033
 11
2.4038070056
 21
11.7523318604
  0
LINE
  5
215
100
AcDbEntity
  8
0
100
AcDbLine
 62
9
  6
CONTINUOUS
 10
2.4038070056
 20
10.6023318604
 11
2.4038070056
 21
9.9265321181
  0
LINE
  5
216
100
AcDbEntity
  8
0
100
AcDbLine
 62
7
  6
CONTINUOUS
 10
2.4338070056
 20
12.5295522566
 11
2.4338070056
 21
11.7523318604
  0
LINE
  5
217
100
AcDbEntity
  8
0
100
AcDbLine
 62
7
  6
CONTINUOUS
 10
2.4338070056
 20
10.6023318604
 11
2.4338070056
 21
9.8251114642
  0
LINE
  5
218
100
AcDbEntity
  8
0
100
AcDbLine
 62
9
  6
CONTINUOUS
 10
2.7588070056
 20
11.4273318604
 11
2.7588070056
 21
11.3973318604
  0
LINE
  5
219
100
AcDbEntity
  8
0
100
AcDbLine
 62
9
  6
CONTINUOUS
 10
2.7588070056
 20
10.9273318604
 11
2.7588070056
 21
10.9573318604
  0
LINE
  5
21A
100
AcDbEntity
  8
0
100
AcDbLine
 62
9
  6
CONTINUOUS
 10
3.4346067498
 20
11.4273318604
 11
3.4346067494
 21
11.3973318604
  0
LINE
  5
21B
100
AcDbEntity
  8
0
100
AcDbLine
 62
9
  6
CONTINUOUS
 10
3.4346067498
 20
10.9273318604
 11
3.4346067498
 21
10.9573318604
  0
LINE
  5
21C
100
AcDbEntity
  8
0
100
AcDbLine
 62
7
  6
CONTINUOUS
 10
5.7463070056
 20
11.1773318604
 11
5.7463070056
 21
2.9273318604
  0
LINE
  5
21D
100
AcDbEntity
  8
0
100
AcDbLine
 62
7
  6
CONTINUOUS
 10
6.6213070056
 20
11.1773318604
 11
6.6213070056
 21
2.9273318604
  0
LINE
  5
21E
100
AcDbEntity
  8
0
100
AcDbLine
 62
9
  6
CONTINUOUS
 10
6.6213070056
 20
4.4273318604
 11
5.7463070056
 21
4.4273318604
  0
LINE
  5
21F
100
AcDbEntity
  8
0
100
AcDbLine
 62
9
  6
CONTINUOUS
 10
8.9330072614
 20
11.4273318604
 11
8.9330072614
 21
11.3973318604
  0
LINE
  5
220
100
AcDbEntity
  8
0
100
AcDbLine
 62
9
  6
CONTINUOUS
 10
8.9330072614
 20
10.9573318604
 11
8.9330072614
 21
10.9273318604
  0
LINE
  5
221
100
AcDbEntity
  8
0
100
AcDbLine
 62
9
  6
CONTINUOUS
 10
9.6088070056
 20
11.4273318604
 11
9.6088070056
 21
11.3973318604
  0
LINE
  5
222
100
AcDbEntity
  8
0
100
AcDbLine
 62
9
  6
CONTINUOUS
 10
9.6088070056
 20
10.9573318604
 11
9.6088070056
 21
10.9273318604
  0
LINE
  5
223
100
AcDbEntity
  8
0
100
AcDbLine
 62
7
  6
CONTINUOUS
 10
9.9338070056
 20
10.6023318604
 11
9.9338070056
 21
9.8251114642
  0
LINE
  5
224
100
AcDbEntity
  8
0
100
AcDbLine
 62
7
  6
CONTINUOUS
 10
9.9338070056
 20
11.7523318604
 11
9.9338070056
 21
12.5295522566
  0
LINE
  5
225
100
AcDbEntity
  8
0
100
AcDbLine
 62
9
  6
CONTINUOUS
 10
9.9638070056
 20
10.6023318604
 11
9.9638070056
 21
9.926532118
  0
LINE
  5
226
100
AcDbEntity
  8
0
100
AcDbLine
 62
9
  6
CONTINUOUS
 10
9.9638070056
 20
11.7523318604
 11
9.9638070056
 21
12.4281316027
  0
LINE
  5
227
100
AcDbEntity
  8
0
100
AcDbLine
 62
9
  6
CONTINUOUS
 10
10.4038070056
 20
12.4281316033
 11
10.4038070056
 21
11.7523318604
  0
LINE
  5
228
100
AcDbEntity
  8
0
100
AcDbLine
 62
9
  6
CONTINUOUS
 10
10.4038070056
 20
10.6023318604
 11
10.4038070056
 21
9.9265321181
  0
LINE
  5
229
100
AcDbEntity
  8
0
100
AcDbLine
 62
7
  6
CONTINUOUS
 10
10.4338070056
 20
12.5295522566
 11
10.4338070056
 21
11.7523318604
  0
LINE
  5
22A
100
AcDbEntity
  8
0
100
AcDbLine
 62
7
  6
CONTINUOUS
 10
10.4338070056
 20
10.6023318604
 11
10.4338070056
 21
9.8251114642
  0
LINE
  5
22B
100
AcDbEntity
  8
0
100
AcDbLine
 62
9
  6
CONTINUOUS
 10
10.7588070056
 20
11.4273318604
 11
10.7588070056
 21
11.3973318604
  0
LINE
  5
22C
100
AcDbEntity
  8
0
100
AcDbLine
 62
9
  6
CONTINUOUS
 10
10.7588070056
 20
10.9273318604
 11
10.7588070056
 21
10.9573318604
  0
LINE
  5
22D
100
AcDbEntity
  8
0
100
AcDbLine
 62
9
  6
CONTINUOUS
 10
11.4346067498
 20
11.4273318604
 11
11.4346067494
 21
11.3973318604
  0
LINE
  5
22E
100
AcDbEntity
  8
0
100
AcDbLine
 62
9
  6
CONTINUOUS
 10
11.4346067498
 20
10.9273318604
 11
11.4346067498
 21
10.9573318604
  0
LINE
  5
22F
100
AcDbEntity
  8
0
100
AcDbLine
 62
9
  6
CONTINUOUS
 10
6.6213070056
 20
9.6773318604
 11
5.7463070056
 21
9.6773318604
  0
LINE
  5
230
100
AcDbEntity
  8
0
100
AcDbLine
 62
9
  6
CONTINUOUS
 10
13.9330072614
 20
11.4273318604
 11
13.9330072614
 21
11.3973318604
  0
LINE
  5
231
100
AcDbEntity
  8
0
100
AcDbLine
 62
9
  6
CONTINUOUS
 10
13.9330072614
 20
10.9573318604
 11
13.9330072614
 21
10.9273318604
  0
LINE
  5
232
100
AcDbEntity
  8
0
100
AcDbLine
 62
9
  6
CONTINUOUS
 10
2.4338070056
 20
9.9265321162
 11
2.4038070056
 21
9.9265321165
  0
LINE
  5
233
100
AcDbEntity
  8
0
100
AcDbLine
 62
9
  6
CONTINUOUS
 10
15.4338070056
 20
9.9265321162
 11
15.4038070056
 21
9.9265321165
  0
LINE
  5
234
100
AcDbEntity
  8
0
100
AcDbLine
 62
9
  6
CONTINUOUS
 10
14.9638070056
 20
9.9265321162
 11
14.9338070056
 21
9.9265321162
  0
LINE
  5
235
100
AcDbEntity
  8
0
100
AcDbLine
 62
9
  6
CONTINUOUS
 10
10.4338070056
 20
9.9265321162
 11
10.4038070056
 21
9.9265321165
  0
LINE
  5
236
100
AcDbEntity
  8
0
100
AcDbLine
 62
9
  6
CONTINUOUS
 10
9.9638070056
 20
9.9265321162
 11
9.9338070056
 21
9.9265321162
  0
LINE
  5
237
100
AcDbEntity
  8
0
100
AcDbLine
 62
9
  6
CONTINUOUS
 10
1.9638070056
 20
9.9265321162
 11
1.9338070056
 21
9.9265321162
  0
LINE
  5
238
100
AcDbEntity
  8
0
100
AcDbLine
 62
9
  6
CONTINUOUS
 10
15.4338070056
 20
10.6023318604
 11
15.4038070056
 21
10.6023318604
  0
LINE
  5
239
100
AcDbEntity
  8
0
100
AcDbLine
 62
9
  6
CONTINUOUS
 10
14.9638070056
 20
10.6023318604
 11
14.9338070056
 21
10.6023318604
  0
LINE
  5
23A
100
AcDbEntity
  8
0
100
AcDbLine
 62
9
  6
CONTINUOUS
 10
10.4338070056
 20
10.6023318604
 11
10.4038070056
 21
10.6023318604
  0
LINE
  5
23B
100
AcDbEntity
  8
0
100
AcDbLine
 62
9
  6
CONTINUOUS
 10
9.9638070056
 20
10.6023318604
 11
9.9338070056
 21
10.6023318604
  0
LINE
  5
23C
100
AcDbEntity
  8
0
100
AcDbLine
 62
9
  6
CONTINUOUS
 10
2.4338070056
 20
10.6023318604
 11
2.4038070056
 21
10.6023318604
  0
LINE
  5
23D
100
AcDbEntity
  8
0
100
AcDbLine
 62
9
  6
CONTINUOUS
 10
1.9638070056
 20
10.6023318604
 11
1.9338070056
 21
10.6023318604
  0
LINE
  5
23E
100
AcDbEntity
  8
0
100
AcDbLine
 62
9
  6
CONTINUOUS
 10
14.6088070056
 20
11.4273318604
 11
14.6088070056
 21
11.3973318604
  0
LINE
  5
23F
100
AcDbEntity
  8
0
100
AcDbLine
 62
9
  6
CONTINUOUS
 10
14.6088070056
 20
10.9573318604
 11
14.6088070056
 21
10.9273318604
  0
LINE
  5
240
100
AcDbEntity
  8
0
100
AcDbLine
 62
7
  6
CONTINUOUS
 10
14.9338070056
 20
10.6023318604
 11
14.9338070056
 21
9.8251114642
  0
LINE
  5
241
100
AcDbEntity
  8
0
100
AcDbLine
 62
7
  6
CONTINUOUS
 10
14.9338070056
 20
11.7523318604
 11
14.9338070056
 21
12.5295522566
  0
LINE
  5
242
100
AcDbEntity
  8
0
100
AcDbLine
 62
9
  6
CONTINUOUS
 10
14.9638070056
 20
10.6023318604
 11
14.9638070056
 21
9.926532118
  0
LINE
  5
243
100
AcDbEntity
  8
0
100
AcDbLine
 62
9
  6
CONTINUOUS
 10
14.9638070056
 20
11.7523318604
 11
14.9638070056
 21
12.4281316027
  0
LINE
  5
244
100
AcDbEntity
  8
0
100
AcDbLine
 62
7
  6
CONTINUOUS
 10
16.5360274018
 20
10.9273318604
 11
15.7588070056
 21
10.9273318604
  0
LINE
  5
245
100
AcDbEntity
  8
0
100
AcDbLine
 62
7
  6
CONTINUOUS
 10
11.5360274018
 20
10.9273318604
 11
10.7588070056
 21
10.9273318604
  0
LINE
  5
246
100
AcDbEntity
  8
0
100
AcDbLine
 62
7
  6
CONTINUOUS
 10
3.5360274018
 20
10.9273318604
 11
2.7588070056
 21
10.9273318604
  0
LINE
  5
247
100
AcDbEntity
  8
0
100
AcDbLine
 62
7
  6
CONTINUOUS
 10
0.8315866094
 20
10.9273318604
 11
1.6088070056
 21
10.9273318604
  0
LINE
  5
248
100
AcDbEntity
  8
0
100
AcDbLine
 62
7
  6
CONTINUOUS
 10
8.8315866094
 20
10.9273318604
 11
9.6088070056
 21
10.9273318604
  0
LINE
  5
249
100
AcDbEntity
  8
0
100
AcDbLine
 62
7
  6
CONTINUOUS
 10
13.8315866094
 20
10.9273318604
 11
14.6088070056
 21
10.9273318604
  0
LINE
  5
24A
100
AcDbEntity
  8
0
100
AcDbLine
 62
9
  6
CONTINUOUS
 10
16.4346067484
 20
10.9573318604
 11
15.7588070056
 21
10.9573318604
  0
LINE
  5
24B
100
AcDbEntity
  8
0
100
AcDbLine
 62
9
  6
CONTINUOUS
 10
11.4346067484
 20
10.9573318604
 11
10.7588070056
 21
10.9573318604
  0
LINE
  5
24C
100
AcDbEntity
  8
0
100
AcDbLine
 62
9
  6
CONTINUOUS
 10
3.4346067484
 20
10.9573318604
 11
2.7588070056
 21
10.9573318604
  0
LINE
  5
24D
100
AcDbEntity
  8
0
100
AcDbLine
 62
9
  6
CONTINUOUS
 10
0.9330072629
 20
10.9573318604
 11
1.6088070056
 21
10.9573318604
  0
LINE
  5
24E
100
AcDbEntity
  8
0
100
AcDbLine
 62
9
  6
CONTINUOUS
 10
8.9330072629
 20
10.9573318604
 11
9.6088070056
 21
10.9573318604
  0
LINE
  5
24F
100
AcDbEntity
  8
0
100
AcDbLine
 62
9
  6
CONTINUOUS
 10
13.9330072629
 20
10.9573318604
 11
14.6088070056
 21
10.9573318604
  0
LINE
  5
250
100
AcDbEntity
  8
0
100
AcDbLine
 62
9
  6
CONTINUOUS
 10
0.9330072628
 20
11.3973318604
 11
1.6088070056
 21
11.3973318604
  0
LINE
  5
251
100
AcDbEntity
  8
0
100
AcDbLine
 62
9
  6
CONTINUOUS
 10
2.7588070056
 20
11.3973318604
 11
3.434606748
 21
11.3973318604
  0
LINE
  5
252
100
AcDbEntity
  8
0
100
AcDbLine
 62
9
  6
CONTINUOUS
 10
8.9330072628
 20
11.3973318604
 11
9.6088070056
 21
11.3973318604
  0
LINE
  5
253
100
AcDbEntity
  8
0
100
AcDbLine
 62
9
  6
CONTINUOUS
 10
10.7588070056
 20
11.3973318604
 11
11.434606748
 21
11.3973318604
  0
LINE
  5
254
100
AcDbEntity
  8
0
100
AcDbLine
 62
9
  6
CONTINUOUS
 10
13.9330072628
 20
11.3973318604
 11
14.6088070056
 21
11.3973318604
  0
LINE
  5
255
100
AcDbEntity
  8
0
100
AcDbLine
 62
9
  6
CONTINUOUS
 10
15.7588070056
 20
11.3973318604
 11
16.434606748
 21
11.3973318604
  0
LINE
  5
256
100
AcDbEntity
  8
0
100
AcDbLine
 62
9
  6
CONTINUOUS
 10
15.4038070056
 20
12.4281316033
 11
15.4038070056
 21
11.7523318604
  0
LINE
  5
257
100
AcDbEntity
  8
0
100
AcDbLine
 62
9
  6
CONTINUOUS
 10
15.4038070056
 20
10.6023318604
 11
15.4038070056
 21
9.9265321181
  0
LINE
  5
258
100
AcDbEntity
  8
0
100
AcDbLine
 62
7
  6
CONTINUOUS
 10
15.4338070056
 20
12.5295522566
 11
15.4338070056
 21
11.7523318604
  0
LINE
  5
259
100
AcDbEntity
  8
0
100
AcDbLine
 62
7
  6
CONTINUOUS
 10
15.4338070056
 20
10.6023318604
 11
15.4338070056
 21
9.8251114642
  0
LINE
  5
25A
100
AcDbEntity
  8
0
100
AcDbLine
 62
7
  6
CONTINUOUS
 10
0.8315866094
 20
11.4273318604
 11
1.6088070056
 21
11.4273318604
  0
LINE
  5
25B
100
AcDbEntity
  8
0
100
AcDbLine
 62
7
  6
CONTINUOUS
 10
2.7588070056
 20
11.4273318604
 11
3.5360274018
 21
11.4273318604
  0
LINE
  5
25C
100
AcDbEntity
  8
0
100
AcDbLine
 62
7
  6
CONTINUOUS
 10
8.8315866094
 20
11.4273318604
 11
9.6088070056
 21
11.4273318604
  0
LINE
  5
25D
100
AcDbEntity
  8
0
100
AcDbLine
 62
7
  6
CONTINUOUS
 10
10.7588070056
 20
11.4273318604
 11
11.5360274018
 21
11.4273318604
  0
LINE
  5
25E
100
AcDbEntity
  8
0
100
AcDbLine
 62
7
  6
CONTINUOUS
 10
13.8315866094
 20
11.4273318604
 11
14.6088070056
 21
11.4273318604
  0
LINE
  5
25F
100
AcDbEntity
  8
0
100
AcDbLine
 62
7
  6
CONTINUOUS
 10
15.7588070056
 20
11.4273318604
 11
16.5360274018
 21
11.4273318604
  0
LINE
  5
260
100
AcDbEntity
  8
0
100
AcDbLine
 62
9
  6
CONTINUOUS
 10
15.4338070056
 20
11.7523318604
 11
15.4038070056
 21
11.7523318604
  0
LINE
  5
261
100
AcDbEntity
  8
0
100
AcDbLine
 62
9
  6
CONTINUOUS
 10
10.4338070056
 20
11.7523318604
 11
10.4038070056
 21
11.7523318604
  0
LINE
  5
262
100
AcDbEntity
  8
0
100
AcDbLine
 62
9
  6
CONTINUOUS
 10
2.4338070056
 20
11.7523318604
 11
2.4038070056
 21
11.7523318604
  0
LINE
  5
263
100
AcDbEntity
  8
0
100
AcDbLine
 62
9
  6
CONTINUOUS
 10
1.9338070056
 20
11.7523318604
 11
1.9638070056
 21
11.7523318604
  0
LINE
  5
264
100
AcDbEntity
  8
0
100
AcDbLine
 62
9
  6
CONTINUOUS
 10
9.9338070056
 20
11.7523318604
 11
9.9638070056
 21
11.7523318604
  0
LINE
  5
265
100
AcDbEntity
  8
0
100
AcDbLine
 62
9
  6
CONTINUOUS
 10
14.9338070056
 20
11.7523318604
 11
14.9638070056
 21
11.7523318604
  0
LINE
  5
266
100
AcDbEntity
  8
0
100
AcDbLine
 62
9
  6
CONTINUOUS
 10
15.7588070056
 20
11.4273318604
 11
15.7588070056
 21
11.3973318604
  0
LINE
  5
267
100
AcDbEntity
  8
0
100
AcDbLine
 62
9
  6
CONTINUOUS
 10
15.7588070056
 20
10.9273318604
 11
15.7588070056
 21
10.9573318604
  0
LINE
  5
268
100
AcDbEntity
  8
0
100
AcDbLine
 62
9
  6
CONTINUOUS
 10
16.4346067498
 20
11.4273318604
 11
16.4346067494
 21
11.3973318604
  0
LINE
  5
269
100
AcDbEntity
  8
0
100
AcDbLine
 62
9
  6
CONTINUOUS
 10
16.4346067498
 20
10.9273318604
 11
16.4346067498
 21
10.9573318604
  0
LINE
  5
26A
100
AcDbEntity
  8
0
100
AcDbLine
 62
9
  6
CONTINUOUS
 10
15.4338070056
 20
12.4281316046
 11
15.4038070056
 21
12.4281316046
  0
LINE
  5
26B
100
AcDbEntity
  8
0
100
AcDbLine
 62
9
  6
CONTINUOUS
 10
10.4338070056
 20
12.4281316046
 11
10.4038070056
 21
12.4281316046
  0
LINE
  5
26C
100
AcDbEntity
  8
0
100
AcDbLine
 62
9
  6
CONTINUOUS
 10
2.4338070056
 20
12.4281316046
 11
2.4038070056
 21
12.4281316046
  0
LINE
  5
26D
100
AcDbEntity
  8
0
100
AcDbLine
 62
9
  6
CONTINUOUS
 10
1.9338070056
 20
12.4281316046
 11
1.9638070056
 21
12.4281316043
  0
LINE
  5
26E
100
AcDbEntity
  8
0
100
AcDbLine
 62
9
  6
CONTINUOUS
 10
9.9338070056
 20
12.4281316046
 11
9.9638070056
 21
12.4281316043
  0
LINE
  5
26F
100
AcDbEntity
  8
0
100
AcDbLine
 62
9
  6
CONTINUOUS
 10
14.9338070056
 20
12.4281316046
 11
14.9638070056
 21
12.4281316043
  0
LINE
  5
270
100
AcDbEntity
  8
0
100
AcDbLine
 62
7
  6
CONTINUOUS
 10
19.6838070056
 20
10.5719705057
 11
19.6838070056
 21
5.1211315756
  0
LINE
  5
271
100
AcDbEntity
  8
0
100
AcDbLine
 62
7
  6
CONTINUOUS
 10
19.6938070056
 20
10.7969461691
 11
19.6938070056
 21
10.8805085583
  0
LINE
  5
272
100
AcDbEntity
  8
0
100
AcDbLine
 62
7
  6
CONTINUOUS
 10
19.6963070056
 20
11.1773318604
 11
19.6963070056
 21
10.9116177346
  0
LINE
  5
273
100
AcDbEntity
  8
0
100
AcDbLine
 62
7
  6
CONTINUOUS
 10
19.7138070056
 20
10.9030924008
 11
19.7138070056
 21
10.7018503389
  0
LINE
  5
274
100
AcDbEntity
  8
0
100
AcDbLine
 62
7
  6
CONTINUOUS
 10
20.6538070056
 20
10.9030924008
 11
20.6538070056
 21
10.7018373701
  0
LINE
  5
275
100
AcDbEntity
  8
0
100
AcDbLine
 62
7
  6
CONTINUOUS
 10
20.6713070056
 20
11.1773318604
 11
20.6713070056
 21
10.9116042936
  0
LINE
  5
276
100
AcDbEntity
  8
0
100
AcDbLine
 62
7
  6
CONTINUOUS
 10
20.6738070056
 20
10.7969461691
 11
20.6738070056
 21
10.8805085583
  0
LINE
  5
277
100
AcDbEntity
  8
0
100
AcDbLine
 62
7
  6
CONTINUOUS
 10
20.6838070056
 20
10.5719705057
 11
20.6838070056
 21
5.1211315756
  0
ARC
  5
278
100
AcDbEntity
  8
0
100
AcDbCircle
 62
7
  6
CONTINUOUS
 10
6.1838070056
 20
2.9273318604
 40
0.54
100
AcDbArc
 50
144.2998172906
 51
35.7001827094
  0
ARC
  5
279
100
AcDbEntity
  8
0
100
AcDbCircle
 62
9
  6
CONTINUOUS
 10
6.1838070056
 20
2.9273318604
 40
0.51
100
AcDbArc
 50
149.2538869679
 51
30.746113046
  0
ARC
  5
27A
100
AcDbEntity
  8
0
100
AcDbCircle
 62
7
  6
CONTINUOUS
 10
6.1838070056
 20
2.9273318604
 40
0.4375
100
AcDbArc
 50
180.0
 51
360.0
  0
ARC
  5
27B
100
AcDbEntity
  8
0
100
AcDbCircle
 62
9
  6
CONTINUOUS
 10
2.7588070056
 20
10.6023318604
 40
0.355
100
AcDbArc
 50
90.0
 51
180.0
  0
ARC
  5
27C
100
AcDbEntity
  8
0
100
AcDbCircle
 62
9
  6
CONTINUOUS
 10
1.6088070056
 20
10.6023318604
 40
0.355
100
AcDbArc
 50
0.0
 51
90.0
  0
ARC
  5
27D
100
AcDbEntity
  8
0
100
AcDbCircle
 62
7
  6
CONTINUOUS
 10
1.6088070056
 20
10.6023318604
 40
0.325
100
AcDbArc
 50
0.0
 51
90.0
  0
ARC
  5
27E
100
AcDbEntity
  8
0
100
AcDbCircle
 62
7
  6
CONTINUOUS
 10
2.7588070056
 20
10.6023318604
 40
0.325
100
AcDbArc
 50
90.0
 51
180.0
  0
ARC
  5
27F
100
AcDbEntity
  8
0
100
AcDbCircle
 62
7
  6
CONTINUOUS
 10
2.4038070056
 20
9.8251114642
 40
0.03
100
AcDbArc
 50
279.240791946
 51
360.0
  0
ARC
  5
280
100
AcDbEntity
  8
0
100
AcDbCircle
 62
7
  6
CONTINUOUS
 10
3.5360274018
 20
10.9573318604
 40
0.03
100
AcDbArc
 50
270.0
 51
350.759208092
  0
ARC
  5
281
100
AcDbEntity
  8
0
100
AcDbCircle
 62
7
  6
CONTINUOUS
 10
0.8315866094
 20
10.9573318604
 40
0.03
100
AcDbArc
 50
189.2407918945
 51
270.0
  0
ARC
  5
282
100
AcDbEntity
  8
0
100
AcDbCircle
 62
7
  6
CONTINUOUS
 10
1.9638070056
 20
9.8251114642
 40
0.03
100
AcDbArc
 50
180.0
 51
260.7592081055
  0
ARC
  5
283
100
AcDbEntity
  8
0
100
AcDbCircle
 62
9
  6
CONTINUOUS
 10
1.6088070056
 20
11.7523318604
 40
0.355
100
AcDbArc
 50
270.0
 51
360.0
  0
ARC
  5
284
100
AcDbEntity
  8
0
100
AcDbCircle
 62
7
  6
CONTINUOUS
 10
1.6088070056
 20
11.7523318604
 40
0.325
100
AcDbArc
 50
270.0
 51
360.0
  0
ARC
  5
285
100
AcDbEntity
  8
0
100
AcDbCircle
 62
7
  6
CONTINUOUS
 10
0.8315866094
 20
11.3973318604
 40
0.03
100
AcDbArc
 50
90.0
 51
170.759208092
  0
ARC
  5
286
100
AcDbEntity
  8
0
100
AcDbCircle
 62
7
  6
CONTINUOUS
 10
1.9638070056
 20
12.5295522566
 40
0.03
100
AcDbArc
 50
99.240791946
 51
180.0
  0
ARC
  5
287
100
AcDbEntity
  8
0
100
AcDbCircle
 62
7
  6
CONTINUOUS
 10
2.1838070056
 20
11.1773318604
 40
1.4
100
AcDbArc
 50
350.7592081055
 51
9.2407918945
  0
ARC
  5
288
100
AcDbEntity
  8
0
100
AcDbCircle
 62
7
  6
CONTINUOUS
 10
2.1838070056
 20
11.1773318604
 40
1.4
100
AcDbArc
 50
80.7592081055
 51
99.2407918945
  0
ARC
  5
289
100
AcDbEntity
  8
0
100
AcDbCircle
 62
7
  6
CONTINUOUS
 10
2.1838070056
 20
11.1773318604
 40
1.4
100
AcDbArc
 50
170.7592081055
 51
189.2407918945
  0
ARC
  5
28A
100
AcDbEntity
  8
0
100
AcDbCircle
 62
7
  6
CONTINUOUS
 10
2.1838070056
 20
11.1773318604
 40
1.4
100
AcDbArc
 50
260.7592081055
 51
279.2407918945
  0
ARC
  5
28B
100
AcDbEntity
  8
0
100
AcDbCircle
 62
9
  6
CONTINUOUS
 10
2.1838070056
 20
11.1773318604
 40
1.27
100
AcDbArc
 50
350.0244247089
 51
9.9755752941
  0
ARC
  5
28C
100
AcDbEntity
  8
0
100
AcDbCircle
 62
9
  6
CONTINUOUS
 10
2.1838070056
 20
11.1773318604
 40
1.27
100
AcDbArc
 50
80.0244247098
 51
99.9755752952
  0
ARC
  5
28D
100
AcDbEntity
  8
0
100
AcDbCircle
 62
9
  6
CONTINUOUS
 10
2.1838070056
 20
11.1773318604
 40
1.27
100
AcDbArc
 50
170.0244247089
 51
189.975575292
  0
ARC
  5
28E
100
AcDbEntity
  8
0
100
AcDbCircle
 62
9
  6
CONTINUOUS
 10
2.1838070056
 20
11.1773318604
 40
1.27
100
AcDbArc
 50
260.0244247057
 51
279.9755752952
  0
ARC
  5
28F
100
AcDbEntity
  8
0
100
AcDbCircle
 62
7
  6
CONTINUOUS
 10
2.1838070056
 20
11.1773318604
 40
1.125
100
AcDbArc
 50
192.844718138
 51
257.1382015273
  0
ARC
  5
290
100
AcDbEntity
  8
0
100
AcDbCircle
 62
7
  6
CONTINUOUS
 10
2.1838070056
 20
11.1773318604
 40
1.125
100
AcDbArc
 50
282.8617984727
 51
347.1552818619
  0
ARC
  5
291
100
AcDbEntity
  8
0
100
AcDbCircle
 62
7
  6
CONTINUOUS
 10
2.1838070056
 20
11.1773318604
 40
1.125
100
AcDbArc
 50
12.844718138
 51
77.1382015273
  0
ARC
  5
292
100
AcDbEntity
  8
0
100
AcDbCircle
 62
7
  6
CONTINUOUS
 10
2.1838070056
 20
11.1773318604
 40
1.125
100
AcDbArc
 50
102.8617984727
 51
167.1552818619
  0
ARC
  5
293
100
AcDbEntity
  8
0
100
AcDbCircle
 62
9
  6
CONTINUOUS
 10
2.1838070056
 20
11.1773318604
 40
1.095
100
AcDbArc
 50
283.2204968421
 51
346.8008679091
  0
ARC
  5
294
100
AcDbEntity
  8
0
100
AcDbCircle
 62
9
  6
CONTINUOUS
 10
2.1838070056
 20
11.1773318604
 40
1.095
100
AcDbArc
 50
193.1991320909
 51
256.7795031579
  0
ARC
  5
295
100
AcDbEntity
  8
0
100
AcDbCircle
 62
9
  6
CONTINUOUS
 10
2.1838070056
 20
11.1773318604
 40
1.095
100
AcDbArc
 50
103.2204968421
 51
166.8008679091
  0
ARC
  5
296
100
AcDbEntity
  8
0
100
AcDbCircle
 62
9
  6
CONTINUOUS
 10
2.1838070056
 20
11.1773318604
 40
1.095
100
AcDbArc
 50
13.1991320909
 51
76.7795031579
  0
ARC
  5
297
100
AcDbEntity
  8
0
100
AcDbCircle
 62
7
  6
CONTINUOUS
 10
2.1838070056
 20
11.1773318604
 40
1.045
100
AcDbArc
 50
193.8490872818
 51
256.135905605
  0
ARC
  5
298
100
AcDbEntity
  8
0
100
AcDbCircle
 62
7
  6
CONTINUOUS
 10
2.1838070056
 20
11.1773318604
 40
1.045
100
AcDbArc
 50
283.864094395
 51
346.1509127182
  0
ARC
  5
299
100
AcDbEntity
  8
0
100
AcDbCircle
 62
7
  6
CONTINUOUS
 10
2.1838070056
 20
11.1773318604
 40
1.045
100
AcDbArc
 50
13.8490872818
 51
76.135905605
  0
ARC
  5
29A
100
AcDbEntity
  8
0
100
AcDbCircle
 62
7
  6
CONTINUOUS
 10
2.1838070056
 20
11.1773318604
 40
1.045
100
AcDbArc
 50
103.864094395
 51
166.1509127182
  0
ARC
  5
29B
100
AcDbEntity
  8
0
100
AcDbCircle
 62
9
  6
CONTINUOUS
 10
2.1838070056
 20
11.1773318604
 40
1.015
100
AcDbArc
 50
14.2711598217
 51
75.71829411
  0
ARC
  5
29C
100
AcDbEntity
  8
0
100
AcDbCircle
 62
9
  6
CONTINUOUS
 10
2.1838070056
 20
11.1773318604
 40
1.015
100
AcDbArc
 50
104.2817058904
 51
165.728840179
  0
ARC
  5
29D
100
AcDbEntity
  8
0
100
AcDbCircle
 62
9
  6
CONTINUOUS
 10
2.1838070056
 20
11.1773318604
 40
1.015
100
AcDbArc
 50
194.2711598217
 51
255.71829411
  0
ARC
  5
29E
100
AcDbEntity
  8
0
100
AcDbCircle
 62
9
  6
CONTINUOUS
 10
2.1838070056
 20
11.1773318604
 40
1.015
100
AcDbArc
 50
284.2817058904
 51
345.728840179
  0
ARC
  5
29F
100
AcDbEntity
  8
0
100
AcDbCircle
 62
9
  6
CONTINUOUS
 10
2.7588070056
 20
11.7523318604
 40
0.355
100
AcDbArc
 50
180.0
 51
270.0
  0
ARC
  5
2A0
100
AcDbEntity
  8
0
100
AcDbCircle
 62
7
  6
CONTINUOUS
 10
2.7588070056
 20
11.7523318604
 40
0.325
100
AcDbArc
 50
180.0
 51
270.0
  0
ARC
  5
2A1
100
AcDbEntity
  8
0
100
AcDbCircle
 62
7
  6
CONTINUOUS
 10
3.5360274018
 20
11.3973318604
 40
0.03
100
AcDbArc
 50
9.240791946
 51
90.0
  0
ARC
  5
2A2
100
AcDbEntity
  8
0
100
AcDbCircle
 62
7
  6
CONTINUOUS
 10
2.4038070056
 20
12.5295522566
 40
0.03
100
AcDbArc
 50
0.0
 51
80.759208092
  0
ARC
  5
2A3
100
AcDbEntity
  8
0
100
AcDbCircle
 62
9
  6
CONTINUOUS
 10
9.6088070056
 20
10.6023318604
 40
0.355
100
AcDbArc
 50
0.0
 51
90.0
  0
ARC
  5
2A4
100
AcDbEntity
  8
0
100
AcDbCircle
 62
7
  6
CONTINUOUS
 10
9.6088070056
 20
10.6023318604
 40
0.325
100
AcDbArc
 50
0.0
 51
90.0
  0
ARC
  5
2A5
100
AcDbEntity
  8
0
100
AcDbCircle
 62
7
  6
CONTINUOUS
 10
10.4038070056
 20
9.8251114642
 40
0.03
100
AcDbArc
 50
279.240791946
 51
360.0
  0
ARC
  5
2A6
100
AcDbEntity
  8
0
100
AcDbCircle
 62
7
  6
CONTINUOUS
 10
8.8315866094
 20
10.9573318604
 40
0.03
100
AcDbArc
 50
189.2407918945
 51
270.0
  0
ARC
  5
2A7
100
AcDbEntity
  8
0
100
AcDbCircle
 62
7
  6
CONTINUOUS
 10
9.9638070056
 20
9.8251114642
 40
0.03
100
AcDbArc
 50
180.0
 51
260.7592081055
  0
ARC
  5
2A8
100
AcDbEntity
  8
0
100
AcDbCircle
 62
7
  6
CONTINUOUS
 10
6.1838070056
 20
11.1773318604
 40
1.125
100
AcDbArc
 50
292.8946373065
 51
247.1053626935
  0
ARC
  5
2A9
100
AcDbEntity
  8
0
100
AcDbCircle
 62
9
  6
CONTINUOUS
 10
6.1838070056
 20
11.1773318604
 40
1.105
100
AcDbArc
 50
293.3661591236
 51
246.6338408807
  0
ARC
  5
2AA
100
AcDbEntity
  8
0
100
AcDbCircle
 62
9
  6
CONTINUOUS
 10
6.1838070056
 20
11.1773318604
 40
1.095
100
AcDbArc
 50
293.5937316763
 51
246.4062683233
  0
ARC
  5
2AB
100
AcDbEntity
  8
0
100
AcDbCircle
 62
7
  6
CONTINUOUS
 10
6.1838070056
 20
11.1773318604
 40
1.045
100
AcDbArc
 50
294.7963590686
 51
245.2036409314
  0
ARC
  5
2AC
100
AcDbEntity
  8
0
100
AcDbCircle
 62
9
  6
CONTINUOUS
 10
6.1838070056
 20
11.1773318604
 40
1.025
100
AcDbArc
 50
295.3112228421
 51
244.6887771478
  0
ARC
  5
2AD
100
AcDbEntity
  8
0
100
AcDbCircle
 62
7
  6
CONTINUOUS
 10
6.1838070056
 20
11.1773318604
 40
0.6625
100
AcDbArc
 50
311.4042509522
 51
228.5957490547
  0
ARC
  5
2AE
100
AcDbEntity
  8
0
100
AcDbCircle
 62
9
  6
CONTINUOUS
 10
6.1838070056
 20
11.1773318604
 40
0.6425
100
AcDbArc
 50
312.9255237872
 51
227.0744760898
  0
ARC
  5
2AF
100
AcDbEntity
  8
0
100
AcDbCircle
 62
7
  6
CONTINUOUS
 10
6.1838070056
 20
11.1773318604
 40
0.57
100
AcDbArc
 50
320.2194965805
 51
219.7805034194
  0
ARC
  5
2B0
100
AcDbEntity
  8
0
100
AcDbCircle
 62
9
  6
CONTINUOUS
 10
6.1838070056
 20
11.1773318604
 40
0.55
100
AcDbArc
 50
322.889898548
 51
217.1101014647
  0
ARC
  5
2B1
100
AcDbEntity
  8
0
100
AcDbCircle
 62
7
  6
CONTINUOUS
 10
6.1838070056
 20
11.1773318604
 40
0.4375
100
AcDbArc
 50
0.0
 51
180.0
  0
ARC
  5
2B2
100
AcDbEntity
  8
0
100
AcDbCircle
 62
7
  6
CONTINUOUS
 10
10.1838070056
 20
11.1773318604
 40
1.4
100
AcDbArc
 50
350.7592081055
 51
9.2407918945
  0
ARC
  5
2B3
100
AcDbEntity
  8
0
100
AcDbCircle
 62
7
  6
CONTINUOUS
 10
10.1838070056
 20
11.1773318604
 40
1.4
100
AcDbArc
 50
80.7592081055
 51
99.2407918945
  0
ARC
  5
2B4
100
AcDbEntity
  8
0
100
AcDbCircle
 62
7
  6
CONTINUOUS
 10
10.1838070056
 20
11.1773318604
 40
1.4
100
AcDbArc
 50
170.7592081055
 51
189.2407918945
  0
ARC
  5
2B5
100
AcDbEntity
  8
0
100
AcDbCircle
 62
7
  6
CONTINUOUS
 10
10.1838070056
 20
11.1773318604
 40
1.4
100
AcDbArc
 50
260.7592081055
 51
279.2407918945
  0
ARC
  5
2B6
100
AcDbEntity
  8
0
100
AcDbCircle
 62
9
  6
CONTINUOUS
 10
10.1838070056
 20
11.1773318604
 40
1.27
100
AcDbArc
 50
350.0244247089
 51
9.9755752941
  0
ARC
  5
2B7
100
AcDbEntity
  8
0
100
AcDbCircle
 62
9
  6
CONTINUOUS
 10
10.1838070056
 20
11.1773318604
 40
1.27
100
AcDbArc
 50
80.0244247098
 51
99.9755752952
  0
ARC
  5
2B8
100
AcDbEntity
  8
0
100
AcDbCircle
 62
9
  6
CONTINUOUS
 10
10.1838070056
 20
11.1773318604
 40
1.27
100
AcDbArc
 50
170.0244247089
 51
189.975575292
  0
ARC
  5
2B9
100
AcDbEntity
  8
0
100
AcDbCircle
 62
9
  6
CONTINUOUS
 10
10.1838070056
 20
11.1773318604
 40
1.27
100
AcDbArc
 50
260.0244247057
 51
279.9755752952
  0
ARC
  5
2BA
100
AcDbEntity
  8
0
100
AcDbCircle
 62
7
  6
CONTINUOUS
 10
10.1838070056
 20
11.1773318604
 40
1.125
100
AcDbArc
 50
192.8397735441
 51
257.1602264558
  0
ARC
  5
2BB
100
AcDbEntity
  8
0
100
AcDbCircle
 62
7
  6
CONTINUOUS
 10
10.1838070056
 20
11.1773318604
 40
1.125
100
AcDbArc
 50
282.8397735441
 51
347.1602264558
  0
ARC
  5
2BC
100
AcDbEntity
  8
0
100
AcDbCircle
 62
7
  6
CONTINUOUS
 10
10.1838070056
 20
11.1773318604
 40
1.125
100
AcDbArc
 50
12.8397735441
 51
77.1602264558
  0
ARC
  5
2BD
100
AcDbEntity
  8
0
100
AcDbCircle
 62
7
  6
CONTINUOUS
 10
10.1838070056
 20
11.1773318604
 40
1.125
100
AcDbArc
 50
102.8397735441
 51
167.1602264558
  0
ARC
  5
2BE
100
AcDbEntity
  8
0
100
AcDbCircle
 62
9
  6
CONTINUOUS
 10
10.1838070056
 20
11.1773318604
 40
1.095
100
AcDbArc
 50
283.2025335411
 51
346.7974664589
  0
ARC
  5
2BF
100
AcDbEntity
  8
0
100
AcDbCircle
 62
9
  6
CONTINUOUS
 10
10.1838070056
 20
11.1773318604
 40
1.095
100
AcDbArc
 50
193.2025335411
 51
256.7974664589
  0
ARC
  5
2C0
100
AcDbEntity
  8
0
100
AcDbCircle
 62
9
  6
CONTINUOUS
 10
10.1838070056
 20
11.1773318604
 40
1.095
100
AcDbArc
 50
103.2025335411
 51
166.7974664589
  0
ARC
  5
2C1
100
AcDbEntity
  8
0
100
AcDbCircle
 62
9
  6
CONTINUOUS
 10
10.1838070056
 20
11.1773318604
 40
1.095
100
AcDbArc
 50
13.2025335411
 51
76.7974664589
  0
ARC
  5
2C2
100
AcDbEntity
  8
0
100
AcDbCircle
 62
7
  6
CONTINUOUS
 10
10.1838070056
 20
11.1773318604
 40
1.045
100
AcDbArc
 50
193.854228016
 51
256.145771984
  0
ARC
  5
2C3
100
AcDbEntity
  8
0
100
AcDbCircle
 62
7
  6
CONTINUOUS
 10
10.1838070056
 20
11.1773318604
 40
1.045
100
AcDbArc
 50
283.854228016
 51
346.145771984
  0
ARC
  5
2C4
100
AcDbEntity
  8
0
100
AcDbCircle
 62
7
  6
CONTINUOUS
 10
10.1838070056
 20
11.1773318604
 40
1.045
100
AcDbArc
 50
13.854228016
 51
76.145771984
  0
ARC
  5
2C5
100
AcDbEntity
  8
0
100
AcDbCircle
 62
7
  6
CONTINUOUS
 10
10.1838070056
 20
11.1773318604
 40
1.045
100
AcDbArc
 50
103.854228016
 51
166.145771984
  0
ARC
  5
2C6
100
AcDbEntity
  8
0
100
AcDbCircle
 62
9
  6
CONTINUOUS
 10
10.1838070056
 20
11.1773318604
 40
1.015
100
AcDbArc
 50
14.2711598217
 51
75.71829411
  0
ARC
  5
2C7
100
AcDbEntity
  8
0
100
AcDbCircle
 62
9
  6
CONTINUOUS
 10
10.1838070056
 20
11.1773318604
 40
1.015
100
AcDbArc
 50
104.2817058904
 51
165.728840179
  0
ARC
  5
2C8
100
AcDbEntity
  8
0
100
AcDbCircle
 62
9
  6
CONTINUOUS
 10
10.1838070056
 20
11.1773318604
 40
1.015
100
AcDbArc
 50
194.2711598217
 51
255.71829411
  0
ARC
  5
2C9
100
AcDbEntity
  8
0
100
AcDbCircle
 62
9
  6
CONTINUOUS
 10
10.1838070056
 20
11.1773318604
 40
1.015
100
AcDbArc
 50
284.2817058904
 51
345.728840179
  0
ARC
  5
2CA
100
AcDbEntity
  8
0
100
AcDbCircle
 62
9
  6
CONTINUOUS
 10
9.6088070056
 20
11.7523318604
 40
0.355
100
AcDbArc
 50
270.0
 51
360.0
  0
ARC
  5
2CB
100
AcDbEntity
  8
0
100
AcDbCircle
 62
7
  6
CONTINUOUS
 10
9.6088070056
 20
11.7523318604
 40
0.325
100
AcDbArc
 50
270.0
 51
360.0
  0
ARC
  5
2CC
100
AcDbEntity
  8
0
100
AcDbCircle
 62
7
  6
CONTINUOUS
 10
8.8315866094
 20
11.3973318604
 40
0.03
100
AcDbArc
 50
90.0
 51
170.759208092
  0
ARC
  5
2CD
100
AcDbEntity
  8
0
100
AcDbCircle
 62
7
  6
CONTINUOUS
 10
9.9638070056
 20
12.5295522566
 40
0.03
100
AcDbArc
 50
99.240791946
 51
180.0
  0
ARC
  5
2CE
100
AcDbEntity
  8
0
100
AcDbCircle
 62
7
  6
CONTINUOUS
 10
10.4038070056
 20
12.5295522566
 40
0.03
100
AcDbArc
 50
0.0
 51
80.759208092
  0
ARC
  5
2CF
100
AcDbEntity
  8
0
100
AcDbCircle
 62
9
  6
CONTINUOUS
 10
14.6088070056
 20
10.6023318604
 40
0.355
100
AcDbArc
 50
0.0
 51
90.0
  0
ARC
  5
2D0
100
AcDbEntity
  8
0
100
AcDbCircle
 62
9
  6
CONTINUOUS
 10
10.7588070056
 20
10.6023318604
 40
0.355
100
AcDbArc
 50
90.0
 51
180.0
  0
ARC
  5
2D1
100
AcDbEntity
  8
0
100
AcDbCircle
 62
7
  6
CONTINUOUS
 10
10.7588070056
 20
10.6023318604
 40
0.325
100
AcDbArc
 50
90.0
 51
180.0
  0
ARC
  5
2D2
100
AcDbEntity
  8
0
100
AcDbCircle
 62
7
  6
CONTINUOUS
 10
14.6088070056
 20
10.6023318604
 40
0.325
100
AcDbArc
 50
0.0
 51
90.0
  0
ARC
  5
2D3
100
AcDbEntity
  8
0
100
AcDbCircle
 62
7
  6
CONTINUOUS
 10
11.5360274018
 20
10.9573318604
 40
0.03
100
AcDbArc
 50
270.0
 51
350.759208092
  0
ARC
  5
2D4
100
AcDbEntity
  8
0
100
AcDbCircle
 62
7
  6
CONTINUOUS
 10
15.4038070056
 20
9.8251114642
 40
0.03
100
AcDbArc
 50
279.240791946
 51
360.0
  0
ARC
  5
2D5
100
AcDbEntity
  8
0
100
AcDbCircle
 62
7
  6
CONTINUOUS
 10
13.8315866094
 20
10.9573318604
 40
0.03
100
AcDbArc
 50
189.2407918945
 51
270.0
  0
ARC
  5
2D6
100
AcDbEntity
  8
0
100
AcDbCircle
 62
7
  6
CONTINUOUS
 10
14.9638070056
 20
9.8251114642
 40
0.03
100
AcDbArc
 50
180.0
 51
260.7592081055
  0
ARC
  5
2D7
100
AcDbEntity
  8
0
100
AcDbCircle
 62
9
  6
CONTINUOUS
 10
10.7588070056
 20
11.7523318604
 40
0.355
100
AcDbArc
 50
180.0
 51
270.0
  0
ARC
  5
2D8
100
AcDbEntity
  8
0
100
AcDbCircle
 62
7
  6
CONTINUOUS
 10
10.7588070056
 20
11.7523318604
 40
0.325
100
AcDbArc
 50
180.0
 51
270.0
  0
ARC
  5
2D9
100
AcDbEntity
  8
0
100
AcDbCircle
 62
7
  6
CONTINUOUS
 10
11.5360274018
 20
11.3973318604
 40
0.03
100
AcDbArc
 50
9.240791946
 51
90.0
  0
ARC
  5
2DA
100
AcDbEntity
  8
0
100
AcDbCircle
 62
7
  6
CONTINUOUS
 10
15.1838070056
 20
11.1773318604
 40
1.4
100
AcDbArc
 50
350.7592081055
 51
9.2407918945
  0
ARC
  5
2DB
100
AcDbEntity
  8
0
100
AcDbCircle
 62
7
  6
CONTINUOUS
 10
15.1838070056
 20
11.1773318604
 40
1.4
100
AcDbArc
 50
80.7592081055
 51
99.2407918945
  0
ARC
  5
2DC
100
AcDbEntity
  8
0
100
AcDbCircle
 62
7
  6
CONTINUOUS
 10
15.1838070056
 20
11.1773318604
 40
1.4
100
AcDbArc
 50
170.7592081055
 51
189.2407918945
  0
ARC
  5
2DD
100
AcDbEntity
  8
0
100
AcDbCircle
 62
7
  6
CONTINUOUS
 10
15.1838070056
 20
11.1773318604
 40
1.4
100
AcDbArc
 50
260.7592081055
 51
279.2407918945
  0
ARC
  5
2DE
100
AcDbEntity
  8
0
100
AcDbCircle
 62
9
  6
CONTINUOUS
 10
15.1838070056
 20
11.1773318604
 40
1.27
100
AcDbArc
 50
350.0244247089
 51
9.9755752941
  0
ARC
  5
2DF
100
AcDbEntity
  8
0
100
AcDbCircle
 62
9
  6
CONTINUOUS
 10
15.1838070056
 20
11.1773318604
 40
1.27
100
AcDbArc
 50
80.0244247098
 51
99.9755752952
  0
ARC
  5
2E0
100
AcDbEntity
  8
0
100
AcDbCircle
 62
9
  6
CONTINUOUS
 10
15.1838070056
 20
11.1773318604
 40
1.27
100
AcDbArc
 50
170.0244247089
 51
189.975575292
  0
ARC
  5
2E1
100
AcDbEntity
  8
0
100
AcDbCircle
 62
9
  6
CONTINUOUS
 10
15.1838070056
 20
11.1773318604
 40
1.27
100
AcDbArc
 50
260.0244247057
 51
279.9755752952
  0
ARC
  5
2E2
100
AcDbEntity
  8
0
100
AcDbCircle
 62
7
  6
CONTINUOUS
 10
15.1838070056
 20
11.1773318604
 40
1.125
100
AcDbArc
 50
192.8452182978
 51
257.1420503921
  0
ARC
  5
2E3
100
AcDbEntity
  8
0
100
AcDbCircle
 62
7
  6
CONTINUOUS
 10
15.1838070056
 20
11.1773318604
 40
1.125
100
AcDbArc
 50
282.8579496079
 51
347.1547817021
  0
ARC
  5
2E4
100
AcDbEntity
  8
0
100
AcDbCircle
 62
7
  6
CONTINUOUS
 10
15.1838070056
 20
11.1773318604
 40
1.125
100
AcDbArc
 50
12.8452182978
 51
77.1420503921
  0
ARC
  5
2E5
100
AcDbEntity
  8
0
100
AcDbCircle
 62
7
  6
CONTINUOUS
 10
15.1838070056
 20
11.1773318604
 40
1.125
100
AcDbArc
 50
102.8579496079
 51
167.1547817021
  0
ARC
  5
2E6
100
AcDbEntity
  8
0
100
AcDbCircle
 62
9
  6
CONTINUOUS
 10
15.1838070056
 20
11.1773318604
 40
1.095
100
AcDbArc
 50
283.2153078276
 51
346.7925759153
  0
ARC
  5
2E7
100
AcDbEntity
  8
0
100
AcDbCircle
 62
9
  6
CONTINUOUS
 10
15.1838070056
 20
11.1773318604
 40
1.095
100
AcDbArc
 50
193.2074240847
 51
256.7846921724
  0
ARC
  5
2E8
100
AcDbEntity
  8
0
100
AcDbCircle
 62
9
  6
CONTINUOUS
 10
15.1838070056
 20
11.1773318604
 40
1.095
100
AcDbArc
 50
103.2153078276
 51
166.7925759153
  0
ARC
  5
2E9
100
AcDbEntity
  8
0
100
AcDbCircle
 62
9
  6
CONTINUOUS
 10
15.1838070056
 20
11.1773318604
 40
1.095
100
AcDbArc
 50
13.2074240847
 51
76.7846921724
  0
ARC
  5
2EA
100
AcDbEntity
  8
0
100
AcDbCircle
 62
7
  6
CONTINUOUS
 10
15.1838070056
 20
11.1773318604
 40
1.045
100
AcDbArc
 50
193.8573148505
 51
256.1434991943
  0
ARC
  5
2EB
100
AcDbEntity
  8
0
100
AcDbCircle
 62
7
  6
CONTINUOUS
 10
15.1838070056
 20
11.1773318604
 40
1.045
100
AcDbArc
 50
283.8565008057
 51
346.1426851495
  0
ARC
  5
2EC
100
AcDbEntity
  8
0
100
AcDbCircle
 62
7
  6
CONTINUOUS
 10
15.1838070056
 20
11.1773318604
 40
1.045
100
AcDbArc
 50
13.8573148505
 51
76.1434991943
  0
ARC
  5
2ED
100
AcDbEntity
  8
0
100
AcDbCircle
 62
7
  6
CONTINUOUS
 10
15.1838070056
 20
11.1773318604
 40
1.045
100
AcDbArc
 50
103.8565008057
 51
166.1426851495
  0
ARC
  5
2EE
100
AcDbEntity
  8
0
100
AcDbCircle
 62
9
  6
CONTINUOUS
 10
15.1838070056
 20
11.1773318604
 40
1.015
100
AcDbArc
 50
14.2770038346
 51
75.7272493122
  0
ARC
  5
2EF
100
AcDbEntity
  8
0
100
AcDbCircle
 62
9
  6
CONTINUOUS
 10
15.1838070056
 20
11.1773318604
 40
1.015
100
AcDbArc
 50
104.2727506885
 51
165.722996167
  0
ARC
  5
2F0
100
AcDbEntity
  8
0
100
AcDbCircle
 62
9
  6
CONTINUOUS
 10
15.1838070056
 20
11.1773318604
 40
1.015
100
AcDbArc
 50
194.2770038346
 51
255.7272493122
  0
ARC
  5
2F1
100
AcDbEntity
  8
0
100
AcDbCircle
 62
9
  6
CONTINUOUS
 10
15.1838070056
 20
11.1773318604
 40
1.015
100
AcDbArc
 50
284.2727506885
 51
345.722996167
  0
ARC
  5
2F2
100
AcDbEntity
  8
0
100
AcDbCircle
 62
9
  6
CONTINUOUS
 10
14.6088070056
 20
11.7523318604
 40
0.355
100
AcDbArc
 50
270.0
 51
360.0
  0
ARC
  5
2F3
100
AcDbEntity
  8
0
100
AcDbCircle
 62
7
  6
CONTINUOUS
 10
14.6088070056
 20
11.7523318604
 40
0.325
100
AcDbArc
 50
270.0
 51
360.0
  0
ARC
  5
2F4
100
AcDbEntity
  8
0
100
AcDbCircle
 62
7
  6
CONTINUOUS
 10
13.8315866094
 20
11.3973318604
 40
0.03
100
AcDbArc
 50
90.0
 51
170.759208092
  0
ARC
  5
2F5
100
AcDbEntity
  8
0
100
AcDbCircle
 62
7
  6
CONTINUOUS
 10
14.9638070056
 20
12.5295522566
 40
0.03
100
AcDbArc
 50
99.240791946
 51
180.0
  0
ARC
  5
2F6
100
AcDbEntity
  8
0
100
AcDbCircle
 62
7
  6
CONTINUOUS
 10
15.4038070056
 20
12.5295522566
 40
0.03
100
AcDbArc
 50
0.0
 51
80.759208092
  0
ARC
  5
2F7
100
AcDbEntity
  8
0
100
AcDbCircle
 62
9
  6
CONTINUOUS
 10
15.7588070056
 20
10.6023318604
 40
0.355
100
AcDbArc
 50
90.0
 51
180.0
  0
ARC
  5
2F8
100
AcDbEntity
  8
0
100
AcDbCircle
 62
9
  6
CONTINUOUS
 10
20.3357107965
 20
10.5720907961
 40
0.3420310705
100
AcDbArc
 50
28.4716010301
 51
32.8155489458
  0
ARC
  5
2F9
100
AcDbEntity
  8
0
100
AcDbCircle
 62
9
  6
CONTINUOUS
 10
20.0295306621
 20
10.5734944864
 40
0.3392763171
100
AcDbArc
 50
147.2108324596
 51
151.541696879
  0
ARC
  5
2FA
100
AcDbEntity
  8
0
100
AcDbCircle
 62
7
  6
CONTINUOUS
 10
15.7588070056
 20
10.6023318604
 40
0.325
100
AcDbArc
 50
90.0
 51
180.0
  0
ARC
  5
2FB
100
AcDbEntity
  8
0
100
AcDbCircle
 62
7
  6
CONTINUOUS
 10
20.0033389796
 20
10.7916596154
 40
0.3102354422
100
AcDbArc
 50
158.949675694
 51
160.6716851934
  0
ARC
  5
2FC
100
AcDbEntity
  8
0
100
AcDbCircle
 62
7
  6
CONTINUOUS
 10
20.3648044032
 20
10.7918542742
 40
0.3096714791
100
AcDbArc
 50
19.3267466558
 51
21.0518924568
  0
ARC
  5
2FD
100
AcDbEntity
  8
0
100
AcDbCircle
 62
7
  6
CONTINUOUS
 10
19.9988428922
 20
10.7932322652
 40
0.3054722488
100
AcDbArc
 50
160.6709148479
 51
164.108741587
  0
ARC
  5
2FE
100
AcDbEntity
  8
0
100
AcDbCircle
 62
7
  6
CONTINUOUS
 10
20.3698322381
 20
10.7935690794
 40
0.3043594602
100
AcDbArc
 50
15.884971885
 51
19.3353716802
  0
ARC
  5
2FF
100
AcDbEntity
  8
0
100
AcDbCircle
 62
7
  6
CONTINUOUS
 10
20.3780980693
 20
10.8805036072
 40
0.2957089364
100
AcDbArc
 50
0.0009593283
 51
2.5201379019
  0
ARC
  5
300
100
AcDbEntity
  8
0
100
AcDbCircle
 62
7
  6
CONTINUOUS
 10
19.9895156917
 20
10.8805036034
 40
0.2957086862
100
AcDbArc
 50
177.4798670222
 51
179.9990399382
  0
ARC
  5
301
100
AcDbEntity
  8
0
100
AcDbCircle
 62
7
  6
CONTINUOUS
 10
20.3822285943
 20
10.7967046031
 40
0.2915785113
100
AcDbArc
 50
0.0474682171
 51
15.9590887529
  0
ARC
  5
302
100
AcDbEntity
  8
0
100
AcDbCircle
 62
7
  6
CONTINUOUS
 10
19.9853854169
 20
10.7967046031
 40
0.2915785113
100
AcDbArc
 50
164.0409112472
 51
179.9525317829
  0
ARC
  5
303
100
AcDbEntity
  8
0
100
AcDbCircle
 62
7
  6
CONTINUOUS
 10
16.5360274018
 20
10.9573318604
 40
0.03
100
AcDbArc
 50
270.0
 51
350.759208092
  0
ARC
  5
304
100
AcDbEntity
  8
0
100
AcDbCircle
 62
7
  6
CONTINUOUS
 10
16.5360274018
 20
11.3973318604
 40
0.03
100
AcDbArc
 50
9.240791946
 51
90.0
  0
ARC
  5
305
100
AcDbEntity
  8
0
100
AcDbCircle
 62
9
  6
CONTINUOUS
 10
15.7588070056
 20
11.7523318604
 40
0.355
100
AcDbArc
 50
180.0
 51
270.0
  0
ARC
  5
306
100
AcDbEntity
  8
0
100
AcDbCircle
 62
7
  6
CONTINUOUS
 10
15.7588070056
 20
11.7523318604
 40
0.325
100
AcDbArc
 50
180.0
 51
270.0
  0
ARC
  5
307
100
AcDbEntity
  8
0
100
AcDbCircle
 62
7
  6
CONTINUOUS
 10
20.1838070056
 20
11.1773318604
 40
1.125
100
AcDbArc
 50
296.3945608475
 51
243.6054391525
  0
ARC
  5
308
100
AcDbEntity
  8
0
100
AcDbCircle
 62
9
  6
CONTINUOUS
 10
20.1838070056
 20
11.1773318604
 40
1.105
100
AcDbArc
 50
296.943378594
 51
243.0566214058
  0
ARC
  5
309
100
AcDbEntity
  8
0
100
AcDbCircle
 62
7
  6
CONTINUOUS
 10
20.1838070056
 20
11.1773318604
 40
0.5475
100
AcDbArc
 50
332.9998479539
 51
207.0001520461
  0
ARC
  5
30A
100
AcDbEntity
  8
0
100
AcDbCircle
 62
9
  6
CONTINUOUS
 10
20.1838070056
 20
11.1773318604
 40
0.5175
100
AcDbArc
 50
340.6732686248
 51
199.3267313752
  0
ARC
  5
30B
100
AcDbEntity
  8
0
100
AcDbCircle
 62
7
  6
CONTINUOUS
 10
20.1838070056
 20
11.1773318604
 40
0.4875
100
AcDbArc
 50
0.0
 51
180.0
  0
SPLINE
  5
30C
100
AcDbEntity
  8
0
100
AcDbSpline
 62
7
  6
CONTINUOUS
 70
0
 71
3
 72
39
 73
35
 74
0
 42
0.0000001
 43
0.0000001
 44
0.0000000001
 40
0.0
 40
0.0
 40
0.0
 40
0.0
 40
0.0274547915
 40
0.0412532417
 40
0.0551178567
 40
0.0831012997
 40
0.1115400822
 40
0.1259680169
 40
0.1405455563
 40
0.1701732709
 40
0.2004850215
 40
0.2315046661
 40
0.2632292479
 40
0.2956304105
 40
0.362181014
 40
0.3962236562
 40
0.430626413
 40
0.5000008035
 40
0.5693751408
 40
0.6037778241
 40
0.6378203712
 40
0.7043707287
 40
0.7367717407
 40
0.7684961688
 40
0.7995156603
 40
0.8298272599
 40
0.8594548325
 40
0.8740323057
 40
0.8884601784
 40
0.9168988527
 40
0.9448822148
 40
0.9587467951
 40
0.9725452207
 40
1.0
 40
1.0
 40
1.0
 40
1.0
 10
20.6735210045
 20
10.8935060837
 30
0.0
 10
20.6729796525
 20
10.9058090788
 30
0.0
 10
20.6710079945
 20
10.9242708318
 30
0.0
 10
20.666118677
 20
10.9485167941
 30
0.0
 10
20.6596999643
 20
10.9726525734
 30
0.0
 10
20.6488387216
 20
11.0023345946
 30
0.0
 10
20.6344780056
 20
11.0307667644
 30
0.0
 10
20.6209731365
 20
11.0527238931
 30
0.0
 10
20.6059825897
 20
11.0743475999
 30
0.0
 10
20.5847441594
 20
11.1002436413
 30
0.0
 10
20.5557510594
 20
11.1290422089
 30
0.0
 10
20.5233866278
 20
11.1554991343
 30
0.0
 10
20.4879520639
 20
11.179392314
 30
0.0
 10
20.436617288
 20
11.2078061425
 30
0.0
 10
20.3808960244
 20
11.2299713229
 30
0.0
 10
20.3223718998
 20
11.2456795407
 30
0.0
 10
20.2615641489
 20
11.2571178825
 30
0.0
 10
20.1838059238
 20
11.2628431117
 30
0.0
 10
20.1060477446
 20
11.2571176407
 30
0.0
 10
20.0452401407
 20
11.2456790592
 30
0.0
 10
19.9867162395
 20
11.2299707345
 30
0.0
 10
19.9309952425
 20
11.2078054721
 30
0.0
 10
19.879660789
 20
11.1793915739
 30
0.0
 10
19.844226448
 20
11.1554984331
 30
0.0
 10
19.8118622326
 20
11.1290415687
 30
0.0
 10
19.7828693314
 20
11.1002430834
 30
0.0
 10
19.7616310764
 20
11.0743471098
 30
0.0
 10
19.7466406017
 20
11.0527235004
 30
0.0
 10
19.7331358368
 20
11.030766432
 30
0.0
 10
19.7187751806
 20
11.00233436
 30
0.0
 10
19.7079140006
 20
10.9726524226
 30
0.0
 10
19.70149531
 20
10.9485167029
 30
0.0
 10
19.6966060094
 20
10.9242707697
 30
0.0
 10
19.6946343558
 20
10.9058090332
 30
0.0
 10
19.6940930053
 20
10.8935060435
 30
0.0
  0
SPLINE
  5
30D
100
AcDbEntity
  8
0
100
AcDbSpline
 62
7
  6
CONTINUOUS
 70
0
 71
3
 72
21
 73
17
 74
0
 42
0.0000001
 43
0.0000001
 44
0.0000000001
 40
0.0
 40
0.0
 40
0.0
 40
0.0
 40
0.0545492662
 40
0.1094385495
 40
0.1649685728
 40
0.2214299157
 40
0.2790554033
 40
0.3380255362
 40
0.3984603538
 40
0.4604177394
 40
0.523895351
 40
0.5888338588
 40
0.7224911446
 40
0.7909774817
 40
0.8602376163
 40
1.0
 40
1.0
 40
1.0
 40
1.0
 10
19.7238070056
 20
5.1147036995
 30
0.0
 10
19.7238070056
 20
5.1030260824
 30
0.0
 10
19.7253117454
 20
5.0795708777
 30
0.0
 10
19.7320443199
 20
5.0448120476
 30
0.0
 10
19.743178823
 20
5.0107704692
 30
0.0
 10
19.7585831774
 20
4.9777956142
 30
0.0
 10
19.7780896784
 20
4.9462061136
 30
0.0
 10
19.80148923
 20
4.9163015206
 30
0.0
 10
19.8285417871
 20
4.8883579385
 30
0.0
 10
19.8589769738
 20
4.8626306892
 30
0.0
 10
19.8925016306
 20
4.8393511111
 30
0.0
 10
19.9413303908
 20
4.8116022672
 30
0.0
 10
19.9945785475
 20
4.7899302772
 30
0.0
 10
20.050655279
 20
4.7745579725
 30
0.0
 10
20.1090419032
 20
4.7633468111
 30
0.0
 10
20.153887417
 20
4.7599837001
 30
0.0
 10
20.1838070056
 20
4.7599837001
 30
0.0
  0
SPLINE
  5
30E
100
AcDbEntity
  8
0
100
AcDbSpline
 62
7
  6
CONTINUOUS
 70
0
 71
3
 72
21
 73
17
 74
0
 42
0.0000001
 43
0.0000001
 44
0.0000000001
 40
0.0
 40
0.0
 40
0.0
 40
0.0
 40
0.1397624881
 40
0.2090226449
 40
0.2775089943
 40
0.4111662715
 40
0.4761047589
 40
0.539582342
 40
0.6015396945
 40
0.6619744779
 40
0.720944579
 40
0.7785700419
 40
0.8350313708
 40
0.8905613905
 40
0.9454507066
 40
1.0
 40
1.0
 40
1.0
 40
1.0
 10
20.1838070056
 20
4.7599837001
 30
0.0
 10
20.2137266166
 20
4.7599837001
 30
0.0
 10
20.2585721576
 20
4.7633468159
 30
0.0
 10
20.3169588099
 20
4.7745579889
 30
0.0
 10
20.3730355438
 20
4.7899303062
 30
0.0
 10
20.4262836936
 20
4.8116023027
 30
0.0
 10
20.4751124396
 20
4.8393511469
 30
0.0
 10
20.5086370775
 20
4.8626307214
 30
0.0
 10
20.539072246
 20
4.8883579602
 30
0.0
 10
20.5661247875
 20
4.9163015278
 30
0.0
 10
20.5895243266
 20
4.9462061058
 30
0.0
 10
20.6090308212
 20
4.9777955924
 30
0.0
 10
20.6244351758
 20
5.0107704371
 30
0.0
 10
20.6355696854
 20
5.0448120171
 30
0.0
 10
20.6423022604
 20
5.0795708593
 30
0.0
 10
20.6438070056
 20
5.1030260765
 30
0.0
 10
20.6438070056
 20
5.1147036995
 30
0.0
  0
SPLINE
  5
30F
100
AcDbEntity
  8
0
100
AcDbSpline
 62
7
  6
CONTINUOUS
 70
0
 71
3
 72
11
 73
7
 74
0
 42
0.0000001
 43
0.0000001
 44
0.0000000001
 40
0.0
 40
0.0
 40
0.0
 40
0.0
 40
0.247311032
 40
0.4957637884
 40
0.7463225347
 40
1.0
 40
1.0
 40
1.0
 40
1.0
 10
20.6838070056
 20
10.5719705057
 30
0.0
 10
20.6838070056
 20
10.5827049705
 30
0.0
 10
20.6826378936
 20
10.6042412581
 30
0.0
 10
20.6774004985
 20
10.6362695439
 30
0.0
 10
20.6687192013
 20
10.6678260533
 30
0.0
 10
20.6607374553
 20
10.688253134
 30
0.0
 10
20.656222821
 20
10.6982958304
 30
0.0
  0
SPLINE
  5
310
100
AcDbEntity
  8
0
100
AcDbSpline
 62
7
  6
CONTINUOUS
 70
0
 71
3
 72
33
 73
29
 74
0
 42
0.0000001
 43
0.0000001
 44
0.0000000001
 40
0.0
 40
0.0
 40
0.0
 40
0.0
 40
0.0274934449
 40
0.0554481467
 40
0.0839176166
 40
0.1129405838
 40
0.1425411011
 40
0.1727283932
 40
0.2034975574
 40
0.2348304213
 40
0.299017371
 40
0.3649568083
 40
0.3984447308
 40
0.4321716163
 40
0.500000389
 40
0.5678291408
 40
0.6015560027
 40
0.635043891
 40
0.7009832366
 40
0.7651700668
 40
0.7965028657
 40
0.8272719607
 40
0.8574591874
 40
0.8870596369
 40
0.9160825413
 40
0.9445519533
 40
0.9725066014
 40
1.0
 40
1.0
 40
1.0
 40
1.0
 10
20.656222821
 20
10.6982958304
 30
0.0
 10
20.6519553972
 20
10.7077886128
 30
0.0
 10
20.642437196
 20
10.7265366693
 30
0.0
 10
20.6255250959
 20
10.7534755258
 30
0.0
 10
20.6059737406
 20
10.7792953423
 30
0.0
 10
20.583910107
 20
10.8038442143
 30
0.0
 10
20.5594689127
 20
10.8269807257
 30
0.0
 10
20.5328006384
 20
10.8485730898
 30
0.0
 10
20.5040650123
 20
10.8684999373
 30
0.0
 10
20.4629038752
 20
10.8928846831
 30
0.0
 10
20.4071886716
 20
10.9184924241
 30
0.0
 10
20.34788599
 20
10.9369490652
 30
0.0
 10
20.2985585142
 20
10.9474523029
 30
0.0
 10
20.2479767311
 20
10.9550520217
 30
0.0
 10
20.1838066307
 20
10.9588548858
 30
0.0
 10
20.1196365489
 20
10.9550519243
 30
0.0
 10
20.0690547971
 20
10.9474521925
 30
0.0
 10
20.0197273955
 20
10.9369488782
 30
0.0
 10
19.960424813
 20
10.9184922377
 30
0.0
 10
19.9047097333
 20
10.8928844757
 30
0.0
 10
19.863548698
 20
10.8684997467
 30
0.0
 10
19.8348131546
 20
10.8485729138
 30
0.0
 10
19.8081449375
 20
10.8269806005
 30
0.0
 10
19.7837038222
 20
10.8038441136
 30
0.0
 10
19.7616402319
 20
10.7792952998
 30
0.0
 10
19.7420889186
 20
10.7534755337
 30
0.0
 10
19.7251768544
 20
10.7265367262
 30
0.0
 10
19.7156586577
 20
10.70778871
 30
0.0
 10
19.7113912384
 20
10.6982959448
 30
0.0
  0
SPLINE
  5
311
100
AcDbEntity
  8
0
100
AcDbSpline
 62
7
  6
CONTINUOUS
 70
0
 71
3
 72
11
 73
7
 74
0
 42
0.0000001
 43
0.0000001
 44
0.0000000001
 40
0.0
 40
0.0
 40
0.0
 40
0.0
 40
0.2536773384
 40
0.5042360073
 40
0.7526888121
 40
1.0
 40
1.0
 40
1.0
 40
1.0
 10
19.7113912384
 20
10.6982959448
 30
0.0
 10
19.7068765991
 20
10.6882532452
 30
0.0
 10
19.6988948452
 20
10.6678261547
 30
0.0
 10
19.690213528
 20
10.6362696256
 30
0.0
 10
19.6849761213
 20
10.6042413045
 30
0.0
 10
19.6838070056
 20
10.5827049875
 30
0.0
 10
19.6838070056
 20
10.5719705057
 30
0.0
  0
SPLINE
  5
312
100
AcDbEntity
  8
0
100
AcDbSpline
 62
7
  6
CONTINUOUS
 70
0
 71
3
 72
37
 73
33
 74
0
 42
0.0000001
 43
0.0000001
 44
0.0000000001
 40
0.0
 40
0.0
 40
0.0
 40
0.0
 40
0.0272518373
 40
0.0546740533
 40
0.0824193868
 40
0.1106331881
 40
0.139432445
 40
0.1689077629
 40
0.1991190531
 40
0.2300950886
 40
0.2618343755
 40
0.2943069444
 40
0.3274570551
 40
0.36120657
 40
0.430048097
 40
0.4649566852
 40
0.5000003759
 40
0.5350440606
 40
0.5699526291
 40
0.6387940735
 40
0.6725435329
 40
0.7056935799
 40
0.7381660762
 40
0.7699052881
 40
0.8008812506
 40
0.8310924701
 40
0.8605677226
 40
0.889366921
 40
0.9175806751
 40
0.9453259743
 40
0.9727481679
 40
1.0
 40
1.0
 40
1.0
 40
1.0
 10
19.6838070056
 20
5.1211315756
 30
0.0
 10
19.6838070056
 20
5.1084505277
 30
0.0
 10
19.6854412662
 20
5.0829795999
 30
0.0
 10
19.692754757
 20
5.0452325168
 30
0.0
 10
19.7048503363
 20
5.0082619178
 30
0.0
 10
19.7215859218
 20
4.972446391
 30
0.0
 10
19.7427798847
 20
4.9381318078
 30
0.0
 10
19.7682066883
 20
4.9056440622
 30
0.0
 10
19.7976058869
 20
4.8752837961
 30
0.0
 10
19.83068477
 20
4.8473284933
 30
0.0
 10
19.8671209621
 20
4.8220315601
 30
0.0
 10
19.9065628314
 20
4.7996226148
 30
0.0
 10
19.9486378176
 20
4.7803031529
 30
0.0
 10
20.008075044
 20
4.7587646556
 30
0.0
 10
20.0707203008
 20
4.7442925088
 30
0.0
 10
20.1349355984
 20
4.7369960841
 30
0.0
 10
20.1838075296
 20
4.7351558242
 30
0.0
 10
20.2326794494
 20
4.7369961502
 30
0.0
 10
20.2968946847
 20
4.744292682
 30
0.0
 10
20.3595398423
 20
4.7587649225
 30
0.0
 10
20.418976954
 20
4.7803034588
 30
0.0
 10
20.461051834
 20
4.7996229394
 30
0.0
 10
20.5004935794
 20
4.8220319032
 30
0.0
 10
20.5369296556
 20
4.8473288218
 30
0.0
 10
20.5700084356
 20
4.8752840882
 30
0.0
 10
20.599407542
 20
4.905644308
 30
0.0
 10
20.6248342619
 20
4.9381320039
 30
0.0
 10
20.6460281599
 20
4.9724465327
 30
0.0
 10
20.6627637078
 20
5.0082620045
 30
0.0
 10
20.674859265
 20
5.0452325596
 30
0.0
 10
20.6821727461
 20
5.0829796151
 30
0.0
 10
20.6838070056
 20
5.1084505301
 30
0.0
 10
20.6838070056
 20
5.1211315755
 30
0.0
  0
SPLINE
  5
313
100
AcDbEntity
  8
0
100
AcDbSpline
 62
7
  6
CONTINUOUS
 70
0
 71
3
 72
11
 73
7
 74
0
 42
0.0000001
 43
0.0000001
 44
0.0000000001
 40
0.0
 40
0.0
 40
0.0
 40
0.0
 40
0.2526914777
 40
0.5030945529
 40
0.7519537548
 40
1.0
 40
1.0
 40
1.0
 40
1.0
 10
20.6561235411
 20
10.6970162456
 30
0.0
 10
20.6590362477
 20
10.7050954695
 30
0.0
 10
20.6641678542
 20
10.7214311241
 30
0.0
 10
20.6697207241
 20
10.7464087727
 30
0.0
 10
20.6730622844
 20
10.7716182258
 30
0.0
 10
20.6738070056
 20
10.7885158153
 30
0.0
 10
20.6738070056
 20
10.7969461691
 30
0.0
  0
SPLINE
  5
314
100
AcDbEntity
  8
0
100
AcDbSpline
 62
7
  6
CONTINUOUS
 70
0
 71
3
 72
11
 73
7
 74
0
 42
0.0000001
 43
0.0000001
 44
0.0000000001
 40
0.0
 40
0.0
 40
0.0
 40
0.0
 40
0.2480464549
 40
0.4969057838
 40
0.7473088037
 40
1.0
 40
1.0
 40
1.0
 40
1.0
 10
19.6938070056
 20
10.7969461691
 30
0.0
 10
19.6938070056
 20
10.7885162976
 30
0.0
 10
19.6945516414
 20
10.7716196786
 30
0.0
 10
19.6978928188
 20
10.7464116578
 30
0.0
 10
19.7034450546
 20
10.7214354006
 30
0.0
 10
19.7085760814
 20
10.7051006204
 30
0.0
 10
19.7114884609
 20
10.6970218187
 30
0.0
  0
LINE
  5
315
100
AcDbEntity
  8
0
100
AcDbLine
 62
9
  6
CONTINUOUS
 10
11.4346067498
 20
11.3973318604
 11
11.5656380674
 21
11.4021493787
  0
LINE
  5
316
100
AcDbEntity
  8
0
100
AcDbLine
 62
9
  6
CONTINUOUS
 10
11.5656380674
 20
10.9525143422
 11
11.4346067498
 21
10.9573318604
  0
LINE
  5
317
100
AcDbEntity
  8
0
100
AcDbLine
 62
9
  6
CONTINUOUS
 10
9.9638070056
 20
12.4281316046
 11
9.9589894873
 21
12.5591629223
  0
LINE
  5
318
100
AcDbEntity
  8
0
100
AcDbLine
 62
9
  6
CONTINUOUS
 10
10.4086245238
 20
12.5591629223
 11
10.4038070056
 21
12.4281316046
  0
LINE
  5
319
100
AcDbEntity
  8
0
100
AcDbLine
 62
9
  6
CONTINUOUS
 10
8.8019759437
 20
11.4021493787
 11
8.9330072614
 21
11.3973318604
  0
LINE
  5
31A
100
AcDbEntity
  8
0
100
AcDbLine
 62
9
  6
CONTINUOUS
 10
8.8019759437
 20
10.9525143422
 11
8.9330072614
 21
10.9573318604
  0
LINE
  5
31B
100
AcDbEntity
  8
0
100
AcDbLine
 62
9
  6
CONTINUOUS
 10
10.4038070056
 20
9.9265321162
 11
10.4086245238
 21
9.7955007986
  0
LINE
  5
31C
100
AcDbEntity
  8
0
100
AcDbLine
 62
9
  6
CONTINUOUS
 10
9.9638070056
 20
9.9265321162
 11
9.9589894873
 21
9.7955007986
  0
SPLINE
  5
31D
100
AcDbEntity
  8
0
100
AcDbSpline
 62
7
  6
CONTINUOUS
 70
0
 71
3
 72
21
 73
17
 74
0
 42
0.0000001
 43
0.0000001
 44
0.0000000001
 40
0.0
 40
0.0
 40
0.0
 40
0.0
 40
0.0540406315
 40
0.1084432454
 40
0.1635489098
 40
0.2196596383
 40
0.2770242988
 40
0.3358290035
 40
0.3961934165
 40
0.4581708404
 40
0.5217509614
 40
0.5868644211
 40
0.7210456988
 40
0.7898593643
 40
0.8594761223
 40
1.0
 40
1.0
 40
1.0
 40
1.0
 10
20.6438070056
 20
5.1147036995
 30
0.0
 10
20.6438070056
 20
5.1262404551
 30
0.0
 10
20.64231602
 20
5.1494183254
 30
0.0
 10
20.635638819
 20
5.1837791808
 30
0.0
 10
20.6245897301
 20
5.2174608282
 30
0.0
 10
20.6092840038
 20
5.2501264208
 30
0.0
 10
20.5898780032
 20
5.281462158
 30
0.0
 10
20.5665676996
 20
5.3111684654
 30
0.0
 10
20.5395836251
 20
5.3389643893
 30
0.0
 10
20.5091900469
 20
5.3645873115
 30
0.0
 10
20.4756772943
 20
5.3877974327
 30
0.0
 10
20.4268040335
 20
5.4155001009
 30
0.0
 10
20.3734801361
 20
5.4371456883
 30
0.0
 10
20.3173002058
 20
5.4525087196
 30
0.0
 10
20.2587668301
 20
5.4637208525
 30
0.0
 10
20.2138064633
 20
5.4670841433
 30
0.0
 10
20.1838070056
 20
5.4670841433
 30
0.0
  0
SPLINE
  5
31E
100
AcDbEntity
  8
0
100
AcDbSpline
 62
9
  6
CONTINUOUS
 70
0
 71
3
 72
37
 73
33
 74
0
 42
0.0000001
 43
0.0000001
 44
0.0000000001
 40
0.0
 40
0.0
 40
0.0
 40
0.0
 40
0.0270156913
 40
0.0542164824
 40
0.0817651799
 40
0.1098177487
 40
0.1384968548
 40
0.1678959559
 40
0.1980748957
 40
0.2290601925
 40
0.2608466613
 40
0.2933997915
 40
0.3266588782
 40
0.3605407089
 40
0.429697078
 40
0.4647787781
 40
0.5
 40
0.5352212219
 40
0.570302922
 40
0.6394592911
 40
0.6733411218
 40
0.7066002085
 40
0.7391533387
 40
0.7709398075
 40
0.8019251043
 40
0.8321040441
 40
0.8615031452
 40
0.8901822513
 40
0.9182348201
 40
0.9457835176
 40
0.9729843087
 40
1.0
 40
1.0
 40
1.0
 40
1.0
 10
20.6838070056
 20
5.1211315756
 30
0.0
 10
20.6838070056
 20
5.1336707643
 30
0.0
 10
20.6821858122
 20
5.1588643998
 30
0.0
 10
20.6749295282
 20
5.1962133767
 30
0.0
 10
20.662918051
 20
5.232824199
 30
0.0
 10
20.6462820928
 20
5.2683300987
 30
0.0
 10
20.6251887092
 20
5.3023908965
 30
0.0
 10
20.5998513283
 20
5.3346803362
 30
0.0
 10
20.5705207591
 20
5.3648930681
 30
0.0
 10
20.5374835785
 20
5.3927442154
 30
0.0
 10
20.5010593237
 20
5.4179718885
 30
0.0
 10
20.4615995629
 20
5.4403381026
 30
0.0
 10
20.4194789153
 20
5.4596338446
 30
0.0
 10
20.3599344334
 20
5.4811621335
 30
0.0
 10
20.2971604592
 20
5.4956302282
 30
0.0
 10
20.2327998036
 20
5.502927171
 30
0.0
 10
20.1838070056
 20
5.5047679525
 30
0.0
 10
20.1348142075
 20
5.502927171
 30
0.0
 10
20.070453552
 20
5.4956302282
 30
0.0
 10
20.0076795778
 20
5.4811621335
 30
0.0
 10
19.9481350959
 20
5.4596338446
 30
0.0
 10
19.9060144482
 20
5.4403381026
 30
0.0
 10
19.8665546875
 20
5.4179718885
 30
0.0
 10
19.8301304327
 20
5.3927442154
 30
0.0
 10
19.7970932521
 20
5.3648930681
 30
0.0
 10
19.7677626829
 20
5.3346803362
 30
0.0
 10
19.742425302
 20
5.3023908965
 30
0.0
 10
19.7213319184
 20
5.2683300987
 30
0.0
 10
19.7046959602
 20
5.232824199
 30
0.0
 10
19.6926844829
 20
5.1962133767
 30
0.0
 10
19.685428199
 20
5.1588643998
 30
0.0
 10
19.6838070056
 20
5.1336707643
 30
0.0
 10
19.6838070056
 20
5.1211315756
 30
0.0
  0
SPLINE
  5
31F
100
AcDbEntity
  8
0
100
AcDbSpline
 62
9
  6
CONTINUOUS
 70
0
 71
3
 72
11
 73
7
 74
0
 42
0.0000001
 43
0.0000001
 44
0.0000000001
 40
0.0
 40
0.0
 40
0.0
 40
0.0
 40
0.2470149361
 40
0.4953085976
 40
0.7459296275
 40
1.0
 40
1.0
 40
1.0
 40
1.0
 10
19.6838070056
 20
10.5719705057
 30
0.0
 10
19.6838070056
 20
10.5826884855
 30
0.0
 10
19.6849895599
 20
10.6041981281
 30
0.0
 10
19.6902872104
 20
10.6361895326
 30
0.0
 10
19.6990735913
 20
10.6677202224
 30
0.0
 10
19.7071510666
 20
10.6881239454
 30
0.0
 10
19.7117205441
 20
10.6981564422
 30
0.0
  0
SPLINE
  5
320
100
AcDbEntity
  8
0
100
AcDbSpline
 62
9
  6
CONTINUOUS
 70
0
 71
3
 72
31
 73
27
 74
0
 42
0.0000001
 43
0.0000001
 44
0.0000000001
 40
0.0
 40
0.0
 40
0.0
 40
0.0
 40
0.027311063
 40
0.0551154846
 40
0.0834674783
 40
0.1124050062
 40
0.1720666411
 40
0.2028343139
 40
0.2341881596
 40
0.2984728724
 40
0.3645651306
 40
0.3981435081
 40
0.4319671663
 40
0.5
 40
0.5680328337
 40
0.6018564919
 40
0.6354348694
 40
0.7015271276
 40
0.7658118404
 40
0.7971656861
 40
0.8279333589
 40
0.8875949938
 40
0.9165325217
 40
0.9448845154
 40
0.972688937
 40
1.0
 40
1.0
 40
1.0
 40
1.0
 10
19.7117205441
 20
10.6981564422
 30
0.0
 10
19.7159925293
 20
10.7075357809
 30
0.0
 10
19.7255136946
 20
10.7260669575
 30
0.0
 10
19.7424037496
 20
10.7526998262
 30
0.0
 10
19.7619237879
 20
10.7782498688
 30
0.0
 10
19.7915811221
 20
10.8109886297
 30
0.0
 10
19.8258132359
 20
10.8405960462
 30
0.0
 10
19.8636791829
 20
10.8666881153
 30
0.0
 10
19.9048146325
 20
10.8909146512
 30
0.0
 10
19.9604992974
 20
10.9163653814
 30
0.0
 10
20.0197650065
 20
10.9347152321
 30
0.0
 10
20.0690735817
 20
10.9451623882
 30
0.0
 10
20.1196479815
 20
10.9527239304
 30
0.0
 10
20.1838070056
 20
10.9565077044
 30
0.0
 10
20.2479660296
 20
10.9527239304
 30
0.0
 10
20.2985404295
 20
10.9451623882
 30
0.0
 10
20.3478490047
 20
10.9347152321
 30
0.0
 10
20.4071147138
 20
10.9163653814
 30
0.0
 10
20.4627993787
 20
10.8909146512
 30
0.0
 10
20.5039348283
 20
10.8666881153
 30
0.0
 10
20.5418007753
 20
10.8405960462
 30
0.0
 10
20.576032889
 20
10.8109886297
 30
0.0
 10
20.6056902233
 20
10.7782498688
 30
0.0
 10
20.6252102616
 20
10.7526998262
 30
0.0
 10
20.6421003166
 20
10.7260669575
 30
0.0
 10
20.6516214819
 20
10.7075357809
 30
0.0
 10
20.6558934671
 20
10.6981564422
 30
0.0
  0
SPLINE
  5
321
100
AcDbEntity
  8
0
100
AcDbSpline
 62
9
  6
CONTINUOUS
 70
0
 71
3
 72
11
 73
7
 74
0
 42
0.0000001
 43
0.0000001
 44
0.0000000001
 40
0.0
 40
0.0
 40
0.0
 40
0.0
 40
0.2540703725
 40
0.5046914025
 40
0.7529850638
 40
1.0
 40
1.0
 40
1.0
 40
1.0
 10
20.6558934671
 20
10.6981564422
 30
0.0
 10
20.6604629446
 20
10.6881239454
 30
0.0
 10
20.6685404199
 20
10.6677202224
 30
0.0
 10
20.6773268008
 20
10.6361895326
 30
0.0
 10
20.6826244513
 20
10.6041981281
 30
0.0
 10
20.6838070056
 20
10.5826884855
 30
0.0
 10
20.6838070056
 20
10.5719705057
 30
0.0
  0
SPLINE
  5
322
100
AcDbEntity
  8
0
100
AcDbSpline
 62
9
  6
CONTINUOUS
 70
0
 71
3
 72
37
 73
33
 74
0
 42
0.0000001
 43
0.0000001
 44
0.0000000001
 40
0.0
 40
0.0
 40
0.0
 40
0.0
 40
0.0270154151
 40
0.0542158918
 40
0.0817646568
 40
0.1098172944
 40
0.1384964332
 40
0.1678955361
 40
0.1980744932
 40
0.2290598342
 40
0.2608463479
 40
0.2933995142
 40
0.3266586397
 40
0.360540515
 40
0.4296969794
 40
0.4647787283
 40
0.5
 40
0.5352212717
 40
0.5703030206
 40
0.639459485
 40
0.6733413603
 40
0.7066004858
 40
0.7391536521
 40
0.7709401658
 40
0.8019255068
 40
0.8321044639
 40
0.8615035668
 40
0.8901827056
 40
0.9182353432
 40
0.9457841082
 40
0.9729845849
 40
1.0
 40
1.0
 40
1.0
 40
1.0
 10
20.6738070056
 20
5.1147036995
 30
0.0
 10
20.6738070056
 20
5.1269919789
 30
0.0
 10
20.6722183464
 20
5.1516814797
 30
0.0
 10
20.6651071984
 20
5.1882832367
 30
0.0
 10
20.6533360985
 20
5.2241618019
 30
0.0
 10
20.637032889
 20
5.2589576855
 30
0.0
 10
20.6163614217
 20
5.2923373519
 30
0.0
 10
20.5915308263
 20
5.3239810646
 30
0.0
 10
20.5627868769
 20
5.3535895908
 30
0.0
 10
20.5304104344
 20
5.3808837836
 30
0.0
 10
20.4947146452
 20
5.4056069758
 30
0.0
 10
20.456044053
 20
5.4275259303
 30
0.0
 10
20.4147657783
 20
5.4464358023
 30
0.0
 10
20.3564121187
 20
5.4675335783
 30
0.0
 10
20.2948935451
 20
5.4817123574
 30
0.0
 10
20.2318200154
 20
5.4888633796
 30
0.0
 10
20.1838070056
 20
5.490667349
 30
0.0
 10
20.1357939958
 20
5.4888633796
 30
0.0
 10
20.0727204661
 20
5.4817123574
 30
0.0
 10
20.0112018925
 20
5.4675335783
 30
0.0
 10
19.9528482329
 20
5.4464358022
 30
0.0
 10
19.9115699581
 20
5.4275259303
 30
0.0
 10
19.872899366
 20
5.4056069758
 30
0.0
 10
19.8372035768
 20
5.3808837836
 30
0.0
 10
19.8048271343
 20
5.3535895908
 30
0.0
 10
19.7760831848
 20
5.3239810646
 30
0.0
 10
19.7512525895
 20
5.2923373519
 30
0.0
 10
19.7305811222
 20
5.2589576855
 30
0.0
 10
19.7142779126
 20
5.2241618019
 30
0.0
 10
19.7025068128
 20
5.1882832367
 30
0.0
 10
19.6953956648
 20
5.1516814797
 30
0.0
 10
19.6938070056
 20
5.1269919789
 30
0.0
 10
19.6938070056
 20
5.1147036995
 30
0.0
  0
SPLINE
  5
323
100
AcDbEntity
  8
0
100
AcDbSpline
 62
9
  6
CONTINUOUS
 70
0
 71
3
 72
37
 73
33
 74
0
 42
0.0000001
 43
0.0000001
 44
0.0000000001
 40
0.0
 40
0.0
 40
0.0
 40
0.0
 40
0.0270154151
 40
0.0542158918
 40
0.0817646568
 40
0.1098172944
 40
0.1384964332
 40
0.1678955361
 40
0.1980744932
 40
0.2290598342
 40
0.2608463479
 40
0.2933995142
 40
0.3266586397
 40
0.360540515
 40
0.4296969794
 40
0.4647787283
 40
0.5
 40
0.5352212717
 40
0.5703030206
 40
0.639459485
 40
0.6733413603
 40
0.7066004858
 40
0.7391536521
 40
0.7709401658
 40
0.8019255068
 40
0.8321044639
 40
0.8615035668
 40
0.8901827056
 40
0.9182353432
 40
0.9457841082
 40
0.9729845849
 40
1.0
 40
1.0
 40
1.0
 40
1.0
 10
19.6938070056
 20
5.1147036995
 30
0.0
 10
19.6938070056
 20
5.10241542
 30
0.0
 10
19.6953956648
 20
5.0777259192
 30
0.0
 10
19.7025068128
 20
5.0411241622
 30
0.0
 10
19.7142779126
 20
5.005245597
 30
0.0
 10
19.7305811222
 20
4.9704497135
 30
0.0
 10
19.7512525895
 20
4.937070047
 30
0.0
 10
19.7760831848
 20
4.9054263343
 30
0.0
 10
19.8048271343
 20
4.8758178081
 30
0.0
 10
19.8372035768
 20
4.8485236154
 30
0.0
 10
19.872899366
 20
4.8238004231
 30
0.0
 10
19.9115699581
 20
4.8018814686
 30
0.0
 10
19.9528482329
 20
4.7829715967
 30
0.0
 10
20.0112018925
 20
4.7618738206
 30
0.0
 10
20.0727204661
 20
4.7476950415
 30
0.0
 10
20.1357939958
 20
4.7405440194
 30
0.0
 10
20.1838070056
 20
4.73874005
 30
0.0
 10
20.2318200154
 20
4.7405440194
 30
0.0
 10
20.2948935451
 20
4.7476950415
 30
0.0
 10
20.3564121187
 20
4.7618738206
 30
0.0
 10
20.4147657783
 20
4.7829715967
 30
0.0
 10
20.456044053
 20
4.8018814686
 30
0.0
 10
20.4947146452
 20
4.8238004231
 30
0.0
 10
20.5304104344
 20
4.8485236154
 30
0.0
 10
20.5627868769
 20
4.8758178081
 30
0.0
 10
20.5915308263
 20
4.9054263343
 30
0.0
 10
20.6163614217
 20
4.937070047
 30
0.0
 10
20.637032889
 20
4.9704497135
 30
0.0
 10
20.6533360985
 20
5.005245597
 30
0.0
 10
20.6651071984
 20
5.0411241622
 30
0.0
 10
20.6722183464
 20
5.0777259192
 30
0.0
 10
20.6738070056
 20
5.10241542
 30
0.0
 10
20.6738070056
 20
5.1147036995
 30
0.0
  0
SPLINE
  5
324
100
AcDbEntity
  8
0
100
AcDbSpline
 62
7
  6
CONTINUOUS
 70
0
 71
3
 72
21
 73
17
 74
0
 42
0.0000001
 43
0.0000001
 44
0.0000000001
 40
0.0
 40
0.0
 40
0.0
 40
0.0
 40
0.1405238777
 40
0.2101406357
 40
0.2789543012
 40
0.4131355789
 40
0.4782490386
 40
0.5418291596
 40
0.6038065835
 40
0.6641709965
 40
0.7229757012
 40
0.7803403617
 40
0.8364510902
 40
0.8915567546
 40
0.9459593685
 40
1.0
 40
1.0
 40
1.0
 40
1.0
 10
20.1838070056
 20
5.4670841433
 30
0.0
 10
20.1538075479
 20
5.4670841433
 30
0.0
 10
20.1088471811
 20
5.4637208525
 30
0.0
 10
20.0503138054
 20
5.4525087196
 30
0.0
 10
19.9941338751
 20
5.4371456883
 30
0.0
 10
19.9408099776
 20
5.4155001009
 30
0.0
 10
19.8919367169
 20
5.3877974327
 30
0.0
 10
19.8584239642
 20
5.3645873115
 30
0.0
 10
19.8280303861
 20
5.3389643893
 30
0.0
 10
19.8010463116
 20
5.3111684654
 30
0.0
 10
19.7777360079
 20
5.281462158
 30
0.0
 10
19.7583300073
 20
5.2501264208
 30
0.0
 10
19.7430242811
 20
5.2174608282
 30
0.0
 10
19.7319751922
 20
5.1837791808
 30
0.0
 10
19.7252979912
 20
5.1494183254
 30
0.0
 10
19.7238070056
 20
5.1262404551
 30
0.0
 10
19.7238070056
 20
5.1147036995
 30
0.0
  0
SPLINE
  5
325
100
AcDbEntity
  8
0
100
AcDbSpline
 62
9
  6
CONTINUOUS
 70
0
 71
3
 72
37
 73
33
 74
0
 42
0.0000001
 43
0.0000001
 44
0.0000000001
 40
0.0
 40
0.0
 40
0.0
 40
0.0
 40
0.0702536072
 40
0.105058047
 40
0.139460892
 40
0.173342635
 40
0.2066014466
 40
0.2391544377
 40
0.2709408305
 40
0.3019260106
 40
0.3321047644
 40
0.3615037302
 40
0.390182768
 40
0.4182349361
 40
0.4457845995
 40
0.4729827697
 40
0.5
 40
0.5270172303
 40
0.5542154005
 40
0.5817650638
 40
0.609817232
 40
0.6384962698
 40
0.6678952356
 40
0.6980739893
 40
0.7290591694
 40
0.7608455623
 40
0.7933985534
 40
0.8266573649
 40
0.860539108
 40
0.8949419529
 40
0.9297463928
 40
1.0
 40
1.0
 40
1.0
 40
1.0
 10
20.1838070056
 20
5.4529958228
 30
0.0
 10
20.1544598107
 20
5.4529958228
 30
0.0
 10
20.1104750977
 20
5.4497049785
 30
0.0
 10
20.0532190702
 20
5.4387384102
 30
0.0
 10
20.0116345577
 20
5.4273653881
 30
0.0
 10
19.9717006683
 20
5.4129275087
 30
0.0
 10
19.9337944579
 20
5.3955616693
 30
0.0
 10
19.8982800893
 20
5.3754319793
 30
0.0
 10
19.8654980787
 20
5.3527274883
 30
0.0
 10
19.8357646319
 20
5.327661306
 30
0.0
 10
19.8093672886
 20
5.3004697108
 30
0.0
 10
19.7865636803
 20
5.2714091412
 30
0.0
 10
19.7675795379
 20
5.2407547057
 30
0.0
 10
19.752606534
 20
5.2087988748
 30
0.0
 10
19.7417976243
 20
5.1758506654
 30
0.0
 10
19.7352655856
 20
5.1422322405
 30
0.0
 10
19.7330801495
 20
5.1082758234
 30
0.0
 10
19.7352655856
 20
5.0743194062
 30
0.0
 10
19.7417976243
 20
5.0407009814
 30
0.0
 10
19.7526065339
 20
5.0077527719
 30
0.0
 10
19.7675795379
 20
4.9757969411
 30
0.0
 10
19.7865636803
 20
4.9451425056
 30
0.0
 10
19.8093672886
 20
4.9160819359
 30
0.0
 10
19.8357646319
 20
4.8888903407
 30
0.0
 10
19.8654980787
 20
4.8638241585
 30
0.0
 10
19.8982800892
 20
4.8411196675
 30
0.0
 10
19.9337944579
 20
4.8209899774
 30
0.0
 10
19.9717006683
 20
4.8036241381
 30
0.0
 10
20.0116345577
 20
4.7891862586
 30
0.0
 10
20.0532190702
 20
4.7778132365
 30
0.0
 10
20.1104750977
 20
4.7668466682
 30
0.0
 10
20.1544598107
 20
4.763555824
 30
0.0
 10
20.1838070056
 20
4.763555824
 30
0.0
  0
SPLINE
  5
326
100
AcDbEntity
  8
0
100
AcDbSpline
 62
9
  6
CONTINUOUS
 70
0
 71
3
 72
37
 73
33
 74
0
 42
0.0000001
 43
0.0000001
 44
0.0000000001
 40
0.0
 40
0.0
 40
0.0
 40
0.0
 40
0.0702536072
 40
0.105058047
 40
0.139460892
 40
0.173342635
 40
0.2066014466
 40
0.2391544377
 40
0.2709408305
 40
0.3019260106
 40
0.3321047644
 40
0.3615037302
 40
0.390182768
 40
0.4182349361
 40
0.4457845995
 40
0.4729827697
 40
0.5
 40
0.5270172303
 40
0.5542154005
 40
0.5817650638
 40
0.609817232
 40
0.6384962698
 40
0.6678952356
 40
0.6980739893
 40
0.7290591694
 40
0.7608455623
 40
0.7933985534
 40
0.8266573649
 40
0.860539108
 40
0.8949419529
 40
0.9297463928
 40
1.0
 40
1.0
 40
1.0
 40
1.0
 10
20.1838070056
 20
4.763555824
 30
0.0
 10
20.2131542005
 20
4.763555824
 30
0.0
 10
20.2571389135
 20
4.7668466682
 30
0.0
 10
20.314394941
 20
4.7778132365
 30
0.0
 10
20.3559794535
 20
4.7891862586
 30
0.0
 10
20.3959133429
 20
4.8036241381
 30
0.0
 10
20.4338195533
 20
4.8209899774
 30
0.0
 10
20.4693339219
 20
4.8411196675
 30
0.0
 10
20.5021159324
 20
4.8638241584
 30
0.0
 10
20.5318493793
 20
4.8888903407
 30
0.0
 10
20.5582467226
 20
4.9160819359
 30
0.0
 10
20.5810503309
 20
4.9451425056
 30
0.0
 10
20.6000344733
 20
4.975796941
 30
0.0
 10
20.6150074772
 20
5.0077527719
 30
0.0
 10
20.6258163868
 20
5.0407009814
 30
0.0
 10
20.6323484256
 20
5.0743194062
 30
0.0
 10
20.6345338617
 20
5.1082758234
 30
0.0
 10
20.6323484256
 20
5.1422322405
 30
0.0
 10
20.6258163868
 20
5.1758506654
 30
0.0
 10
20.6150074772
 20
5.2087988748
 30
0.0
 10
20.6000344733
 20
5.2407547057
 30
0.0
 10
20.5810503309
 20
5.2714091412
 30
0.0
 10
20.5582467226
 20
5.3004697108
 30
0.0
 10
20.5318493793
 20
5.327661306
 30
0.0
 10
20.5021159325
 20
5.3527274883
 30
0.0
 10
20.4693339219
 20
5.3754319793
 30
0.0
 10
20.4338195533
 20
5.3955616693
 30
0.0
 10
20.3959133429
 20
5.4129275087
 30
0.0
 10
20.3559794535
 20
5.4273653881
 30
0.0
 10
20.314394941
 20
5.4387384102
 30
0.0
 10
20.2571389135
 20
5.4497049785
 30
0.0
 10
20.2131542005
 20
5.4529958228
 30
0.0
 10
20.1838070056
 20
5.4529958228
 30
0.0
  0
LINE
  5
327
100
AcDbEntity
  8
0
100
AcDbLine
 62
9
  6
CONTINUOUS
 10
3.4346067498
 20
11.3973318604
 11
3.5656380674
 21
11.4021493787
  0
LINE
  5
328
100
AcDbEntity
  8
0
100
AcDbLine
 62
9
  6
CONTINUOUS
 10
3.5656380674
 20
10.9525143422
 11
3.4346067498
 21
10.9573318604
  0
LINE
  5
329
100
AcDbEntity
  8
0
100
AcDbLine
 62
9
  6
CONTINUOUS
 10
1.9638070056
 20
12.4281316046
 11
1.9589894873
 21
12.5591629223
  0
LINE
  5
32A
100
AcDbEntity
  8
0
100
AcDbLine
 62
9
  6
CONTINUOUS
 10
2.4086245238
 20
12.5591629223
 11
2.4038070056
 21
12.4281316046
  0
LINE
  5
32B
100
AcDbEntity
  8
0
100
AcDbLine
 62
9
  6
CONTINUOUS
 10
0.8019759437
 20
11.4021493787
 11
0.9330072614
 21
11.3973318604
  0
LINE
  5
32C
100
AcDbEntity
  8
0
100
AcDbLine
 62
9
  6
CONTINUOUS
 10
0.8019759437
 20
10.9525143422
 11
0.9330072614
 21
10.9573318604
  0
LINE
  5
32D
100
AcDbEntity
  8
0
100
AcDbLine
 62
9
  6
CONTINUOUS
 10
2.4038070056
 20
9.9265321162
 11
2.4086245238
 21
9.7955007986
  0
LINE
  5
32E
100
AcDbEntity
  8
0
100
AcDbLine
 62
9
  6
CONTINUOUS
 10
1.9638070056
 20
9.9265321162
 11
1.9589894873
 21
9.7955007986
  0
LINE
  5
32F
100
AcDbEntity
  8
0
100
AcDbLine
 62
9
  6
CONTINUOUS
 10
16.4346067498
 20
11.3973318604
 11
16.5656380674
 21
11.4021493787
  0
LINE
  5
330
100
AcDbEntity
  8
0
100
AcDbLine
 62
9
  6
CONTINUOUS
 10
16.5656380674
 20
10.9525143422
 11
16.4346067498
 21
10.9573318604
  0
SPLINE
  5
331
100
AcDbEntity
  8
0
100
AcDbSpline
 62
9
  6
CONTINUOUS
 70
0
 71
3
 72
37
 73
33
 74
0
 42
0.0000001
 43
0.0000001
 44
0.0000000001
 40
0.0
 40
0.0
 40
0.0
 40
0.0
 40
0.0270156913
 40
0.0542164824
 40
0.0817651799
 40
0.1098177487
 40
0.1384968548
 40
0.1678959559
 40
0.1980748957
 40
0.2290601925
 40
0.2608466613
 40
0.2933997915
 40
0.3266588782
 40
0.3605407089
 40
0.429697078
 40
0.4647787781
 40
0.5
 40
0.5352212219
 40
0.570302922
 40
0.6394592911
 40
0.6733411218
 40
0.7066002085
 40
0.7391533387
 40
0.7709398075
 40
0.8019251043
 40
0.8321040441
 40
0.8615031452
 40
0.8901822513
 40
0.9182348201
 40
0.9457835176
 40
0.9729843087
 40
1.0
 40
1.0
 40
1.0
 40
1.0
 10
20.6713070056
 20
11.0252607484
 30
0.0
 10
20.6713070056
 20
11.0374864575
 30
0.0
 10
20.669726342
 20
11.0620502521
 30
0.0
 10
20.6626514652
 20
11.0984655046
 30
0.0
 10
20.6509402749
 20
11.1341610563
 30
0.0
 10
20.6347202156
 20
11.1687793085
 30
0.0
 10
20.6141541666
 20
11.2019885864
 30
0.0
 10
20.5894502202
 20
11.2334707901
 30
0.0
 10
20.5608529152
 20
11.2629282036
 30
0.0
 10
20.5286416642
 20
11.2900830723
 30
0.0
 10
20.4931280157
 20
11.3146800536
 30
0.0
 10
20.454654749
 20
11.3364871123
 30
0.0
 10
20.4135871175
 20
11.3553004608
 30
0.0
 10
20.3555312477
 20
11.3762905425
 30
0.0
 10
20.2943266229
 20
11.3903969348
 30
0.0
 10
20.2315749837
 20
11.397511454
 30
0.0
 10
20.1838070056
 20
11.399306216
 30
0.0
 10
20.1360390275
 20
11.397511454
 30
0.0
 10
20.0732873883
 20
11.3903969348
 30
0.0
 10
20.0120827635
 20
11.3762905425
 30
0.0
 10
19.9540268936
 20
11.3553004608
 30
0.0
 10
19.9129592622
 20
11.3364871123
 30
0.0
 10
19.8744859954
 20
11.3146800536
 30
0.0
 10
19.838972347
 20
11.2900830723
 30
0.0
 10
19.806761096
 20
11.2629282036
 30
0.0
 10
19.778163791
 20
11.2334707901
 30
0.0
 10
19.7534598445
 20
11.2019885864
 30
0.0
 10
19.7328937956
 20
11.1687793085
 30
0.0
 10
19.7166737363
 20
11.1341610563
 30
0.0
 10
19.704962546
 20
11.0984655046
 30
0.0
 10
19.6978876692
 20
11.0620502521
 30
0.0
 10
19.6963070056
 20
11.0374864575
 30
0.0
 10
19.6963070056
 20
11.0252607484
 30
0.0
  0
SPLINE
  5
332
100
AcDbEntity
  8
0
100
AcDbSpline
 62
7
  6
CONTINUOUS
 70
0
 71
3
 72
37
 73
33
 74
0
 42
0.0000001
 43
0.0000001
 44
0.0000000001
 40
0.0
 40
0.0
 40
0.0
 40
0.0
 40
0.0269518175
 40
0.0542418354
 40
0.0819995336
 40
0.1103282648
 40
0.1247376509
 40
0.1393179653
 40
0.1690048301
 40
0.1994263866
 40
0.2305857699
 40
0.2624622582
 40
0.2950137974
 40
0.3618339955
 40
0.3959818689
 40
0.4304734703
 40
0.4999998295
 40
0.5695261987
 40
0.6040178124
 40
0.6381657026
 40
0.7049859463
 40
0.737537513
 40
0.769414031
 40
0.8005734454
 40
0.8309950333
 40
0.8606819288
 40
0.875262258
 40
0.8896716584
 40
0.9180004157
 40
0.945758136
 40
0.9730481713
 40
1.0
 40
1.0
 40
1.0
 40
1.0
 10
20.667916528
 20
10.9373309997
 30
0.0
 10
20.6661727681
 20
10.948601181
 30
0.0
 10
20.6613174664
 20
10.9710963972
 30
0.0
 10
20.6501201624
 20
11.0040121153
 30
0.0
 10
20.6350742463
 20
11.0360005304
 30
0.0
 10
20.6195188328
 20
11.0615222098
 30
0.0
 10
20.6053391534
 20
11.0812094292
 30
0.0
 10
20.5898281202
 20
11.1006080457
 30
0.0
 10
20.5682822997
 20
11.1238010824
 30
0.0
 10
20.5394307706
 20
11.1495504252
 30
0.0
 10
20.5076618692
 20
11.1731829383
 30
0.0
 10
20.4732365615
 20
11.1945077239
 30
0.0
 10
20.4237640909
 20
11.2198451824
 30
0.0
 10
20.3705544702
 20
11.2395899141
 30
0.0
 10
20.3149330736
 20
11.2535796395
 30
0.0
 10
20.2573166066
 20
11.2637576511
 30
0.0
 10
20.1838079439
 20
11.2688513625
 30
0.0
 10
20.1102992612
 20
11.2637578671
 30
0.0
 10
20.0526827472
 20
11.253580026
 30
0.0
 10
19.997061277
 20
11.2395904638
 30
0.0
 10
19.9438515582
 20
11.2198458886
 30
0.0
 10
19.8943789634
 20
11.1945085776
 30
0.0
 10
19.8599535488
 20
11.1731838938
 30
0.0
 10
19.8281845291
 20
11.1495514748
 30
0.0
 10
19.799332871
 20
11.1238022176
 30
0.0
 10
19.777786934
 20
11.1006092449
 30
0.0
 10
19.7622758032
 20
11.081210674
 30
0.0
 10
19.748096025
 20
11.0615234971
 30
0.0
 10
19.7325404837
 20
11.0360018648
 30
0.0
 10
19.7174944067
 20
11.0040134949
 30
0.0
 10
19.7062969369
 20
10.9710978106
 30
0.0
 10
19.7014415213
 20
10.9486026068
 30
0.0
 10
19.6996977044
 20
10.9373324295
 30
0.0
  0
LINE
  5
333
100
AcDbEntity
  8
0
100
AcDbLine
 62
9
  6
CONTINUOUS
 10
14.9638070056
 20
12.4281316046
 11
14.9589894873
 21
12.5591629223
  0
LINE
  5
334
100
AcDbEntity
  8
0
100
AcDbLine
 62
9
  6
CONTINUOUS
 10
15.4086245238
 20
12.5591629223
 11
15.4038070056
 21
12.4281316046
  0
SPLINE
  5
335
100
AcDbEntity
  8
0
100
AcDbSpline
 62
9
  6
CONTINUOUS
 70
0
 71
3
 72
37
 73
33
 74
0
 42
0.0000001
 43
0.0000001
 44
0.0000000001
 40
0.0
 40
0.0
 40
0.0
 40
0.0
 40
0.0270156913
 40
0.0542164826
 40
0.0817651802
 40
0.1098177491
 40
0.1384968554
 40
0.1678959566
 40
0.1980748962
 40
0.2290601929
 40
0.2608466617
 40
0.2933997919
 40
0.3266588785
 40
0.3605407092
 40
0.4296970781
 40
0.4647787781
 40
0.5
 40
0.5352212219
 40
0.5703029219
 40
0.6394592908
 40
0.6733411215
 40
0.7066002081
 40
0.7391533383
 40
0.7709398071
 40
0.8019251038
 40
0.8321040434
 40
0.8615031446
 40
0.8901822509
 40
0.9182348198
 40
0.9457835174
 40
0.9729843087
 40
1.0
 40
1.0
 40
1.0
 40
1.0
 10
19.6938070056
 20
10.8805085583
 30
0.0
 10
19.6938070056
 20
10.8927969634
 30
0.0
 10
19.6953957752
 20
10.9174867262
 30
0.0
 10
19.7025069334
 20
10.9540887237
 30
0.0
 10
19.7142781812
 20
10.9899673297
 30
0.0
 10
19.7305814204
 20
11.0247631115
 30
0.0
 10
19.7512529365
 20
11.0581426935
 30
0.0
 10
19.7760835699
 20
11.0897863444
 30
0.0
 10
19.8048275277
 20
11.1193948215
 30
0.0
 10
19.8372039646
 20
11.1466889458
 30
0.0
 10
19.8728997343
 20
11.1714120653
 30
0.0
 10
19.9115702998
 20
11.193330955
 30
0.0
 10
19.9528485345
 20
11.2122407822
 30
0.0
 10
20.0112021266
 20
11.2333385053
 30
0.0
 10
20.0727206213
 20
11.247517238
 30
0.0
 10
20.1357940636
 20
11.2546682419
 30
0.0
 10
20.1838070056
 20
11.2564722078
 30
0.0
 10
20.2318199476
 20
11.2546682419
 30
0.0
 10
20.2948933899
 20
11.247517238
 30
0.0
 10
20.3564118846
 20
11.2333385053
 30
0.0
 10
20.4147654767
 20
11.2122407822
 30
0.0
 10
20.4560437114
 20
11.193330955
 30
0.0
 10
20.4947142769
 20
11.1714120653
 30
0.0
 10
20.5304100465
 20
11.1466889458
 30
0.0
 10
20.5627864834
 20
11.1193948215
 30
0.0
 10
20.5915304413
 20
11.0897863444
 30
0.0
 10
20.6163610747
 20
11.0581426935
 30
0.0
 10
20.6370325908
 20
11.0247631115
 30
0.0
 10
20.65333583
 20
10.9899673297
 30
0.0
 10
20.6651070777
 20
10.9540887237
 30
0.0
 10
20.672218236
 20
10.9174867262
 30
0.0
 10
20.6738070056
 20
10.8927969634
 30
0.0
 10
20.6738070056
 20
10.8805085583
 30
0.0
  0
LINE
  5
336
100
AcDbEntity
  8
0
100
AcDbLine
 62
9
  6
CONTINUOUS
 10
13.8019759437
 20
11.4021493787
 11
13.9330072614
 21
11.3973318604
  0
LINE
  5
337
100
AcDbEntity
  8
0
100
AcDbLine
 62
9
  6
CONTINUOUS
 10
13.8019759437
 20
10.9525143422
 11
13.9330072614
 21
10.9573318604
  0
LINE
  5
338
100
AcDbEntity
  8
0
100
AcDbLine
 62
9
  6
CONTINUOUS
 10
19.7443115782
 20
10.7572293321
 11
19.7447315715
 21
10.7578803546
  0
SPLINE
  5
339
100
AcDbEntity
  8
0
100
AcDbSpline
 62
9
  6
CONTINUOUS
 70
0
 71
3
 72
25
 73
21
 74
0
 42
0.0000001
 43
0.0000001
 44
0.0000000001
 40
0.0
 40
0.0
 40
0.0
 40
0.0
 40
0.0277401917
 40
0.0559860104
 40
0.1140448271
 40
0.1742788466
 40
0.2365880259
 40
0.3661347712
 40
0.3993723398
 40
0.4328068875
 40
0.4999848313
 40
0.5671634333
 40
0.6005987939
 40
0.6338374866
 40
0.7633914953
 40
0.8257055385
 40
0.8859448562
 40
0.9440090234
 40
0.9722574097
 40
1.0
 40
1.0
 40
1.0
 40
1.0
 10
19.7447315715
 20
10.7578803546
 30
0.0
 10
19.749807344
 20
10.7657290759
 30
0.0
 10
19.7606920304
 20
10.7811652788
 30
0.0
 10
19.7852017036
 20
10.8108000455
 30
0.0
 10
19.8208565205
 20
10.8452234759
 30
0.0
 10
19.8701558107
 20
10.8812034081
 30
0.0
 10
19.944730968
 20
10.9222299057
 30
0.0
 10
20.0174738137
 20
10.9464751179
 30
0.0
 10
20.0824322501
 20
10.9588020036
 30
0.0
 10
20.127154523
 20
10.9648090817
 30
0.0
 10
20.183723295
 20
10.9678173673
 30
0.0
 10
20.2402931216
 20
10.9648238598
 30
0.0
 10
20.2850178464
 20
10.9588285083
 30
0.0
 10
20.3499826396
 20
10.9465184694
 30
0.0
 10
20.4227362921
 20
10.922292007
 30
0.0
 10
20.4973290168
 20
10.881285382
 30
0.0
 10
20.5466442008
 20
10.8453184439
 30
0.0
 10
20.5823142588
 20
10.8109044686
 30
0.0
 10
20.6068371538
 20
10.78127614
 30
0.0
 10
20.6177287468
 20
10.7658427689
 30
0.0
 10
20.6228080343
 20
10.7579953591
 30
0.0
  0
LINE
  5
33A
100
AcDbEntity
  8
0
100
AcDbLine
 62
9
  6
CONTINUOUS
 10
20.6228080343
 20
10.7579953591
 11
20.6231603995
 21
10.7574498501
  0
LINE
  5
33B
100
AcDbEntity
  8
0
100
AcDbLine
 62
9
  6
CONTINUOUS
 10
15.4038070056
 20
9.9265321162
 11
15.4086245238
 21
9.7955007986
  0
LINE
  5
33C
100
AcDbEntity
  8
0
100
AcDbLine
 62
9
  6
CONTINUOUS
 10
14.9638070056
 20
9.9265321162
 11
14.9589894873
 21
9.7955007986
  0
ENDSEC
  0
SECTION
  2
OBJECTS
  0
DICTIONARY
  5
C
100
AcDbDictionary
280
0
281
1
  3
ACAD_GROUP
350
D
  3
ACAD_MLINESTYLE
350
17
  3
ACAD_LAYOUT
350
1A
  3
ACAD_PLOTSETTINGS
350
19
  3
ACAD_PLOTSTYLENAME
350
E
  0
DICTIONARY
  5
D
102
{ACAD_REACTORS
330
C
102
}
100
AcDbDictionary
280
0
281
1
  0
ACDBDICTIONARYWDFLT
  5
E
102
{ACAD_REACTORS
330
C
102
}
100
AcDbDictionary
281
1
  3
Normal
350
F
100
AcDbDictionaryWithDefault
340
F
  0
DICTIONARY
  5
17
102
{ACAD_REACTORS
330
C
102
}
100
AcDbDictionary
280
0
281
1
  3
Standard
350
18
  0
DICTIONARY
  5
19
102
{ACAD_REACTORS
330
C
102
}
100
AcDbDictionary
281
1
  0
DICTIONARY
  5
1A
102
{ACAD_REACTORS
330
C
102
}
100
AcDbDictionary
281
1
  3
Model
350
33D
  3
Layout1
350
33E
  0
ACDBPLACEHOLDER
  5
F
102
{ACAD_REACTORS
330
E
102
}
  0
MLINESTYLE
  5
18
102
{ACAD_REACTORS
330
17
102
}
100
AcDbMlineStyle
  2
STANDARD
 70
0
  3

 62
256
 51
90.0
 52
90.0
 71
2
 49
0.5
 62
256
  6
BYLAYER
 49
-0.5
 62
256
  6
BYLAYER
  0
LAYOUT
  5
33D
102
{ACAD_REACTORS
330
1A
102
}
100
AcDbPlotSettings
  1

  2
none_device
  4
ANSI_C_(22.00_x_17.00_Inches)
  6

 40
0.0
 41
0.0
 42
0.0
 43
0.0
 44
558.8
 45
431.8
 46
0.0
 47
0.0
 48
0.0
 49
0.0
140
0.0
141
0.0
142
1.0
143
1.0
 70
1024
 72
0
 73
0
 74
0
  7

 75
0
147
1.0
148
0.0
149
0.0
100
AcDbLayout
  1
Model
 70
0
 71
0
 10
0.0
 20
0.0
 11
22.0
 21
17.0
 12
0.0
 22
0.0
 32
0.0
 14
0.0
 24
0.0
 34
0.0
 15
0.0
 25
0.0
 35
0.0
146
0.0
 13
0.0
 23
0.0
 33
0.0
 16
1.0
 26
0.0
 36
0.0
 17
0.0
 27
1.0
 37
0.0
 76
0
330
205
345
0
346
0
  0
LAYOUT
  5
33E
102
{ACAD_REACTORS
330
1A
102
}
100
AcDbPlotSettings
  1

  2
none_device
  4
ANSI_C_(22.00_x_17.00_Inches)
  6

 40
0.0
 41
0.0
 42
0.0
 43
0.0
 44
558.8
 45
431.8
 46
0.0
 47
0.0
 48
0.0
 49
0.0
140
0.0
141
0.0
142
1.0
143
1.0
 70
0
 72
0
 73
0
 74
0
  7

 75
0
147
1.0
148
0.0
149
0.0
100
AcDbLayout
  1
Layout1
 70
0
 71
1
 10
0.0
 20
0.0
 11
22.0
 21
17.0
 12
0.0
 22
0.0
 32
0.0
 14
0.0
 24
0.0
 34
0.0
 15
0.0
 25
0.0
 35
0.0
146
0.0
 13
0.0
 23
0.0
 33
0.0
 16
1.0
 26
0.0
 36
0.0
 17
0.0
 27
1.0
 37
0.0
 76
0
330
206
345
0
346
0
  0
ENDSEC
  0
EOF
